0
SECTION
2
HEADER
9
$MEASUREMENT
70
1
0
ENDSEC
0
SECTION
2
TABLES
0
TABLE
2
LTYPE
0
LTYPE
72
65
70
64
2
CONTINUOUS
3
______
73
0
40
0
0
ENDTAB
0
TABLE
2
LAYER
0
LAYER
2
DEFAULT_255_2_778
70
0
62
255
6
CONTINUOUS
0
ENDTAB
0
ENDSEC
0
SECTION
2
ENTITIES
0
ARC
8
DEFAULT_255_2_778
10
5.455669
20
-0.1284816
40
2.6813237
50
160.9028922
51
180.0808817
0
ARC
8
DEFAULT_255_2_778
10
5.4005548
20
-0.1063428
40
2.622001
50
102.5076574
51
160.9660157
0
ARC
8
DEFAULT_255_2_778
10
5.3907035
20
-0.1067156
40
2.6202495
50
89.9618545
51
102.2955913
0
ARC
8
DEFAULT_255_2_778
10
5.3959423
20
-0.08834
40
2.6018756
50
69.7997931
51
90.076947
0
ARC
8
DEFAULT_255_2_778
10
5.3772106
20
-0.1122446
40
2.6307944
50
14.3638029
51
69.5967009
0
ARC
8
DEFAULT_255_2_778
10
5.3162131
20
-0.1297797
40
2.694236
50
359.94711
51
14.4032474
0
ARC
8
DEFAULT_255_2_778
10
5.3290063
20
-0.1360459
40
2.6814443
50
340.9033915
51
0.080752
0
ARC
8
DEFAULT_255_2_778
10
5.3841435
20
-0.1582389
40
2.6220822
50
282.5109115
51
340.9674786
0
ARC
8
DEFAULT_255_2_778
10
5.3941902
20
-0.1584241
40
2.6197433
50
269.9618966
51
282.2972776
0
ARC
8
DEFAULT_255_2_778
10
5.3889515
20
-0.1762017
40
2.6019674
50
249.7993639
51
270.0769943
0
ARC
8
DEFAULT_255_2_778
10
5.4077021
20
-0.1522769
40
2.6309119
50
194.3635694
51
249.5960479
0
ARC
8
DEFAULT_255_2_778
10
5.4686496
20
-0.1347498
40
2.6943028
50
179.947196
51
194.403118
0
LINE
8
DEFAULT_255_2_778
10
2.774348
20
-0.1322667
11
2.774348
21
-0.1322667
0
ARC
8
DEFAULT_255_2_778
10
5.4654399
20
-0.1618436
40
2.6063736
50
318.1544412
51
335.0569452
0
ARC
8
DEFAULT_255_2_778
10
5.440014
20
-0.1223446
40
2.6516945
50
269.8163293
51
317.8851622
0
ARC
8
DEFAULT_255_2_778
10
5.4316354
20
-0.0649467
40
2.7090788
50
262.9604852
51
269.9974234
0
ARC
8
DEFAULT_255_2_778
10
5.4321023
20
-0.0598861
40
2.7141585
50
262.4919056
51
262.9637957
0
ARC
8
DEFAULT_255_2_778
10
5.4350001
20
-0.0409706
40
2.7332905
50
253.9410639
51
262.4834927
0
ARC
8
DEFAULT_255_2_778
10
5.4491105
20
0.007607
40
2.7838759
50
246.5871753
51
253.938555
0
ARC
8
DEFAULT_255_2_778
10
5.4503455
20
0.01251
40
2.788866
50
246.3637736
51
246.6039161
0
ARC
8
DEFAULT_255_2_778
10
5.3408854
20
-0.2301086
40
2.7566296
50
47.822783
51
63.6920812
0
ARC
8
DEFAULT_255_2_778
10
5.3796803
20
-0.1863977
40
2.6981889
50
23.2810525
51
47.8100672
0
ARC
8
DEFAULT_255_2_778
10
5.4346006
20
-0.1643202
40
2.6390147
50
0.0640721
51
23.3120324
0
ARC
8
DEFAULT_255_2_778
10
5.483084
20
-0.1614723
40
2.5905297
50
354.5338123
51
0.0022837
0
ARC
8
DEFAULT_255_2_778
10
5.4873309
20
-0.1617174
40
2.5862787
50
344.2075056
51
354.5302539
0
ARC
8
DEFAULT_255_2_778
10
5.4519114
20
-0.1513187
40
2.6231913
50
335.8459853
51
344.1994983
0
ARC
8
DEFAULT_255_2_778
10
5.4162262
20
-0.1362395
40
2.6619226
50
334.9981054
51
335.8641321
0
LINE
8
DEFAULT_255_2_778
10
4.3322101
20
-2.5423964
11
6.5626101
21
2.2410036
0
LINE
8
DEFAULT_255_2_778
10
7.8287101
20
-1.2612964
11
7.8287101
21
-1.2609964
0
ENDSEC
0
EOF