0
SECTION
2
HEADER
9
$MEASUREMENT
70
1
0
ENDSEC
0
SECTION
2
TABLES
0
TABLE
2
LTYPE
0
LTYPE
72
65
70
64
2
CONTINUOUS
3
______
73
0
40
0
0
ENDTAB
0
TABLE
2
LAYER
0
LAYER
2
DEFAULT_255_2_778
70
0
62
255
6
CONTINUOUS
0
ENDTAB
0
ENDSEC
0
SECTION
2
ENTITIES
0
LINE
8
DEFAULT_255_2_778
10
2.7781335
20
2.5136333
11
13.3614335
21
2.5136333
0
LINE
8
DEFAULT_255_2_778
10
13.3614335
20
2.5136333
11
13.3614335
21
-2.7780667
0
LINE
8
DEFAULT_255_2_778
10
13.3614335
20
-2.7780667
11
2.7781335
21
-2.7780667
0
LINE
8
DEFAULT_255_2_778
10
2.7781335
20
-2.7780667
11
2.7781335
21
2.5136333
0
LINE
8
DEFAULT_255_2_778
10
5.4239667
20
2.5136333
11
5.4239667
21
-2.7780667
0
LINE
8
DEFAULT_255_2_778
10
8.0697667
20
2.5136333
11
8.0697667
21
-2.7780667
0
LINE
8
DEFAULT_255_2_778
10
10.7156667
20
2.5136333
11
10.7156667
21
-2.7780667
0
ARC
8
DEFAULT_255_2_778
10
8.1251987
20
2.5241013
40
5.3470862
50
180.0000063
51
180.1130049
0
ARC
8
DEFAULT_255_2_778
10
8.0592975
20
2.5241063
40
5.2811852
50
135.000198
51
180.0000614
0
ARC
8
DEFAULT_255_2_778
10
8.0592717
20
2.5240805
40
5.281185
50
89.9999386
51
134.999802
0
ARC
8
DEFAULT_255_2_778
10
8.0592767
20
2.4581793
40
5.3470864
50
89.8869951
51
89.9999937
0
ARC
8
DEFAULT_255_2_778
10
8.0803689
20
2.4581793
40
5.3470862
50
90.0000063
51
90.1130049
0
ARC
8
DEFAULT_255_2_778
10
8.080374
20
2.5240805
40
5.2811852
50
45.000198
51
90.0000614
0
ARC
8
DEFAULT_255_2_778
10
8.0807618
20
2.5244176
40
5.2806725
50
0.0006243
51
45.0005869
0
ARC
8
DEFAULT_255_2_778
10
8.0374599
20
2.5244757
40
5.3239742
50
359.8824747
51
359.9999936
0
LINE
8
DEFAULT_255_2_778
10
2.7781228
20
-0.1322448
11
13.3614228
21
-0.1322448
0
LINE
8
DEFAULT_255_2_778
10
13.3614228
20
2.5135552
11
2.7781228
21
2.5135552
0
LINE
8
DEFAULT_255_2_778
10
13.3614228
20
2.5135552
11
13.3614228
21
2.5135552
0
ENDSEC
0
EOF