0
SECTION
2
HEADER
9
$MEASUREMENT
70
1
0
ENDSEC
0
SECTION
2
TABLES
0
TABLE
2
LTYPE
0
LTYPE
72
65
70
64
2
CONTINUOUS
3
______
73
0
40
0
0
ENDTAB
0
TABLE
2
LAYER
0
LAYER
2
DEFAULT_255_2_778
70
0
62
255
6
CONTINUOUS
0
ENDTAB
0
ENDSEC
0
SECTION
2
ENTITIES
0
LINE
8
DEFAULT_255_2_778
10
2.7781335
20
2.5135333
11
13.3614335
21
2.5135333
0
LINE
8
DEFAULT_255_2_778
10
13.3614335
20
2.5135333
11
13.3614335
21
-2.7781667
0
LINE
8
DEFAULT_255_2_778
10
13.3614335
20
-2.7781667
11
2.7781335
21
-2.7781667
0
LINE
8
DEFAULT_255_2_778
10
2.7781335
20
-2.7781667
11
2.7781335
21
2.5135333
0
LINE
8
DEFAULT_255_2_778
10
6.7468667
20
1.7197833
11
9.3926667
21
1.7197833
0
LINE
8
DEFAULT_255_2_778
10
9.3926667
20
1.7197833
11
10.7156667
21
-0.1323167
0
LINE
8
DEFAULT_255_2_778
10
10.7156667
20
-0.1323167
11
9.3926667
21
-1.9844167
0
LINE
8
DEFAULT_255_2_778
10
9.3926667
20
-1.9844167
11
6.7468667
21
-1.9844167
0
LINE
8
DEFAULT_255_2_778
10
6.7468667
20
-1.9844167
11
5.4239667
21
-0.1323167
0
LINE
8
DEFAULT_255_2_778
10
5.4239667
20
-0.1323167
11
6.7468667
21
1.7197833
0
ENDSEC
0
EOF