0
SECTION
2
HEADER
9
$MEASUREMENT
70
1
0
ENDSEC
0
SECTION
2
TABLES
0
TABLE
2
LTYPE
0
LTYPE
72
65
70
64
2
CONTINUOUS
3
______
73
0
40
0
0
ENDTAB
0
TABLE
2
LAYER
0
LAYER
2
DEFAULT_255_2_778
70
0
62
255
6
CONTINUOUS
0
LAYER
2
DEFAULT_255_1_234
70
0
62
255
6
CONTINUOUS
0
ENDTAB
0
ENDSEC
0
SECTION
2
ENTITIES
0
ARC
8
DEFAULT_255_2_778
10
3.5695693
20
75.805203
40
0.7914215
50
129.1312896
51
180.1450914
0
ARC
8
DEFAULT_255_2_778
10
3.5698345
20
75.8056901
40
0.7912112
50
89.854026
51
129.1684493
0
ARC
8
DEFAULT_255_2_778
10
25.7988937
20
75.8053767
40
0.7915249
50
39.4792447
51
90.147911
0
ARC
8
DEFAULT_255_2_778
10
25.7994935
20
75.8052233
40
0.7911595
50
359.8533901
51
39.5154338
0
ARC
8
DEFAULT_255_2_778
10
25.7991693
20
-1.9863492
40
0.7914836
50
309.4761667
51
0.1482649
0
ARC
8
DEFAULT_255_2_778
10
25.798898
20
-1.9867803
40
0.7913235
50
269.8517415
51
309.511178
0
ARC
8
DEFAULT_255_2_778
10
3.569842
20
-1.9867221
40
0.7913815
50
219.1282118
51
270.1454017
0
ARC
8
DEFAULT_255_2_778
10
3.5695247
20
-1.9863397
40
0.7913769
50
179.8524075
51
219.1641908
0
LINE
8
DEFAULT_255_2_778
10
3.5718503
20
76.5968989
11
25.7968503
21
76.5968989
0
LINE
8
DEFAULT_255_2_778
10
26.5906503
20
75.8031989
11
26.5906503
21
-1.9843011
0
LINE
8
DEFAULT_255_2_778
10
25.7968503
20
-2.7781011
11
3.5718503
21
-2.7781011
0
LINE
8
DEFAULT_255_2_778
10
2.7781503
20
-1.9843011
11
2.7781503
21
75.8031989
0
LINE
8
DEFAULT_255_1_234
10
6.7184835
20
1.1804243
11
6.7449882
21
1.1804243
0
LINE
8
DEFAULT_255_1_234
10
6.7449882
20
1.1804243
11
6.7449882
21
1.054326
0
LINE
8
DEFAULT_255_1_234
10
6.7449882
20
1.054326
11
6.7176803
21
1.054326
0
LINE
8
DEFAULT_255_1_234
10
6.1707189
20
0.4551583
11
6.1707189
21
0.5121836
0
LINE
8
DEFAULT_255_1_234
10
6.3201093
20
0.4929075
11
6.3201093
21
0.4382917
0
ARC
8
DEFAULT_255_1_234
10
6.7229151
20
0.5545455
40
0.4998079
50
90.6001036
51
104.514704
0
ARC
8
DEFAULT_255_1_234
10
6.6840667
20
0.6990131
40
0.3502176
50
104.2855254
51
133.862935
0
ARC
8
DEFAULT_255_1_234
10
6.7004424
20
0.688183
40
0.3693984
50
134.5302688
51
161.6210873
0
ARC
8
DEFAULT_255_1_234
10
6.8657613
20
0.6298895
40
0.5446739
50
161.2849839
51
174.2076652
0
ARC
8
DEFAULT_255_1_234
10
7.006455
20
0.6104787
40
0.6866274
50
173.7810589
51
174.9254635
0
ARC
8
DEFAULT_255_1_234
10
6.5514382
20
0.4721839
40
0.3033419
50
95.8330959
51
138.9954921
0
ARC
8
DEFAULT_255_1_234
10
6.5737738
20
0.3443375
40
0.4328947
50
89.8753725
51
97.0544009
0
ARC
8
DEFAULT_255_1_234
10
6.5785204
20
0.4278748
40
0.3493769
50
71.6407809
51
90.6240094
0
ARC
8
DEFAULT_255_1_234
10
6.5935777
20
0.4833082
40
0.2920396
50
39.6367836
51
71.019018
0
ARC
8
DEFAULT_255_1_234
10
6.529925
20
0.4282998
40
0.3761538
50
10.658731
51
39.9043955
0
ARC
8
DEFAULT_255_1_234
10
6.3751333
20
0.3946686
40
0.5345136
50
359.682601
51
11.132623
0
ARC
8
DEFAULT_255_1_234
10
6.3711464
20
0.387601
40
0.5385081
50
347.2486944
51
0.4369317
0
ARC
8
DEFAULT_255_1_234
10
6.5378941
20
0.3474807
40
0.3670249
50
318.1409698
51
347.6118597
0
ARC
8
DEFAULT_255_1_234
10
6.5703934
20
0.3207702
40
0.3250007
50
275.6342139
51
317.8248465
0
ARC
8
DEFAULT_255_1_234
10
6.5483045
20
0.4507219
40
0.4565864
50
269.8874292
51
276.7917694
0
ARC
8
DEFAULT_255_1_234
10
6.5428116
20
0.3481743
40
0.3540676
50
246.9140195
51
270.7437342
0
ARC
8
DEFAULT_255_1_234
10
6.5434506
20
0.3339384
40
0.3412781
50
218.1665114
51
245.878116
0
ARC
8
DEFAULT_255_1_234
10
6.6313967
20
0.4075279
40
0.455911
50
191.4115814
51
218.6077802
0
ARC
8
DEFAULT_255_1_234
10
6.8252056
20
0.4509833
40
0.6545001
50
179.6345085
51
191.7836486
0
ARC
8
DEFAULT_255_1_234
10
7.3834393
20
0.5188697
40
1.2127388
50
171.4525249
51
180.3158839
0
ARC
8
DEFAULT_255_1_234
10
6.9439269
20
0.5872608
40
0.7679464
50
157.9802646
51
171.6246686
0
ARC
8
DEFAULT_255_1_234
10
6.722529
20
0.6755421
40
0.5296008
50
141.4298019
51
157.854097
0
ARC
8
DEFAULT_255_1_234
10
6.658361
20
0.7209381
40
0.4511509
50
102.8715806
51
140.8564722
0
ARC
8
DEFAULT_255_1_234
10
6.7231226
20
0.4769552
40
0.7034845
50
90.3778349
51
103.5869322
0
ARC
8
DEFAULT_255_1_234
10
6.5493002
20
0.416473
40
0.2370698
50
89.8751008
51
126.2071704
0
ARC
8
DEFAULT_255_1_234
10
6.5538792
20
0.4010303
40
0.2522934
50
124.9745049
51
144.895901
0
ARC
8
DEFAULT_255_1_234
10
6.5362982
20
0.415356
40
0.2296779
50
145.2974905
51
160.2660252
0
ARC
8
DEFAULT_255_1_234
10
6.8435521
20
0.4351071
40
0.5234525
50
179.6514266
51
190.2855912
0
ARC
8
DEFAULT_255_1_234
10
6.6741658
20
0.4031786
40
0.3510893
50
190.0945431
51
207.5098196
0
ARC
8
DEFAULT_255_1_234
10
6.6175928
20
0.3762623
40
0.288489
50
207.9583163
51
216.3251085
0
ARC
8
DEFAULT_255_1_234
10
6.5836036
20
0.3483105
40
0.2445587
50
215.7661442
51
232.5456785
0
ARC
8
DEFAULT_255_1_234
10
6.5453019
20
0.2996482
40
0.1826382
50
232.8005391
51
270.6605633
0
ARC
8
DEFAULT_255_1_234
10
6.549872
20
0.3360612
40
0.2190529
50
269.35537
51
288.4744281
0
ARC
8
DEFAULT_255_1_234
10
6.5591617
20
0.3011118
40
0.1829749
50
289.1833337
51
322.9683818
0
ARC
8
DEFAULT_255_1_234
10
6.4980139
20
0.3493391
40
0.2608399
50
322.6007884
51
346.5182367
0
ARC
8
DEFAULT_255_1_234
10
6.3822735
20
0.3788616
40
0.3802777
50
346.2582162
51
358.7741648
0
ARC
8
DEFAULT_255_1_234
10
6.2804404
20
0.3843965
40
0.4822176
50
358.3755224
51
0.0098023
0
ARC
8
DEFAULT_255_1_234
10
6.3560591
20
0.3871657
40
0.4066078
50
359.6214041
51
11.2839074
0
ARC
8
DEFAULT_255_1_234
10
6.4837738
20
0.4138066
40
0.2761514
50
11.0482309
51
31.8146458
0
ARC
8
DEFAULT_255_1_234
10
6.5146781
20
0.4305584
40
0.2410679
50
32.3035391
51
38.082671
0
ARC
8
DEFAULT_255_1_234
10
6.5567441
20
0.4686662
40
0.1844966
50
36.825067
51
85.7415724
0
ARC
8
DEFAULT_255_1_234
10
6.5500274
20
0.4186301
40
0.2349122
50
85.0140713
51
90.0513278
0
LINE
8
DEFAULT_255_1_234
10
7.7850983
20
0.6768343
11
7.7850983
21
0.550736
0
LINE
8
DEFAULT_255_1_234
10
7.7850983
20
0.550736
11
7.2782957
21
0.550736
0
LINE
8
DEFAULT_255_1_234
10
7.2782957
20
0.550736
11
7.2782957
21
0.1362983
0
LINE
8
DEFAULT_255_1_234
10
7.2782957
20
0.1362983
11
7.8670221
21
0.1362983
0
LINE
8
DEFAULT_255_1_234
10
7.8670221
20
0.1362983
11
7.8670221
21
0.0102
0
LINE
8
DEFAULT_255_1_234
10
7.8670221
20
0.0102
11
7.1240863
21
0.0102
0
LINE
8
DEFAULT_255_1_234
10
7.1240863
20
0.0102
11
7.1240863
21
1.1796211
0
LINE
8
DEFAULT_255_1_234
10
7.1240863
20
1.1796211
11
7.8589903
21
1.1796211
0
LINE
8
DEFAULT_255_1_234
10
7.8589903
20
1.1796211
11
7.8589903
21
1.0527196
0
LINE
8
DEFAULT_255_1_234
10
7.8589903
20
1.0527196
11
7.2782957
21
1.0527196
0
LINE
8
DEFAULT_255_1_234
10
7.2782957
20
1.0527196
11
7.2782957
21
0.6768343
0
LINE
8
DEFAULT_255_1_234
10
7.2782957
20
0.6768343
11
7.7850983
21
0.6768343
0
LINE
8
DEFAULT_255_1_234
10
8.3826597
20
0.0102
11
8.0589806
21
0.0102
0
LINE
8
DEFAULT_255_1_234
10
8.0589806
20
0.0102
11
8.0589806
21
1.1796211
0
LINE
8
DEFAULT_255_1_234
10
8.0589806
20
1.1796211
11
8.3890851
21
1.1796211
0
LINE
8
DEFAULT_255_1_234
10
8.9047227
20
0.6342661
11
8.9047227
21
0.5595709
0
LINE
8
DEFAULT_255_1_234
10
8.3931009
20
1.0527196
11
8.21319
21
1.0527196
0
LINE
8
DEFAULT_255_1_234
10
8.21319
20
1.0527196
11
8.21319
21
0.1362983
0
LINE
8
DEFAULT_255_1_234
10
8.21319
20
0.1362983
11
8.3754311
21
0.1362983
0
LINE
8
DEFAULT_255_1_234
10
8.7521196
20
0.5627836
11
8.7521196
21
0.6310534
0
ARC
8
DEFAULT_255_1_234
10
8.3929793
20
0.5930894
40
0.5865446
50
75.4101064
51
90.3804066
0
ARC
8
DEFAULT_255_1_234
10
8.4159307
20
0.6887492
40
0.4881916
50
60.145586
51
75.1888407
0
ARC
8
DEFAULT_255_1_234
10
8.4318082
20
0.7164199
40
0.4562893
50
26.5253612
51
60.1450928
0
ARC
8
DEFAULT_255_1_234
10
8.3197831
20
0.6570158
40
0.5830602
50
7.4030428
51
26.8320788
0
ARC
8
DEFAULT_255_1_234
10
8.1603588
20
0.6321804
40
0.7443669
50
0.1605367
51
7.7176192
0
ARC
8
DEFAULT_255_1_234
10
8.1767493
20
0.5557434
40
0.7279835
50
348.7289388
51
0.3012466
0
ARC
8
DEFAULT_255_1_234
10
8.3423923
20
0.5228386
40
0.559104
50
333.0706509
51
348.7181832
0
ARC
8
DEFAULT_255_1_234
10
8.4390681
20
0.4703319
40
0.4491417
50
299.2531685
51
333.4571258
0
ARC
8
DEFAULT_255_1_234
10
8.402982
20
0.5388828
40
0.5265881
50
278.107187
51
299.0339503
0
ARC
8
DEFAULT_255_1_234
10
8.3773899
20
0.6896216
40
0.679442
50
270.4443897
51
278.4511052
0
ARC
8
DEFAULT_255_1_234
10
8.3794729
20
0.5967213
40
0.4604407
50
269.4970433
51
284.0205042
0
ARC
8
DEFAULT_255_1_234
10
8.415003
20
0.4601978
40
0.3193797
50
283.7700273
51
318.1555492
0
ARC
8
DEFAULT_255_1_234
10
8.3812788
20
0.4854367
40
0.3613588
50
318.7415601
51
343.6873628
0
ARC
8
DEFAULT_255_1_234
10
8.2008812
20
0.5417832
40
0.5503313
50
343.3325091
51
355.8548958
0
ARC
8
DEFAULT_255_1_234
10
7.9910496
20
0.5617319
40
0.7610708
50
355.4988528
51
0.0791727
0
ARC
8
DEFAULT_255_1_234
10
8.0693119
20
0.635278
40
0.6828208
50
359.6455037
51
9.8607896
0
ARC
8
DEFAULT_255_1_234
10
8.3053816
20
0.6779099
40
0.4429406
50
9.6571907
51
26.1932807
0
ARC
8
DEFAULT_255_1_234
10
8.3981805
20
0.7210118
40
0.3406537
50
26.5777228
51
40.1532208
0
ARC
8
DEFAULT_255_1_234
10
8.4237532
20
0.7409619
40
0.308246
50
40.3840491
51
80.1431104
0
ARC
8
DEFAULT_255_1_234
10
8.3910649
20
0.5960333
40
0.4566909
50
79.2152159
51
89.7445637
0
LINE
8
DEFAULT_255_1_234
10
9.5874204
20
1.1852433
11
9.5874204
21
0.0102
0
LINE
8
DEFAULT_255_1_234
10
9.5874204
20
0.0102
11
9.4380301
21
0.0102
0
LINE
8
DEFAULT_255_1_234
10
9.4380301
20
0.0102
11
9.4380301
21
1.0005133
0
LINE
8
DEFAULT_255_1_234
10
9.4380301
20
1.0005133
11
9.1384462
21
0.8904785
0
LINE
8
DEFAULT_255_1_234
10
9.1384462
20
0.8904785
11
9.1384462
21
1.0254117
0
LINE
8
DEFAULT_255_1_234
10
9.1384462
20
1.0254117
11
9.5641284
21
1.1852433
0
LINE
8
DEFAULT_255_1_234
10
9.5641284
20
1.1852433
11
9.5874204
21
1.1852433
0
LINE
8
DEFAULT_255_1_234
10
10.7560383
20
0.7017327
11
10.7560383
21
0.5089709
0
LINE
8
DEFAULT_255_1_234
10
10.0179216
20
0.4888916
11
10.0179216
21
0.6872755
0
LINE
8
DEFAULT_255_1_234
10
10.6074512
20
0.4688123
11
10.6074512
21
0.7121739
0
LINE
8
DEFAULT_255_1_234
10
10.1665087
20
0.7234184
11
10.1665087
21
0.4856789
0
ARC
8
DEFAULT_255_1_234
10
9.5313273
20
0.5040805
40
1.2247208
50
353.8441951
51
0.2287902
0
ARC
8
DEFAULT_255_1_234
10
9.9952776
20
0.4522806
40
0.7578929
50
344.4934747
51
353.9765454
0
ARC
8
DEFAULT_255_1_234
10
10.2945367
20
0.3671981
40
0.4467846
50
329.2803592
51
344.7472793
0
ARC
8
DEFAULT_255_1_234
10
10.3938192
20
0.3127018
40
0.3336173
50
324.9352394
51
328.6160465
0
ARC
8
DEFAULT_255_1_234
10
10.43153
20
0.2863427
40
0.2876076
50
280.580143
51
324.9173126
0
ARC
8
DEFAULT_255_1_234
10
10.3914093
20
0.4534099
40
0.4592847
50
269.5977311
51
281.6734359
0
ARC
8
DEFAULT_255_1_234
10
10.3841998
20
0.4414173
40
0.4472986
50
256.6228859
51
270.51044
0
ARC
8
DEFAULT_255_1_234
10
10.3439976
20
0.2865877
40
0.2873874
50
215.8618325
51
257.2788573
0
ARC
8
DEFAULT_255_1_234
10
10.4461008
20
0.3550977
40
0.4102928
50
197.9693508
51
215.2623606
0
ARC
8
DEFAULT_255_1_234
10
10.6946124
20
0.4389709
40
0.6725652
50
187.8816417
51
198.2346507
0
ARC
8
DEFAULT_255_1_234
10
11.0904332
20
0.4961079
40
1.0724845
50
180.8976217
51
188.0055519
0
ARC
8
DEFAULT_255_1_234
10
11.370452
20
0.5064777
40
1.3526448
50
180.7449369
51
181.1510016
0
ARC
8
DEFAULT_255_1_234
10
11.2127249
20
0.6921042
40
1.1948131
50
173.7675579
51
180.231553
0
ARC
8
DEFAULT_255_1_234
10
10.7609396
20
0.7431666
40
0.7401564
50
164.3058563
51
173.9002247
0
ARC
8
DEFAULT_255_1_234
10
10.4697464
20
0.8270656
40
0.4371288
50
148.7922025
51
164.568378
0
ARC
8
DEFAULT_255_1_234
10
10.3745917
20
0.8801929
40
0.3282386
50
144.5883898
51
148.1176286
0
ARC
8
DEFAULT_255_1_234
10
10.3402815
20
0.9041315
40
0.2864044
50
101.6440918
51
144.514236
0
ARC
8
DEFAULT_255_1_234
10
10.3827881
20
0.7352069
40
0.4604934
50
89.5284041
51
102.5819763
0
ARC
8
DEFAULT_255_1_234
10
10.3906969
20
0.7313018
40
0.464401
50
77.0437873
51
90.5081339
0
ARC
8
DEFAULT_255_1_234
10
10.4308971
20
0.8955615
40
0.2953195
50
48.2778575
51
77.4994676
0
ARC
8
DEFAULT_255_1_234
10
10.4381602
20
0.9084746
40
0.2808655
50
36.3142134
51
47.6305865
0
ARC
8
DEFAULT_255_1_234
10
10.3512909
20
0.8499515
40
0.3855453
50
18.2931786
51
35.6769206
0
ARC
8
DEFAULT_255_1_234
10
10.0969668
20
0.7626593
40
0.654423
50
8.024666
51
18.5605216
0
ARC
8
DEFAULT_255_1_234
10
9.6806588
20
0.7011792
40
1.0752407
50
1.1274072
51
8.1718305
0
ARC
8
DEFAULT_255_1_234
10
9.3570778
20
0.6884885
40
1.3990231
50
0.5424119
51
1.3863029
0
ARC
8
DEFAULT_255_1_234
10
9.5392156
20
0.7157342
40
1.0682415
50
359.8090433
51
4.9407866
0
ARC
8
DEFAULT_255_1_234
10
9.960217
20
0.7533113
40
0.6455691
50
4.8362157
51
12.2904523
0
ARC
8
DEFAULT_255_1_234
10
10.2357285
20
0.8146965
40
0.3633074
50
12.0805627
51
23.8173984
0
ARC
8
DEFAULT_255_1_234
10
10.353099
20
0.8643919
40
0.2358723
50
24.2871213
51
31.3935614
0
ARC
8
DEFAULT_255_1_234
10
10.4055688
20
0.8987233
40
0.1732111
50
30.7407893
51
82.4657128
0
ARC
8
DEFAULT_255_1_234
10
10.3875822
20
0.8103691
40
0.263235
50
81.1060089
51
90.2184952
0
ARC
8
DEFAULT_255_1_234
10
10.3840121
20
0.8361924
40
0.2374236
50
89.3806855
51
105.6762551
0
ARC
8
DEFAULT_255_1_234
10
10.3656752
20
0.9028567
40
0.1682847
50
105.7981136
51
149.7388061
0
ARC
8
DEFAULT_255_1_234
10
10.472083
20
0.838895
40
0.2924306
50
149.4208916
51
163.6286378
0
ARC
8
DEFAULT_255_1_234
10
10.6811718
20
0.775125
40
0.5110213
50
163.3763315
51
172.1410975
0
ARC
8
DEFAULT_255_1_234
10
11.0112437
20
0.7278518
40
0.8444586
50
172.0259487
51
178.0703232
0
ARC
8
DEFAULT_255_1_234
10
11.3142526
20
0.7134906
40
1.1477868
50
177.8631668
51
179.5044149
0
ARC
8
DEFAULT_255_1_234
10
11.2069931
20
0.4820389
40
1.0404907
50
179.7995573
51
185.2460446
0
ARC
8
DEFAULT_255_1_234
10
10.802697
20
0.4437513
40
0.6343885
50
185.1411642
51
193.0079639
0
ARC
8
DEFAULT_255_1_234
10
10.5383443
20
0.3812641
40
0.3627568
50
192.7897626
51
205.2507664
0
ARC
8
DEFAULT_255_1_234
10
10.433699
20
0.3345415
40
0.2481908
50
205.8005384
51
211.2537509
0
ARC
8
DEFAULT_255_1_234
10
10.381343
20
0.299458
40
0.1852521
50
210.3789793
51
238.4008143
0
ARC
8
DEFAULT_255_1_234
10
10.3793952
20
0.3041376
40
0.1882621
50
239.6520629
51
265.9793761
0
ARC
8
DEFAULT_255_1_234
10
10.3879152
20
0.3713427
40
0.2559272
50
265.1315437
51
270.060332
0
ARC
8
DEFAULT_255_1_234
10
10.3907931
20
0.3389534
40
0.2235528
50
269.3314664
51
287.2178029
0
ARC
8
DEFAULT_255_1_234
10
10.4045783
20
0.2886279
40
0.1714108
50
287.7958004
51
329.080874
0
ARC
8
DEFAULT_255_1_234
10
10.308824
20
0.348393
40
0.2842745
50
328.6634704
51
343.3325132
0
ARC
8
DEFAULT_255_1_234
10
10.091526
20
0.4160863
40
0.5118644
50
343.0499468
51
351.9393422
0
ARC
8
DEFAULT_255_1_234
10
9.744856
20
0.4671949
40
0.8622784
50
351.8069023
51
357.7959224
0
ARC
8
DEFAULT_255_1_234
10
9.4213116
20
0.4839721
40
1.1862365
50
357.5871873
51
359.2677531
0
LINE
8
DEFAULT_255_1_234
10
11.13353
20
0.5659963
11
11.0146603
21
0.5965169
0
LINE
8
DEFAULT_255_1_234
10
11.0146603
20
0.5965169
11
11.0740952
21
1.1796211
0
LINE
8
DEFAULT_255_1_234
10
11.0740952
20
1.1796211
11
11.6732628
21
1.1796211
0
LINE
8
DEFAULT_255_1_234
10
11.6732628
20
1.1796211
11
11.6732628
21
1.0422784
0
LINE
8
DEFAULT_255_1_234
10
11.6732628
20
1.0422784
11
11.2001935
21
1.0422784
0
LINE
8
DEFAULT_255_1_234
10
11.2001935
20
1.0422784
11
11.1648538
21
0.7234184
0
LINE
8
DEFAULT_255_1_234
10
10.9728953
20
0.3178156
11
11.1134507
21
0.3178156
0
LINE
8
DEFAULT_255_1_234
10
11.1728855
20
0.5981232
11
11.13353
21
0.5659963
0
ARC
8
DEFAULT_255_1_234
10
11.3503322
20
0.405423
40
0.3681349
50
93.7182161
51
120.2538958
0
ARC
8
DEFAULT_255_1_234
10
11.3597585
20
0.3246394
40
0.449379
50
89.9660152
51
94.2496022
0
ARC
8
DEFAULT_255_1_234
10
11.3638319
20
0.3835549
40
0.390482
50
73.8043271
51
90.5585896
0
ARC
8
DEFAULT_255_1_234
10
11.3873216
20
0.4693602
40
0.3015334
50
41.3071453
51
73.5430202
0
ARC
8
DEFAULT_255_1_234
10
11.3457043
20
0.4335324
40
0.3564457
50
13.5075983
51
41.2174222
0
ARC
8
DEFAULT_255_1_234
10
11.1815247
20
0.3905486
40
0.5261351
50
1.1331335
51
13.8829381
0
ARC
8
DEFAULT_255_1_234
10
11.0403616
20
0.3829665
40
0.6674378
50
359.9919444
51
1.544251
0
ARC
8
DEFAULT_255_1_234
10
11.1680442
20
0.378828
40
0.5397702
50
347.8572367
51
0.4293338
0
ARC
8
DEFAULT_255_1_234
10
11.343076
20
0.3391736
40
0.3603188
50
323.673004
51
348.1672506
0
ARC
8
DEFAULT_255_1_234
10
11.3725268
20
0.3212168
40
0.3259678
50
316.8171152
51
323.1492751
0
ARC
8
DEFAULT_255_1_234
10
11.3786457
20
0.317546
40
0.3189975
50
281.8396411
51
316.5457803
0
ARC
8
DEFAULT_255_1_234
10
11.341072
20
0.4730762
40
0.4789527
50
269.5770101
51
282.4214771
0
ARC
8
DEFAULT_255_1_234
10
11.3339532
20
0.4517125
40
0.45759
50
256.2427136
51
270.4486331
0
ARC
8
DEFAULT_255_1_234
10
11.3040434
20
0.3317229
40
0.3339303
50
228.9023911
51
256.3314342
0
ARC
8
DEFAULT_255_1_234
10
11.2966667
20
0.3200746
40
0.32031
50
193.753695
51
228.5271154
0
ARC
8
DEFAULT_255_1_234
10
11.4204621
20
0.35638
40
0.4492253
50
184.924711
51
194.497588
0
ARC
8
DEFAULT_255_1_234
10
11.4397188
20
0.3599591
40
0.3289787
50
187.3600538
51
198.6732863
0
ARC
8
DEFAULT_255_1_234
10
11.3347482
20
0.3235674
40
0.217884
50
198.4451669
51
217.794479
0
ARC
8
DEFAULT_255_1_234
10
11.3051657
20
0.3026085
40
0.1816698
50
218.2887171
51
228.5612368
0
ARC
8
DEFAULT_255_1_234
10
11.3149444
20
0.3157963
40
0.1980329
50
228.9654866
51
258.1234728
0
ARC
8
DEFAULT_255_1_234
10
11.3355154
20
0.4038833
40
0.2884748
50
257.7258293
51
270.401361
0
ARC
8
DEFAULT_255_1_234
10
11.340004
20
0.3593821
40
0.2439788
50
269.4204404
51
286.4209037
0
ARC
8
DEFAULT_255_1_234
10
11.3548528
20
0.3054657
40
0.1880666
50
286.7251356
51
320.600362
0
ARC
8
DEFAULT_255_1_234
10
11.3165353
20
0.3365595
40
0.2374121
50
320.6712579
51
344.5441685
0
ARC
8
DEFAULT_255_1_234
10
11.2008679
20
0.3705045
40
0.3579479
50
344.2412205
51
356.7357071
0
ARC
8
DEFAULT_255_1_234
10
11.0759828
20
0.3808444
40
0.4832297
50
356.3548756
51
0.0500261
0
ARC
8
DEFAULT_255_1_234
10
11.2096337
20
0.383965
40
0.3495889
50
359.5576869
51
12.953486
0
ARC
8
DEFAULT_255_1_234
10
11.3151234
20
0.4095434
40
0.2410532
50
12.6490276
51
41.6081334
0
ARC
8
DEFAULT_255_1_234
10
11.3381605
20
0.4291321
40
0.2108218
50
41.7850273
51
85.9892764
0
ARC
8
DEFAULT_255_1_234
10
11.3258342
20
0.3478462
40
0.2928454
50
84.6957577
51
90.0676183
0
ARC
8
DEFAULT_255_1_234
10
11.3234826
20
0.2809716
40
0.3597255
50
89.6804936
51
99.1614436
0
ARC
8
DEFAULT_255_1_234
10
11.3029457
20
0.4037131
40
0.235281
50
98.9830931
51
113.8908934
0
ARC
8
DEFAULT_255_1_234
10
11.2799867
20
0.4578587
40
0.176479
50
114.1950727
51
127.3641004
0
LINE
8
DEFAULT_255_1_234
10
12.0571799
20
0.5659963
11
11.9383102
21
0.5965169
0
LINE
8
DEFAULT_255_1_234
10
11.9383102
20
0.5965169
11
11.9977451
21
1.1796211
0
LINE
8
DEFAULT_255_1_234
10
11.9977451
20
1.1796211
11
12.5969127
21
1.1796211
0
LINE
8
DEFAULT_255_1_234
10
12.5969127
20
1.1796211
11
12.5969127
21
1.0422784
0
LINE
8
DEFAULT_255_1_234
10
12.5969127
20
1.0422784
11
12.1238434
21
1.0422784
0
LINE
8
DEFAULT_255_1_234
10
12.1238434
20
1.0422784
11
12.0885037
21
0.7234184
0
LINE
8
DEFAULT_255_1_234
10
11.8965452
20
0.3178156
11
12.0371006
21
0.3178156
0
LINE
8
DEFAULT_255_1_234
10
12.0965354
20
0.5981232
11
12.0571799
21
0.5659963
0
ARC
8
DEFAULT_255_1_234
10
12.2739821
20
0.405423
40
0.3681349
50
93.7182161
51
120.2538958
0
ARC
8
DEFAULT_255_1_234
10
12.2834084
20
0.3246394
40
0.449379
50
89.9660152
51
94.2496022
0
ARC
8
DEFAULT_255_1_234
10
12.2874818
20
0.3835549
40
0.390482
50
73.8043271
51
90.5585896
0
ARC
8
DEFAULT_255_1_234
10
12.3109715
20
0.4693602
40
0.3015334
50
41.3071453
51
73.5430202
0
ARC
8
DEFAULT_255_1_234
10
12.2693542
20
0.4335324
40
0.3564457
50
13.5075983
51
41.2174222
0
ARC
8
DEFAULT_255_1_234
10
12.1051746
20
0.3905486
40
0.5261351
50
1.1331335
51
13.8829381
0
ARC
8
DEFAULT_255_1_234
10
11.9640115
20
0.3829665
40
0.6674378
50
359.9919444
51
1.544251
0
ARC
8
DEFAULT_255_1_234
10
12.0916941
20
0.378828
40
0.5397702
50
347.8572367
51
0.4293338
0
ARC
8
DEFAULT_255_1_234
10
12.2667259
20
0.3391736
40
0.3603188
50
323.673004
51
348.1672506
0
ARC
8
DEFAULT_255_1_234
10
12.2961767
20
0.3212168
40
0.3259678
50
316.8171152
51
323.1492751
0
ARC
8
DEFAULT_255_1_234
10
12.3022956
20
0.317546
40
0.3189975
50
281.8396411
51
316.5457803
0
ARC
8
DEFAULT_255_1_234
10
12.264722
20
0.4730762
40
0.4789527
50
269.5770101
51
282.4214771
0
ARC
8
DEFAULT_255_1_234
10
12.2576031
20
0.4517125
40
0.45759
50
256.2427136
51
270.4486331
0
ARC
8
DEFAULT_255_1_234
10
12.2276933
20
0.3317229
40
0.3339303
50
228.9023911
51
256.3314342
0
ARC
8
DEFAULT_255_1_234
10
12.2203166
20
0.3200746
40
0.32031
50
193.753695
51
228.5271154
0
ARC
8
DEFAULT_255_1_234
10
12.344112
20
0.35638
40
0.4492253
50
184.924711
51
194.497588
0
ARC
8
DEFAULT_255_1_234
10
12.3633687
20
0.3599591
40
0.3289787
50
187.3600538
51
198.6732863
0
ARC
8
DEFAULT_255_1_234
10
12.2583981
20
0.3235674
40
0.217884
50
198.4451669
51
217.794479
0
ARC
8
DEFAULT_255_1_234
10
12.2288156
20
0.3026085
40
0.1816698
50
218.2887171
51
228.5612368
0
ARC
8
DEFAULT_255_1_234
10
12.2385943
20
0.3157963
40
0.1980329
50
228.9654866
51
258.1234728
0
ARC
8
DEFAULT_255_1_234
10
12.2591653
20
0.4038833
40
0.2884748
50
257.7258293
51
270.401361
0
ARC
8
DEFAULT_255_1_234
10
12.2636539
20
0.3593821
40
0.2439788
50
269.4204404
51
286.4209037
0
ARC
8
DEFAULT_255_1_234
10
12.2785027
20
0.3054657
40
0.1880666
50
286.7251356
51
320.600362
0
ARC
8
DEFAULT_255_1_234
10
12.2401852
20
0.3365595
40
0.2374121
50
320.6712579
51
344.5441685
0
ARC
8
DEFAULT_255_1_234
10
12.1245178
20
0.3705045
40
0.3579479
50
344.2412205
51
356.7357071
0
ARC
8
DEFAULT_255_1_234
10
11.9996327
20
0.3808444
40
0.4832297
50
356.3548756
51
0.0500261
0
ARC
8
DEFAULT_255_1_234
10
12.1332836
20
0.383965
40
0.3495889
50
359.5576869
51
12.953486
0
ARC
8
DEFAULT_255_1_234
10
12.2387733
20
0.4095434
40
0.2410532
50
12.6490276
51
41.6081334
0
ARC
8
DEFAULT_255_1_234
10
12.2618104
20
0.4291321
40
0.2108218
50
41.7850273
51
85.9892764
0
ARC
8
DEFAULT_255_1_234
10
12.2494841
20
0.3478462
40
0.2928454
50
84.6957577
51
90.0676183
0
ARC
8
DEFAULT_255_1_234
10
12.2471325
20
0.2809716
40
0.3597255
50
89.6804936
51
99.1614436
0
ARC
8
DEFAULT_255_1_234
10
12.2265956
20
0.4037131
40
0.235281
50
98.9830931
51
113.8908934
0
ARC
8
DEFAULT_255_1_234
10
12.2036366
20
0.4578587
40
0.176479
50
114.1950727
51
127.3641004
0
LINE
8
DEFAULT_255_1_234
10
13.1181726
20
0.5676026
11
13.1181726
21
0.4463234
0
LINE
8
DEFAULT_255_1_234
10
13.1181726
20
0.4463234
11
12.7262237
21
0.4463234
0
LINE
8
DEFAULT_255_1_234
10
12.7262237
20
0.4463234
11
12.7262237
21
0.5676026
0
LINE
8
DEFAULT_255_1_234
10
12.7262237
20
0.5676026
11
13.1181726
21
0.5676026
0
LINE
8
DEFAULT_255_1_234
10
13.7358132
20
1.1852433
11
13.7358132
21
0.0102
0
LINE
8
DEFAULT_255_1_234
10
13.7358132
20
0.0102
11
13.5864229
21
0.0102
0
LINE
8
DEFAULT_255_1_234
10
13.5864229
20
0.0102
11
13.5864229
21
1.0005133
0
LINE
8
DEFAULT_255_1_234
10
13.5864229
20
1.0005133
11
13.2868391
21
0.8904785
0
LINE
8
DEFAULT_255_1_234
10
13.2868391
20
0.8904785
11
13.2868391
21
1.0254117
0
LINE
8
DEFAULT_255_1_234
10
13.2868391
20
1.0254117
11
13.7125212
21
1.1852433
0
LINE
8
DEFAULT_255_1_234
10
13.7125212
20
1.1852433
11
13.7358132
21
1.1852433
0
LINE
8
DEFAULT_255_1_234
10
14.8546344
20
0.6527391
11
14.8546344
21
0.5266408
0
LINE
8
DEFAULT_255_1_234
10
14.8546344
20
0.5266408
11
14.3638952
21
0.5266408
0
LINE
8
DEFAULT_255_1_234
10
14.3638952
20
0.5266408
11
14.3638952
21
0.0102
0
LINE
8
DEFAULT_255_1_234
10
14.3638952
20
0.0102
11
14.2096858
21
0.0102
0
LINE
8
DEFAULT_255_1_234
10
14.2096858
20
0.0102
11
14.2096858
21
1.1796211
0
LINE
8
DEFAULT_255_1_234
10
14.2096858
20
1.1796211
11
14.9341486
21
1.1796211
0
LINE
8
DEFAULT_255_1_234
10
14.9341486
20
1.1796211
11
14.9341486
21
1.0527196
0
LINE
8
DEFAULT_255_1_234
10
14.9341486
20
1.0527196
11
14.3638952
21
1.0527196
0
LINE
8
DEFAULT_255_1_234
10
14.3638952
20
1.0527196
11
14.3638952
21
0.6527391
0
LINE
8
DEFAULT_255_1_234
10
14.3638952
20
0.6527391
11
14.8546344
21
0.6527391
0
LINE
8
DEFAULT_255_1_234
10
15.5244813
20
0.0102
11
15.1188786
21
0.0102
0
LINE
8
DEFAULT_255_1_234
10
15.1188786
20
0.0102
11
15.1188786
21
1.1796211
0
LINE
8
DEFAULT_255_1_234
10
15.1188786
20
1.1796211
11
15.5011893
21
1.1796211
0
LINE
8
DEFAULT_255_1_234
10
15.5301036
20
0.5571614
11
15.2730879
21
0.5571614
0
LINE
8
DEFAULT_255_1_234
10
15.2730879
20
0.5571614
11
15.2730879
21
0.1362983
0
LINE
8
DEFAULT_255_1_234
10
15.2730879
20
0.1362983
11
15.527694
21
0.1362983
0
LINE
8
DEFAULT_255_1_234
10
15.2730879
20
1.0527196
11
15.2730879
21
0.6808501
0
LINE
8
DEFAULT_255_1_234
10
15.2730879
20
0.6808501
11
15.5060083
21
0.6808501
0
LINE
8
DEFAULT_255_1_234
10
15.5011893
20
1.0527196
11
15.2730879
21
1.0527196
0
ARC
8
DEFAULT_255_1_234
10
15.5049602
20
0.4428901
40
0.7367406
50
82.1257326
51
90.2932599
0
ARC
8
DEFAULT_255_1_234
10
15.5438557
20
0.7147013
40
0.4621653
50
69.9044149
51
82.2857423
0
ARC
8
DEFAULT_255_1_234
10
15.6009234
20
0.8689637
40
0.2976871
50
51.1838526
51
70.0181538
0
ARC
8
DEFAULT_255_1_234
10
15.6264201
20
0.906024
40
0.2528517
50
12.1017251
51
50.4214761
0
ARC
8
DEFAULT_255_1_234
10
15.4880074
20
0.8712676
40
0.3955061
50
359.5251267
51
12.8211707
0
ARC
8
DEFAULT_255_1_234
10
15.6460001
20
0.8643344
40
0.2375281
50
323.4908128
51
0.8817314
0
ARC
8
DEFAULT_255_1_234
10
15.6041688
20
0.896655
40
0.2903817
50
298.6825083
51
323.2756573
0
ARC
8
DEFAULT_255_1_234
10
15.5680051
20
0.9567649
40
0.3604842
50
293.1999386
51
299.1396394
0
ARC
8
DEFAULT_255_1_234
10
15.6353024
20
0.3482126
40
0.2871098
50
54.0011765
51
74.9167975
0
ARC
8
DEFAULT_255_1_234
10
15.6469383
20
0.3679332
40
0.2643248
50
36.3580696
51
53.5291921
0
ARC
8
DEFAULT_255_1_234
10
15.6342625
20
0.3588998
40
0.2798884
50
4.8189881
51
36.3089977
0
ARC
8
DEFAULT_255_1_234
10
15.556346
20
0.347927
40
0.358478
50
359.9370252
51
5.5204067
0
ARC
8
DEFAULT_255_1_234
10
15.5238982
20
0.3438667
40
0.3909429
50
344.7478609
51
0.5373281
0
ARC
8
DEFAULT_255_1_234
10
15.6229953
20
0.3171544
40
0.2883093
50
311.1786488
51
344.6886812
0
ARC
8
DEFAULT_255_1_234
10
15.5938
20
0.3534987
40
0.3348923
50
286.0418249
51
310.8441291
0
ARC
8
DEFAULT_255_1_234
10
15.5430832
20
0.5181807
40
0.5071869
50
274.1042341
51
286.4071509
0
ARC
8
DEFAULT_255_1_234
10
15.5254088
20
0.7065229
40
0.6963234
50
269.9236873
51
274.445647
0
ARC
8
DEFAULT_255_1_234
10
15.5300089
20
0.4725537
40
0.3362634
50
269.6055768
51
281.3740047
0
ARC
8
DEFAULT_255_1_234
10
15.5530727
20
0.3632353
40
0.224546
50
281.1055983
51
302.5132223
0
ARC
8
DEFAULT_255_1_234
10
15.5677626
20
0.3368823
40
0.1944357
50
303.0368945
51
311.8811219
0
ARC
8
DEFAULT_255_1_234
10
15.5749033
20
0.328389
40
0.1833454
50
311.9916004
51
351.7143462
0
ARC
8
DEFAULT_255_1_234
10
15.4932263
20
0.344893
40
0.2665871
50
350.7339597
51
0.2221581
0
ARC
8
DEFAULT_255_1_234
10
15.4824709
20
0.3505467
40
0.2773789
50
359.0456241
51
17.2296242
0
ARC
8
DEFAULT_255_1_234
10
15.5863826
20
0.3814163
40
0.1689915
50
17.6685481
51
78.9940892
0
ARC
8
DEFAULT_255_1_234
10
15.534699
20
0.1959224
40
0.3612658
50
76.5635957
51
90.6980921
0
LINE
8
DEFAULT_255_1_234
10
15.5302974
20
0.5571613
11
15.5301036
21
0.5571614
0
ARC
8
DEFAULT_255_1_234
10
15.508265
20
1.0094036
40
0.3285612
50
269.6064736
51
281.4533503
0
ARC
8
DEFAULT_255_1_234
10
15.530547
20
0.9042688
40
0.2210975
50
281.2041486
51
302.5148063
0
ARC
8
DEFAULT_255_1_234
10
15.544232
20
0.8796241
40
0.1929674
50
303.021671
51
309.8369575
0
ARC
8
DEFAULT_255_1_234
10
15.5625781
20
0.8590488
40
0.1654181
50
309.5228395
51
356.9509836
0
ARC
8
DEFAULT_255_1_234
10
15.4962364
20
0.8685932
40
0.2322512
50
355.4701227
51
0.0492546
0
ARC
8
DEFAULT_255_1_234
10
15.4683455
20
0.8708094
40
0.2601498
50
359.5558597
51
11.2096359
0
ARC
8
DEFAULT_255_1_234
10
15.5640745
20
0.890623
40
0.1623975
50
10.9182341
51
31.3230275
0
ARC
8
DEFAULT_255_1_234
10
15.5926478
20
0.9065214
40
0.1297302
50
31.8852677
51
52.1412565
0
ARC
8
DEFAULT_255_1_234
10
15.5652211
20
0.867775
40
0.1771663
50
52.8285564
51
71.9850297
0
ARC
8
DEFAULT_255_1_234
10
15.5276387
20
0.7571664
40
0.2939794
50
71.6863486
51
82.8455995
0
ARC
8
DEFAULT_255_1_234
10
15.5036923
20
0.5762149
40
0.476506
50
82.6984714
51
90.1729175
0
ARC
8
DEFAULT_255_1_234
10
15.5014558
20
0.6985623
40
0.3541573
50
89.8708275
51
90.0431131
0
LINE
8
DEFAULT_255_1_234
10
16.8376706
20
0.7017327
11
16.8376706
21
0.5089709
0
LINE
8
DEFAULT_255_1_234
10
16.0995538
20
0.4888916
11
16.0995538
21
0.6872755
0
LINE
8
DEFAULT_255_1_234
10
16.6890834
20
0.4688123
11
16.6890834
21
0.7121739
0
LINE
8
DEFAULT_255_1_234
10
16.248141
20
0.7234184
11
16.248141
21
0.4856789
0
ARC
8
DEFAULT_255_1_234
10
15.6129595
20
0.5040805
40
1.2247208
50
353.8441951
51
0.2287902
0
ARC
8
DEFAULT_255_1_234
10
16.0769099
20
0.4522806
40
0.7578929
50
344.4934747
51
353.9765454
0
ARC
8
DEFAULT_255_1_234
10
16.3761689
20
0.3671981
40
0.4467846
50
329.2803592
51
344.7472793
0
ARC
8
DEFAULT_255_1_234
10
16.4754514
20
0.3127018
40
0.3336173
50
324.9352394
51
328.6160465
0
ARC
8
DEFAULT_255_1_234
10
16.5131623
20
0.2863427
40
0.2876076
50
280.580143
51
324.9173126
0
ARC
8
DEFAULT_255_1_234
10
16.4730415
20
0.4534099
40
0.4592847
50
269.5977311
51
281.6734359
0
ARC
8
DEFAULT_255_1_234
10
16.4658321
20
0.4414173
40
0.4472986
50
256.6228859
51
270.51044
0
ARC
8
DEFAULT_255_1_234
10
16.4256299
20
0.2865877
40
0.2873874
50
215.8618325
51
257.2788573
0
ARC
8
DEFAULT_255_1_234
10
16.527733
20
0.3550977
40
0.4102928
50
197.9693508
51
215.2623606
0
ARC
8
DEFAULT_255_1_234
10
16.7762446
20
0.4389709
40
0.6725652
50
187.8816417
51
198.2346507
0
ARC
8
DEFAULT_255_1_234
10
17.1720654
20
0.4961079
40
1.0724845
50
180.8976217
51
188.0055519
0
ARC
8
DEFAULT_255_1_234
10
17.4520842
20
0.5064777
40
1.3526448
50
180.7449369
51
181.1510016
0
ARC
8
DEFAULT_255_1_234
10
17.2943571
20
0.6921042
40
1.1948131
50
173.7675579
51
180.231553
0
ARC
8
DEFAULT_255_1_234
10
16.8425718
20
0.7431666
40
0.7401564
50
164.3058563
51
173.9002247
0
ARC
8
DEFAULT_255_1_234
10
16.5513787
20
0.8270656
40
0.4371288
50
148.7922025
51
164.568378
0
ARC
8
DEFAULT_255_1_234
10
16.4562239
20
0.8801929
40
0.3282386
50
144.5883898
51
148.1176286
0
ARC
8
DEFAULT_255_1_234
10
16.4219137
20
0.9041315
40
0.2864044
50
101.6440918
51
144.514236
0
ARC
8
DEFAULT_255_1_234
10
16.4644204
20
0.7352069
40
0.4604934
50
89.5284041
51
102.5819763
0
ARC
8
DEFAULT_255_1_234
10
16.4723291
20
0.7313018
40
0.464401
50
77.0437873
51
90.5081339
0
ARC
8
DEFAULT_255_1_234
10
16.5125293
20
0.8955615
40
0.2953195
50
48.2778575
51
77.4994676
0
ARC
8
DEFAULT_255_1_234
10
16.5197924
20
0.9084746
40
0.2808655
50
36.3142134
51
47.6305865
0
ARC
8
DEFAULT_255_1_234
10
16.4329231
20
0.8499515
40
0.3855453
50
18.2931786
51
35.6769206
0
ARC
8
DEFAULT_255_1_234
10
16.178599
20
0.7626593
40
0.654423
50
8.024666
51
18.5605216
0
ARC
8
DEFAULT_255_1_234
10
15.762291
20
0.7011792
40
1.0752407
50
1.1274072
51
8.1718305
0
ARC
8
DEFAULT_255_1_234
10
15.4387101
20
0.6884885
40
1.3990231
50
0.5424119
51
1.3863029
0
ARC
8
DEFAULT_255_1_234
10
15.6208479
20
0.7157342
40
1.0682415
50
359.8090433
51
4.9407866
0
ARC
8
DEFAULT_255_1_234
10
16.0418493
20
0.7533113
40
0.6455691
50
4.8362157
51
12.2904523
0
ARC
8
DEFAULT_255_1_234
10
16.3173607
20
0.8146965
40
0.3633074
50
12.0805627
51
23.8173984
0
ARC
8
DEFAULT_255_1_234
10
16.4347313
20
0.8643919
40
0.2358723
50
24.2871213
51
31.3935614
0
ARC
8
DEFAULT_255_1_234
10
16.487201
20
0.8987233
40
0.1732111
50
30.7407893
51
82.4657128
0
ARC
8
DEFAULT_255_1_234
10
16.4692144
20
0.8103691
40
0.263235
50
81.1060089
51
90.2184952
0
ARC
8
DEFAULT_255_1_234
10
16.4656443
20
0.8361924
40
0.2374236
50
89.3806855
51
105.6762551
0
ARC
8
DEFAULT_255_1_234
10
16.4473074
20
0.9028567
40
0.1682847
50
105.7981136
51
149.7388061
0
ARC
8
DEFAULT_255_1_234
10
16.5537152
20
0.838895
40
0.2924306
50
149.4208916
51
163.6286378
0
ARC
8
DEFAULT_255_1_234
10
16.762804
20
0.775125
40
0.5110213
50
163.3763315
51
172.1410975
0
ARC
8
DEFAULT_255_1_234
10
17.0928759
20
0.7278518
40
0.8444586
50
172.0259487
51
178.0703232
0
ARC
8
DEFAULT_255_1_234
10
17.3958849
20
0.7134906
40
1.1477868
50
177.8631668
51
179.5044149
0
ARC
8
DEFAULT_255_1_234
10
17.2886253
20
0.4820389
40
1.0404907
50
179.7995573
51
185.2460446
0
ARC
8
DEFAULT_255_1_234
10
16.8843292
20
0.4437513
40
0.6343885
50
185.1411642
51
193.0079639
0
ARC
8
DEFAULT_255_1_234
10
16.6199765
20
0.3812641
40
0.3627568
50
192.7897626
51
205.2507664
0
ARC
8
DEFAULT_255_1_234
10
16.5153312
20
0.3345415
40
0.2481908
50
205.8005384
51
211.2537509
0
ARC
8
DEFAULT_255_1_234
10
16.4629752
20
0.299458
40
0.1852521
50
210.3789793
51
238.4008143
0
ARC
8
DEFAULT_255_1_234
10
16.4610274
20
0.3041376
40
0.1882621
50
239.6520629
51
265.9793761
0
ARC
8
DEFAULT_255_1_234
10
16.4695475
20
0.3713427
40
0.2559272
50
265.1315437
51
270.060332
0
ARC
8
DEFAULT_255_1_234
10
16.4724253
20
0.3389534
40
0.2235528
50
269.3314664
51
287.2178029
0
ARC
8
DEFAULT_255_1_234
10
16.4862105
20
0.2886279
40
0.1714108
50
287.7958004
51
329.080874
0
ARC
8
DEFAULT_255_1_234
10
16.3904562
20
0.348393
40
0.2842745
50
328.6634704
51
343.3325132
0
ARC
8
DEFAULT_255_1_234
10
16.1731582
20
0.4160863
40
0.5118644
50
343.0499468
51
351.9393422
0
ARC
8
DEFAULT_255_1_234
10
15.8264882
20
0.4671949
40
0.8622784
50
351.8069023
51
357.7959224
0
ARC
8
DEFAULT_255_1_234
10
15.5029438
20
0.4839721
40
1.1862365
50
357.5871873
51
359.2677531
0
LINE
8
DEFAULT_255_1_234
10
17.7613205
20
0.7017327
11
17.7613205
21
0.5089709
0
LINE
8
DEFAULT_255_1_234
10
17.0232037
20
0.4888916
11
17.0232037
21
0.6872755
0
LINE
8
DEFAULT_255_1_234
10
17.6127333
20
0.4688123
11
17.6127333
21
0.7121739
0
LINE
8
DEFAULT_255_1_234
10
17.1717909
20
0.7234184
11
17.1717909
21
0.4856789
0
ARC
8
DEFAULT_255_1_234
10
16.5366094
20
0.5040805
40
1.2247208
50
353.8441951
51
0.2287902
0
ARC
8
DEFAULT_255_1_234
10
17.0005598
20
0.4522806
40
0.7578929
50
344.4934747
51
353.9765454
0
ARC
8
DEFAULT_255_1_234
10
17.2998188
20
0.3671981
40
0.4467846
50
329.2803592
51
344.7472793
0
ARC
8
DEFAULT_255_1_234
10
17.3991013
20
0.3127018
40
0.3336173
50
324.9352394
51
328.6160465
0
ARC
8
DEFAULT_255_1_234
10
17.4368122
20
0.2863427
40
0.2876076
50
280.580143
51
324.9173126
0
ARC
8
DEFAULT_255_1_234
10
17.3966914
20
0.4534099
40
0.4592847
50
269.5977311
51
281.6734359
0
ARC
8
DEFAULT_255_1_234
10
17.389482
20
0.4414173
40
0.4472986
50
256.6228859
51
270.51044
0
ARC
8
DEFAULT_255_1_234
10
17.3492798
20
0.2865877
40
0.2873874
50
215.8618325
51
257.2788573
0
ARC
8
DEFAULT_255_1_234
10
17.4513829
20
0.3550977
40
0.4102928
50
197.9693508
51
215.2623606
0
ARC
8
DEFAULT_255_1_234
10
17.6998945
20
0.4389709
40
0.6725652
50
187.8816417
51
198.2346507
0
ARC
8
DEFAULT_255_1_234
10
18.0957153
20
0.4961079
40
1.0724845
50
180.8976217
51
188.0055519
0
ARC
8
DEFAULT_255_1_234
10
18.3757341
20
0.5064777
40
1.3526448
50
180.7449369
51
181.1510016
0
ARC
8
DEFAULT_255_1_234
10
18.218007
20
0.6921042
40
1.1948131
50
173.7675579
51
180.231553
0
ARC
8
DEFAULT_255_1_234
10
17.7662217
20
0.7431666
40
0.7401564
50
164.3058563
51
173.9002247
0
ARC
8
DEFAULT_255_1_234
10
17.4750286
20
0.8270656
40
0.4371288
50
148.7922025
51
164.568378
0
ARC
8
DEFAULT_255_1_234
10
17.3798738
20
0.8801929
40
0.3282386
50
144.5883898
51
148.1176286
0
ARC
8
DEFAULT_255_1_234
10
17.3455636
20
0.9041315
40
0.2864044
50
101.6440918
51
144.514236
0
ARC
8
DEFAULT_255_1_234
10
17.3880703
20
0.7352069
40
0.4604934
50
89.5284041
51
102.5819763
0
ARC
8
DEFAULT_255_1_234
10
17.395979
20
0.7313018
40
0.464401
50
77.0437873
51
90.5081339
0
ARC
8
DEFAULT_255_1_234
10
17.4361792
20
0.8955615
40
0.2953195
50
48.2778575
51
77.4994676
0
ARC
8
DEFAULT_255_1_234
10
17.4434423
20
0.9084746
40
0.2808655
50
36.3142134
51
47.6305865
0
ARC
8
DEFAULT_255_1_234
10
17.356573
20
0.8499515
40
0.3855453
50
18.2931786
51
35.6769206
0
ARC
8
DEFAULT_255_1_234
10
17.1022489
20
0.7626593
40
0.654423
50
8.024666
51
18.5605216
0
ARC
8
DEFAULT_255_1_234
10
16.6859409
20
0.7011792
40
1.0752407
50
1.1274072
51
8.1718305
0
ARC
8
DEFAULT_255_1_234
10
16.36236
20
0.6884885
40
1.3990231
50
0.5424119
51
1.3863029
0
ARC
8
DEFAULT_255_1_234
10
16.5444978
20
0.7157342
40
1.0682415
50
359.8090433
51
4.9407866
0
ARC
8
DEFAULT_255_1_234
10
16.9654992
20
0.7533113
40
0.6455691
50
4.8362157
51
12.2904523
0
ARC
8
DEFAULT_255_1_234
10
17.2410107
20
0.8146965
40
0.3633074
50
12.0805627
51
23.8173984
0
ARC
8
DEFAULT_255_1_234
10
17.3583812
20
0.8643919
40
0.2358723
50
24.2871213
51
31.3935614
0
ARC
8
DEFAULT_255_1_234
10
17.4108509
20
0.8987233
40
0.1732111
50
30.7407893
51
82.4657128
0
ARC
8
DEFAULT_255_1_234
10
17.3928643
20
0.8103691
40
0.263235
50
81.1060089
51
90.2184952
0
ARC
8
DEFAULT_255_1_234
10
17.3892942
20
0.8361924
40
0.2374236
50
89.3806855
51
105.6762551
0
ARC
8
DEFAULT_255_1_234
10
17.3709573
20
0.9028567
40
0.1682847
50
105.7981136
51
149.7388061
0
ARC
8
DEFAULT_255_1_234
10
17.4773651
20
0.838895
40
0.2924306
50
149.4208916
51
163.6286378
0
ARC
8
DEFAULT_255_1_234
10
17.6864539
20
0.775125
40
0.5110213
50
163.3763315
51
172.1410975
0
ARC
8
DEFAULT_255_1_234
10
18.0165258
20
0.7278518
40
0.8444586
50
172.0259487
51
178.0703232
0
ARC
8
DEFAULT_255_1_234
10
18.3195348
20
0.7134906
40
1.1477868
50
177.8631668
51
179.5044149
0
ARC
8
DEFAULT_255_1_234
10
18.2122752
20
0.4820389
40
1.0404907
50
179.7995573
51
185.2460446
0
ARC
8
DEFAULT_255_1_234
10
17.8079792
20
0.4437513
40
0.6343885
50
185.1411642
51
193.0079639
0
ARC
8
DEFAULT_255_1_234
10
17.5436264
20
0.3812641
40
0.3627568
50
192.7897626
51
205.2507664
0
ARC
8
DEFAULT_255_1_234
10
17.4389811
20
0.3345415
40
0.2481908
50
205.8005384
51
211.2537509
0
ARC
8
DEFAULT_255_1_234
10
17.3866251
20
0.299458
40
0.1852521
50
210.3789793
51
238.4008143
0
ARC
8
DEFAULT_255_1_234
10
17.3846773
20
0.3041376
40
0.1882621
50
239.6520629
51
265.9793761
0
ARC
8
DEFAULT_255_1_234
10
17.3931974
20
0.3713427
40
0.2559272
50
265.1315437
51
270.060332
0
ARC
8
DEFAULT_255_1_234
10
17.3960752
20
0.3389534
40
0.2235528
50
269.3314664
51
287.2178029
0
ARC
8
DEFAULT_255_1_234
10
17.4098604
20
0.2886279
40
0.1714108
50
287.7958004
51
329.080874
0
ARC
8
DEFAULT_255_1_234
10
17.3141061
20
0.348393
40
0.2842745
50
328.6634704
51
343.3325132
0
ARC
8
DEFAULT_255_1_234
10
17.0968081
20
0.4160863
40
0.5118644
50
343.0499468
51
351.9393422
0
ARC
8
DEFAULT_255_1_234
10
16.7501381
20
0.4671949
40
0.8622784
50
351.8069023
51
357.7959224
0
ARC
8
DEFAULT_255_1_234
10
16.4265937
20
0.4839721
40
1.1862365
50
357.5871873
51
359.2677531
0
LINE
8
DEFAULT_255_1_234
10
18.2761549
20
0.5676026
11
18.2761549
21
0.4463234
0
LINE
8
DEFAULT_255_1_234
10
18.2761549
20
0.4463234
11
17.8842061
21
0.4463234
0
LINE
8
DEFAULT_255_1_234
10
17.8842061
20
0.4463234
11
17.8842061
21
0.5676026
0
LINE
8
DEFAULT_255_1_234
10
17.8842061
20
0.5676026
11
18.2761549
21
0.5676026
0
LINE
8
DEFAULT_255_1_234
10
19.1387636
20
0.7017327
11
19.1387636
21
0.5089709
0
LINE
8
DEFAULT_255_1_234
10
18.4006468
20
0.4888916
11
18.4006468
21
0.6872755
0
LINE
8
DEFAULT_255_1_234
10
18.9901764
20
0.4688123
11
18.9901764
21
0.7121739
0
LINE
8
DEFAULT_255_1_234
10
18.549234
20
0.7234184
11
18.549234
21
0.4856789
0
ARC
8
DEFAULT_255_1_234
10
17.9140525
20
0.5040805
40
1.2247208
50
353.8441951
51
0.2287902
0
ARC
8
DEFAULT_255_1_234
10
18.3780029
20
0.4522806
40
0.7578929
50
344.4934747
51
353.9765454
0
ARC
8
DEFAULT_255_1_234
10
18.6772619
20
0.3671981
40
0.4467846
50
329.2803592
51
344.7472793
0
ARC
8
DEFAULT_255_1_234
10
18.7765444
20
0.3127018
40
0.3336173
50
324.9352394
51
328.6160465
0
ARC
8
DEFAULT_255_1_234
10
18.8142553
20
0.2863427
40
0.2876076
50
280.580143
51
324.9173126
0
ARC
8
DEFAULT_255_1_234
10
18.7741345
20
0.4534099
40
0.4592847
50
269.5977311
51
281.6734359
0
ARC
8
DEFAULT_255_1_234
10
18.7669251
20
0.4414173
40
0.4472986
50
256.6228859
51
270.51044
0
ARC
8
DEFAULT_255_1_234
10
18.7267229
20
0.2865877
40
0.2873874
50
215.8618325
51
257.2788573
0
ARC
8
DEFAULT_255_1_234
10
18.828826
20
0.3550977
40
0.4102928
50
197.9693508
51
215.2623606
0
ARC
8
DEFAULT_255_1_234
10
19.0773376
20
0.4389709
40
0.6725652
50
187.8816417
51
198.2346507
0
ARC
8
DEFAULT_255_1_234
10
19.4731584
20
0.4961079
40
1.0724845
50
180.8976217
51
188.0055519
0
ARC
8
DEFAULT_255_1_234
10
19.7531772
20
0.5064777
40
1.3526448
50
180.7449369
51
181.1510016
0
ARC
8
DEFAULT_255_1_234
10
19.5954501
20
0.6921042
40
1.1948131
50
173.7675579
51
180.231553
0
ARC
8
DEFAULT_255_1_234
10
19.1436648
20
0.7431666
40
0.7401564
50
164.3058563
51
173.9002247
0
ARC
8
DEFAULT_255_1_234
10
18.8524717
20
0.8270656
40
0.4371288
50
148.7922025
51
164.568378
0
ARC
8
DEFAULT_255_1_234
10
18.7573169
20
0.8801929
40
0.3282386
50
144.5883898
51
148.1176286
0
ARC
8
DEFAULT_255_1_234
10
18.7230067
20
0.9041315
40
0.2864044
50
101.6440918
51
144.514236
0
ARC
8
DEFAULT_255_1_234
10
18.7655134
20
0.7352069
40
0.4604934
50
89.5284041
51
102.5819763
0
ARC
8
DEFAULT_255_1_234
10
18.7734222
20
0.7313018
40
0.464401
50
77.0437873
51
90.5081339
0
ARC
8
DEFAULT_255_1_234
10
18.8136223
20
0.8955615
40
0.2953195
50
48.2778575
51
77.4994676
0
ARC
8
DEFAULT_255_1_234
10
18.8208855
20
0.9084746
40
0.2808655
50
36.3142134
51
47.6305865
0
ARC
8
DEFAULT_255_1_234
10
18.7340162
20
0.8499515
40
0.3855453
50
18.2931786
51
35.6769206
0
ARC
8
DEFAULT_255_1_234
10
18.479692
20
0.7626593
40
0.654423
50
8.024666
51
18.5605216
0
ARC
8
DEFAULT_255_1_234
10
18.063384
20
0.7011792
40
1.0752407
50
1.1274072
51
8.1718305
0
ARC
8
DEFAULT_255_1_234
10
17.7398031
20
0.6884885
40
1.3990231
50
0.5424119
51
1.3863029
0
ARC
8
DEFAULT_255_1_234
10
17.9219409
20
0.7157342
40
1.0682415
50
359.8090433
51
4.9407866
0
ARC
8
DEFAULT_255_1_234
10
18.3429423
20
0.7533113
40
0.6455691
50
4.8362157
51
12.2904523
0
ARC
8
DEFAULT_255_1_234
10
18.6184538
20
0.8146965
40
0.3633074
50
12.0805627
51
23.8173984
0
ARC
8
DEFAULT_255_1_234
10
18.7358243
20
0.8643919
40
0.2358723
50
24.2871213
51
31.3935614
0
ARC
8
DEFAULT_255_1_234
10
18.788294
20
0.8987233
40
0.1732111
50
30.7407893
51
82.4657128
0
ARC
8
DEFAULT_255_1_234
10
18.7703074
20
0.8103691
40
0.263235
50
81.1060089
51
90.2184952
0
ARC
8
DEFAULT_255_1_234
10
18.7667373
20
0.8361924
40
0.2374236
50
89.3806855
51
105.6762551
0
ARC
8
DEFAULT_255_1_234
10
18.7484004
20
0.9028567
40
0.1682847
50
105.7981136
51
149.7388061
0
ARC
8
DEFAULT_255_1_234
10
18.8548082
20
0.838895
40
0.2924306
50
149.4208916
51
163.6286378
0
ARC
8
DEFAULT_255_1_234
10
19.063897
20
0.775125
40
0.5110213
50
163.3763315
51
172.1410975
0
ARC
8
DEFAULT_255_1_234
10
19.3939689
20
0.7278518
40
0.8444586
50
172.0259487
51
178.0703232
0
ARC
8
DEFAULT_255_1_234
10
19.6969779
20
0.7134906
40
1.1477868
50
177.8631668
51
179.5044149
0
ARC
8
DEFAULT_255_1_234
10
19.5897183
20
0.4820389
40
1.0404907
50
179.7995573
51
185.2460446
0
ARC
8
DEFAULT_255_1_234
10
19.1854223
20
0.4437513
40
0.6343885
50
185.1411642
51
193.0079639
0
ARC
8
DEFAULT_255_1_234
10
18.9210695
20
0.3812641
40
0.3627568
50
192.7897626
51
205.2507664
0
ARC
8
DEFAULT_255_1_234
10
18.8164242
20
0.3345415
40
0.2481908
50
205.8005384
51
211.2537509
0
ARC
8
DEFAULT_255_1_234
10
18.7640683
20
0.299458
40
0.1852521
50
210.3789793
51
238.4008143
0
ARC
8
DEFAULT_255_1_234
10
18.7621204
20
0.3041376
40
0.1882621
50
239.6520629
51
265.9793761
0
ARC
8
DEFAULT_255_1_234
10
18.7706405
20
0.3713427
40
0.2559272
50
265.1315437
51
270.060332
0
ARC
8
DEFAULT_255_1_234
10
18.7735183
20
0.3389534
40
0.2235528
50
269.3314664
51
287.2178029
0
ARC
8
DEFAULT_255_1_234
10
18.7873035
20
0.2886279
40
0.1714108
50
287.7958004
51
329.080874
0
ARC
8
DEFAULT_255_1_234
10
18.6915492
20
0.348393
40
0.2842745
50
328.6634704
51
343.3325132
0
ARC
8
DEFAULT_255_1_234
10
18.4742512
20
0.4160863
40
0.5118644
50
343.0499468
51
351.9393422
0
ARC
8
DEFAULT_255_1_234
10
18.1275812
20
0.4671949
40
0.8622784
50
351.8069023
51
357.7959224
0
ARC
8
DEFAULT_255_1_234
10
17.8040368
20
0.4839721
40
1.1862365
50
357.5871873
51
359.2677531
0
LINE
8
DEFAULT_255_1_234
10
19.7732709
20
0.0102
11
19.3676681
21
0.0102
0
LINE
8
DEFAULT_255_1_234
10
19.3676681
20
0.0102
11
19.3676681
21
1.1796211
0
LINE
8
DEFAULT_255_1_234
10
19.3676681
20
1.1796211
11
19.7499789
21
1.1796211
0
LINE
8
DEFAULT_255_1_234
10
19.7788931
20
0.5571614
11
19.5218775
21
0.5571614
0
LINE
8
DEFAULT_255_1_234
10
19.5218775
20
0.5571614
11
19.5218775
21
0.1362983
0
LINE
8
DEFAULT_255_1_234
10
19.5218775
20
0.1362983
11
19.7764836
21
0.1362983
0
LINE
8
DEFAULT_255_1_234
10
19.5218775
20
1.0527196
11
19.5218775
21
0.6808501
0
LINE
8
DEFAULT_255_1_234
10
19.5218775
20
0.6808501
11
19.7547979
21
0.6808501
0
LINE
8
DEFAULT_255_1_234
10
19.7499789
20
1.0527196
11
19.5218775
21
1.0527196
0
ARC
8
DEFAULT_255_1_234
10
19.7537497
20
0.4428901
40
0.7367406
50
82.1257326
51
90.2932599
0
ARC
8
DEFAULT_255_1_234
10
19.7926452
20
0.7147013
40
0.4621653
50
69.9044149
51
82.2857423
0
ARC
8
DEFAULT_255_1_234
10
19.849713
20
0.8689637
40
0.2976871
50
51.1838526
51
70.0181538
0
ARC
8
DEFAULT_255_1_234
10
19.8752096
20
0.906024
40
0.2528517
50
12.1017251
51
50.4214761
0
ARC
8
DEFAULT_255_1_234
10
19.736797
20
0.8712676
40
0.3955061
50
359.5251267
51
12.8211707
0
ARC
8
DEFAULT_255_1_234
10
19.8947897
20
0.8643344
40
0.2375281
50
323.4908128
51
0.8817314
0
ARC
8
DEFAULT_255_1_234
10
19.8529583
20
0.896655
40
0.2903817
50
298.6825083
51
323.2756573
0
ARC
8
DEFAULT_255_1_234
10
19.8167946
20
0.9567649
40
0.3604842
50
293.1999386
51
299.1396394
0
ARC
8
DEFAULT_255_1_234
10
19.8840919
20
0.3482126
40
0.2871098
50
54.0011765
51
74.9167975
0
ARC
8
DEFAULT_255_1_234
10
19.8957278
20
0.3679332
40
0.2643248
50
36.3580696
51
53.5291921
0
ARC
8
DEFAULT_255_1_234
10
19.8830521
20
0.3588998
40
0.2798884
50
4.8189881
51
36.3089977
0
ARC
8
DEFAULT_255_1_234
10
19.8051356
20
0.347927
40
0.358478
50
359.9370252
51
5.5204067
0
ARC
8
DEFAULT_255_1_234
10
19.7726877
20
0.3438667
40
0.3909429
50
344.7478609
51
0.5373281
0
ARC
8
DEFAULT_255_1_234
10
19.8717848
20
0.3171544
40
0.2883093
50
311.1786488
51
344.6886812
0
ARC
8
DEFAULT_255_1_234
10
19.8425896
20
0.3534987
40
0.3348923
50
286.0418249
51
310.8441291
0
ARC
8
DEFAULT_255_1_234
10
19.7918727
20
0.5181807
40
0.5071869
50
274.1042341
51
286.4071509
0
ARC
8
DEFAULT_255_1_234
10
19.7741983
20
0.7065229
40
0.6963234
50
269.9236873
51
274.445647
0
ARC
8
DEFAULT_255_1_234
10
19.7787984
20
0.4725537
40
0.3362634
50
269.6055768
51
281.3740047
0
ARC
8
DEFAULT_255_1_234
10
19.8018622
20
0.3632353
40
0.224546
50
281.1055983
51
302.5132223
0
ARC
8
DEFAULT_255_1_234
10
19.8165522
20
0.3368823
40
0.1944357
50
303.0368945
51
311.8811219
0
ARC
8
DEFAULT_255_1_234
10
19.8236928
20
0.328389
40
0.1833454
50
311.9916004
51
351.7143462
0
ARC
8
DEFAULT_255_1_234
10
19.7420158
20
0.344893
40
0.2665871
50
350.7339597
51
0.2221581
0
ARC
8
DEFAULT_255_1_234
10
19.7312604
20
0.3505467
40
0.2773789
50
359.0456241
51
17.2296242
0
ARC
8
DEFAULT_255_1_234
10
19.8351721
20
0.3814163
40
0.1689915
50
17.6685481
51
78.9940892
0
ARC
8
DEFAULT_255_1_234
10
19.7834885
20
0.1959224
40
0.3612658
50
76.5635957
51
90.6980921
0
LINE
8
DEFAULT_255_1_234
10
19.779087
20
0.5571613
11
19.7788931
21
0.5571614
0
ARC
8
DEFAULT_255_1_234
10
19.7570545
20
1.0094036
40
0.3285612
50
269.6064736
51
281.4533503
0
ARC
8
DEFAULT_255_1_234
10
19.7793365
20
0.9042688
40
0.2210975
50
281.2041486
51
302.5148063
0
ARC
8
DEFAULT_255_1_234
10
19.7930215
20
0.8796241
40
0.1929674
50
303.021671
51
309.8369575
0
ARC
8
DEFAULT_255_1_234
10
19.8113677
20
0.8590488
40
0.1654181
50
309.5228395
51
356.9509836
0
ARC
8
DEFAULT_255_1_234
10
19.7450259
20
0.8685932
40
0.2322512
50
355.4701227
51
0.0492546
0
ARC
8
DEFAULT_255_1_234
10
19.717135
20
0.8708094
40
0.2601498
50
359.5558597
51
11.2096359
0
ARC
8
DEFAULT_255_1_234
10
19.812864
20
0.890623
40
0.1623975
50
10.9182341
51
31.3230275
0
ARC
8
DEFAULT_255_1_234
10
19.8414374
20
0.9065214
40
0.1297302
50
31.8852677
51
52.1412565
0
ARC
8
DEFAULT_255_1_234
10
19.8140106
20
0.867775
40
0.1771663
50
52.8285564
51
71.9850297
0
ARC
8
DEFAULT_255_1_234
10
19.7764283
20
0.7571664
40
0.2939794
50
71.6863486
51
82.8455995
0
ARC
8
DEFAULT_255_1_234
10
19.7524819
20
0.5762149
40
0.476506
50
82.6984714
51
90.1729175
0
ARC
8
DEFAULT_255_1_234
10
19.7502453
20
0.6985623
40
0.3541573
50
89.8708275
51
90.0431131
0
LINE
8
DEFAULT_255_1_234
10
21.1491077
20
0.0102
11
21.0374665
21
0.3154061
0
LINE
8
DEFAULT_255_1_234
10
21.0374665
20
0.3154061
11
20.5475305
21
0.3154061
0
LINE
8
DEFAULT_255_1_234
10
20.5475305
20
0.3154061
11
20.4374957
21
0.0102
0
LINE
8
DEFAULT_255_1_234
10
20.4374957
20
0.0102
11
20.2784672
21
0.0102
0
LINE
8
DEFAULT_255_1_234
10
20.2784672
20
0.0102
11
20.7250319
21
1.1796211
0
LINE
8
DEFAULT_255_1_234
10
20.7250319
20
1.1796211
11
20.8599651
21
1.1796211
0
LINE
8
DEFAULT_255_1_234
10
20.8599651
20
1.1796211
11
21.3073329
21
0.0102
0
LINE
8
DEFAULT_255_1_234
10
21.3073329
20
0.0102
11
21.1491077
21
0.0102
0
LINE
8
DEFAULT_255_1_234
10
20.7924985
20
0.9892689
11
20.5941146
21
0.4423075
0
LINE
8
DEFAULT_255_1_234
10
20.5941146
20
0.4423075
11
20.9916856
21
0.4423075
0
LINE
8
DEFAULT_255_1_234
10
20.9916856
20
0.4423075
11
20.7924985
21
0.9892689
0
LINE
8
DEFAULT_255_1_234
10
22.1924305
20
0.1314792
11
22.1924305
21
0.0102
0
LINE
8
DEFAULT_255_1_234
10
22.1924305
20
0.0102
11
21.4262026
21
0.0102
0
LINE
8
DEFAULT_255_1_234
10
21.4262026
20
0.0102
11
21.4262026
21
0.1170221
0
LINE
8
DEFAULT_255_1_234
10
21.4262026
20
0.1170221
11
21.8310022
21
0.5667995
0
LINE
8
DEFAULT_255_1_234
10
21.5523009
20
0.8350595
11
21.4037138
21
0.8350595
0
LINE
8
DEFAULT_255_1_234
10
21.9185482
20
0.4712218
11
21.6053104
21
0.1314792
0
LINE
8
DEFAULT_255_1_234
10
21.6053104
20
0.1314792
11
22.1924305
21
0.1314792
0
ARC
8
DEFAULT_255_1_234
10
20.4819856
20
1.7597527
40
1.8008286
50
318.5132453
51
320.7828378
0
ARC
8
DEFAULT_255_1_234
10
21.010683
20
1.3294426
40
1.1191493
50
320.7372736
51
323.9737074
0
ARC
8
DEFAULT_255_1_234
10
21.4026687
20
1.0454361
40
0.6350923
50
323.8961724
51
328.6421089
0
ARC
8
DEFAULT_255_1_234
10
21.6073282
20
0.9192031
40
0.3946393
50
328.8299013
51
331.789948
0
ARC
8
DEFAULT_255_1_234
10
21.7070461
20
0.8677509
40
0.2824501
50
331.4255242
51
352.9364833
0
ARC
8
DEFAULT_255_1_234
10
21.7206961
20
0.8646976
40
0.2685315
50
353.2248685
51
0.0169286
0
ARC
8
DEFAULT_255_1_234
10
21.7416838
20
0.866995
40
0.2475536
50
359.4866256
51
15.9339782
0
ARC
8
DEFAULT_255_1_234
10
21.7923823
20
0.8806286
40
0.1950618
50
16.1714718
51
43.5284424
0
ARC
8
DEFAULT_255_1_234
10
21.8001132
20
0.8883573
40
0.184134
50
43.4415429
51
83.1661404
0
ARC
8
DEFAULT_255_1_234
10
21.786705
20
0.8146771
40
0.258926
50
82.160215
51
90.1505798
0
ARC
8
DEFAULT_255_1_234
10
21.7835477
20
0.7609865
40
0.3126255
50
89.5460705
51
102.5418777
0
ARC
8
DEFAULT_255_1_234
10
21.7592564
20
0.8640665
40
0.2067346
50
102.1739365
51
129.2061916
0
ARC
8
DEFAULT_255_1_234
10
21.7513635
20
0.8765094
40
0.1921118
50
129.7279328
51
135.7542026
0
ARC
8
DEFAULT_255_1_234
10
21.7635163
20
0.8668045
40
0.2075944
50
136.175737
51
166.3674722
0
ARC
8
DEFAULT_255_1_234
10
21.8642082
20
0.8398182
40
0.3118201
50
165.9092917
51
178.8683903
0
ARC
8
DEFAULT_255_1_234
10
21.9506943
20
0.8351179
40
0.3983935
50
178.438168
51
180.0083905
0
ARC
8
DEFAULT_255_1_234
10
21.8105546
20
0.8390231
40
0.4068601
50
163.2878735
51
180.5581814
0
ARC
8
DEFAULT_255_1_234
10
21.7303807
20
0.861084
40
0.3237344
50
133.454115
51
162.9470031
0
ARC
8
DEFAULT_255_1_234
10
21.7482348
20
0.8421
40
0.349795
50
100.7869394
51
133.4384016
0
ARC
8
DEFAULT_255_1_234
10
21.783012
20
0.6872319
40
0.5084616
50
89.6605301
51
101.3704185
0
ARC
8
DEFAULT_255_1_234
10
21.7896459
20
0.6933496
40
0.502348
50
78.2171172
51
90.4130393
0
ARC
8
DEFAULT_255_1_234
10
21.8251537
20
0.8557637
40
0.3361092
50
55.9268222
51
78.4888551
0
ARC
8
DEFAULT_255_1_234
10
21.8447977
20
0.8896324
40
0.2970617
50
47.9292255
51
55.4054003
0
ARC
8
DEFAULT_255_1_234
10
21.8549538
20
0.8999502
40
0.2825983
50
4.3347696
51
48.0560701
0
ARC
8
DEFAULT_255_1_234
10
21.7453931
20
0.8829601
40
0.393225
50
359.925209
51
5.5967654
0
ARC
8
DEFAULT_255_1_234
10
21.7882823
20
0.8885816
40
0.3503892
50
337.8914096
51
358.9967724
0
ARC
8
DEFAULT_255_1_234
10
21.5169235
20
0.9932706
40
0.6412172
50
326.9135351
51
338.3505194
0
ARC
8
DEFAULT_255_1_234
10
21.1183539
20
1.2487284
40
1.1146189
50
319.6472867
51
327.095818
0
ARC
8
DEFAULT_255_1_234
10
20.7350542
20
1.5649
40
1.6114559
50
317.2586784
51
319.9046139
0
ARC
8
DEFAULT_255_2_778
10
7.7537338
20
76.1512992
40
3.0484709
50
251.6854144
51
258.6071955
0
ARC
8
DEFAULT_255_2_778
10
7.539521
20
75.0696738
40
1.9458471
50
258.4992492
51
268.3986479
0
ARC
8
DEFAULT_255_2_778
10
7.5172314
20
74.6394206
40
1.5151737
50
268.7865272
51
269.9950384
0
ARC
8
DEFAULT_255_2_778
10
7.5277432
20
74.1882355
40
1.0640417
50
269.426895
51
279.6711067
0
ARC
8
DEFAULT_255_2_778
10
7.6417753
20
73.5586746
40
0.4243233
50
278.7731084
51
300.3324923
0
ARC
8
DEFAULT_255_2_778
10
7.760746
20
73.3560552
40
0.1893587
50
300.2240287
51
1.9041213
0
ARC
8
DEFAULT_255_2_778
10
7.7452705
20
73.3652089
40
0.2047497
50
359.1991369
51
359.99965
0
ARC
8
DEFAULT_255_2_778
10
7.7523233
20
73.3660378
40
0.1976988
50
359.7594145
51
47.1793976
0
ARC
8
DEFAULT_255_2_778
10
7.6187277
20
73.217431
40
0.3975169
50
47.6144502
51
60.8366176
0
ARC
8
DEFAULT_255_2_778
10
7.0190958
20
72.2014865
40
1.5771337
50
59.799464
51
64.8885807
0
ARC
8
DEFAULT_255_2_778
10
6.0948833
20
70.2724682
40
3.7160912
50
64.6076081
51
66.8386974
0
ARC
8
DEFAULT_255_2_778
10
9.6419609
20
78.6355052
40
5.368109
50
244.3032309
51
247.1393781
0
ARC
8
DEFAULT_255_2_778
10
8.5507088
20
76.375518
40
2.8584574
50
240.2323579
51
244.3709759
0
ARC
8
DEFAULT_255_2_778
10
7.7800475
20
75.0386591
40
1.315392
50
233.2209971
51
240.4606284
0
ARC
8
DEFAULT_255_2_778
10
7.3561477
20
74.4675187
40
0.6041399
50
225.6990744
51
232.9899679
0
ARC
8
DEFAULT_255_2_778
10
7.3965073
20
74.4919214
40
0.6499005
50
178.2783416
51
224.6550883
0
ARC
8
DEFAULT_255_2_778
10
7.5059624
20
74.5252974
40
0.7591885
50
157.033673
51
181.0453383
0
ARC
8
DEFAULT_255_2_778
10
7.378439
20
74.5661396
40
0.6259551
50
124.9113017
51
155.9211516
0
ARC
8
DEFAULT_255_2_778
10
7.5960466
20
74.2575681
40
1.0035357
50
100.4079723
51
125.0168617
0
ARC
8
DEFAULT_255_2_778
10
7.6991199
20
73.7635046
40
1.5081396
50
89.6483922
51
100.8684975
0
ARC
8
DEFAULT_255_2_778
10
7.7083242
20
73.4112988
40
1.8603169
50
89.5079487
51
89.9984402
0
ARC
8
DEFAULT_255_2_778
10
7.7099573
20
73.3460694
40
1.9255311
50
83.9170631
51
89.5732113
0
ARC
8
DEFAULT_255_2_778
10
7.5071517
20
71.3384957
40
3.9433074
50
80.7325723
51
84.0779772
0
ARC
8
DEFAULT_255_2_778
10
7.0208457
20
68.315582
40
7.0050837
50
78.5086351
51
80.7886813
0
ARC
8
DEFAULT_255_2_778
10
7.6620177
20
72.9150544
40
1.9415426
50
67.135818
51
78.0934208
0
ARC
8
DEFAULT_255_2_778
10
7.7851814
20
73.4854809
40
1.3579807
50
78.2126325
51
89.7333975
0
ARC
8
DEFAULT_255_2_778
10
7.7793853
20
73.9006211
40
0.9429038
50
89.2638155
51
100.5666868
0
ARC
8
DEFAULT_255_2_778
10
7.6660949
20
74.4704419
40
0.362036
50
99.4784875
51
124.329414
0
ARC
8
DEFAULT_255_2_778
10
7.5705593
20
74.618551
40
0.1859067
50
125.7571195
51
182.2824883
0
ARC
8
DEFAULT_255_2_778
10
7.5493239
20
74.6118629
40
0.1645253
50
180.2492993
51
239.8144161
0
ARC
8
DEFAULT_255_2_778
10
7.932718
20
75.2119128
40
0.876484
50
237.8725734
51
242.8068846
0
ARC
8
DEFAULT_255_2_778
10
9.4175857
20
78.0284958
40
4.0604642
50
242.3328458
51
244.031083
0
ARC
8
DEFAULT_255_2_778
10
12.3804066
20
84.0769314
40
10.7955807
50
243.950624
51
244.8024316
0
ARC
8
DEFAULT_255_2_778
10
15.4009918
20
90.4609175
40
17.8580926
50
244.7535425
51
244.9563234
0
ARC
8
DEFAULT_255_2_778
10
5.8652927
20
69.9593264
40
4.7527588
50
62.2505456
51
65.4301556
0
ARC
8
DEFAULT_255_2_778
10
6.9275435
20
71.9674172
40
2.4810291
50
57.2951304
51
62.3684211
0
ARC
8
DEFAULT_255_2_778
10
7.6807233
20
73.1307235
40
1.0952081
50
48.7345704
51
57.5685367
0
ARC
8
DEFAULT_255_2_778
10
8.0117486
20
73.5182722
40
0.5856147
50
44.3236031
51
48.0704418
0
ARC
8
DEFAULT_255_2_778
10
7.9783002
20
73.4982468
40
0.6236013
50
1.3523843
51
43.4925744
0
ARC
8
DEFAULT_255_2_778
10
7.7103531
20
73.4653151
40
0.8926473
50
359.9763756
51
3.0599076
0
ARC
8
DEFAULT_255_2_778
10
7.8645343
20
73.4502407
40
0.7386124
50
333.0361889
51
1.1408766
0
ARC
8
DEFAULT_255_2_778
10
7.8947908
20
73.4571919
40
0.7150741
50
300.8430083
51
331.4403095
0
ARC
8
DEFAULT_255_2_778
10
7.694568
20
73.7707162
40
1.0869673
50
281.4258583
51
301.4316118
0
ARC
8
DEFAULT_255_2_778
10
7.5632666
20
74.3789414
40
1.7091691
50
270.2273513
51
281.7010805
0
ARC
8
DEFAULT_255_2_778
10
7.5453797
20
74.8556043
40
2.1859577
50
269.9983113
51
270.6466065
0
LINE
8
DEFAULT_255_2_778
10
7.5453153
20
72.6696465
11
7.5438002
21
72.669647
0
ARC
8
DEFAULT_255_2_778
10
7.5509161
20
75.8525969
40
3.1829579
50
256.2431122
51
269.871909
0
ARC
8
DEFAULT_255_2_778
10
21.7538511
20
76.0771629
40
2.9720345
50
251.5709223
51
258.7508181
0
ARC
8
DEFAULT_255_2_778
10
21.5538128
20
75.0539385
40
1.9294488
50
258.6495077
51
268.8281511
0
ARC
8
DEFAULT_255_2_778
10
21.5355488
20
74.6591193
40
1.5343723
50
269.2085037
51
269.9981866
0
ARC
8
DEFAULT_255_2_778
10
21.5473849
20
74.1907184
40
1.0660376
50
269.3612297
51
279.5899087
0
ARC
8
DEFAULT_255_2_778
10
21.6608439
20
73.5592324
40
0.424527
50
278.6895227
51
300.2363944
0
ARC
8
DEFAULT_255_2_778
10
21.7799083
20
73.3557793
40
0.188796
50
300.1108484
51
1.9024905
0
ARC
8
DEFAULT_255_2_778
10
21.7439577
20
73.3664221
40
0.2246851
50
358.8842611
51
0.0019649
0
ARC
8
DEFAULT_255_2_778
10
21.7769791
20
73.3703385
40
0.1917038
50
358.831716
51
47.0900458
0
ARC
8
DEFAULT_255_2_778
10
21.6364654
20
73.210984
40
0.4041259
50
47.8812665
51
61.174665
0
ARC
8
DEFAULT_255_2_778
10
21.0418848
20
72.1910117
40
1.5846568
50
60.1210877
51
65.1917015
0
ARC
8
DEFAULT_255_2_778
10
20.1415278
20
70.2854122
40
3.6922188
50
64.9168629
51
67.1565628
0
ARC
8
DEFAULT_255_2_778
10
23.6275467
20
78.5569888
40
5.2839333
50
244.2656926
51
247.1407051
0
ARC
8
DEFAULT_255_2_778
10
22.5594997
20
76.348765
40
2.8309849
50
240.1545061
51
244.3326325
0
ARC
8
DEFAULT_255_2_778
10
21.7856548
20
75.0127346
40
1.2870531
50
232.697515
51
240.4357497
0
ARC
8
DEFAULT_255_2_778
10
21.3705506
20
74.4617218
40
0.5972006
50
225.5850892
51
232.3393736
0
ARC
8
DEFAULT_255_2_778
10
21.4133941
20
74.4912933
40
0.6483829
50
178.7795739
51
224.7095916
0
ARC
8
DEFAULT_255_2_778
10
21.6669319
20
74.5153135
40
0.9018316
50
179.997867
51
180.6487041
0
ARC
8
DEFAULT_255_2_778
10
21.5167738
20
74.5291249
40
0.7517998
50
156.9195758
51
181.050088
0
ARC
8
DEFAULT_255_2_778
10
21.3928482
20
74.5685712
40
0.6224513
50
124.7111133
51
155.7879672
0
ARC
8
DEFAULT_255_2_778
10
21.6055459
20
74.2766942
40
0.9835402
50
101.7934503
51
125.2143527
0
ARC
8
DEFAULT_255_2_778
10
21.729848
20
73.7241326
40
1.5498677
50
89.5248728
51
102.1166783
0
ARC
8
DEFAULT_255_2_778
10
21.7283109
20
73.1705834
40
2.1034129
50
83.2889725
51
89.6080411
0
ARC
8
DEFAULT_255_2_778
10
21.529975
20
71.4027668
40
3.8823067
50
79.4764054
51
83.4308492
0
ARC
8
DEFAULT_255_2_778
10
21.2186357
20
69.6495673
40
5.6628977
50
78.2224868
51
79.6190915
0
ARC
8
DEFAULT_255_2_778
10
21.6838473
20
72.9270715
40
1.9311543
50
67.1323814
51
78.3148813
0
ARC
8
DEFAULT_255_2_778
10
21.801359
20
73.4785614
40
1.3672981
50
78.4565774
51
89.7552271
0
ARC
8
DEFAULT_255_2_778
10
21.7951366
20
73.909447
40
0.9364778
50
89.2619009
51
100.5950934
0
ARC
8
DEFAULT_255_2_778
10
21.6824182
20
74.4749169
40
0.3599879
50
99.5087086
51
124.406715
0
ARC
8
DEFAULT_255_2_778
10
21.5878565
20
74.621343
40
0.1858061
50
125.8630185
51
182.2986975
0
ARC
8
DEFAULT_255_2_778
10
21.5497296
20
74.6138047
40
0.1475296
50
179.9666559
51
180.100057
0
ARC
8
DEFAULT_255_2_778
10
21.566185
20
74.613793
40
0.163985
50
180.0859454
51
239.8819968
0
ARC
8
DEFAULT_255_2_778
10
21.9379018
20
75.2005619
40
0.8584853
50
238.072871
51
243.0442008
0
ARC
8
DEFAULT_255_2_778
10
23.4872034
20
78.1655845
40
4.2038426
50
242.5409111
51
244.1884903
0
ARC
8
DEFAULT_255_2_778
10
26.6463384
20
84.660196
40
11.4260319
50
244.1076525
51
244.9219574
0
ARC
8
DEFAULT_255_2_778
10
29.9038827
20
91.583855
40
19.0777309
50
244.8743531
51
245.066969
0
ARC
8
DEFAULT_255_2_778
10
19.8865272
20
69.9916274
40
4.7250654
50
62.0340028
51
65.293009
0
ARC
8
DEFAULT_255_2_778
10
20.9507744
20
71.9865758
40
2.464003
50
57.1127289
51
62.13736
0
ARC
8
DEFAULT_255_2_778
10
21.7037139
20
73.1402906
40
1.0863604
50
48.3695509
51
57.4197129
0
ARC
8
DEFAULT_255_2_778
10
22.0286268
20
73.5170419
40
0.5889589
50
44.472493
51
47.6467012
0
ARC
8
DEFAULT_255_2_778
10
21.9979457
20
73.4999032
40
0.6229283
50
1.2061613
51
43.6203607
0
ARC
8
DEFAULT_255_2_778
10
21.7312413
20
73.4674903
40
0.890659
50
359.9779196
51
2.9299178
0
ARC
8
DEFAULT_255_2_778
10
21.8802547
20
73.4523837
40
0.7417924
50
333.172934
51
1.140392
0
ARC
8
DEFAULT_255_2_778
10
21.9146167
20
73.4570736
40
0.7135172
50
300.9808035
51
331.5913995
0
ARC
8
DEFAULT_255_2_778
10
21.7182603
20
73.7669862
40
1.0803281
50
281.9040909
51
301.4483918
0
ARC
8
DEFAULT_255_2_778
10
21.5848425
20
74.3655518
40
1.6935565
50
270.5796874
51
282.1436175
0
ARC
8
DEFAULT_255_2_778
10
21.5636722
20
74.8604735
40
2.1887267
50
269.9959074
51
271.0027751
0
LINE
8
DEFAULT_255_2_778
10
21.5635158
20
72.6717468
11
21.5625002
21
72.671747
0
ARC
8
DEFAULT_255_2_778
10
21.5700221
20
75.8605174
40
3.1887792
50
256.2556596
51
269.8648469
0
LINE
8
DEFAULT_255_2_778
10
6.7958002
20
72.762547
11
6.7958002
21
73.257247
0
LINE
8
DEFAULT_255_2_778
10
8.4164002
20
75.180247
11
8.4164002
21
74.704047
0
LINE
8
DEFAULT_255_2_778
10
6.7940002
20
72.760947
11
6.7958002
21
72.762547
0
LINE
8
DEFAULT_255_2_778
10
8.9866002
20
75.229747
11
9.6629002
21
75.229747
0
LINE
8
DEFAULT_255_2_778
10
9.6629002
20
75.229747
11
9.6629002
21
72.722347
0
LINE
8
DEFAULT_255_2_778
10
9.6629002
20
72.722347
11
8.9866002
21
72.722347
0
LINE
8
DEFAULT_255_2_778
10
8.9866002
20
72.722347
11
8.9866002
21
75.229747
0
LINE
8
DEFAULT_255_2_778
10
10.2809002
20
72.722347
11
10.2809002
21
75.229747
0
LINE
8
DEFAULT_255_2_778
10
10.2809002
20
75.229747
11
12.0132002
21
75.229747
0
LINE
8
DEFAULT_255_2_778
10
12.0132002
20
75.229747
11
12.0132002
21
74.776047
0
LINE
8
DEFAULT_255_2_778
10
12.0132002
20
74.776047
11
10.9321002
21
74.776047
0
LINE
8
DEFAULT_255_2_778
10
10.9321002
20
74.776047
11
10.9321002
21
74.209747
0
LINE
8
DEFAULT_255_2_778
10
10.9321002
20
74.209747
11
11.8735002
21
74.209747
0
LINE
8
DEFAULT_255_2_778
10
11.8735002
20
74.209747
11
11.8735002
21
73.796247
0
LINE
8
DEFAULT_255_2_778
10
11.8735002
20
73.796247
11
10.9321002
21
73.796247
0
LINE
8
DEFAULT_255_2_778
10
10.9321002
20
73.796247
11
10.9321002
21
73.200947
0
LINE
8
DEFAULT_255_2_778
10
10.9321002
20
73.200947
11
12.0412002
21
73.200947
0
LINE
8
DEFAULT_255_2_778
10
12.0412002
20
73.200947
11
12.0412002
21
72.720747
0
LINE
8
DEFAULT_255_2_778
10
12.0412002
20
72.720747
11
10.2809002
21
72.722347
0
LINE
8
DEFAULT_255_2_778
10
12.4817002
20
72.722347
11
12.4817002
21
75.229747
0
LINE
8
DEFAULT_255_2_778
10
12.4817002
20
75.229747
11
13.3575002
21
75.229747
0
LINE
8
DEFAULT_255_2_778
10
13.3575002
20
75.229747
11
13.9671002
21
73.627447
0
LINE
8
DEFAULT_255_2_778
10
13.9671002
20
73.627447
11
14.5897002
21
75.229747
0
LINE
8
DEFAULT_255_2_778
10
14.5897002
20
75.229747
11
15.4215002
21
75.229747
0
LINE
8
DEFAULT_255_2_778
10
15.4215002
20
75.229747
11
15.4215002
21
72.722347
0
LINE
8
DEFAULT_255_2_778
10
15.4215002
20
72.722347
11
14.7812002
21
72.722347
0
LINE
8
DEFAULT_255_2_778
10
14.7812002
20
72.722347
11
14.7812002
21
74.498147
0
LINE
8
DEFAULT_255_2_778
10
14.7812002
20
74.498147
11
14.0724002
21
72.697947
0
LINE
8
DEFAULT_255_2_778
10
14.0724002
20
72.697947
11
13.6515002
21
72.697947
0
LINE
8
DEFAULT_255_2_778
10
13.6515002
20
72.697947
11
12.9559002
21
74.498147
0
LINE
8
DEFAULT_255_2_778
10
12.9559002
20
74.498147
11
12.9559002
21
72.722047
0
LINE
8
DEFAULT_255_2_778
10
12.9559002
20
72.722047
11
12.4817002
21
72.722347
0
LINE
8
DEFAULT_255_2_778
10
16.0409002
20
72.722347
11
16.0409002
21
75.229747
0
LINE
8
DEFAULT_255_2_778
10
16.0409002
20
75.229747
11
17.7731002
21
75.229747
0
LINE
8
DEFAULT_255_2_778
10
17.7731002
20
75.229747
11
17.7731002
21
74.776047
0
LINE
8
DEFAULT_255_2_778
10
17.7731002
20
74.776047
11
16.6921002
21
74.776047
0
LINE
8
DEFAULT_255_2_778
10
16.6921002
20
74.776047
11
16.6921002
21
74.209747
0
LINE
8
DEFAULT_255_2_778
10
16.6921002
20
74.209747
11
17.6334002
21
74.209747
0
LINE
8
DEFAULT_255_2_778
10
17.6334002
20
74.209747
11
17.6334002
21
73.796247
0
LINE
8
DEFAULT_255_2_778
10
17.6334002
20
73.796247
11
16.6921002
21
73.796247
0
LINE
8
DEFAULT_255_2_778
10
16.6921002
20
73.796247
11
16.6921002
21
73.200947
0
LINE
8
DEFAULT_255_2_778
10
16.6921002
20
73.200947
11
17.8030002
21
73.200947
0
LINE
8
DEFAULT_255_2_778
10
17.8030002
20
73.200947
11
17.8030002
21
72.720747
0
LINE
8
DEFAULT_255_2_778
10
17.8030002
20
72.720747
11
16.0409002
21
72.722347
0
LINE
8
DEFAULT_255_2_778
10
18.2454002
20
72.722347
11
18.2454002
21
75.229747
0
LINE
8
DEFAULT_255_2_778
10
18.2454002
20
75.229747
11
19.0283002
21
75.229747
0
LINE
8
DEFAULT_255_2_778
10
19.0283002
20
75.229747
11
19.8586002
21
73.550947
0
LINE
8
DEFAULT_255_2_778
10
19.8586002
20
73.550947
11
19.8586002
21
75.229747
0
LINE
8
DEFAULT_255_2_778
10
19.8586002
20
75.229747
11
20.3343002
21
75.229747
0
LINE
8
DEFAULT_255_2_778
10
20.3343002
20
75.229747
11
20.3343002
21
72.722347
0
LINE
8
DEFAULT_255_2_778
10
20.3343002
20
72.722347
11
19.5739002
21
72.722347
0
LINE
8
DEFAULT_255_2_778
10
19.5739002
20
72.722347
11
18.7214002
21
74.423547
0
LINE
8
DEFAULT_255_2_778
10
18.7214002
20
74.423547
11
18.7214002
21
72.722347
0
LINE
8
DEFAULT_255_2_778
10
18.7214002
20
72.722347
11
18.2454002
21
72.722347
0
LINE
8
DEFAULT_255_2_778
10
20.8143002
20
72.762747
11
20.8143002
21
73.257547
0
LINE
8
DEFAULT_255_2_778
10
22.3745002
20
75.193247
11
22.4343002
21
75.182647
0
LINE
8
DEFAULT_255_2_778
10
22.4343002
20
75.182647
11
22.4343002
21
74.706447
0
LINE
8
DEFAULT_255_2_778
10
20.8124002
20
72.763047
11
20.8143002
21
72.762747
0
LINE
8
DEFAULT_255_2_778
10
17.3301834
20
35.5864333
11
19.9759834
21
35.5864333
0
LINE
8
DEFAULT_255_2_778
10
19.9759834
20
35.5864333
11
19.9759834
21
30.2947333
0
LINE
8
DEFAULT_255_2_778
10
19.9759834
20
30.2947333
11
17.3301834
21
30.2947333
0
LINE
8
DEFAULT_255_2_778
10
17.3301834
20
30.2947333
11
17.3301834
21
35.5864333
0
LINE
8
DEFAULT_255_2_778
10
18.124
20
34.7926833
11
18.124
21
31.0884833
0
ARC
8
DEFAULT_255_2_778
10
19.0491335
20
34.3966666
40
0.3960095
50
89.8710075
51
180.1289967
0
ARC
8
DEFAULT_255_2_778
10
19.050838
20
34.3966878
40
0.395988
50
359.8679252
51
90.1176342
0
ARC
8
DEFAULT_255_2_778
10
19.0508595
20
34.3949405
40
0.3959664
50
269.8792548
51
0.1207452
0
ARC
8
DEFAULT_255_2_778
10
19.0491123
20
34.3949621
40
0.3959881
50
179.8823802
51
270.1320647
0
LINE
8
DEFAULT_255_2_778
10
18.653125
20
34.395775
11
18.653125
21
34.395775
0
ARC
8
DEFAULT_255_2_778
10
19.0491335
20
31.4862666
40
0.3960095
50
89.8710075
51
180.1289967
0
ARC
8
DEFAULT_255_2_778
10
19.050838
20
31.4862878
40
0.395988
50
359.8679252
51
90.1176342
0
ARC
8
DEFAULT_255_2_778
10
19.0508595
20
31.4845405
40
0.3959664
50
269.8792548
51
0.1207452
0
ARC
8
DEFAULT_255_2_778
10
19.0491123
20
31.4845621
40
0.3959881
50
179.8823802
51
270.1320647
0
LINE
8
DEFAULT_255_2_778
10
18.653125
20
31.485375
11
18.653125
21
31.485375
0
LINE
8
DEFAULT_255_2_778
10
19.9760335
20
60.7218492
11
18.6531335
21
60.7218492
0
LINE
8
DEFAULT_255_2_778
10
18.6531335
20
60.7218492
11
18.6531335
21
35.5864492
0
LINE
8
DEFAULT_255_2_778
10
18.6531335
20
30.2947492
11
18.6531335
21
5.1593492
0
LINE
8
DEFAULT_255_2_778
10
18.6531335
20
5.1593492
11
19.9760335
21
5.1593492
0
LINE
8
DEFAULT_255_2_778
10
9.3927335
20
60.7218492
11
10.7156335
21
60.7218492
0
LINE
8
DEFAULT_255_2_778
10
10.7156335
20
60.7218492
11
10.7156335
21
51.4614492
0
LINE
8
DEFAULT_255_2_778
10
9.3926834
20
51.4614333
11
12.0384834
21
51.4614333
0
LINE
8
DEFAULT_255_2_778
10
12.0384834
20
51.4614333
11
12.0384834
21
46.1697333
0
LINE
8
DEFAULT_255_2_778
10
12.0384834
20
46.1697333
11
9.3926834
21
46.1697333
0
LINE
8
DEFAULT_255_2_778
10
9.3926834
20
46.1697333
11
9.3926834
21
51.4614333
0
LINE
8
DEFAULT_255_2_778
10
10.1865
20
46.6989666
11
10.1865
21
50.9322666
0
LINE
8
DEFAULT_255_2_778
10
9.9219167
20
50.138575
11
10.1865167
21
50.932275
0
LINE
8
DEFAULT_255_2_778
10
10.1865167
20
50.932275
11
10.4511167
21
50.138575
0
LINE
8
DEFAULT_255_2_778
10
10.4511167
20
50.138575
11
9.9219167
21
50.138575
0
LINE
8
DEFAULT_255_2_778
10
11.2448
20
50.9322666
11
11.2448
21
46.6989666
0
LINE
8
DEFAULT_255_2_778
10
10.9802167
20
47.492675
11
11.2448167
21
46.698975
0
LINE
8
DEFAULT_255_2_778
10
11.2448167
20
46.698975
11
11.5094167
21
47.492675
0
LINE
8
DEFAULT_255_2_778
10
11.5094167
20
47.492675
11
10.9802167
21
47.492675
0
LINE
8
DEFAULT_255_2_778
10
10.7156417
20
46.1698082
11
10.7156417
21
36.9094082
0
LINE
8
DEFAULT_255_2_778
10
10.7156417
20
36.9094082
11
9.3927417
21
36.9094082
0
LINE
8
DEFAULT_255_1_234
10
12.1280489
20
71.2941211
11
12.1280489
21
70.2507983
0
LINE
8
DEFAULT_255_1_234
10
12.1280489
20
70.2507983
11
12.6822389
21
70.2507983
0
LINE
8
DEFAULT_255_1_234
10
12.6822389
20
70.2507983
11
12.6822389
21
70.1247
0
LINE
8
DEFAULT_255_1_234
10
12.6822389
20
70.1247
11
11.9730364
21
70.1247
0
LINE
8
DEFAULT_255_1_234
10
11.9730364
20
70.1247
11
11.9730364
21
71.2941211
0
LINE
8
DEFAULT_255_1_234
10
11.9730364
20
71.2941211
11
12.1280489
21
71.2941211
0
LINE
8
DEFAULT_255_1_234
10
13.7054823
20
70.7455534
11
13.7054823
21
70.6716614
0
LINE
8
DEFAULT_255_1_234
10
12.7649658
20
70.6612201
11
12.7649658
21
70.7455534
0
LINE
8
DEFAULT_255_1_234
10
13.5520761
20
70.6604169
11
13.5520761
21
70.7471597
0
LINE
8
DEFAULT_255_1_234
10
12.918372
20
70.757601
11
12.918372
21
70.6716614
0
ARC
8
DEFAULT_255_1_234
10
12.841285
20
70.6677015
40
0.8642064
50
350.487711
51
0.2625388
0
ARC
8
DEFAULT_255_1_234
10
13.0706091
20
70.6282578
40
0.631518
50
336.0277639
51
350.5787438
0
ARC
8
DEFAULT_255_1_234
10
13.2050914
20
70.5674892
40
0.4839466
50
319.8877444
51
336.1328423
0
ARC
8
DEFAULT_255_1_234
10
13.2653555
20
70.519258
40
0.4067874
50
302.4806467
51
319.6143626
0
ARC
8
DEFAULT_255_1_234
10
13.2538566
20
70.5414202
40
0.4316636
50
275.8195682
51
302.1884709
0
ARC
8
DEFAULT_255_1_234
10
13.2372199
20
70.6556665
40
0.5470306
50
269.9171439
51
276.3397983
0
ARC
8
DEFAULT_255_1_234
10
13.2327409
20
70.5870681
40
0.4784458
50
252.5219675
51
270.4416499
0
ARC
8
DEFAULT_255_1_234
10
13.2183668
20
70.5331592
40
0.422716
50
237.5352116
51
252.1857531
0
ARC
8
DEFAULT_255_1_234
10
13.2272863
20
70.5445363
40
0.4371052
50
209.063312
51
237.3492538
0
ARC
8
DEFAULT_255_1_234
10
13.3142711
20
70.5991685
40
0.5397041
50
205.1183774
51
209.6470015
0
ARC
8
DEFAULT_255_1_234
10
13.3939748
20
70.632983
40
0.6262326
50
188.7215458
51
204.8240747
0
ARC
8
DEFAULT_255_1_234
10
13.5937277
20
70.6666067
40
0.8287794
50
180.3723947
51
188.9252049
0
ARC
8
DEFAULT_255_1_234
10
13.5910028
20
70.7495402
40
0.8260467
50
169.5253763
51
180.2765336
0
ARC
8
DEFAULT_255_1_234
10
13.4007477
20
70.7845309
40
0.6326007
50
155.8315255
51
169.5089989
0
ARC
8
DEFAULT_255_1_234
10
13.2726978
20
70.8439348
40
0.4914567
50
139.6258461
51
156.0379525
0
ARC
8
DEFAULT_255_1_234
10
13.2137312
20
70.8913799
40
0.4158054
50
122.6416387
51
139.3430715
0
ARC
8
DEFAULT_255_1_234
10
13.2237931
20
70.8730451
40
0.4366739
50
93.0223692
51
122.455762
0
ARC
8
DEFAULT_255_1_234
10
13.2345928
20
70.7765709
40
0.5336137
50
89.975342
51
93.6341897
0
ARC
8
DEFAULT_255_1_234
10
13.2384708
20
70.8164242
40
0.4937738
50
73.746375
51
90.4233405
0
ARC
8
DEFAULT_255_1_234
10
13.2560286
20
70.8844287
40
0.4235786
50
57.662753
51
73.4518111
0
ARC
8
DEFAULT_255_1_234
10
13.2552292
20
70.8865832
40
0.4221899
50
29.1440151
51
57.414694
0
ARC
8
DEFAULT_255_1_234
10
13.1617487
20
70.8282005
40
0.5322966
50
24.0982783
51
29.7323517
0
ARC
8
DEFAULT_255_1_234
10
13.0583762
20
70.7853399
40
0.6441673
50
8.6655297
51
23.8241346
0
ARC
8
DEFAULT_255_1_234
10
12.8349501
20
70.7488854
40
0.8705386
50
359.7806941
51
8.8218784
0
ARC
8
DEFAULT_255_1_234
10
12.7202499
20
70.7514345
40
0.8318373
50
359.7055579
51
8.036044
0
ARC
8
DEFAULT_255_1_234
10
13.0202505
20
70.7951239
40
0.5286768
50
7.8928306
51
20.2962107
0
ARC
8
DEFAULT_255_1_234
10
13.1830075
20
70.8551395
40
0.3552073
50
20.3231126
51
36.4992797
0
ARC
8
DEFAULT_255_1_234
10
13.2515621
20
70.9079402
40
0.2686974
50
36.1437156
51
85.6627023
0
ARC
8
DEFAULT_255_1_234
10
13.2353167
20
70.8039221
40
0.373739
50
84.3852322
51
90.0757696
0
ARC
8
DEFAULT_255_1_234
10
13.2310839
20
70.8699839
40
0.3076997
50
89.3038458
51
109.9045693
0
ARC
8
DEFAULT_255_1_234
10
13.221823
20
70.9082062
40
0.2686424
50
110.8228367
51
143.9179474
0
ARC
8
DEFAULT_255_1_234
10
13.3151891
20
70.8369236
40
0.3860887
50
143.5289163
51
163.2980757
0
ARC
8
DEFAULT_255_1_234
10
13.5059712
20
70.7769433
40
0.5860659
50
163.0418846
51
174.3140048
0
ARC
8
DEFAULT_255_1_234
10
13.7463824
20
70.7491854
40
0.8280531
50
174.0509143
51
179.4176892
0
ARC
8
DEFAULT_255_1_234
10
13.6959562
20
70.6674954
40
0.7775954
50
179.6930361
51
188.7906598
0
ARC
8
DEFAULT_255_1_234
10
13.4296041
20
70.6248935
40
0.5078633
50
188.6331305
51
202.5629587
0
ARC
8
DEFAULT_255_1_234
10
13.3041633
20
70.5744996
40
0.3726913
50
202.8081362
51
216.1193925
0
ARC
8
DEFAULT_255_1_234
10
13.2232204
20
70.5093676
40
0.2689577
50
215.0755913
51
264.6379694
0
ARC
8
DEFAULT_255_1_234
10
13.2359153
20
70.5924513
40
0.3528978
50
263.846392
51
270.0833719
0
ARC
8
DEFAULT_255_1_234
10
13.2400543
20
70.5666374
40
0.3271036
50
269.3649385
51
287.5152008
0
ARC
8
DEFAULT_255_1_234
10
13.2578701
20
70.5019238
40
0.2600406
50
288.0630309
51
323.8113348
0
ARC
8
DEFAULT_255_1_234
10
13.1707543
20
70.5669049
40
0.3687189
50
323.6547608
51
342.6590488
0
ARC
8
DEFAULT_255_1_234
10
12.9676158
20
70.6329952
40
0.5823286
50
342.4091907
51
353.6451149
0
ARC
8
DEFAULT_255_1_234
10
12.6844669
20
70.668219
40
0.8676442
50
353.4029884
51
359.4847795
0
LINE
8
DEFAULT_255_1_234
10
14.8002083
20
70.707001
11
14.8002083
21
70.2781062
0
LINE
8
DEFAULT_255_1_234
10
13.8990472
20
70.6531884
11
13.8990472
21
70.7551915
0
LINE
8
DEFAULT_255_1_234
10
14.8002083
20
70.9511659
11
14.6459989
21
70.9511659
0
LINE
8
DEFAULT_255_1_234
10
14.0540598
20
70.7592073
11
14.0540598
21
70.6636296
0
LINE
8
DEFAULT_255_1_234
10
14.6468021
20
70.3190681
11
14.6468021
21
70.5817059
0
LINE
8
DEFAULT_255_1_234
10
14.6468021
20
70.5817059
11
14.3761325
21
70.5817059
0
LINE
8
DEFAULT_255_1_234
10
14.3761325
20
70.5817059
11
14.3761325
21
70.707001
0
LINE
8
DEFAULT_255_1_234
10
14.3761325
20
70.707001
11
14.8002083
21
70.707001
0
ARC
8
DEFAULT_255_1_234
10
14.5170589
20
70.4774396
40
0.3462765
50
295.8437914
51
324.8549609
0
ARC
8
DEFAULT_255_1_234
10
14.4754556
20
70.5527567
40
0.4322211
50
291.5695085
51
296.4549398
0
ARC
8
DEFAULT_255_1_234
10
14.4243808
20
70.6892275
40
0.5779178
50
278.6622409
51
291.3045483
0
ARC
8
DEFAULT_255_1_234
10
14.3904299
20
70.9040408
40
0.7953952
50
270.020006
51
278.7494541
0
ARC
8
DEFAULT_255_1_234
10
14.3866223
20
71.0357036
40
0.927067
50
269.9969998
51
270.2524872
0
ARC
8
DEFAULT_255_1_234
10
14.3827936
20
70.6273589
40
0.5187361
50
253.5786322
51
270.4175299
0
ARC
8
DEFAULT_255_1_234
10
14.3654592
20
70.5602236
40
0.4494451
50
238.8203306
51
253.2788235
0
ARC
8
DEFAULT_255_1_234
10
14.3634965
20
70.5551231
40
0.4440665
50
206.7883783
51
238.6962764
0
ARC
8
DEFAULT_255_1_234
10
14.4408875
20
70.6015405
40
0.5341121
50
206.1129412
51
207.4916643
0
ARC
8
DEFAULT_255_1_234
10
14.500579
20
70.6269488
40
0.5989041
50
188.6921119
51
205.7821245
0
ARC
8
DEFAULT_255_1_234
10
14.6862152
20
70.658523
40
0.7871862
50
180.3882829
51
188.9219216
0
ARC
8
DEFAULT_255_1_234
10
14.8089966
20
70.7608464
40
0.909967
50
170.2024264
51
180.3560651
0
ARC
8
DEFAULT_255_1_234
10
14.4926484
20
70.8174237
40
0.5886083
50
154.2857445
51
170.3893044
0
ARC
8
DEFAULT_255_1_234
10
14.3644687
20
70.876095
40
0.4476743
50
139.8401567
51
153.9332699
0
ARC
8
DEFAULT_255_1_234
10
14.3285423
20
70.9048577
40
0.4016697
50
98.4190291
51
139.6707122
0
ARC
8
DEFAULT_255_1_234
10
14.3664941
20
70.7203328
40
0.5898566
50
89.7659205
51
99.4415478
0
ARC
8
DEFAULT_255_1_234
10
14.3730191
20
70.7268844
40
0.5833147
50
78.0551672
51
90.4042112
0
ARC
8
DEFAULT_255_1_234
10
14.41347
20
70.9087644
40
0.3970055
50
54.6380464
51
78.3339173
0
ARC
8
DEFAULT_255_1_234
10
14.4324756
20
70.9407795
40
0.3599102
50
50.031736
51
54.1558201
0
ARC
8
DEFAULT_255_1_234
10
14.4217544
20
70.9311766
40
0.3741624
50
18.1092409
51
49.7180913
0
ARC
8
DEFAULT_255_1_234
10
14.2760744
20
70.8778089
40
0.5292424
50
7.9672797
51
18.6984571
0
ARC
8
DEFAULT_255_1_234
10
14.2911222
20
70.8901504
40
0.3600838
50
9.7557294
51
27.3215714
0
ARC
8
DEFAULT_255_1_234
10
14.4038694
20
70.9464912
40
0.2340608
50
27.7361077
51
84.5257964
0
ARC
8
DEFAULT_255_1_234
10
14.3711081
20
70.782164
40
0.4011215
50
82.106034
51
90.2001166
0
ARC
8
DEFAULT_255_1_234
10
14.3661298
20
70.8329215
40
0.3503799
50
89.4150119
51
105.5823402
0
ARC
8
DEFAULT_255_1_234
10
14.3404296
20
70.9264867
40
0.2533503
50
105.6678618
51
144.2648758
0
ARC
8
DEFAULT_255_1_234
10
14.4297551
20
70.8629289
40
0.3629787
50
144.3561283
51
162.8564086
0
ARC
8
DEFAULT_255_1_234
10
14.6381461
20
70.7960017
40
0.5818441
50
162.6076014
51
173.6780284
0
ARC
8
DEFAULT_255_1_234
10
14.9442604
20
70.758789
40
0.8902007
50
173.4670142
51
179.9730753
0
ARC
8
DEFAULT_255_1_234
10
14.7534275
20
70.659426
40
0.6993804
50
179.6556203
51
190.0080463
0
ARC
8
DEFAULT_255_1_234
10
14.5218104
20
70.6169375
40
0.4639066
50
189.8116607
51
206.6796816
0
ARC
8
DEFAULT_255_1_234
10
14.4373256
20
70.5775503
40
0.3707421
50
207.1031645
51
217.7074368
0
ARC
8
DEFAULT_255_1_234
10
14.3738945
20
70.5223559
40
0.2868417
50
216.7345547
51
265.6812148
0
ARC
8
DEFAULT_255_1_234
10
14.3869736
20
70.6127855
40
0.3780509
50
264.7366618
51
270.0611241
0
ARC
8
DEFAULT_255_1_234
10
14.3892999
20
70.8968111
40
0.662079
50
269.8335834
51
276.0539546
0
ARC
8
DEFAULT_255_1_234
10
14.4100004
20
70.706656
40
0.4708016
50
275.9894168
51
284.4615085
0
ARC
8
DEFAULT_255_1_234
10
14.4298011
20
70.6233663
40
0.3852094
50
284.7034461
51
286.4953897
0
ARC
8
DEFAULT_255_1_234
10
14.4705024
20
70.4922965
40
0.2479842
50
286.0770838
51
304.2625829
0
ARC
8
DEFAULT_255_1_234
10
14.4838438
20
70.4704594
40
0.2224291
50
304.5891602
51
317.1073298
0
LINE
8
DEFAULT_255_1_234
10
15.9567786
20
70.7455534
11
15.9567786
21
70.6716614
0
LINE
8
DEFAULT_255_1_234
10
15.016262
20
70.6612201
11
15.016262
21
70.7455534
0
LINE
8
DEFAULT_255_1_234
10
15.8033724
20
70.6604169
11
15.8033724
21
70.7471597
0
LINE
8
DEFAULT_255_1_234
10
15.1696682
20
70.757601
11
15.1696682
21
70.6716614
0
ARC
8
DEFAULT_255_1_234
10
15.0925812
20
70.6677015
40
0.8642064
50
350.487711
51
0.2625388
0
ARC
8
DEFAULT_255_1_234
10
15.3219053
20
70.6282578
40
0.631518
50
336.0277639
51
350.5787438
0
ARC
8
DEFAULT_255_1_234
10
15.4563877
20
70.5674892
40
0.4839466
50
319.8877444
51
336.1328423
0
ARC
8
DEFAULT_255_1_234
10
15.5166518
20
70.519258
40
0.4067874
50
302.4806467
51
319.6143626
0
ARC
8
DEFAULT_255_1_234
10
15.5051528
20
70.5414202
40
0.4316636
50
275.8195682
51
302.1884709
0
ARC
8
DEFAULT_255_1_234
10
15.4885161
20
70.6556665
40
0.5470306
50
269.9171439
51
276.3397983
0
ARC
8
DEFAULT_255_1_234
10
15.4840371
20
70.5870681
40
0.4784458
50
252.5219675
51
270.4416499
0
ARC
8
DEFAULT_255_1_234
10
15.469663
20
70.5331592
40
0.422716
50
237.5352116
51
252.1857531
0
ARC
8
DEFAULT_255_1_234
10
15.4785826
20
70.5445363
40
0.4371052
50
209.063312
51
237.3492538
0
ARC
8
DEFAULT_255_1_234
10
15.5655674
20
70.5991685
40
0.5397041
50
205.1183774
51
209.6470015
0
ARC
8
DEFAULT_255_1_234
10
15.6452711
20
70.632983
40
0.6262326
50
188.7215458
51
204.8240747
0
ARC
8
DEFAULT_255_1_234
10
15.8450239
20
70.6666067
40
0.8287794
50
180.3723947
51
188.9252049
0
ARC
8
DEFAULT_255_1_234
10
15.8422991
20
70.7495402
40
0.8260467
50
169.5253763
51
180.2765336
0
ARC
8
DEFAULT_255_1_234
10
15.6520439
20
70.7845309
40
0.6326007
50
155.8315255
51
169.5089989
0
ARC
8
DEFAULT_255_1_234
10
15.5239941
20
70.8439348
40
0.4914567
50
139.6258461
51
156.0379525
0
ARC
8
DEFAULT_255_1_234
10
15.4650274
20
70.8913799
40
0.4158054
50
122.6416387
51
139.3430715
0
ARC
8
DEFAULT_255_1_234
10
15.4750894
20
70.8730451
40
0.4366739
50
93.0223692
51
122.455762
0
ARC
8
DEFAULT_255_1_234
10
15.4858891
20
70.7765709
40
0.5336137
50
89.975342
51
93.6341897
0
ARC
8
DEFAULT_255_1_234
10
15.489767
20
70.8164242
40
0.4937738
50
73.746375
51
90.4233405
0
ARC
8
DEFAULT_255_1_234
10
15.5073248
20
70.8844287
40
0.4235786
50
57.662753
51
73.4518111
0
ARC
8
DEFAULT_255_1_234
10
15.5065255
20
70.8865832
40
0.4221899
50
29.1440151
51
57.414694
0
ARC
8
DEFAULT_255_1_234
10
15.4130449
20
70.8282005
40
0.5322966
50
24.0982783
51
29.7323517
0
ARC
8
DEFAULT_255_1_234
10
15.3096725
20
70.7853399
40
0.6441673
50
8.6655297
51
23.8241346
0
ARC
8
DEFAULT_255_1_234
10
15.0862463
20
70.7488854
40
0.8705386
50
359.7806941
51
8.8218784
0
ARC
8
DEFAULT_255_1_234
10
14.9715461
20
70.7514345
40
0.8318373
50
359.7055579
51
8.036044
0
ARC
8
DEFAULT_255_1_234
10
15.2715467
20
70.7951239
40
0.5286768
50
7.8928306
51
20.2962107
0
ARC
8
DEFAULT_255_1_234
10
15.4343037
20
70.8551395
40
0.3552073
50
20.3231126
51
36.4992797
0
ARC
8
DEFAULT_255_1_234
10
15.5028583
20
70.9079402
40
0.2686974
50
36.1437156
51
85.6627023
0
ARC
8
DEFAULT_255_1_234
10
15.4866129
20
70.8039221
40
0.373739
50
84.3852322
51
90.0757696
0
ARC
8
DEFAULT_255_1_234
10
15.4823802
20
70.8699839
40
0.3076997
50
89.3038458
51
109.9045693
0
ARC
8
DEFAULT_255_1_234
10
15.4731193
20
70.9082062
40
0.2686424
50
110.8228367
51
143.9179474
0
ARC
8
DEFAULT_255_1_234
10
15.5664853
20
70.8369236
40
0.3860887
50
143.5289163
51
163.2980757
0
ARC
8
DEFAULT_255_1_234
10
15.7572674
20
70.7769433
40
0.5860659
50
163.0418846
51
174.3140048
0
ARC
8
DEFAULT_255_1_234
10
15.9976786
20
70.7491854
40
0.8280531
50
174.0509143
51
179.4176892
0
ARC
8
DEFAULT_255_1_234
10
15.9472525
20
70.6674954
40
0.7775954
50
179.6930361
51
188.7906598
0
ARC
8
DEFAULT_255_1_234
10
15.6809004
20
70.6248935
40
0.5078633
50
188.6331305
51
202.5629587
0
ARC
8
DEFAULT_255_1_234
10
15.5554596
20
70.5744996
40
0.3726913
50
202.8081362
51
216.1193925
0
ARC
8
DEFAULT_255_1_234
10
15.4745166
20
70.5093676
40
0.2689577
50
215.0755913
51
264.6379694
0
ARC
8
DEFAULT_255_1_234
10
15.4872115
20
70.5924513
40
0.3528978
50
263.846392
51
270.0833719
0
ARC
8
DEFAULT_255_1_234
10
15.4913506
20
70.5666374
40
0.3271036
50
269.3649385
51
287.5152008
0
ARC
8
DEFAULT_255_1_234
10
15.5091663
20
70.5019238
40
0.2600406
50
288.0630309
51
323.8113348
0
ARC
8
DEFAULT_255_1_234
10
15.4220505
20
70.5669049
40
0.3687189
50
323.6547608
51
342.6590488
0
ARC
8
DEFAULT_255_1_234
10
15.218912
20
70.6329952
40
0.5823286
50
342.4091907
51
353.6451149
0
ARC
8
DEFAULT_255_1_234
10
14.9357631
20
70.668219
40
0.8676442
50
353.4029884
51
359.4847795
0
LINE
8
DEFAULT_255_1_234
10
16.342302
20
71.2941211
11
16.3310576
21
70.4548044
0
LINE
8
DEFAULT_255_1_234
10
16.3310576
20
70.4548044
11
16.1969275
21
70.4548044
0
LINE
8
DEFAULT_255_1_234
10
16.1969275
20
70.4548044
11
16.1864863
21
71.2941211
0
LINE
8
DEFAULT_255_1_234
10
16.1864863
20
71.2941211
11
16.342302
21
71.2941211
0
ARC
8
DEFAULT_255_1_234
10
16.2785289
20
70.2003156
40
0.0976691
50
162.1584895
51
180.5399622
0
ARC
8
DEFAULT_255_1_234
10
16.2643718
20
70.2042022
40
0.0830046
50
137.728464
51
161.7182334
0
ARC
8
DEFAULT_255_1_234
10
16.2548217
20
70.2125242
40
0.0703406
50
105.057597
51
137.5118876
0
ARC
8
DEFAULT_255_1_234
10
16.2658566
20
70.1753557
40
0.1091042
50
92.0805836
51
105.5827737
0
ARC
8
DEFAULT_255_1_234
10
16.2683453
20
70.1394307
40
0.1451008
50
89.9744466
51
92.5476359
0
ARC
8
DEFAULT_255_1_234
10
16.2693541
20
70.1622095
40
0.1223258
50
78.2146798
51
90.4421891
0
ARC
8
DEFAULT_255_1_234
10
16.2786019
20
70.2045168
40
0.0790225
50
56.0837456
51
78.5132969
0
ARC
8
DEFAULT_255_1_234
10
16.2842256
20
70.2141385
40
0.0679038
50
42.5241188
51
55.4914579
0
ARC
8
DEFAULT_255_1_234
10
16.2718253
20
70.2026587
40
0.0848021
50
2.397718
51
42.5776288
0
ARC
8
DEFAULT_255_1_234
10
16.2457158
20
70.1994488
40
0.1110431
50
359.9723047
51
3.4889367
0
ARC
8
DEFAULT_255_1_234
10
16.261422
20
70.1984914
40
0.0953415
50
342.7087048
51
0.5431316
0
ARC
8
DEFAULT_255_1_234
10
16.2772655
20
70.1941415
40
0.078923
50
316.2433759
51
342.3051481
0
ARC
8
DEFAULT_255_1_234
10
16.2825921
20
70.1894433
40
0.0718269
50
285.532829
51
316.0116862
0
ARC
8
DEFAULT_255_1_234
10
16.2713751
20
70.226461
40
0.1105001
50
272.5953665
51
285.9965648
0
ARC
8
DEFAULT_255_1_234
10
16.2684951
20
70.2643567
40
0.1484917
50
269.9671508
51
273.0433633
0
ARC
8
DEFAULT_255_1_234
10
16.2675036
20
70.2425848
40
0.126723
50
259.0265948
51
270.4098411
0
ARC
8
DEFAULT_255_1_234
10
16.2584835
20
70.1980941
40
0.0813296
50
239.413751
51
259.2986253
0
ARC
8
DEFAULT_255_1_234
10
16.2511669
20
70.1845327
40
0.065935
50
223.0077841
51
238.8907076
0
ARC
8
DEFAULT_255_1_234
10
16.2626621
20
70.1950716
40
0.0815295
50
184.7848311
51
222.9135279
0
ARC
8
DEFAULT_255_1_234
10
16.2901995
20
70.1992526
40
0.1093355
50
179.925276
51
185.7644975
0
LINE
8
DEFAULT_255_1_234
10
4.2421489
20
69.3098211
11
4.2421489
21
68.2664983
0
LINE
8
DEFAULT_255_1_234
10
4.2421489
20
68.2664983
11
4.7963389
21
68.2664983
0
LINE
8
DEFAULT_255_1_234
10
4.7963389
20
68.2664983
11
4.7963389
21
68.1404
0
LINE
8
DEFAULT_255_1_234
10
4.7963389
20
68.1404
11
4.0871364
21
68.1404
0
LINE
8
DEFAULT_255_1_234
10
4.0871364
20
68.1404
11
4.0871364
21
69.3098211
0
LINE
8
DEFAULT_255_1_234
10
4.0871364
20
69.3098211
11
4.2421489
21
69.3098211
0
LINE
8
DEFAULT_255_1_234
10
5.4220113
20
69.3154433
11
5.4220113
21
68.1404
0
LINE
8
DEFAULT_255_1_234
10
5.4220113
20
68.1404
11
5.2726209
21
68.1404
0
LINE
8
DEFAULT_255_1_234
10
5.2726209
20
68.1404
11
5.2726209
21
69.1307133
0
LINE
8
DEFAULT_255_1_234
10
5.2726209
20
69.1307133
11
4.9730371
21
69.0206785
0
LINE
8
DEFAULT_255_1_234
10
4.9730371
20
69.0206785
11
4.9730371
21
69.1556117
0
LINE
8
DEFAULT_255_1_234
10
4.9730371
20
69.1556117
11
5.3987192
21
69.3154433
0
LINE
8
DEFAULT_255_1_234
10
5.3987192
20
69.3154433
11
5.4220113
21
69.3154433
0
LINE
8
DEFAULT_255_1_234
10
4.3384902
20
37.5598211
11
4.3384902
21
36.3904
0
LINE
8
DEFAULT_255_1_234
10
4.3384902
20
36.3904
11
4.1842808
21
36.3904
0
LINE
8
DEFAULT_255_1_234
10
4.1842808
20
36.3904
11
4.1842808
21
37.5598211
0
LINE
8
DEFAULT_255_1_234
10
4.1842808
20
37.5598211
11
4.3384902
21
37.5598211
0
LINE
8
DEFAULT_255_1_234
10
5.2091306
20
37.5598211
11
5.2091306
21
36.783152
0
LINE
8
DEFAULT_255_1_234
10
5.2091306
20
36.783152
11
5.3713717
21
36.783152
0
LINE
8
DEFAULT_255_1_234
10
5.3713717
20
36.783152
11
5.3713717
21
36.6618728
0
LINE
8
DEFAULT_255_1_234
10
5.3713717
20
36.6618728
11
5.2091306
21
36.6618728
0
LINE
8
DEFAULT_255_1_234
10
5.2091306
20
36.6618728
11
5.2091306
21
36.3904
0
LINE
8
DEFAULT_255_1_234
10
5.2091306
20
36.3904
11
5.0597403
21
36.3904
0
LINE
8
DEFAULT_255_1_234
10
5.0597403
20
36.3904
11
5.0597403
21
36.6618728
0
LINE
8
DEFAULT_255_1_234
10
5.0597403
20
36.6618728
11
4.527236
21
36.6618728
0
LINE
8
DEFAULT_255_1_234
10
4.527236
20
36.6618728
11
4.527236
21
36.7494187
0
LINE
8
DEFAULT_255_1_234
10
4.527236
20
36.7494187
11
5.0509054
21
37.5598211
0
LINE
8
DEFAULT_255_1_234
10
5.0509054
20
37.5598211
11
5.2091306
21
37.5598211
0
LINE
8
DEFAULT_255_1_234
10
5.0420705
20
37.3244912
11
4.6959025
21
36.783152
0
LINE
8
DEFAULT_255_1_234
10
4.6959025
20
36.783152
11
5.0597403
21
36.783152
0
LINE
8
DEFAULT_255_1_234
10
5.0597403
20
36.783152
11
5.0597403
21
37.3566181
0
LINE
8
DEFAULT_255_1_234
10
5.0597403
20
37.3566181
11
5.0420705
21
37.3244912
0
LINE
8
DEFAULT_255_1_234
10
4.2326902
20
45.4973211
11
4.2326902
21
44.3279
0
LINE
8
DEFAULT_255_1_234
10
4.2326902
20
44.3279
11
4.0784808
21
44.3279
0
LINE
8
DEFAULT_255_1_234
10
4.0784808
20
44.3279
11
4.0784808
21
45.4973211
0
LINE
8
DEFAULT_255_1_234
10
4.0784808
20
45.4973211
11
4.2326902
21
45.4973211
0
LINE
8
DEFAULT_255_1_234
10
4.6921056
20
44.8636169
11
4.6921056
21
44.9848962
0
LINE
8
DEFAULT_255_1_234
10
4.6921056
20
44.9848962
11
4.8037468
21
44.9848962
0
LINE
8
DEFAULT_255_1_234
10
4.6133946
20
45.1905087
11
4.4648074
21
45.1905087
0
LINE
8
DEFAULT_255_1_234
10
4.4543662
20
44.6363188
11
4.6037565
21
44.6363188
0
LINE
8
DEFAULT_255_1_234
10
4.8037468
20
44.8636169
11
4.6921056
21
44.8636169
0
ARC
8
DEFAULT_255_1_234
10
4.8008334
20
45.3241713
40
0.3392876
50
270.4919872
51
281.8951556
0
ARC
8
DEFAULT_255_1_234
10
4.8249596
20
45.2139702
40
0.2264817
50
281.6691735
51
301.2943132
0
ARC
8
DEFAULT_255_1_234
10
4.8419806
20
45.1828304
40
0.1910381
50
301.7833094
51
311.7545298
0
ARC
8
DEFAULT_255_1_234
10
4.8511382
20
45.1726748
40
0.1773635
50
311.7323931
51
354.2802411
0
ARC
8
DEFAULT_255_1_234
10
4.7785007
20
45.1851722
40
0.2509385
50
353.0937916
51
0.1181479
0
ARC
8
DEFAULT_255_1_234
10
4.7323792
20
45.1899386
40
0.2970898
50
359.1805295
51
15.0453146
0
ARC
8
DEFAULT_255_1_234
10
4.8669629
20
45.2291992
40
0.1569564
50
13.9577229
51
77.6713066
0
ARC
8
DEFAULT_255_1_234
10
4.8283158
20
45.0906949
40
0.3006298
50
76.1116566
51
90.7026153
0
ARC
8
DEFAULT_255_1_234
10
4.8223996
20
45.1180545
40
0.2732568
50
89.5324876
51
103.531937
0
ARC
8
DEFAULT_255_1_234
10
4.8023441
20
45.1979884
40
0.1908508
50
103.2931773
51
133.5619022
0
ARC
8
DEFAULT_255_1_234
10
4.7978929
20
45.2039375
40
0.1834746
50
133.8349307
51
173.5344437
0
ARC
8
DEFAULT_255_1_234
10
4.8701972
20
45.1911213
40
0.2568033
50
172.5096846
51
180.1366907
0
ARC
8
DEFAULT_255_1_234
10
4.7750866
20
45.1945622
40
0.3103056
50
155.3484492
51
180.7484736
0
ARC
8
DEFAULT_255_1_234
10
4.7701955
20
45.1916846
40
0.3070957
50
131.5744599
51
154.4798489
0
ARC
8
DEFAULT_255_1_234
10
4.8015102
20
45.160031
40
0.3515643
50
96.9875458
51
131.9690667
0
ARC
8
DEFAULT_255_1_234
10
4.8234582
20
45.0354636
40
0.4779224
50
89.8596053
51
97.7825159
0
ARC
8
DEFAULT_255_1_234
10
4.8282645
20
45.0092616
40
0.5041361
50
78.3655447
51
90.4131539
0
ARC
8
DEFAULT_255_1_234
10
4.8640563
20
45.1751887
40
0.3344039
50
56.6229102
51
78.638727
0
ARC
8
DEFAULT_255_1_234
10
4.8855507
20
45.2127805
40
0.2912001
50
47.0253525
51
56.0854072
0
ARC
8
DEFAULT_255_1_234
10
4.8875287
20
45.2167223
40
0.2869704
50
10.9208013
51
46.7778124
0
ARC
8
DEFAULT_255_1_234
10
4.7511354
20
45.1851857
40
0.426899
50
359.6364486
51
11.6087304
0
ARC
8
DEFAULT_255_1_234
10
4.9346198
20
45.1836752
40
0.243409
50
332.3549906
51
359.7179418
0
ARC
8
DEFAULT_255_1_234
10
4.8695799
20
45.2145142
40
0.3153459
50
325.2333722
51
332.8745602
0
ARC
8
DEFAULT_255_1_234
10
4.8848423
20
45.2038828
40
0.2967456
50
292.9802137
51
325.2392345
0
ARC
8
DEFAULT_255_1_234
10
4.8573797
20
45.2572863
40
0.3566604
50
292.5402179
51
293.6924929
0
ARC
8
DEFAULT_255_1_234
10
4.8966393
20
44.6118091
40
0.3307468
50
57.6435486
51
72.8625112
0
ARC
8
DEFAULT_255_1_234
10
4.9320892
20
44.6692549
40
0.2632492
50
36.7248896
51
57.4697979
0
ARC
8
DEFAULT_255_1_234
10
4.9309525
20
44.670522
40
0.2634081
50
8.0545065
51
36.356114
0
ARC
8
DEFAULT_255_1_234
10
4.844671
20
44.6550174
40
0.3510261
50
359.8320645
51
8.5869982
0
ARC
8
DEFAULT_255_1_234
10
4.8071486
20
44.6502101
40
0.3885653
50
343.9829931
51
0.5571613
0
ARC
8
DEFAULT_255_1_234
10
4.8957684
20
44.6259438
40
0.2966924
50
311.6359546
51
343.7651759
0
ARC
8
DEFAULT_255_1_234
10
4.8579253
20
44.6686102
40
0.3537231
50
279.7829875
51
311.6255694
0
ARC
8
DEFAULT_255_1_234
10
4.8278029
20
44.812328
40
0.5004971
50
269.7286406
51
280.3856417
0
ARC
8
DEFAULT_255_1_234
10
4.8216102
20
44.8081996
40
0.4963778
50
256.6828919
51
270.4412052
0
ARC
8
DEFAULT_255_1_234
10
4.7877397
20
44.6697394
40
0.3538406
50
229.4223008
51
256.8556159
0
ARC
8
DEFAULT_255_1_234
10
4.746279
20
44.6230736
40
0.2914296
50
181.818294
51
229.6455059
0
ARC
8
DEFAULT_255_1_234
10
4.8502746
20
44.6361496
40
0.3959084
50
179.9755256
51
183.2323064
0
ARC
8
DEFAULT_255_1_234
10
4.8330492
20
44.6341037
40
0.2293034
50
179.4465117
51
196.2869258
0
ARC
8
DEFAULT_255_1_234
10
4.78429
20
44.6207651
40
0.1787621
50
196.5661473
51
227.705904
0
ARC
8
DEFAULT_255_1_234
10
4.8006995
20
44.6391155
40
0.2033784
50
227.7652068
51
257.8762805
0
ARC
8
DEFAULT_255_1_234
10
4.8231965
20
44.7334156
40
0.3003081
50
257.4584385
51
270.426602
0
ARC
8
DEFAULT_255_1_234
10
4.8277531
20
44.7623996
40
0.329292
50
269.5962073
51
280.8789248
0
ARC
8
DEFAULT_255_1_234
10
4.850706
20
44.6477685
40
0.2123908
50
280.6346389
51
299.8595945
0
ARC
8
DEFAULT_255_1_234
10
4.8697967
20
44.6115212
40
0.171457
50
300.3576302
51
314.5517981
0
ARC
8
DEFAULT_255_1_234
10
4.8615027
20
44.6175919
40
0.1816095
50
315.0728369
51
345.0431014
0
ARC
8
DEFAULT_255_1_234
10
4.7691841
20
44.6444841
40
0.2777492
50
344.5986631
51
357.9269593
0
ARC
8
DEFAULT_255_1_234
10
4.6796168
20
44.6506276
40
0.3674917
50
357.4748886
51
0.0231117
0
ARC
8
DEFAULT_255_1_234
10
4.7819277
20
44.6530679
40
0.2651907
50
359.5047933
51
13.4239635
0
ARC
8
DEFAULT_255_1_234
10
4.8685921
20
44.6752478
40
0.1757509
50
12.9498199
51
48.7551375
0
ARC
8
DEFAULT_255_1_234
10
4.8503655
20
44.65034
40
0.2065134
50
49.5088623
51
72.1836453
0
ARC
8
DEFAULT_255_1_234
10
4.8145807
20
44.5441291
40
0.3185836
50
71.9010081
51
84.3554254
0
ARC
8
DEFAULT_255_1_234
10
4.7984439
20
44.4080326
40
0.4556151
50
84.0193428
51
89.333121
0
LINE
8
DEFAULT_255_1_234
10
4.2326902
20
53.4348211
11
4.2326902
21
52.2654
0
LINE
8
DEFAULT_255_1_234
10
4.2326902
20
52.2654
11
4.0784808
21
52.2654
0
LINE
8
DEFAULT_255_1_234
10
4.0784808
20
52.2654
11
4.0784808
21
53.4348211
0
LINE
8
DEFAULT_255_1_234
10
4.0784808
20
53.4348211
11
4.2326902
21
53.4348211
0
LINE
8
DEFAULT_255_1_234
10
5.2422797
20
52.3866792
11
5.2422797
21
52.2654
0
LINE
8
DEFAULT_255_1_234
10
5.2422797
20
52.2654
11
4.4760519
21
52.2654
0
LINE
8
DEFAULT_255_1_234
10
4.4760519
20
52.2654
11
4.4760519
21
52.3722221
0
LINE
8
DEFAULT_255_1_234
10
4.4760519
20
52.3722221
11
4.8808515
21
52.8219995
0
LINE
8
DEFAULT_255_1_234
10
4.6021501
20
53.0902595
11
4.453563
21
53.0902595
0
LINE
8
DEFAULT_255_1_234
10
4.9683974
20
52.7264218
11
4.6551596
21
52.3866792
0
LINE
8
DEFAULT_255_1_234
10
4.6551596
20
52.3866792
11
5.2422797
21
52.3866792
0
ARC
8
DEFAULT_255_1_234
10
3.5318348
20
54.0149527
40
1.8008286
50
318.5132453
51
320.7828378
0
ARC
8
DEFAULT_255_1_234
10
4.0605322
20
53.5846426
40
1.1191493
50
320.7372736
51
323.9737074
0
ARC
8
DEFAULT_255_1_234
10
4.4525179
20
53.3006361
40
0.6350923
50
323.8961724
51
328.6421089
0
ARC
8
DEFAULT_255_1_234
10
4.6571774
20
53.1744031
40
0.3946393
50
328.8299013
51
331.789948
0
ARC
8
DEFAULT_255_1_234
10
4.7568953
20
53.1229509
40
0.2824501
50
331.4255242
51
352.9364833
0
ARC
8
DEFAULT_255_1_234
10
4.7705453
20
53.1198976
40
0.2685315
50
353.2248685
51
0.0169286
0
ARC
8
DEFAULT_255_1_234
10
4.791533
20
53.122195
40
0.2475536
50
359.4866256
51
15.9339782
0
ARC
8
DEFAULT_255_1_234
10
4.8422316
20
53.1358286
40
0.1950618
50
16.1714718
51
43.5284424
0
ARC
8
DEFAULT_255_1_234
10
4.8499624
20
53.1435573
40
0.184134
50
43.4415429
51
83.1661404
0
ARC
8
DEFAULT_255_1_234
10
4.8365542
20
53.0698771
40
0.258926
50
82.160215
51
90.1505798
0
ARC
8
DEFAULT_255_1_234
10
4.833397
20
53.0161865
40
0.3126255
50
89.5460705
51
102.5418777
0
ARC
8
DEFAULT_255_1_234
10
4.8091056
20
53.1192665
40
0.2067346
50
102.1739365
51
129.2061916
0
ARC
8
DEFAULT_255_1_234
10
4.8012127
20
53.1317094
40
0.1921118
50
129.7279328
51
135.7542026
0
ARC
8
DEFAULT_255_1_234
10
4.8133655
20
53.1220045
40
0.2075944
50
136.175737
51
166.3674722
0
ARC
8
DEFAULT_255_1_234
10
4.9140574
20
53.0950182
40
0.3118201
50
165.9092917
51
178.8683903
0
ARC
8
DEFAULT_255_1_234
10
5.0005436
20
53.0903179
40
0.3983935
50
178.438168
51
180.0083905
0
ARC
8
DEFAULT_255_1_234
10
4.8604038
20
53.0942231
40
0.4068601
50
163.2878735
51
180.5581814
0
ARC
8
DEFAULT_255_1_234
10
4.7802299
20
53.116284
40
0.3237344
50
133.454115
51
162.9470031
0
ARC
8
DEFAULT_255_1_234
10
4.7980841
20
53.0973
40
0.349795
50
100.7869394
51
133.4384016
0
ARC
8
DEFAULT_255_1_234
10
4.8328612
20
52.9424319
40
0.5084616
50
89.6605301
51
101.3704185
0
ARC
8
DEFAULT_255_1_234
10
4.8394951
20
52.9485496
40
0.502348
50
78.2171172
51
90.4130393
0
ARC
8
DEFAULT_255_1_234
10
4.8750029
20
53.1109637
40
0.3361092
50
55.9268222
51
78.4888551
0
ARC
8
DEFAULT_255_1_234
10
4.8946469
20
53.1448324
40
0.2970617
50
47.9292255
51
55.4054003
0
ARC
8
DEFAULT_255_1_234
10
4.904803
20
53.1551502
40
0.2825983
50
4.3347696
51
48.0560701
0
ARC
8
DEFAULT_255_1_234
10
4.7952424
20
53.1381601
40
0.393225
50
359.925209
51
5.5967654
0
ARC
8
DEFAULT_255_1_234
10
4.8381315
20
53.1437816
40
0.3503892
50
337.8914096
51
358.9967724
0
ARC
8
DEFAULT_255_1_234
10
4.5667727
20
53.2484706
40
0.6412172
50
326.9135351
51
338.3505194
0
ARC
8
DEFAULT_255_1_234
10
4.1682031
20
53.5039284
40
1.1146189
50
319.6472867
51
327.095818
0
ARC
8
DEFAULT_255_1_234
10
3.7849034
20
53.8201
40
1.6114559
50
317.2586784
51
319.9046139
0
LINE
8
DEFAULT_255_1_234
10
4.2238902
20
61.3723211
11
4.2238902
21
60.2029
0
LINE
8
DEFAULT_255_1_234
10
4.2238902
20
60.2029
11
4.0696808
21
60.2029
0
LINE
8
DEFAULT_255_1_234
10
4.0696808
20
60.2029
11
4.0696808
21
61.3723211
0
LINE
8
DEFAULT_255_1_234
10
4.0696808
20
61.3723211
11
4.2238902
21
61.3723211
0
LINE
8
DEFAULT_255_1_234
10
4.9555815
20
61.3779433
11
4.9555815
21
60.2029
0
LINE
8
DEFAULT_255_1_234
10
4.9555815
20
60.2029
11
4.8061912
21
60.2029
0
LINE
8
DEFAULT_255_1_234
10
4.8061912
20
60.2029
11
4.8061912
21
61.1932133
0
LINE
8
DEFAULT_255_1_234
10
4.8061912
20
61.1932133
11
4.5066074
21
61.0831785
0
LINE
8
DEFAULT_255_1_234
10
4.5066074
20
61.0831785
11
4.5066074
21
61.2181117
0
LINE
8
DEFAULT_255_1_234
10
4.5066074
20
61.2181117
11
4.9322895
21
61.3779433
0
LINE
8
DEFAULT_255_1_234
10
4.9322895
20
61.3779433
11
4.9555815
21
61.3779433
0
LINE
8
DEFAULT_255_1_234
10
24.2596879
20
69.3098211
11
24.2596879
21
68.1404
0
LINE
8
DEFAULT_255_1_234
10
24.2596879
20
68.1404
11
24.1046753
21
68.1404
0
LINE
8
DEFAULT_255_1_234
10
24.1046753
20
68.1404
11
23.5159489
21
69.041561
0
LINE
8
DEFAULT_255_1_234
10
23.5159489
20
69.041561
11
23.5159489
21
68.1404
0
LINE
8
DEFAULT_255_1_234
10
23.5159489
20
68.1404
11
23.3609364
21
68.1404
0
LINE
8
DEFAULT_255_1_234
10
23.3609364
20
68.1404
11
23.3609364
21
69.3098211
0
LINE
8
DEFAULT_255_1_234
10
23.3609364
20
69.3098211
11
23.5159489
21
69.3098211
0
LINE
8
DEFAULT_255_1_234
10
23.5159489
20
69.3098211
11
24.1062817
21
68.4046442
0
LINE
8
DEFAULT_255_1_234
10
24.1062817
20
68.4046442
11
24.1062817
21
69.3098211
0
LINE
8
DEFAULT_255_1_234
10
24.1062817
20
69.3098211
11
24.2596879
21
69.3098211
0
LINE
8
DEFAULT_255_1_234
10
21.8456657
20
5.2620565
11
21.8456657
21
5.1873614
0
LINE
8
DEFAULT_255_1_234
10
21.6408563
20
4.7038507
11
21.8496815
21
4.5400033
0
LINE
8
DEFAULT_255_1_234
10
21.8496815
20
4.5400033
11
21.7444658
21
4.4428192
0
LINE
8
DEFAULT_255_1_234
10
21.7444658
20
4.4428192
11
21.4978914
21
4.6387937
0
LINE
8
DEFAULT_255_1_234
10
20.9043459
20
5.1769201
11
20.9043459
21
5.2612534
0
LINE
8
DEFAULT_255_1_234
10
21.6914563
20
5.1761169
11
21.6914563
21
5.2628597
0
LINE
8
DEFAULT_255_1_234
10
21.0585553
20
5.273301
11
21.0585553
21
5.1873614
0
ARC
8
DEFAULT_255_1_234
10
20.9502909
20
5.1834707
40
0.8953833
50
351.453011
51
0.2489685
0
ARC
8
DEFAULT_255_1_234
10
21.2087709
20
5.1434933
40
0.6338333
50
338.6861641
51
351.5540711
0
ARC
8
DEFAULT_255_1_234
10
21.3021593
20
5.1104828
40
0.5348431
50
336.2887631
51
338.3442418
0
ARC
8
DEFAULT_255_1_234
10
21.3361215
20
5.0918698
40
0.4962747
50
321.1170344
51
336.6795229
0
ARC
8
DEFAULT_255_1_234
10
21.3993044
20
5.0432206
40
0.4165565
50
305.4419708
51
320.8705636
0
ARC
8
DEFAULT_255_1_234
10
21.3796514
20
5.1179707
40
0.4935497
50
271.6373023
51
283.8611969
0
ARC
8
DEFAULT_255_1_234
10
21.3758767
20
5.1835572
40
0.5592206
50
269.9930596
51
271.8318864
0
ARC
8
DEFAULT_255_1_234
10
21.372121
20
5.1027681
40
0.4784458
50
252.5219675
51
270.4416499
0
ARC
8
DEFAULT_255_1_234
10
21.3577469
20
5.0488592
40
0.422716
50
237.5352116
51
252.1857531
0
ARC
8
DEFAULT_255_1_234
10
21.3666665
20
5.0602363
40
0.4371052
50
209.063312
51
237.3492538
0
ARC
8
DEFAULT_255_1_234
10
21.4536513
20
5.1148685
40
0.5397041
50
205.1183774
51
209.6470015
0
ARC
8
DEFAULT_255_1_234
10
21.533355
20
5.148683
40
0.6262326
50
188.7215458
51
204.8240747
0
ARC
8
DEFAULT_255_1_234
10
21.7331078
20
5.1823067
40
0.8287794
50
180.3723947
51
188.9252049
0
ARC
8
DEFAULT_255_1_234
10
21.730383
20
5.2652402
40
0.8260467
50
169.5253763
51
180.2765336
0
ARC
8
DEFAULT_255_1_234
10
21.5401279
20
5.3002309
40
0.6326007
50
155.8315255
51
169.5089989
0
ARC
8
DEFAULT_255_1_234
10
21.412078
20
5.3596348
40
0.4914567
50
139.6258461
51
156.0379525
0
ARC
8
DEFAULT_255_1_234
10
21.3531113
20
5.4070799
40
0.4158054
50
122.6416387
51
139.3430715
0
ARC
8
DEFAULT_255_1_234
10
21.3631733
20
5.3887451
40
0.4366739
50
93.0223692
51
122.455762
0
ARC
8
DEFAULT_255_1_234
10
21.373973
20
5.2922709
40
0.5336137
50
89.975342
51
93.6341897
0
ARC
8
DEFAULT_255_1_234
10
21.3778616
20
5.3302375
40
0.4956606
50
73.9665422
51
90.4229648
0
ARC
8
DEFAULT_255_1_234
10
21.3962263
20
5.4017451
40
0.4218674
50
57.5178019
51
73.6813337
0
ARC
8
DEFAULT_255_1_234
10
21.3918046
20
5.3981462
40
0.4272816
50
28.7261108
51
57.2767933
0
ARC
8
DEFAULT_255_1_234
10
21.3007378
20
5.3418688
40
0.534218
50
24.2448911
51
29.3248482
0
ARC
8
DEFAULT_255_1_234
10
21.2081479
20
5.3035819
40
0.6343711
50
9.064382
51
23.9639114
0
ARC
8
DEFAULT_255_1_234
10
20.9825807
20
5.2656925
40
0.8630926
50
359.7586264
51
9.1891435
0
ARC
8
DEFAULT_255_1_234
10
20.8571287
20
5.2670343
40
0.834338
50
359.7133237
51
7.96545
0
ARC
8
DEFAULT_255_1_234
10
21.1533504
20
5.3097681
40
0.5350538
50
7.8291991
51
20.0421623
0
ARC
8
DEFAULT_255_1_234
10
21.3158067
20
5.3688606
40
0.3621841
50
20.0677553
51
35.9161685
0
ARC
8
DEFAULT_255_1_234
10
21.3933105
20
5.426467
40
0.2656263
50
35.6594382
51
85.1578074
0
ARC
8
DEFAULT_255_1_234
10
21.3748361
20
5.3149378
40
0.3784238
50
83.7959068
51
90.095906
0
ARC
8
DEFAULT_255_1_234
10
21.3705295
20
5.3882601
40
0.3051229
50
89.3102392
51
109.9889877
0
ARC
8
DEFAULT_255_1_234
10
21.3622778
20
5.4238433
40
0.2688988
50
110.9285147
51
143.9411762
0
ARC
8
DEFAULT_255_1_234
10
21.4553724
20
5.3526236
40
0.3860887
50
143.5289163
51
163.2980757
0
ARC
8
DEFAULT_255_1_234
10
21.6461545
20
5.2926433
40
0.5860659
50
163.0418846
51
174.3140048
0
ARC
8
DEFAULT_255_1_234
10
21.8865657
20
5.2648854
40
0.8280531
50
174.0509143
51
179.4176892
0
ARC
8
DEFAULT_255_1_234
10
21.8351992
20
5.1830634
40
0.7766558
50
179.6829237
51
188.9631324
0
ARC
8
DEFAULT_255_1_234
10
21.5681553
20
5.1395752
40
0.5060992
50
188.8100743
51
202.9300012
0
ARC
8
DEFAULT_255_1_234
10
21.4465182
20
5.0900855
40
0.3747967
50
203.2069261
51
215.7876482
0
ARC
8
DEFAULT_255_1_234
10
21.3616579
20
5.0229671
40
0.2667526
50
214.7521006
51
264.2834488
0
ARC
8
DEFAULT_255_1_234
10
21.3752234
20
5.108478
40
0.3532247
50
263.4755397
51
270.0949833
0
ARC
8
DEFAULT_255_1_234
10
21.3794345
20
5.0823374
40
0.3271036
50
269.3649385
51
287.5152008
0
ARC
8
DEFAULT_255_1_234
10
21.3972503
20
5.0176238
40
0.2600406
50
288.0630309
51
323.8113348
0
ARC
8
DEFAULT_255_1_234
10
21.3101345
20
5.0826049
40
0.3687189
50
323.6547608
51
342.6590488
0
ARC
8
DEFAULT_255_1_234
10
21.106996
20
5.1486952
40
0.5823286
50
342.4091907
51
353.6451149
0
ARC
8
DEFAULT_255_1_234
10
20.8238471
20
5.183919
40
0.8676442
50
353.4029884
51
359.4847795
0
LINE
8
DEFAULT_255_1_234
10
22.6721315
20
5.8098211
11
22.6721315
21
5.033152
0
LINE
8
DEFAULT_255_1_234
10
22.6721315
20
5.033152
11
22.8343727
21
5.033152
0
LINE
8
DEFAULT_255_1_234
10
22.8343727
20
5.033152
11
22.8343727
21
4.9118728
0
LINE
8
DEFAULT_255_1_234
10
22.8343727
20
4.9118728
11
22.6721315
21
4.9118728
0
LINE
8
DEFAULT_255_1_234
10
22.6721315
20
4.9118728
11
22.6721315
21
4.6404
0
LINE
8
DEFAULT_255_1_234
10
22.6721315
20
4.6404
11
22.5227412
21
4.6404
0
LINE
8
DEFAULT_255_1_234
10
22.5227412
20
4.6404
11
22.5227412
21
4.9118728
0
LINE
8
DEFAULT_255_1_234
10
22.5227412
20
4.9118728
11
21.990237
21
4.9118728
0
LINE
8
DEFAULT_255_1_234
10
21.990237
20
4.9118728
11
21.990237
21
4.9994187
0
LINE
8
DEFAULT_255_1_234
10
21.990237
20
4.9994187
11
22.5139063
21
5.8098211
0
LINE
8
DEFAULT_255_1_234
10
22.5139063
20
5.8098211
11
22.6721315
21
5.8098211
0
LINE
8
DEFAULT_255_1_234
10
22.5050714
20
5.5744912
11
22.1589035
21
5.033152
0
LINE
8
DEFAULT_255_1_234
10
22.1589035
20
5.033152
11
22.5227412
21
5.033152
0
LINE
8
DEFAULT_255_1_234
10
22.5227412
20
5.033152
11
22.5227412
21
5.6066181
0
LINE
8
DEFAULT_255_1_234
10
22.5227412
20
5.6066181
11
22.5050714
21
5.5744912
0
LINE
8
DEFAULT_255_1_234
10
23.2929849
20
5.1978026
11
23.2929849
21
5.0765234
0
LINE
8
DEFAULT_255_1_234
10
23.2929849
20
5.0765234
11
22.9010361
21
5.0765234
0
LINE
8
DEFAULT_255_1_234
10
22.9010361
20
5.0765234
11
22.9010361
21
5.1978026
0
LINE
8
DEFAULT_255_1_234
10
22.9010361
20
5.1978026
11
23.2929849
21
5.1978026
0
LINE
8
DEFAULT_255_1_234
10
24.1885237
20
4.7616792
11
24.1885237
21
4.6404
0
LINE
8
DEFAULT_255_1_234
10
24.1885237
20
4.6404
11
23.4222959
21
4.6404
0
LINE
8
DEFAULT_255_1_234
10
23.4222959
20
4.6404
11
23.4222959
21
4.7472221
0
LINE
8
DEFAULT_255_1_234
10
23.4222959
20
4.7472221
11
23.8270955
21
5.1969995
0
LINE
8
DEFAULT_255_1_234
10
23.5483942
20
5.4652595
11
23.399807
21
5.4652595
0
LINE
8
DEFAULT_255_1_234
10
23.9146415
20
5.1014218
11
23.6014037
21
4.7616792
0
LINE
8
DEFAULT_255_1_234
10
23.6014037
20
4.7616792
11
24.1885237
21
4.7616792
0
ARC
8
DEFAULT_255_1_234
10
22.4780788
20
6.3899527
40
1.8008286
50
318.5132453
51
320.7828378
0
ARC
8
DEFAULT_255_1_234
10
23.0067763
20
5.9596426
40
1.1191493
50
320.7372736
51
323.9737074
0
ARC
8
DEFAULT_255_1_234
10
23.3987619
20
5.6756361
40
0.6350923
50
323.8961724
51
328.6421089
0
ARC
8
DEFAULT_255_1_234
10
23.6034215
20
5.5494031
40
0.3946393
50
328.8299013
51
331.789948
0
ARC
8
DEFAULT_255_1_234
10
23.7031393
20
5.4979509
40
0.2824501
50
331.4255242
51
352.9364833
0
ARC
8
DEFAULT_255_1_234
10
23.7167894
20
5.4948976
40
0.2685315
50
353.2248685
51
0.0169286
0
ARC
8
DEFAULT_255_1_234
10
23.737777
20
5.497195
40
0.2475536
50
359.4866256
51
15.9339782
0
ARC
8
DEFAULT_255_1_234
10
23.7884756
20
5.5108286
40
0.1950618
50
16.1714718
51
43.5284424
0
ARC
8
DEFAULT_255_1_234
10
23.7962064
20
5.5185573
40
0.184134
50
43.4415429
51
83.1661404
0
ARC
8
DEFAULT_255_1_234
10
23.7827983
20
5.4448771
40
0.258926
50
82.160215
51
90.1505798
0
ARC
8
DEFAULT_255_1_234
10
23.779641
20
5.3911865
40
0.3126255
50
89.5460705
51
102.5418777
0
ARC
8
DEFAULT_255_1_234
10
23.7553496
20
5.4942665
40
0.2067346
50
102.1739365
51
129.2061916
0
ARC
8
DEFAULT_255_1_234
10
23.7474568
20
5.5067094
40
0.1921118
50
129.7279328
51
135.7542026
0
ARC
8
DEFAULT_255_1_234
10
23.7596095
20
5.4970045
40
0.2075944
50
136.175737
51
166.3674722
0
ARC
8
DEFAULT_255_1_234
10
23.8603015
20
5.4700182
40
0.3118201
50
165.9092917
51
178.8683903
0
ARC
8
DEFAULT_255_1_234
10
23.9467876
20
5.4653179
40
0.3983935
50
178.438168
51
180.0083905
0
ARC
8
DEFAULT_255_1_234
10
23.8066478
20
5.4692231
40
0.4068601
50
163.2878735
51
180.5581814
0
ARC
8
DEFAULT_255_1_234
10
23.7264739
20
5.491284
40
0.3237344
50
133.454115
51
162.9470031
0
ARC
8
DEFAULT_255_1_234
10
23.7443281
20
5.4723
40
0.349795
50
100.7869394
51
133.4384016
0
ARC
8
DEFAULT_255_1_234
10
23.7791052
20
5.3174319
40
0.5084616
50
89.6605301
51
101.3704185
0
ARC
8
DEFAULT_255_1_234
10
23.7857391
20
5.3235496
40
0.502348
50
78.2171172
51
90.4130393
0
ARC
8
DEFAULT_255_1_234
10
23.8212469
20
5.4859637
40
0.3361092
50
55.9268222
51
78.4888551
0
ARC
8
DEFAULT_255_1_234
10
23.840891
20
5.5198324
40
0.2970617
50
47.9292255
51
55.4054003
0
ARC
8
DEFAULT_255_1_234
10
23.851047
20
5.5301502
40
0.2825983
50
4.3347696
51
48.0560701
0
ARC
8
DEFAULT_255_1_234
10
23.7414864
20
5.5131601
40
0.393225
50
359.925209
51
5.5967654
0
ARC
8
DEFAULT_255_1_234
10
23.7843756
20
5.5187816
40
0.3503892
50
337.8914096
51
358.9967724
0
ARC
8
DEFAULT_255_1_234
10
23.5130168
20
5.6234706
40
0.6412172
50
326.9135351
51
338.3505194
0
ARC
8
DEFAULT_255_1_234
10
23.1144471
20
5.8789284
40
1.1146189
50
319.6472867
51
327.095818
0
ARC
8
DEFAULT_255_1_234
10
22.7311475
20
6.1951
40
1.6114559
50
317.2586784
51
319.9046139
0
LINE
8
DEFAULT_255_1_234
10
21.8537657
20
13.1995565
11
21.8537657
21
13.1248614
0
LINE
8
DEFAULT_255_1_234
10
21.6489563
20
12.6413507
11
21.8577815
21
12.4775033
0
LINE
8
DEFAULT_255_1_234
10
21.8577815
20
12.4775033
11
21.7525658
21
12.3803192
0
LINE
8
DEFAULT_255_1_234
10
21.7525658
20
12.3803192
11
21.5059914
21
12.5762937
0
LINE
8
DEFAULT_255_1_234
10
20.9124459
20
13.1144201
11
20.9124459
21
13.1987534
0
LINE
8
DEFAULT_255_1_234
10
21.6995563
20
13.1136169
11
21.6995563
21
13.2003597
0
LINE
8
DEFAULT_255_1_234
10
21.0666553
20
13.210801
11
21.0666553
21
13.1248614
0
ARC
8
DEFAULT_255_1_234
10
20.9583909
20
13.1209707
40
0.8953833
50
351.453011
51
0.2489685
0
ARC
8
DEFAULT_255_1_234
10
21.2168709
20
13.0809933
40
0.6338333
50
338.6861641
51
351.5540711
0
ARC
8
DEFAULT_255_1_234
10
21.3102593
20
13.0479828
40
0.5348431
50
336.2887631
51
338.3442418
0
ARC
8
DEFAULT_255_1_234
10
21.3442215
20
13.0293698
40
0.4962747
50
321.1170344
51
336.6795229
0
ARC
8
DEFAULT_255_1_234
10
21.4074044
20
12.9807206
40
0.4165565
50
305.4419708
51
320.8705636
0
ARC
8
DEFAULT_255_1_234
10
21.3877514
20
13.0554707
40
0.4935497
50
271.6373023
51
283.8611969
0
ARC
8
DEFAULT_255_1_234
10
21.3839767
20
13.1210572
40
0.5592206
50
269.9930596
51
271.8318864
0
ARC
8
DEFAULT_255_1_234
10
21.380221
20
13.0402681
40
0.4784458
50
252.5219675
51
270.4416499
0
ARC
8
DEFAULT_255_1_234
10
21.3658469
20
12.9863592
40
0.422716
50
237.5352116
51
252.1857531
0
ARC
8
DEFAULT_255_1_234
10
21.3747665
20
12.9977363
40
0.4371052
50
209.063312
51
237.3492538
0
ARC
8
DEFAULT_255_1_234
10
21.4617513
20
13.0523685
40
0.5397041
50
205.1183774
51
209.6470015
0
ARC
8
DEFAULT_255_1_234
10
21.541455
20
13.086183
40
0.6262326
50
188.7215458
51
204.8240747
0
ARC
8
DEFAULT_255_1_234
10
21.7412078
20
13.1198067
40
0.8287794
50
180.3723947
51
188.9252049
0
ARC
8
DEFAULT_255_1_234
10
21.738483
20
13.2027402
40
0.8260467
50
169.5253763
51
180.2765336
0
ARC
8
DEFAULT_255_1_234
10
21.5482279
20
13.2377309
40
0.6326007
50
155.8315255
51
169.5089989
0
ARC
8
DEFAULT_255_1_234
10
21.420178
20
13.2971348
40
0.4914567
50
139.6258461
51
156.0379525
0
ARC
8
DEFAULT_255_1_234
10
21.3612113
20
13.3445799
40
0.4158054
50
122.6416387
51
139.3430715
0
ARC
8
DEFAULT_255_1_234
10
21.3712733
20
13.3262451
40
0.4366739
50
93.0223692
51
122.455762
0
ARC
8
DEFAULT_255_1_234
10
21.382073
20
13.2297709
40
0.5336137
50
89.975342
51
93.6341897
0
ARC
8
DEFAULT_255_1_234
10
21.3859616
20
13.2677375
40
0.4956606
50
73.9665422
51
90.4229648
0
ARC
8
DEFAULT_255_1_234
10
21.4043263
20
13.3392451
40
0.4218674
50
57.5178019
51
73.6813337
0
ARC
8
DEFAULT_255_1_234
10
21.3999046
20
13.3356462
40
0.4272816
50
28.7261108
51
57.2767933
0
ARC
8
DEFAULT_255_1_234
10
21.3088378
20
13.2793688
40
0.534218
50
24.2448911
51
29.3248482
0
ARC
8
DEFAULT_255_1_234
10
21.2162479
20
13.2410819
40
0.6343711
50
9.064382
51
23.9639114
0
ARC
8
DEFAULT_255_1_234
10
20.9906807
20
13.2031925
40
0.8630926
50
359.7586264
51
9.1891435
0
ARC
8
DEFAULT_255_1_234
10
20.8652287
20
13.2045343
40
0.834338
50
359.7133237
51
7.96545
0
ARC
8
DEFAULT_255_1_234
10
21.1614504
20
13.2472681
40
0.5350538
50
7.8291991
51
20.0421623
0
ARC
8
DEFAULT_255_1_234
10
21.3239067
20
13.3063606
40
0.3621841
50
20.0677553
51
35.9161685
0
ARC
8
DEFAULT_255_1_234
10
21.4014105
20
13.363967
40
0.2656263
50
35.6594382
51
85.1578074
0
ARC
8
DEFAULT_255_1_234
10
21.3829361
20
13.2524378
40
0.3784238
50
83.7959068
51
90.095906
0
ARC
8
DEFAULT_255_1_234
10
21.3786295
20
13.3257601
40
0.3051229
50
89.3102392
51
109.9889877
0
ARC
8
DEFAULT_255_1_234
10
21.3703778
20
13.3613433
40
0.2688988
50
110.9285147
51
143.9411762
0
ARC
8
DEFAULT_255_1_234
10
21.4634724
20
13.2901236
40
0.3860887
50
143.5289163
51
163.2980757
0
ARC
8
DEFAULT_255_1_234
10
21.6542545
20
13.2301433
40
0.5860659
50
163.0418846
51
174.3140048
0
ARC
8
DEFAULT_255_1_234
10
21.8946657
20
13.2023854
40
0.8280531
50
174.0509143
51
179.4176892
0
ARC
8
DEFAULT_255_1_234
10
21.8432992
20
13.1205634
40
0.7766558
50
179.6829237
51
188.9631324
0
ARC
8
DEFAULT_255_1_234
10
21.5762553
20
13.0770752
40
0.5060992
50
188.8100743
51
202.9300012
0
ARC
8
DEFAULT_255_1_234
10
21.4546182
20
13.0275855
40
0.3747967
50
203.2069261
51
215.7876482
0
ARC
8
DEFAULT_255_1_234
10
21.3697579
20
12.9604671
40
0.2667526
50
214.7521006
51
264.2834488
0
ARC
8
DEFAULT_255_1_234
10
21.3833234
20
13.045978
40
0.3532247
50
263.4755397
51
270.0949833
0
ARC
8
DEFAULT_255_1_234
10
21.3875345
20
13.0198374
40
0.3271036
50
269.3649385
51
287.5152008
0
ARC
8
DEFAULT_255_1_234
10
21.4053503
20
12.9551238
40
0.2600406
50
288.0630309
51
323.8113348
0
ARC
8
DEFAULT_255_1_234
10
21.3182345
20
13.0201049
40
0.3687189
50
323.6547608
51
342.6590488
0
ARC
8
DEFAULT_255_1_234
10
21.115096
20
13.0861952
40
0.5823286
50
342.4091907
51
353.6451149
0
ARC
8
DEFAULT_255_1_234
10
20.8319471
20
13.121419
40
0.8676442
50
353.4029884
51
359.4847795
0
LINE
8
DEFAULT_255_1_234
10
22.6802315
20
13.7473211
11
22.6802315
21
12.970652
0
LINE
8
DEFAULT_255_1_234
10
22.6802315
20
12.970652
11
22.8424727
21
12.970652
0
LINE
8
DEFAULT_255_1_234
10
22.8424727
20
12.970652
11
22.8424727
21
12.8493728
0
LINE
8
DEFAULT_255_1_234
10
22.8424727
20
12.8493728
11
22.6802315
21
12.8493728
0
LINE
8
DEFAULT_255_1_234
10
22.6802315
20
12.8493728
11
22.6802315
21
12.5779
0
LINE
8
DEFAULT_255_1_234
10
22.6802315
20
12.5779
11
22.5308412
21
12.5779
0
LINE
8
DEFAULT_255_1_234
10
22.5308412
20
12.5779
11
22.5308412
21
12.8493728
0
LINE
8
DEFAULT_255_1_234
10
22.5308412
20
12.8493728
11
21.998337
21
12.8493728
0
LINE
8
DEFAULT_255_1_234
10
21.998337
20
12.8493728
11
21.998337
21
12.9369187
0
LINE
8
DEFAULT_255_1_234
10
21.998337
20
12.9369187
11
22.5220063
21
13.7473211
0
LINE
8
DEFAULT_255_1_234
10
22.5220063
20
13.7473211
11
22.6802315
21
13.7473211
0
LINE
8
DEFAULT_255_1_234
10
22.5131714
20
13.5119912
11
22.1670035
21
12.970652
0
LINE
8
DEFAULT_255_1_234
10
22.1670035
20
12.970652
11
22.5308412
21
12.970652
0
LINE
8
DEFAULT_255_1_234
10
22.5308412
20
12.970652
11
22.5308412
21
13.5441181
0
LINE
8
DEFAULT_255_1_234
10
22.5308412
20
13.5441181
11
22.5131714
21
13.5119912
0
LINE
8
DEFAULT_255_1_234
10
23.3010849
20
13.1353026
11
23.3010849
21
13.0140234
0
LINE
8
DEFAULT_255_1_234
10
23.3010849
20
13.0140234
11
22.9091361
21
13.0140234
0
LINE
8
DEFAULT_255_1_234
10
22.9091361
20
13.0140234
11
22.9091361
21
13.1353026
0
LINE
8
DEFAULT_255_1_234
10
22.9091361
20
13.1353026
11
23.3010849
21
13.1353026
0
LINE
8
DEFAULT_255_1_234
10
23.9187256
20
13.7529433
11
23.9187256
21
12.5779
0
LINE
8
DEFAULT_255_1_234
10
23.9187256
20
12.5779
11
23.7693353
21
12.5779
0
LINE
8
DEFAULT_255_1_234
10
23.7693353
20
12.5779
11
23.7693353
21
13.5682133
0
LINE
8
DEFAULT_255_1_234
10
23.7693353
20
13.5682133
11
23.4697514
21
13.4581785
0
LINE
8
DEFAULT_255_1_234
10
23.4697514
20
13.4581785
11
23.4697514
21
13.5931117
0
LINE
8
DEFAULT_255_1_234
10
23.4697514
20
13.5931117
11
23.8954335
21
13.7529433
0
LINE
8
DEFAULT_255_1_234
10
23.8954335
20
13.7529433
11
23.9187256
21
13.7529433
0
LINE
8
DEFAULT_255_1_234
10
21.8456657
20
21.1370565
11
21.8456657
21
21.0623614
0
LINE
8
DEFAULT_255_1_234
10
21.6408563
20
20.5788507
11
21.8496815
21
20.4150033
0
LINE
8
DEFAULT_255_1_234
10
21.8496815
20
20.4150033
11
21.7444658
21
20.3178192
0
LINE
8
DEFAULT_255_1_234
10
21.7444658
20
20.3178192
11
21.4978914
21
20.5137937
0
LINE
8
DEFAULT_255_1_234
10
20.9043459
20
21.0519201
11
20.9043459
21
21.1362534
0
LINE
8
DEFAULT_255_1_234
10
21.6914563
20
21.0511169
11
21.6914563
21
21.1378597
0
LINE
8
DEFAULT_255_1_234
10
21.0585553
20
21.148301
11
21.0585553
21
21.0623614
0
ARC
8
DEFAULT_255_1_234
10
20.9502909
20
21.0584707
40
0.8953833
50
351.453011
51
0.2489685
0
ARC
8
DEFAULT_255_1_234
10
21.2087709
20
21.0184933
40
0.6338333
50
338.6861641
51
351.5540711
0
ARC
8
DEFAULT_255_1_234
10
21.3021593
20
20.9854828
40
0.5348431
50
336.2887631
51
338.3442418
0
ARC
8
DEFAULT_255_1_234
10
21.3361215
20
20.9668698
40
0.4962747
50
321.1170344
51
336.6795229
0
ARC
8
DEFAULT_255_1_234
10
21.3993044
20
20.9182206
40
0.4165565
50
305.4419708
51
320.8705636
0
ARC
8
DEFAULT_255_1_234
10
21.3796514
20
20.9929707
40
0.4935497
50
271.6373023
51
283.8611969
0
ARC
8
DEFAULT_255_1_234
10
21.3758767
20
21.0585572
40
0.5592206
50
269.9930596
51
271.8318864
0
ARC
8
DEFAULT_255_1_234
10
21.372121
20
20.9777681
40
0.4784458
50
252.5219675
51
270.4416499
0
ARC
8
DEFAULT_255_1_234
10
21.3577469
20
20.9238592
40
0.422716
50
237.5352116
51
252.1857531
0
ARC
8
DEFAULT_255_1_234
10
21.3666665
20
20.9352363
40
0.4371052
50
209.063312
51
237.3492538
0
ARC
8
DEFAULT_255_1_234
10
21.4536513
20
20.9898685
40
0.5397041
50
205.1183774
51
209.6470015
0
ARC
8
DEFAULT_255_1_234
10
21.533355
20
21.023683
40
0.6262326
50
188.7215458
51
204.8240747
0
ARC
8
DEFAULT_255_1_234
10
21.7331078
20
21.0573067
40
0.8287794
50
180.3723947
51
188.9252049
0
ARC
8
DEFAULT_255_1_234
10
21.730383
20
21.1402402
40
0.8260467
50
169.5253763
51
180.2765336
0
ARC
8
DEFAULT_255_1_234
10
21.5401279
20
21.1752309
40
0.6326007
50
155.8315255
51
169.5089989
0
ARC
8
DEFAULT_255_1_234
10
21.412078
20
21.2346348
40
0.4914567
50
139.6258461
51
156.0379525
0
ARC
8
DEFAULT_255_1_234
10
21.3531113
20
21.2820799
40
0.4158054
50
122.6416387
51
139.3430715
0
ARC
8
DEFAULT_255_1_234
10
21.3631733
20
21.2637451
40
0.4366739
50
93.0223692
51
122.455762
0
ARC
8
DEFAULT_255_1_234
10
21.373973
20
21.1672709
40
0.5336137
50
89.975342
51
93.6341897
0
ARC
8
DEFAULT_255_1_234
10
21.3778616
20
21.2052375
40
0.4956606
50
73.9665422
51
90.4229648
0
ARC
8
DEFAULT_255_1_234
10
21.3962263
20
21.2767451
40
0.4218674
50
57.5178019
51
73.6813337
0
ARC
8
DEFAULT_255_1_234
10
21.3918046
20
21.2731462
40
0.4272816
50
28.7261108
51
57.2767933
0
ARC
8
DEFAULT_255_1_234
10
21.3007378
20
21.2168688
40
0.534218
50
24.2448911
51
29.3248482
0
ARC
8
DEFAULT_255_1_234
10
21.2081479
20
21.1785819
40
0.6343711
50
9.064382
51
23.9639114
0
ARC
8
DEFAULT_255_1_234
10
20.9825807
20
21.1406925
40
0.8630926
50
359.7586264
51
9.1891435
0
ARC
8
DEFAULT_255_1_234
10
20.8571287
20
21.1420343
40
0.834338
50
359.7133237
51
7.96545
0
ARC
8
DEFAULT_255_1_234
10
21.1533504
20
21.1847681
40
0.5350538
50
7.8291991
51
20.0421623
0
ARC
8
DEFAULT_255_1_234
10
21.3158067
20
21.2438606
40
0.3621841
50
20.0677553
51
35.9161685
0
ARC
8
DEFAULT_255_1_234
10
21.3933105
20
21.301467
40
0.2656263
50
35.6594382
51
85.1578074
0
ARC
8
DEFAULT_255_1_234
10
21.3748361
20
21.1899378
40
0.3784238
50
83.7959068
51
90.095906
0
ARC
8
DEFAULT_255_1_234
10
21.3705295
20
21.2632601
40
0.3051229
50
89.3102392
51
109.9889877
0
ARC
8
DEFAULT_255_1_234
10
21.3622778
20
21.2988433
40
0.2688988
50
110.9285147
51
143.9411762
0
ARC
8
DEFAULT_255_1_234
10
21.4553724
20
21.2276236
40
0.3860887
50
143.5289163
51
163.2980757
0
ARC
8
DEFAULT_255_1_234
10
21.6461545
20
21.1676433
40
0.5860659
50
163.0418846
51
174.3140048
0
ARC
8
DEFAULT_255_1_234
10
21.8865657
20
21.1398854
40
0.8280531
50
174.0509143
51
179.4176892
0
ARC
8
DEFAULT_255_1_234
10
21.8351992
20
21.0580634
40
0.7766558
50
179.6829237
51
188.9631324
0
ARC
8
DEFAULT_255_1_234
10
21.5681553
20
21.0145752
40
0.5060992
50
188.8100743
51
202.9300012
0
ARC
8
DEFAULT_255_1_234
10
21.4465182
20
20.9650855
40
0.3747967
50
203.2069261
51
215.7876482
0
ARC
8
DEFAULT_255_1_234
10
21.3616579
20
20.8979671
40
0.2667526
50
214.7521006
51
264.2834488
0
ARC
8
DEFAULT_255_1_234
10
21.3752234
20
20.983478
40
0.3532247
50
263.4755397
51
270.0949833
0
ARC
8
DEFAULT_255_1_234
10
21.3794345
20
20.9573374
40
0.3271036
50
269.3649385
51
287.5152008
0
ARC
8
DEFAULT_255_1_234
10
21.3972503
20
20.8926238
40
0.2600406
50
288.0630309
51
323.8113348
0
ARC
8
DEFAULT_255_1_234
10
21.3101345
20
20.9576049
40
0.3687189
50
323.6547608
51
342.6590488
0
ARC
8
DEFAULT_255_1_234
10
21.106996
20
21.0236952
40
0.5823286
50
342.4091907
51
353.6451149
0
ARC
8
DEFAULT_255_1_234
10
20.8238471
20
21.058919
40
0.8676442
50
353.4029884
51
359.4847795
0
LINE
8
DEFAULT_255_1_234
10
22.2609065
20
21.0511169
11
22.2609065
21
21.1723962
0
LINE
8
DEFAULT_255_1_234
10
22.2609065
20
21.1723962
11
22.3725477
21
21.1723962
0
LINE
8
DEFAULT_255_1_234
10
22.1821955
20
21.3780087
11
22.0336083
21
21.3780087
0
LINE
8
DEFAULT_255_1_234
10
22.0231671
20
20.8238188
11
22.1725574
21
20.8238188
0
LINE
8
DEFAULT_255_1_234
10
22.3725477
20
21.0511169
11
22.2609065
21
21.0511169
0
ARC
8
DEFAULT_255_1_234
10
22.3696343
20
21.5116713
40
0.3392876
50
270.4919872
51
281.8951556
0
ARC
8
DEFAULT_255_1_234
10
22.3937605
20
21.4014702
40
0.2264817
50
281.6691735
51
301.2943132
0
ARC
8
DEFAULT_255_1_234
10
22.4107815
20
21.3703304
40
0.1910381
50
301.7833094
51
311.7545298
0
ARC
8
DEFAULT_255_1_234
10
22.4199391
20
21.3601748
40
0.1773635
50
311.7323931
51
354.2802411
0
ARC
8
DEFAULT_255_1_234
10
22.3473016
20
21.3726722
40
0.2509385
50
353.0937916
51
0.1181479
0
ARC
8
DEFAULT_255_1_234
10
22.3011801
20
21.3774386
40
0.2970898
50
359.1805295
51
15.0453146
0
ARC
8
DEFAULT_255_1_234
10
22.4357638
20
21.4166992
40
0.1569564
50
13.9577229
51
77.6713066
0
ARC
8
DEFAULT_255_1_234
10
22.3971167
20
21.2781949
40
0.3006298
50
76.1116566
51
90.7026153
0
ARC
8
DEFAULT_255_1_234
10
22.3912006
20
21.3055545
40
0.2732568
50
89.5324876
51
103.531937
0
ARC
8
DEFAULT_255_1_234
10
22.371145
20
21.3854884
40
0.1908508
50
103.2931773
51
133.5619022
0
ARC
8
DEFAULT_255_1_234
10
22.3666938
20
21.3914375
40
0.1834746
50
133.8349307
51
173.5344437
0
ARC
8
DEFAULT_255_1_234
10
22.4389981
20
21.3786213
40
0.2568033
50
172.5096846
51
180.1366907
0
ARC
8
DEFAULT_255_1_234
10
22.3438875
20
21.3820622
40
0.3103056
50
155.3484492
51
180.7484736
0
ARC
8
DEFAULT_255_1_234
10
22.3389964
20
21.3791846
40
0.3070957
50
131.5744599
51
154.4798489
0
ARC
8
DEFAULT_255_1_234
10
22.3703112
20
21.347531
40
0.3515643
50
96.9875458
51
131.9690667
0
ARC
8
DEFAULT_255_1_234
10
22.3922591
20
21.2229636
40
0.4779224
50
89.8596053
51
97.7825159
0
ARC
8
DEFAULT_255_1_234
10
22.3970655
20
21.1967616
40
0.5041361
50
78.3655447
51
90.4131539
0
ARC
8
DEFAULT_255_1_234
10
22.4328573
20
21.3626887
40
0.3344039
50
56.6229102
51
78.638727
0
ARC
8
DEFAULT_255_1_234
10
22.4543516
20
21.4002805
40
0.2912001
50
47.0253525
51
56.0854072
0
ARC
8
DEFAULT_255_1_234
10
22.4563296
20
21.4042223
40
0.2869704
50
10.9208013
51
46.7778124
0
ARC
8
DEFAULT_255_1_234
10
22.3199363
20
21.3726857
40
0.426899
50
359.6364486
51
11.6087304
0
ARC
8
DEFAULT_255_1_234
10
22.5034207
20
21.3711752
40
0.243409
50
332.3549906
51
359.7179418
0
ARC
8
DEFAULT_255_1_234
10
22.4383808
20
21.4020142
40
0.3153459
50
325.2333722
51
332.8745602
0
ARC
8
DEFAULT_255_1_234
10
22.4536432
20
21.3913828
40
0.2967456
50
292.9802137
51
325.2392345
0
ARC
8
DEFAULT_255_1_234
10
22.4261806
20
21.4447863
40
0.3566604
50
292.5402179
51
293.6924929
0
ARC
8
DEFAULT_255_1_234
10
22.4654402
20
20.7993091
40
0.3307468
50
57.6435486
51
72.8625112
0
ARC
8
DEFAULT_255_1_234
10
22.5008901
20
20.8567549
40
0.2632492
50
36.7248896
51
57.4697979
0
ARC
8
DEFAULT_255_1_234
10
22.4997534
20
20.858022
40
0.2634081
50
8.0545065
51
36.356114
0
ARC
8
DEFAULT_255_1_234
10
22.4134719
20
20.8425174
40
0.3510261
50
359.8320645
51
8.5869982
0
ARC
8
DEFAULT_255_1_234
10
22.3759496
20
20.8377101
40
0.3885653
50
343.9829931
51
0.5571613
0
ARC
8
DEFAULT_255_1_234
10
22.4645693
20
20.8134438
40
0.2966924
50
311.6359546
51
343.7651759
0
ARC
8
DEFAULT_255_1_234
10
22.4267262
20
20.8561102
40
0.3537231
50
279.7829875
51
311.6255694
0
ARC
8
DEFAULT_255_1_234
10
22.3966038
20
20.999828
40
0.5004971
50
269.7286406
51
280.3856417
0
ARC
8
DEFAULT_255_1_234
10
22.3904111
20
20.9956996
40
0.4963778
50
256.6828919
51
270.4412052
0
ARC
8
DEFAULT_255_1_234
10
22.3565407
20
20.8572394
40
0.3538406
50
229.4223008
51
256.8556159
0
ARC
8
DEFAULT_255_1_234
10
22.3150799
20
20.8105736
40
0.2914296
50
181.818294
51
229.6455059
0
ARC
8
DEFAULT_255_1_234
10
22.4190756
20
20.8236496
40
0.3959084
50
179.9755256
51
183.2323064
0
ARC
8
DEFAULT_255_1_234
10
22.4018501
20
20.8216037
40
0.2293034
50
179.4465117
51
196.2869258
0
ARC
8
DEFAULT_255_1_234
10
22.3530909
20
20.8082651
40
0.1787621
50
196.5661473
51
227.705904
0
ARC
8
DEFAULT_255_1_234
10
22.3695004
20
20.8266155
40
0.2033784
50
227.7652068
51
257.8762805
0
ARC
8
DEFAULT_255_1_234
10
22.3919974
20
20.9209156
40
0.3003081
50
257.4584385
51
270.426602
0
ARC
8
DEFAULT_255_1_234
10
22.3965541
20
20.9498996
40
0.329292
50
269.5962073
51
280.8789248
0
ARC
8
DEFAULT_255_1_234
10
22.4195069
20
20.8352685
40
0.2123908
50
280.6346389
51
299.8595945
0
ARC
8
DEFAULT_255_1_234
10
22.4385976
20
20.7990212
40
0.171457
50
300.3576302
51
314.5517981
0
ARC
8
DEFAULT_255_1_234
10
22.4303036
20
20.8050919
40
0.1816095
50
315.0728369
51
345.0431014
0
ARC
8
DEFAULT_255_1_234
10
22.3379851
20
20.8319841
40
0.2777492
50
344.5986631
51
357.9269593
0
ARC
8
DEFAULT_255_1_234
10
22.2484177
20
20.8381276
40
0.3674917
50
357.4748886
51
0.0231117
0
ARC
8
DEFAULT_255_1_234
10
22.3507286
20
20.8405679
40
0.2651907
50
359.5047933
51
13.4239635
0
ARC
8
DEFAULT_255_1_234
10
22.437393
20
20.8627478
40
0.1757509
50
12.9498199
51
48.7551375
0
ARC
8
DEFAULT_255_1_234
10
22.4191664
20
20.83784
40
0.2065134
50
49.5088623
51
72.1836453
0
ARC
8
DEFAULT_255_1_234
10
22.3833816
20
20.7316291
40
0.3185836
50
71.9010081
51
84.3554254
0
ARC
8
DEFAULT_255_1_234
10
22.3672448
20
20.5955326
40
0.4556151
50
84.0193428
51
89.333121
0
LINE
8
DEFAULT_255_1_234
10
23.2929849
20
21.0728026
11
23.2929849
21
20.9515234
0
LINE
8
DEFAULT_255_1_234
10
23.2929849
20
20.9515234
11
22.9010361
21
20.9515234
0
LINE
8
DEFAULT_255_1_234
10
22.9010361
20
20.9515234
11
22.9010361
21
21.0728026
0
LINE
8
DEFAULT_255_1_234
10
22.9010361
20
21.0728026
11
23.2929849
21
21.0728026
0
LINE
8
DEFAULT_255_1_234
10
24.1885237
20
20.6366792
11
24.1885237
21
20.5154
0
LINE
8
DEFAULT_255_1_234
10
24.1885237
20
20.5154
11
23.4222959
21
20.5154
0
LINE
8
DEFAULT_255_1_234
10
23.4222959
20
20.5154
11
23.4222959
21
20.6222221
0
LINE
8
DEFAULT_255_1_234
10
23.4222959
20
20.6222221
11
23.8270955
21
21.0719995
0
LINE
8
DEFAULT_255_1_234
10
23.5483942
20
21.3402595
11
23.399807
21
21.3402595
0
LINE
8
DEFAULT_255_1_234
10
23.9146415
20
20.9764218
11
23.6014037
21
20.6366792
0
LINE
8
DEFAULT_255_1_234
10
23.6014037
20
20.6366792
11
24.1885237
21
20.6366792
0
ARC
8
DEFAULT_255_1_234
10
22.4780788
20
22.2649527
40
1.8008286
50
318.5132453
51
320.7828378
0
ARC
8
DEFAULT_255_1_234
10
23.0067763
20
21.8346426
40
1.1191493
50
320.7372736
51
323.9737074
0
ARC
8
DEFAULT_255_1_234
10
23.3987619
20
21.5506361
40
0.6350923
50
323.8961724
51
328.6421089
0
ARC
8
DEFAULT_255_1_234
10
23.6034215
20
21.4244031
40
0.3946393
50
328.8299013
51
331.789948
0
ARC
8
DEFAULT_255_1_234
10
23.7031393
20
21.3729509
40
0.2824501
50
331.4255242
51
352.9364833
0
ARC
8
DEFAULT_255_1_234
10
23.7167894
20
21.3698976
40
0.2685315
50
353.2248685
51
0.0169286
0
ARC
8
DEFAULT_255_1_234
10
23.737777
20
21.372195
40
0.2475536
50
359.4866256
51
15.9339782
0
ARC
8
DEFAULT_255_1_234
10
23.7884756
20
21.3858286
40
0.1950618
50
16.1714718
51
43.5284424
0
ARC
8
DEFAULT_255_1_234
10
23.7962064
20
21.3935573
40
0.184134
50
43.4415429
51
83.1661404
0
ARC
8
DEFAULT_255_1_234
10
23.7827983
20
21.3198771
40
0.258926
50
82.160215
51
90.1505798
0
ARC
8
DEFAULT_255_1_234
10
23.779641
20
21.2661865
40
0.3126255
50
89.5460705
51
102.5418777
0
ARC
8
DEFAULT_255_1_234
10
23.7553496
20
21.3692665
40
0.2067346
50
102.1739365
51
129.2061916
0
ARC
8
DEFAULT_255_1_234
10
23.7474568
20
21.3817094
40
0.1921118
50
129.7279328
51
135.7542026
0
ARC
8
DEFAULT_255_1_234
10
23.7596095
20
21.3720045
40
0.2075944
50
136.175737
51
166.3674722
0
ARC
8
DEFAULT_255_1_234
10
23.8603015
20
21.3450182
40
0.3118201
50
165.9092917
51
178.8683903
0
ARC
8
DEFAULT_255_1_234
10
23.9467876
20
21.3403179
40
0.3983935
50
178.438168
51
180.0083905
0
ARC
8
DEFAULT_255_1_234
10
23.8066478
20
21.3442231
40
0.4068601
50
163.2878735
51
180.5581814
0
ARC
8
DEFAULT_255_1_234
10
23.7264739
20
21.366284
40
0.3237344
50
133.454115
51
162.9470031
0
ARC
8
DEFAULT_255_1_234
10
23.7443281
20
21.3473
40
0.349795
50
100.7869394
51
133.4384016
0
ARC
8
DEFAULT_255_1_234
10
23.7791052
20
21.1924319
40
0.5084616
50
89.6605301
51
101.3704185
0
ARC
8
DEFAULT_255_1_234
10
23.7857391
20
21.1985496
40
0.502348
50
78.2171172
51
90.4130393
0
ARC
8
DEFAULT_255_1_234
10
23.8212469
20
21.3609637
40
0.3361092
50
55.9268222
51
78.4888551
0
ARC
8
DEFAULT_255_1_234
10
23.840891
20
21.3948324
40
0.2970617
50
47.9292255
51
55.4054003
0
ARC
8
DEFAULT_255_1_234
10
23.851047
20
21.4051502
40
0.2825983
50
4.3347696
51
48.0560701
0
ARC
8
DEFAULT_255_1_234
10
23.7414864
20
21.3881601
40
0.393225
50
359.925209
51
5.5967654
0
ARC
8
DEFAULT_255_1_234
10
23.7843756
20
21.3937816
40
0.3503892
50
337.8914096
51
358.9967724
0
ARC
8
DEFAULT_255_1_234
10
23.5130168
20
21.4984706
40
0.6412172
50
326.9135351
51
338.3505194
0
ARC
8
DEFAULT_255_1_234
10
23.1144471
20
21.7539284
40
1.1146189
50
319.6472867
51
327.095818
0
ARC
8
DEFAULT_255_1_234
10
22.7311475
20
22.0701
40
1.6114559
50
317.2586784
51
319.9046139
0
LINE
8
DEFAULT_255_1_234
10
21.8537657
20
29.0745565
11
21.8537657
21
28.9998614
0
LINE
8
DEFAULT_255_1_234
10
21.6489563
20
28.5163507
11
21.8577815
21
28.3525033
0
LINE
8
DEFAULT_255_1_234
10
21.8577815
20
28.3525033
11
21.7525658
21
28.2553192
0
LINE
8
DEFAULT_255_1_234
10
21.7525658
20
28.2553192
11
21.5059914
21
28.4512937
0
LINE
8
DEFAULT_255_1_234
10
20.9124459
20
28.9894201
11
20.9124459
21
29.0737534
0
LINE
8
DEFAULT_255_1_234
10
21.6995563
20
28.9886169
11
21.6995563
21
29.0753597
0
LINE
8
DEFAULT_255_1_234
10
21.0666553
20
29.085801
11
21.0666553
21
28.9998614
0
ARC
8
DEFAULT_255_1_234
10
20.9583909
20
28.9959707
40
0.8953833
50
351.453011
51
0.2489685
0
ARC
8
DEFAULT_255_1_234
10
21.2168709
20
28.9559933
40
0.6338333
50
338.6861641
51
351.5540711
0
ARC
8
DEFAULT_255_1_234
10
21.3102593
20
28.9229828
40
0.5348431
50
336.2887631
51
338.3442418
0
ARC
8
DEFAULT_255_1_234
10
21.3442215
20
28.9043698
40
0.4962747
50
321.1170344
51
336.6795229
0
ARC
8
DEFAULT_255_1_234
10
21.4074044
20
28.8557206
40
0.4165565
50
305.4419708
51
320.8705636
0
ARC
8
DEFAULT_255_1_234
10
21.3877514
20
28.9304707
40
0.4935497
50
271.6373023
51
283.8611969
0
ARC
8
DEFAULT_255_1_234
10
21.3839767
20
28.9960572
40
0.5592206
50
269.9930596
51
271.8318864
0
ARC
8
DEFAULT_255_1_234
10
21.380221
20
28.9152681
40
0.4784458
50
252.5219675
51
270.4416499
0
ARC
8
DEFAULT_255_1_234
10
21.3658469
20
28.8613592
40
0.422716
50
237.5352116
51
252.1857531
0
ARC
8
DEFAULT_255_1_234
10
21.3747665
20
28.8727363
40
0.4371052
50
209.063312
51
237.3492538
0
ARC
8
DEFAULT_255_1_234
10
21.4617513
20
28.9273685
40
0.5397041
50
205.1183774
51
209.6470015
0
ARC
8
DEFAULT_255_1_234
10
21.541455
20
28.961183
40
0.6262326
50
188.7215458
51
204.8240747
0
ARC
8
DEFAULT_255_1_234
10
21.7412078
20
28.9948067
40
0.8287794
50
180.3723947
51
188.9252049
0
ARC
8
DEFAULT_255_1_234
10
21.738483
20
29.0777402
40
0.8260467
50
169.5253763
51
180.2765336
0
ARC
8
DEFAULT_255_1_234
10
21.5482279
20
29.1127309
40
0.6326007
50
155.8315255
51
169.5089989
0
ARC
8
DEFAULT_255_1_234
10
21.420178
20
29.1721348
40
0.4914567
50
139.6258461
51
156.0379525
0
ARC
8
DEFAULT_255_1_234
10
21.3612113
20
29.2195799
40
0.4158054
50
122.6416387
51
139.3430715
0
ARC
8
DEFAULT_255_1_234
10
21.3712733
20
29.2012451
40
0.4366739
50
93.0223692
51
122.455762
0
ARC
8
DEFAULT_255_1_234
10
21.382073
20
29.1047709
40
0.5336137
50
89.975342
51
93.6341897
0
ARC
8
DEFAULT_255_1_234
10
21.3859616
20
29.1427375
40
0.4956606
50
73.9665422
51
90.4229648
0
ARC
8
DEFAULT_255_1_234
10
21.4043263
20
29.2142451
40
0.4218674
50
57.5178019
51
73.6813337
0
ARC
8
DEFAULT_255_1_234
10
21.3999046
20
29.2106462
40
0.4272816
50
28.7261108
51
57.2767933
0
ARC
8
DEFAULT_255_1_234
10
21.3088378
20
29.1543688
40
0.534218
50
24.2448911
51
29.3248482
0
ARC
8
DEFAULT_255_1_234
10
21.2162479
20
29.1160819
40
0.6343711
50
9.064382
51
23.9639114
0
ARC
8
DEFAULT_255_1_234
10
20.9906807
20
29.0781925
40
0.8630926
50
359.7586264
51
9.1891435
0
ARC
8
DEFAULT_255_1_234
10
20.8652287
20
29.0795343
40
0.834338
50
359.7133237
51
7.96545
0
ARC
8
DEFAULT_255_1_234
10
21.1614504
20
29.1222681
40
0.5350538
50
7.8291991
51
20.0421623
0
ARC
8
DEFAULT_255_1_234
10
21.3239067
20
29.1813606
40
0.3621841
50
20.0677553
51
35.9161685
0
ARC
8
DEFAULT_255_1_234
10
21.4014105
20
29.238967
40
0.2656263
50
35.6594382
51
85.1578074
0
ARC
8
DEFAULT_255_1_234
10
21.3829361
20
29.1274378
40
0.3784238
50
83.7959068
51
90.095906
0
ARC
8
DEFAULT_255_1_234
10
21.3786295
20
29.2007601
40
0.3051229
50
89.3102392
51
109.9889877
0
ARC
8
DEFAULT_255_1_234
10
21.3703778
20
29.2363433
40
0.2688988
50
110.9285147
51
143.9411762
0
ARC
8
DEFAULT_255_1_234
10
21.4634724
20
29.1651236
40
0.3860887
50
143.5289163
51
163.2980757
0
ARC
8
DEFAULT_255_1_234
10
21.6542545
20
29.1051433
40
0.5860659
50
163.0418846
51
174.3140048
0
ARC
8
DEFAULT_255_1_234
10
21.8946657
20
29.0773854
40
0.8280531
50
174.0509143
51
179.4176892
0
ARC
8
DEFAULT_255_1_234
10
21.8432992
20
28.9955634
40
0.7766558
50
179.6829237
51
188.9631324
0
ARC
8
DEFAULT_255_1_234
10
21.5762553
20
28.9520752
40
0.5060992
50
188.8100743
51
202.9300012
0
ARC
8
DEFAULT_255_1_234
10
21.4546182
20
28.9025855
40
0.3747967
50
203.2069261
51
215.7876482
0
ARC
8
DEFAULT_255_1_234
10
21.3697579
20
28.8354671
40
0.2667526
50
214.7521006
51
264.2834488
0
ARC
8
DEFAULT_255_1_234
10
21.3833234
20
28.920978
40
0.3532247
50
263.4755397
51
270.0949833
0
ARC
8
DEFAULT_255_1_234
10
21.3875345
20
28.8948374
40
0.3271036
50
269.3649385
51
287.5152008
0
ARC
8
DEFAULT_255_1_234
10
21.4053503
20
28.8301238
40
0.2600406
50
288.0630309
51
323.8113348
0
ARC
8
DEFAULT_255_1_234
10
21.3182345
20
28.8951049
40
0.3687189
50
323.6547608
51
342.6590488
0
ARC
8
DEFAULT_255_1_234
10
21.115096
20
28.9611952
40
0.5823286
50
342.4091907
51
353.6451149
0
ARC
8
DEFAULT_255_1_234
10
20.8319471
20
28.996419
40
0.8676442
50
353.4029884
51
359.4847795
0
LINE
8
DEFAULT_255_1_234
10
22.2690065
20
28.9886169
11
22.2690065
21
29.1098962
0
LINE
8
DEFAULT_255_1_234
10
22.2690065
20
29.1098962
11
22.3806477
21
29.1098962
0
LINE
8
DEFAULT_255_1_234
10
22.1902955
20
29.3155087
11
22.0417083
21
29.3155087
0
LINE
8
DEFAULT_255_1_234
10
22.0312671
20
28.7613188
11
22.1806574
21
28.7613188
0
LINE
8
DEFAULT_255_1_234
10
22.3806477
20
28.9886169
11
22.2690065
21
28.9886169
0
ARC
8
DEFAULT_255_1_234
10
22.3777343
20
29.4491713
40
0.3392876
50
270.4919872
51
281.8951556
0
ARC
8
DEFAULT_255_1_234
10
22.4018605
20
29.3389702
40
0.2264817
50
281.6691735
51
301.2943132
0
ARC
8
DEFAULT_255_1_234
10
22.4188815
20
29.3078304
40
0.1910381
50
301.7833094
51
311.7545298
0
ARC
8
DEFAULT_255_1_234
10
22.4280391
20
29.2976748
40
0.1773635
50
311.7323931
51
354.2802411
0
ARC
8
DEFAULT_255_1_234
10
22.3554016
20
29.3101722
40
0.2509385
50
353.0937916
51
0.1181479
0
ARC
8
DEFAULT_255_1_234
10
22.3092801
20
29.3149386
40
0.2970898
50
359.1805295
51
15.0453146
0
ARC
8
DEFAULT_255_1_234
10
22.4438638
20
29.3541992
40
0.1569564
50
13.9577229
51
77.6713066
0
ARC
8
DEFAULT_255_1_234
10
22.4052167
20
29.2156949
40
0.3006298
50
76.1116566
51
90.7026153
0
ARC
8
DEFAULT_255_1_234
10
22.3993006
20
29.2430545
40
0.2732568
50
89.5324876
51
103.531937
0
ARC
8
DEFAULT_255_1_234
10
22.379245
20
29.3229884
40
0.1908508
50
103.2931773
51
133.5619022
0
ARC
8
DEFAULT_255_1_234
10
22.3747938
20
29.3289375
40
0.1834746
50
133.8349307
51
173.5344437
0
ARC
8
DEFAULT_255_1_234
10
22.4470981
20
29.3161213
40
0.2568033
50
172.5096846
51
180.1366907
0
ARC
8
DEFAULT_255_1_234
10
22.3519875
20
29.3195622
40
0.3103056
50
155.3484492
51
180.7484736
0
ARC
8
DEFAULT_255_1_234
10
22.3470964
20
29.3166846
40
0.3070957
50
131.5744599
51
154.4798489
0
ARC
8
DEFAULT_255_1_234
10
22.3784112
20
29.285031
40
0.3515643
50
96.9875458
51
131.9690667
0
ARC
8
DEFAULT_255_1_234
10
22.4003591
20
29.1604636
40
0.4779224
50
89.8596053
51
97.7825159
0
ARC
8
DEFAULT_255_1_234
10
22.4051655
20
29.1342616
40
0.5041361
50
78.3655447
51
90.4131539
0
ARC
8
DEFAULT_255_1_234
10
22.4409573
20
29.3001887
40
0.3344039
50
56.6229102
51
78.638727
0
ARC
8
DEFAULT_255_1_234
10
22.4624516
20
29.3377805
40
0.2912001
50
47.0253525
51
56.0854072
0
ARC
8
DEFAULT_255_1_234
10
22.4644296
20
29.3417223
40
0.2869704
50
10.9208013
51
46.7778124
0
ARC
8
DEFAULT_255_1_234
10
22.3280363
20
29.3101857
40
0.426899
50
359.6364486
51
11.6087304
0
ARC
8
DEFAULT_255_1_234
10
22.5115207
20
29.3086752
40
0.243409
50
332.3549906
51
359.7179418
0
ARC
8
DEFAULT_255_1_234
10
22.4464808
20
29.3395142
40
0.3153459
50
325.2333722
51
332.8745602
0
ARC
8
DEFAULT_255_1_234
10
22.4617432
20
29.3288828
40
0.2967456
50
292.9802137
51
325.2392345
0
ARC
8
DEFAULT_255_1_234
10
22.4342806
20
29.3822863
40
0.3566604
50
292.5402179
51
293.6924929
0
ARC
8
DEFAULT_255_1_234
10
22.4735402
20
28.7368091
40
0.3307468
50
57.6435486
51
72.8625112
0
ARC
8
DEFAULT_255_1_234
10
22.5089901
20
28.7942549
40
0.2632492
50
36.7248896
51
57.4697979
0
ARC
8
DEFAULT_255_1_234
10
22.5078534
20
28.795522
40
0.2634081
50
8.0545065
51
36.356114
0
ARC
8
DEFAULT_255_1_234
10
22.4215719
20
28.7800174
40
0.3510261
50
359.8320645
51
8.5869982
0
ARC
8
DEFAULT_255_1_234
10
22.3840496
20
28.7752101
40
0.3885653
50
343.9829931
51
0.5571613
0
ARC
8
DEFAULT_255_1_234
10
22.4726693
20
28.7509438
40
0.2966924
50
311.6359546
51
343.7651759
0
ARC
8
DEFAULT_255_1_234
10
22.4348262
20
28.7936102
40
0.3537231
50
279.7829875
51
311.6255694
0
ARC
8
DEFAULT_255_1_234
10
22.4047038
20
28.937328
40
0.5004971
50
269.7286406
51
280.3856417
0
ARC
8
DEFAULT_255_1_234
10
22.3985111
20
28.9331996
40
0.4963778
50
256.6828919
51
270.4412052
0
ARC
8
DEFAULT_255_1_234
10
22.3646407
20
28.7947394
40
0.3538406
50
229.4223008
51
256.8556159
0
ARC
8
DEFAULT_255_1_234
10
22.3231799
20
28.7480736
40
0.2914296
50
181.818294
51
229.6455059
0
ARC
8
DEFAULT_255_1_234
10
22.4271756
20
28.7611496
40
0.3959084
50
179.9755256
51
183.2323064
0
ARC
8
DEFAULT_255_1_234
10
22.4099501
20
28.7591037
40
0.2293034
50
179.4465117
51
196.2869258
0
ARC
8
DEFAULT_255_1_234
10
22.3611909
20
28.7457651
40
0.1787621
50
196.5661473
51
227.705904
0
ARC
8
DEFAULT_255_1_234
10
22.3776004
20
28.7641155
40
0.2033784
50
227.7652068
51
257.8762805
0
ARC
8
DEFAULT_255_1_234
10
22.4000974
20
28.8584156
40
0.3003081
50
257.4584385
51
270.426602
0
ARC
8
DEFAULT_255_1_234
10
22.4046541
20
28.8873996
40
0.329292
50
269.5962073
51
280.8789248
0
ARC
8
DEFAULT_255_1_234
10
22.4276069
20
28.7727685
40
0.2123908
50
280.6346389
51
299.8595945
0
ARC
8
DEFAULT_255_1_234
10
22.4466976
20
28.7365212
40
0.171457
50
300.3576302
51
314.5517981
0
ARC
8
DEFAULT_255_1_234
10
22.4384036
20
28.7425919
40
0.1816095
50
315.0728369
51
345.0431014
0
ARC
8
DEFAULT_255_1_234
10
22.3460851
20
28.7694841
40
0.2777492
50
344.5986631
51
357.9269593
0
ARC
8
DEFAULT_255_1_234
10
22.2565177
20
28.7756276
40
0.3674917
50
357.4748886
51
0.0231117
0
ARC
8
DEFAULT_255_1_234
10
22.3588286
20
28.7780679
40
0.2651907
50
359.5047933
51
13.4239635
0
ARC
8
DEFAULT_255_1_234
10
22.445493
20
28.8002478
40
0.1757509
50
12.9498199
51
48.7551375
0
ARC
8
DEFAULT_255_1_234
10
22.4272664
20
28.77534
40
0.2065134
50
49.5088623
51
72.1836453
0
ARC
8
DEFAULT_255_1_234
10
22.3914816
20
28.6691291
40
0.3185836
50
71.9010081
51
84.3554254
0
ARC
8
DEFAULT_255_1_234
10
22.3753448
20
28.5330326
40
0.4556151
50
84.0193428
51
89.333121
0
LINE
8
DEFAULT_255_1_234
10
23.3010849
20
29.0103026
11
23.3010849
21
28.8890234
0
LINE
8
DEFAULT_255_1_234
10
23.3010849
20
28.8890234
11
22.9091361
21
28.8890234
0
LINE
8
DEFAULT_255_1_234
10
22.9091361
20
28.8890234
11
22.9091361
21
29.0103026
0
LINE
8
DEFAULT_255_1_234
10
22.9091361
20
29.0103026
11
23.3010849
21
29.0103026
0
LINE
8
DEFAULT_255_1_234
10
23.9187256
20
29.6279433
11
23.9187256
21
28.4529
0
LINE
8
DEFAULT_255_1_234
10
23.9187256
20
28.4529
11
23.7693353
21
28.4529
0
LINE
8
DEFAULT_255_1_234
10
23.7693353
20
28.4529
11
23.7693353
21
29.4432133
0
LINE
8
DEFAULT_255_1_234
10
23.7693353
20
29.4432133
11
23.4697514
21
29.3331785
0
LINE
8
DEFAULT_255_1_234
10
23.4697514
20
29.3331785
11
23.4697514
21
29.4681117
0
LINE
8
DEFAULT_255_1_234
10
23.4697514
20
29.4681117
11
23.8954335
21
29.6279433
0
LINE
8
DEFAULT_255_1_234
10
23.8954335
20
29.6279433
11
23.9187256
21
29.6279433
0
LINE
8
DEFAULT_255_1_234
10
21.8456657
20
37.0120565
11
21.8456657
21
36.9373614
0
LINE
8
DEFAULT_255_1_234
10
21.6408563
20
36.4538507
11
21.8496815
21
36.2900033
0
LINE
8
DEFAULT_255_1_234
10
21.8496815
20
36.2900033
11
21.7444658
21
36.1928192
0
LINE
8
DEFAULT_255_1_234
10
21.7444658
20
36.1928192
11
21.4978914
21
36.3887937
0
LINE
8
DEFAULT_255_1_234
10
20.9043459
20
36.9269201
11
20.9043459
21
37.0112534
0
LINE
8
DEFAULT_255_1_234
10
21.6914563
20
36.9261169
11
21.6914563
21
37.0128597
0
LINE
8
DEFAULT_255_1_234
10
21.0585553
20
37.023301
11
21.0585553
21
36.9373614
0
ARC
8
DEFAULT_255_1_234
10
20.9502909
20
36.9334707
40
0.8953833
50
351.453011
51
0.2489685
0
ARC
8
DEFAULT_255_1_234
10
21.2087709
20
36.8934933
40
0.6338333
50
338.6861641
51
351.5540711
0
ARC
8
DEFAULT_255_1_234
10
21.3021593
20
36.8604828
40
0.5348431
50
336.2887631
51
338.3442418
0
ARC
8
DEFAULT_255_1_234
10
21.3361215
20
36.8418698
40
0.4962747
50
321.1170344
51
336.6795229
0
ARC
8
DEFAULT_255_1_234
10
21.3993044
20
36.7932206
40
0.4165565
50
305.4419708
51
320.8705636
0
ARC
8
DEFAULT_255_1_234
10
21.3796514
20
36.8679707
40
0.4935497
50
271.6373023
51
283.8611969
0
ARC
8
DEFAULT_255_1_234
10
21.3758767
20
36.9335572
40
0.5592206
50
269.9930596
51
271.8318864
0
ARC
8
DEFAULT_255_1_234
10
21.372121
20
36.8527681
40
0.4784458
50
252.5219675
51
270.4416499
0
ARC
8
DEFAULT_255_1_234
10
21.3577469
20
36.7988592
40
0.422716
50
237.5352116
51
252.1857531
0
ARC
8
DEFAULT_255_1_234
10
21.3666665
20
36.8102363
40
0.4371052
50
209.063312
51
237.3492538
0
ARC
8
DEFAULT_255_1_234
10
21.4536513
20
36.8648685
40
0.5397041
50
205.1183774
51
209.6470015
0
ARC
8
DEFAULT_255_1_234
10
21.533355
20
36.898683
40
0.6262326
50
188.7215458
51
204.8240747
0
ARC
8
DEFAULT_255_1_234
10
21.7331078
20
36.9323067
40
0.8287794
50
180.3723947
51
188.9252049
0
ARC
8
DEFAULT_255_1_234
10
21.730383
20
37.0152402
40
0.8260467
50
169.5253763
51
180.2765336
0
ARC
8
DEFAULT_255_1_234
10
21.5401279
20
37.0502309
40
0.6326007
50
155.8315255
51
169.5089989
0
ARC
8
DEFAULT_255_1_234
10
21.412078
20
37.1096348
40
0.4914567
50
139.6258461
51
156.0379525
0
ARC
8
DEFAULT_255_1_234
10
21.3531113
20
37.1570799
40
0.4158054
50
122.6416387
51
139.3430715
0
ARC
8
DEFAULT_255_1_234
10
21.3631733
20
37.1387451
40
0.4366739
50
93.0223692
51
122.455762
0
ARC
8
DEFAULT_255_1_234
10
21.373973
20
37.0422709
40
0.5336137
50
89.975342
51
93.6341897
0
ARC
8
DEFAULT_255_1_234
10
21.3778616
20
37.0802375
40
0.4956606
50
73.9665422
51
90.4229648
0
ARC
8
DEFAULT_255_1_234
10
21.3962263
20
37.1517451
40
0.4218674
50
57.5178019
51
73.6813337
0
ARC
8
DEFAULT_255_1_234
10
21.3918046
20
37.1481462
40
0.4272816
50
28.7261108
51
57.2767933
0
ARC
8
DEFAULT_255_1_234
10
21.3007378
20
37.0918688
40
0.534218
50
24.2448911
51
29.3248482
0
ARC
8
DEFAULT_255_1_234
10
21.2081479
20
37.0535819
40
0.6343711
50
9.064382
51
23.9639114
0
ARC
8
DEFAULT_255_1_234
10
20.9825807
20
37.0156925
40
0.8630926
50
359.7586264
51
9.1891435
0
ARC
8
DEFAULT_255_1_234
10
20.8571287
20
37.0170343
40
0.834338
50
359.7133237
51
7.96545
0
ARC
8
DEFAULT_255_1_234
10
21.1533504
20
37.0597681
40
0.5350538
50
7.8291991
51
20.0421623
0
ARC
8
DEFAULT_255_1_234
10
21.3158067
20
37.1188606
40
0.3621841
50
20.0677553
51
35.9161685
0
ARC
8
DEFAULT_255_1_234
10
21.3933105
20
37.176467
40
0.2656263
50
35.6594382
51
85.1578074
0
ARC
8
DEFAULT_255_1_234
10
21.3748361
20
37.0649378
40
0.3784238
50
83.7959068
51
90.095906
0
ARC
8
DEFAULT_255_1_234
10
21.3705295
20
37.1382601
40
0.3051229
50
89.3102392
51
109.9889877
0
ARC
8
DEFAULT_255_1_234
10
21.3622778
20
37.1738433
40
0.2688988
50
110.9285147
51
143.9411762
0
ARC
8
DEFAULT_255_1_234
10
21.4553724
20
37.1026236
40
0.3860887
50
143.5289163
51
163.2980757
0
ARC
8
DEFAULT_255_1_234
10
21.6461545
20
37.0426433
40
0.5860659
50
163.0418846
51
174.3140048
0
ARC
8
DEFAULT_255_1_234
10
21.8865657
20
37.0148854
40
0.8280531
50
174.0509143
51
179.4176892
0
ARC
8
DEFAULT_255_1_234
10
21.8351992
20
36.9330634
40
0.7766558
50
179.6829237
51
188.9631324
0
ARC
8
DEFAULT_255_1_234
10
21.5681553
20
36.8895752
40
0.5060992
50
188.8100743
51
202.9300012
0
ARC
8
DEFAULT_255_1_234
10
21.4465182
20
36.8400855
40
0.3747967
50
203.2069261
51
215.7876482
0
ARC
8
DEFAULT_255_1_234
10
21.3616579
20
36.7729671
40
0.2667526
50
214.7521006
51
264.2834488
0
ARC
8
DEFAULT_255_1_234
10
21.3752234
20
36.858478
40
0.3532247
50
263.4755397
51
270.0949833
0
ARC
8
DEFAULT_255_1_234
10
21.3794345
20
36.8323374
40
0.3271036
50
269.3649385
51
287.5152008
0
ARC
8
DEFAULT_255_1_234
10
21.3972503
20
36.7676238
40
0.2600406
50
288.0630309
51
323.8113348
0
ARC
8
DEFAULT_255_1_234
10
21.3101345
20
36.8326049
40
0.3687189
50
323.6547608
51
342.6590488
0
ARC
8
DEFAULT_255_1_234
10
21.106996
20
36.8986952
40
0.5823286
50
342.4091907
51
353.6451149
0
ARC
8
DEFAULT_255_1_234
10
20.8238471
20
36.933919
40
0.8676442
50
353.4029884
51
359.4847795
0
LINE
8
DEFAULT_255_1_234
10
22.8110806
20
36.5116792
11
22.8110806
21
36.3904
0
LINE
8
DEFAULT_255_1_234
10
22.8110806
20
36.3904
11
22.0448528
21
36.3904
0
LINE
8
DEFAULT_255_1_234
10
22.0448528
20
36.3904
11
22.0448528
21
36.4972221
0
LINE
8
DEFAULT_255_1_234
10
22.0448528
20
36.4972221
11
22.4496524
21
36.9469995
0
LINE
8
DEFAULT_255_1_234
10
22.1709511
20
37.2152595
11
22.0223639
21
37.2152595
0
LINE
8
DEFAULT_255_1_234
10
22.5371983
20
36.8514218
11
22.2239605
21
36.5116792
0
LINE
8
DEFAULT_255_1_234
10
22.2239605
20
36.5116792
11
22.8110806
21
36.5116792
0
ARC
8
DEFAULT_255_1_234
10
21.1006357
20
38.1399527
40
1.8008286
50
318.5132453
51
320.7828378
0
ARC
8
DEFAULT_255_1_234
10
21.6293332
20
37.7096426
40
1.1191493
50
320.7372736
51
323.9737074
0
ARC
8
DEFAULT_255_1_234
10
22.0213188
20
37.4256361
40
0.6350923
50
323.8961724
51
328.6421089
0
ARC
8
DEFAULT_255_1_234
10
22.2259783
20
37.2994031
40
0.3946393
50
328.8299013
51
331.789948
0
ARC
8
DEFAULT_255_1_234
10
22.3256962
20
37.2479509
40
0.2824501
50
331.4255242
51
352.9364833
0
ARC
8
DEFAULT_255_1_234
10
22.3393463
20
37.2448976
40
0.2685315
50
353.2248685
51
0.0169286
0
ARC
8
DEFAULT_255_1_234
10
22.3603339
20
37.247195
40
0.2475536
50
359.4866256
51
15.9339782
0
ARC
8
DEFAULT_255_1_234
10
22.4110325
20
37.2608286
40
0.1950618
50
16.1714718
51
43.5284424
0
ARC
8
DEFAULT_255_1_234
10
22.4187633
20
37.2685573
40
0.184134
50
43.4415429
51
83.1661404
0
ARC
8
DEFAULT_255_1_234
10
22.4053551
20
37.1948771
40
0.258926
50
82.160215
51
90.1505798
0
ARC
8
DEFAULT_255_1_234
10
22.4021979
20
37.1411865
40
0.3126255
50
89.5460705
51
102.5418777
0
ARC
8
DEFAULT_255_1_234
10
22.3779065
20
37.2442665
40
0.2067346
50
102.1739365
51
129.2061916
0
ARC
8
DEFAULT_255_1_234
10
22.3700137
20
37.2567094
40
0.1921118
50
129.7279328
51
135.7542026
0
ARC
8
DEFAULT_255_1_234
10
22.3821664
20
37.2470045
40
0.2075944
50
136.175737
51
166.3674722
0
ARC
8
DEFAULT_255_1_234
10
22.4828584
20
37.2200182
40
0.3118201
50
165.9092917
51
178.8683903
0
ARC
8
DEFAULT_255_1_234
10
22.5693445
20
37.2153179
40
0.3983935
50
178.438168
51
180.0083905
0
ARC
8
DEFAULT_255_1_234
10
22.4292047
20
37.2192231
40
0.4068601
50
163.2878735
51
180.5581814
0
ARC
8
DEFAULT_255_1_234
10
22.3490308
20
37.241284
40
0.3237344
50
133.454115
51
162.9470031
0
ARC
8
DEFAULT_255_1_234
10
22.366885
20
37.2223
40
0.349795
50
100.7869394
51
133.4384016
0
ARC
8
DEFAULT_255_1_234
10
22.4016621
20
37.0674319
40
0.5084616
50
89.6605301
51
101.3704185
0
ARC
8
DEFAULT_255_1_234
10
22.408296
20
37.0735496
40
0.502348
50
78.2171172
51
90.4130393
0
ARC
8
DEFAULT_255_1_234
10
22.4438038
20
37.2359637
40
0.3361092
50
55.9268222
51
78.4888551
0
ARC
8
DEFAULT_255_1_234
10
22.4634478
20
37.2698324
40
0.2970617
50
47.9292255
51
55.4054003
0
ARC
8
DEFAULT_255_1_234
10
22.4736039
20
37.2801502
40
0.2825983
50
4.3347696
51
48.0560701
0
ARC
8
DEFAULT_255_1_234
10
22.3640433
20
37.2631601
40
0.393225
50
359.925209
51
5.5967654
0
ARC
8
DEFAULT_255_1_234
10
22.4069325
20
37.2687816
40
0.3503892
50
337.8914096
51
358.9967724
0
ARC
8
DEFAULT_255_1_234
10
22.1355737
20
37.3734706
40
0.6412172
50
326.9135351
51
338.3505194
0
ARC
8
DEFAULT_255_1_234
10
21.737004
20
37.6289284
40
1.1146189
50
319.6472867
51
327.095818
0
ARC
8
DEFAULT_255_1_234
10
21.3537043
20
37.9451
40
1.6114559
50
317.2586784
51
319.9046139
0
LINE
8
DEFAULT_255_1_234
10
23.2929849
20
36.9478026
11
23.2929849
21
36.8265234
0
LINE
8
DEFAULT_255_1_234
10
23.2929849
20
36.8265234
11
22.9010361
21
36.8265234
0
LINE
8
DEFAULT_255_1_234
10
22.9010361
20
36.8265234
11
22.9010361
21
36.9478026
0
LINE
8
DEFAULT_255_1_234
10
22.9010361
20
36.9478026
11
23.2929849
21
36.9478026
0
LINE
8
DEFAULT_255_1_234
10
24.1885237
20
36.5116792
11
24.1885237
21
36.3904
0
LINE
8
DEFAULT_255_1_234
10
24.1885237
20
36.3904
11
23.4222959
21
36.3904
0
LINE
8
DEFAULT_255_1_234
10
23.4222959
20
36.3904
11
23.4222959
21
36.4972221
0
LINE
8
DEFAULT_255_1_234
10
23.4222959
20
36.4972221
11
23.8270955
21
36.9469995
0
LINE
8
DEFAULT_255_1_234
10
23.5483942
20
37.2152595
11
23.399807
21
37.2152595
0
LINE
8
DEFAULT_255_1_234
10
23.9146415
20
36.8514218
11
23.6014037
21
36.5116792
0
LINE
8
DEFAULT_255_1_234
10
23.6014037
20
36.5116792
11
24.1885237
21
36.5116792
0
ARC
8
DEFAULT_255_1_234
10
22.4780788
20
38.1399527
40
1.8008286
50
318.5132453
51
320.7828378
0
ARC
8
DEFAULT_255_1_234
10
23.0067763
20
37.7096426
40
1.1191493
50
320.7372736
51
323.9737074
0
ARC
8
DEFAULT_255_1_234
10
23.3987619
20
37.4256361
40
0.6350923
50
323.8961724
51
328.6421089
0
ARC
8
DEFAULT_255_1_234
10
23.6034215
20
37.2994031
40
0.3946393
50
328.8299013
51
331.789948
0
ARC
8
DEFAULT_255_1_234
10
23.7031393
20
37.2479509
40
0.2824501
50
331.4255242
51
352.9364833
0
ARC
8
DEFAULT_255_1_234
10
23.7167894
20
37.2448976
40
0.2685315
50
353.2248685
51
0.0169286
0
ARC
8
DEFAULT_255_1_234
10
23.737777
20
37.247195
40
0.2475536
50
359.4866256
51
15.9339782
0
ARC
8
DEFAULT_255_1_234
10
23.7884756
20
37.2608286
40
0.1950618
50
16.1714718
51
43.5284424
0
ARC
8
DEFAULT_255_1_234
10
23.7962064
20
37.2685573
40
0.184134
50
43.4415429
51
83.1661404
0
ARC
8
DEFAULT_255_1_234
10
23.7827983
20
37.1948771
40
0.258926
50
82.160215
51
90.1505798
0
ARC
8
DEFAULT_255_1_234
10
23.779641
20
37.1411865
40
0.3126255
50
89.5460705
51
102.5418777
0
ARC
8
DEFAULT_255_1_234
10
23.7553496
20
37.2442665
40
0.2067346
50
102.1739365
51
129.2061916
0
ARC
8
DEFAULT_255_1_234
10
23.7474568
20
37.2567094
40
0.1921118
50
129.7279328
51
135.7542026
0
ARC
8
DEFAULT_255_1_234
10
23.7596095
20
37.2470045
40
0.2075944
50
136.175737
51
166.3674722
0
ARC
8
DEFAULT_255_1_234
10
23.8603015
20
37.2200182
40
0.3118201
50
165.9092917
51
178.8683903
0
ARC
8
DEFAULT_255_1_234
10
23.9467876
20
37.2153179
40
0.3983935
50
178.438168
51
180.0083905
0
ARC
8
DEFAULT_255_1_234
10
23.8066478
20
37.2192231
40
0.4068601
50
163.2878735
51
180.5581814
0
ARC
8
DEFAULT_255_1_234
10
23.7264739
20
37.241284
40
0.3237344
50
133.454115
51
162.9470031
0
ARC
8
DEFAULT_255_1_234
10
23.7443281
20
37.2223
40
0.349795
50
100.7869394
51
133.4384016
0
ARC
8
DEFAULT_255_1_234
10
23.7791052
20
37.0674319
40
0.5084616
50
89.6605301
51
101.3704185
0
ARC
8
DEFAULT_255_1_234
10
23.7857391
20
37.0735496
40
0.502348
50
78.2171172
51
90.4130393
0
ARC
8
DEFAULT_255_1_234
10
23.8212469
20
37.2359637
40
0.3361092
50
55.9268222
51
78.4888551
0
ARC
8
DEFAULT_255_1_234
10
23.840891
20
37.2698324
40
0.2970617
50
47.9292255
51
55.4054003
0
ARC
8
DEFAULT_255_1_234
10
23.851047
20
37.2801502
40
0.2825983
50
4.3347696
51
48.0560701
0
ARC
8
DEFAULT_255_1_234
10
23.7414864
20
37.2631601
40
0.393225
50
359.925209
51
5.5967654
0
ARC
8
DEFAULT_255_1_234
10
23.7843756
20
37.2687816
40
0.3503892
50
337.8914096
51
358.9967724
0
ARC
8
DEFAULT_255_1_234
10
23.5130168
20
37.3734706
40
0.6412172
50
326.9135351
51
338.3505194
0
ARC
8
DEFAULT_255_1_234
10
23.1144471
20
37.6289284
40
1.1146189
50
319.6472867
51
327.095818
0
ARC
8
DEFAULT_255_1_234
10
22.7311475
20
37.9451
40
1.6114559
50
317.2586784
51
319.9046139
0
LINE
8
DEFAULT_255_1_234
10
21.8537657
20
44.9495565
11
21.8537657
21
44.8748614
0
LINE
8
DEFAULT_255_1_234
10
21.6489563
20
44.3913507
11
21.8577815
21
44.2275033
0
LINE
8
DEFAULT_255_1_234
10
21.8577815
20
44.2275033
11
21.7525658
21
44.1303192
0
LINE
8
DEFAULT_255_1_234
10
21.7525658
20
44.1303192
11
21.5059914
21
44.3262937
0
LINE
8
DEFAULT_255_1_234
10
20.9124459
20
44.8644201
11
20.9124459
21
44.9487534
0
LINE
8
DEFAULT_255_1_234
10
21.6995563
20
44.8636169
11
21.6995563
21
44.9503597
0
LINE
8
DEFAULT_255_1_234
10
21.0666553
20
44.960801
11
21.0666553
21
44.8748614
0
ARC
8
DEFAULT_255_1_234
10
20.9583909
20
44.8709707
40
0.8953833
50
351.453011
51
0.2489685
0
ARC
8
DEFAULT_255_1_234
10
21.2168709
20
44.8309933
40
0.6338333
50
338.6861641
51
351.5540711
0
ARC
8
DEFAULT_255_1_234
10
21.3102593
20
44.7979828
40
0.5348431
50
336.2887631
51
338.3442418
0
ARC
8
DEFAULT_255_1_234
10
21.3442215
20
44.7793698
40
0.4962747
50
321.1170344
51
336.6795229
0
ARC
8
DEFAULT_255_1_234
10
21.4074044
20
44.7307206
40
0.4165565
50
305.4419708
51
320.8705636
0
ARC
8
DEFAULT_255_1_234
10
21.3877514
20
44.8054707
40
0.4935497
50
271.6373023
51
283.8611969
0
ARC
8
DEFAULT_255_1_234
10
21.3839767
20
44.8710572
40
0.5592206
50
269.9930596
51
271.8318864
0
ARC
8
DEFAULT_255_1_234
10
21.380221
20
44.7902681
40
0.4784458
50
252.5219675
51
270.4416499
0
ARC
8
DEFAULT_255_1_234
10
21.3658469
20
44.7363592
40
0.422716
50
237.5352116
51
252.1857531
0
ARC
8
DEFAULT_255_1_234
10
21.3747665
20
44.7477363
40
0.4371052
50
209.063312
51
237.3492538
0
ARC
8
DEFAULT_255_1_234
10
21.4617513
20
44.8023685
40
0.5397041
50
205.1183774
51
209.6470015
0
ARC
8
DEFAULT_255_1_234
10
21.541455
20
44.836183
40
0.6262326
50
188.7215458
51
204.8240747
0
ARC
8
DEFAULT_255_1_234
10
21.7412078
20
44.8698067
40
0.8287794
50
180.3723947
51
188.9252049
0
ARC
8
DEFAULT_255_1_234
10
21.738483
20
44.9527402
40
0.8260467
50
169.5253763
51
180.2765336
0
ARC
8
DEFAULT_255_1_234
10
21.5482279
20
44.9877309
40
0.6326007
50
155.8315255
51
169.5089989
0
ARC
8
DEFAULT_255_1_234
10
21.420178
20
45.0471348
40
0.4914567
50
139.6258461
51
156.0379525
0
ARC
8
DEFAULT_255_1_234
10
21.3612113
20
45.0945799
40
0.4158054
50
122.6416387
51
139.3430715
0
ARC
8
DEFAULT_255_1_234
10
21.3712733
20
45.0762451
40
0.4366739
50
93.0223692
51
122.455762
0
ARC
8
DEFAULT_255_1_234
10
21.382073
20
44.9797709
40
0.5336137
50
89.975342
51
93.6341897
0
ARC
8
DEFAULT_255_1_234
10
21.3859616
20
45.0177375
40
0.4956606
50
73.9665422
51
90.4229648
0
ARC
8
DEFAULT_255_1_234
10
21.4043263
20
45.0892451
40
0.4218674
50
57.5178019
51
73.6813337
0
ARC
8
DEFAULT_255_1_234
10
21.3999046
20
45.0856462
40
0.4272816
50
28.7261108
51
57.2767933
0
ARC
8
DEFAULT_255_1_234
10
21.3088378
20
45.0293688
40
0.534218
50
24.2448911
51
29.3248482
0
ARC
8
DEFAULT_255_1_234
10
21.2162479
20
44.9910819
40
0.6343711
50
9.064382
51
23.9639114
0
ARC
8
DEFAULT_255_1_234
10
20.9906807
20
44.9531925
40
0.8630926
50
359.7586264
51
9.1891435
0
ARC
8
DEFAULT_255_1_234
10
20.8652287
20
44.9545343
40
0.834338
50
359.7133237
51
7.96545
0
ARC
8
DEFAULT_255_1_234
10
21.1614504
20
44.9972681
40
0.5350538
50
7.8291991
51
20.0421623
0
ARC
8
DEFAULT_255_1_234
10
21.3239067
20
45.0563606
40
0.3621841
50
20.0677553
51
35.9161685
0
ARC
8
DEFAULT_255_1_234
10
21.4014105
20
45.113967
40
0.2656263
50
35.6594382
51
85.1578074
0
ARC
8
DEFAULT_255_1_234
10
21.3829361
20
45.0024378
40
0.3784238
50
83.7959068
51
90.095906
0
ARC
8
DEFAULT_255_1_234
10
21.3786295
20
45.0757601
40
0.3051229
50
89.3102392
51
109.9889877
0
ARC
8
DEFAULT_255_1_234
10
21.3703778
20
45.1113433
40
0.2688988
50
110.9285147
51
143.9411762
0
ARC
8
DEFAULT_255_1_234
10
21.4634724
20
45.0401236
40
0.3860887
50
143.5289163
51
163.2980757
0
ARC
8
DEFAULT_255_1_234
10
21.6542545
20
44.9801433
40
0.5860659
50
163.0418846
51
174.3140048
0
ARC
8
DEFAULT_255_1_234
10
21.8946657
20
44.9523854
40
0.8280531
50
174.0509143
51
179.4176892
0
ARC
8
DEFAULT_255_1_234
10
21.8432992
20
44.8705634
40
0.7766558
50
179.6829237
51
188.9631324
0
ARC
8
DEFAULT_255_1_234
10
21.5762553
20
44.8270752
40
0.5060992
50
188.8100743
51
202.9300012
0
ARC
8
DEFAULT_255_1_234
10
21.4546182
20
44.7775855
40
0.3747967
50
203.2069261
51
215.7876482
0
ARC
8
DEFAULT_255_1_234
10
21.3697579
20
44.7104671
40
0.2667526
50
214.7521006
51
264.2834488
0
ARC
8
DEFAULT_255_1_234
10
21.3833234
20
44.795978
40
0.3532247
50
263.4755397
51
270.0949833
0
ARC
8
DEFAULT_255_1_234
10
21.3875345
20
44.7698374
40
0.3271036
50
269.3649385
51
287.5152008
0
ARC
8
DEFAULT_255_1_234
10
21.4053503
20
44.7051238
40
0.2600406
50
288.0630309
51
323.8113348
0
ARC
8
DEFAULT_255_1_234
10
21.3182345
20
44.7701049
40
0.3687189
50
323.6547608
51
342.6590488
0
ARC
8
DEFAULT_255_1_234
10
21.115096
20
44.8361952
40
0.5823286
50
342.4091907
51
353.6451149
0
ARC
8
DEFAULT_255_1_234
10
20.8319471
20
44.871419
40
0.8676442
50
353.4029884
51
359.4847795
0
LINE
8
DEFAULT_255_1_234
10
22.8191806
20
44.4491792
11
22.8191806
21
44.3279
0
LINE
8
DEFAULT_255_1_234
10
22.8191806
20
44.3279
11
22.0529528
21
44.3279
0
LINE
8
DEFAULT_255_1_234
10
22.0529528
20
44.3279
11
22.0529528
21
44.4347221
0
LINE
8
DEFAULT_255_1_234
10
22.0529528
20
44.4347221
11
22.4577524
21
44.8844995
0
LINE
8
DEFAULT_255_1_234
10
22.1790511
20
45.1527595
11
22.0304639
21
45.1527595
0
LINE
8
DEFAULT_255_1_234
10
22.5452983
20
44.7889218
11
22.2320605
21
44.4491792
0
LINE
8
DEFAULT_255_1_234
10
22.2320605
20
44.4491792
11
22.8191806
21
44.4491792
0
ARC
8
DEFAULT_255_1_234
10
21.1087357
20
46.0774527
40
1.8008286
50
318.5132453
51
320.7828378
0
ARC
8
DEFAULT_255_1_234
10
21.6374332
20
45.6471426
40
1.1191493
50
320.7372736
51
323.9737074
0
ARC
8
DEFAULT_255_1_234
10
22.0294188
20
45.3631361
40
0.6350923
50
323.8961724
51
328.6421089
0
ARC
8
DEFAULT_255_1_234
10
22.2340783
20
45.2369031
40
0.3946393
50
328.8299013
51
331.789948
0
ARC
8
DEFAULT_255_1_234
10
22.3337962
20
45.1854509
40
0.2824501
50
331.4255242
51
352.9364833
0
ARC
8
DEFAULT_255_1_234
10
22.3474463
20
45.1823976
40
0.2685315
50
353.2248685
51
0.0169286
0
ARC
8
DEFAULT_255_1_234
10
22.3684339
20
45.184695
40
0.2475536
50
359.4866256
51
15.9339782
0
ARC
8
DEFAULT_255_1_234
10
22.4191325
20
45.1983286
40
0.1950618
50
16.1714718
51
43.5284424
0
ARC
8
DEFAULT_255_1_234
10
22.4268633
20
45.2060573
40
0.184134
50
43.4415429
51
83.1661404
0
ARC
8
DEFAULT_255_1_234
10
22.4134551
20
45.1323771
40
0.258926
50
82.160215
51
90.1505798
0
ARC
8
DEFAULT_255_1_234
10
22.4102979
20
45.0786865
40
0.3126255
50
89.5460705
51
102.5418777
0
ARC
8
DEFAULT_255_1_234
10
22.3860065
20
45.1817665
40
0.2067346
50
102.1739365
51
129.2061916
0
ARC
8
DEFAULT_255_1_234
10
22.3781137
20
45.1942094
40
0.1921118
50
129.7279328
51
135.7542026
0
ARC
8
DEFAULT_255_1_234
10
22.3902664
20
45.1845045
40
0.2075944
50
136.175737
51
166.3674722
0
ARC
8
DEFAULT_255_1_234
10
22.4909584
20
45.1575182
40
0.3118201
50
165.9092917
51
178.8683903
0
ARC
8
DEFAULT_255_1_234
10
22.5774445
20
45.1528179
40
0.3983935
50
178.438168
51
180.0083905
0
ARC
8
DEFAULT_255_1_234
10
22.4373047
20
45.1567231
40
0.4068601
50
163.2878735
51
180.5581814
0
ARC
8
DEFAULT_255_1_234
10
22.3571308
20
45.178784
40
0.3237344
50
133.454115
51
162.9470031
0
ARC
8
DEFAULT_255_1_234
10
22.374985
20
45.1598
40
0.349795
50
100.7869394
51
133.4384016
0
ARC
8
DEFAULT_255_1_234
10
22.4097621
20
45.0049319
40
0.5084616
50
89.6605301
51
101.3704185
0
ARC
8
DEFAULT_255_1_234
10
22.416396
20
45.0110496
40
0.502348
50
78.2171172
51
90.4130393
0
ARC
8
DEFAULT_255_1_234
10
22.4519038
20
45.1734637
40
0.3361092
50
55.9268222
51
78.4888551
0
ARC
8
DEFAULT_255_1_234
10
22.4715478
20
45.2073324
40
0.2970617
50
47.9292255
51
55.4054003
0
ARC
8
DEFAULT_255_1_234
10
22.4817039
20
45.2176502
40
0.2825983
50
4.3347696
51
48.0560701
0
ARC
8
DEFAULT_255_1_234
10
22.3721433
20
45.2006601
40
0.393225
50
359.925209
51
5.5967654
0
ARC
8
DEFAULT_255_1_234
10
22.4150325
20
45.2062816
40
0.3503892
50
337.8914096
51
358.9967724
0
ARC
8
DEFAULT_255_1_234
10
22.1436737
20
45.3109706
40
0.6412172
50
326.9135351
51
338.3505194
0
ARC
8
DEFAULT_255_1_234
10
21.745104
20
45.5664284
40
1.1146189
50
319.6472867
51
327.095818
0
ARC
8
DEFAULT_255_1_234
10
21.3618043
20
45.8826
40
1.6114559
50
317.2586784
51
319.9046139
0
LINE
8
DEFAULT_255_1_234
10
23.3010849
20
44.8853026
11
23.3010849
21
44.7640234
0
LINE
8
DEFAULT_255_1_234
10
23.3010849
20
44.7640234
11
22.9091361
21
44.7640234
0
LINE
8
DEFAULT_255_1_234
10
22.9091361
20
44.7640234
11
22.9091361
21
44.8853026
0
LINE
8
DEFAULT_255_1_234
10
22.9091361
20
44.8853026
11
23.3010849
21
44.8853026
0
LINE
8
DEFAULT_255_1_234
10
23.9187256
20
45.5029433
11
23.9187256
21
44.3279
0
LINE
8
DEFAULT_255_1_234
10
23.9187256
20
44.3279
11
23.7693353
21
44.3279
0
LINE
8
DEFAULT_255_1_234
10
23.7693353
20
44.3279
11
23.7693353
21
45.3182133
0
LINE
8
DEFAULT_255_1_234
10
23.7693353
20
45.3182133
11
23.4697514
21
45.2081785
0
LINE
8
DEFAULT_255_1_234
10
23.4697514
20
45.2081785
11
23.4697514
21
45.3431117
0
LINE
8
DEFAULT_255_1_234
10
23.4697514
20
45.3431117
11
23.8954335
21
45.5029433
0
LINE
8
DEFAULT_255_1_234
10
23.8954335
20
45.5029433
11
23.9187256
21
45.5029433
0
LINE
8
DEFAULT_255_1_234
10
21.8456657
20
52.8870565
11
21.8456657
21
52.8123614
0
LINE
8
DEFAULT_255_1_234
10
21.6408563
20
52.3288507
11
21.8496815
21
52.1650033
0
LINE
8
DEFAULT_255_1_234
10
21.8496815
20
52.1650033
11
21.7444658
21
52.0678192
0
LINE
8
DEFAULT_255_1_234
10
21.7444658
20
52.0678192
11
21.4978914
21
52.2637937
0
LINE
8
DEFAULT_255_1_234
10
20.9043459
20
52.8019201
11
20.9043459
21
52.8862534
0
LINE
8
DEFAULT_255_1_234
10
21.6914563
20
52.8011169
11
21.6914563
21
52.8878597
0
LINE
8
DEFAULT_255_1_234
10
21.0585553
20
52.898301
11
21.0585553
21
52.8123614
0
ARC
8
DEFAULT_255_1_234
10
20.9502909
20
52.8084707
40
0.8953833
50
351.453011
51
0.2489685
0
ARC
8
DEFAULT_255_1_234
10
21.2087709
20
52.7684933
40
0.6338333
50
338.6861641
51
351.5540711
0
ARC
8
DEFAULT_255_1_234
10
21.3021593
20
52.7354828
40
0.5348431
50
336.2887631
51
338.3442418
0
ARC
8
DEFAULT_255_1_234
10
21.3361215
20
52.7168698
40
0.4962747
50
321.1170344
51
336.6795229
0
ARC
8
DEFAULT_255_1_234
10
21.3993044
20
52.6682206
40
0.4165565
50
305.4419708
51
320.8705636
0
ARC
8
DEFAULT_255_1_234
10
21.3796514
20
52.7429707
40
0.4935497
50
271.6373023
51
283.8611969
0
ARC
8
DEFAULT_255_1_234
10
21.3758767
20
52.8085572
40
0.5592206
50
269.9930596
51
271.8318864
0
ARC
8
DEFAULT_255_1_234
10
21.372121
20
52.7277681
40
0.4784458
50
252.5219675
51
270.4416499
0
ARC
8
DEFAULT_255_1_234
10
21.3577469
20
52.6738592
40
0.422716
50
237.5352116
51
252.1857531
0
ARC
8
DEFAULT_255_1_234
10
21.3666665
20
52.6852363
40
0.4371052
50
209.063312
51
237.3492538
0
ARC
8
DEFAULT_255_1_234
10
21.4536513
20
52.7398685
40
0.5397041
50
205.1183774
51
209.6470015
0
ARC
8
DEFAULT_255_1_234
10
21.533355
20
52.773683
40
0.6262326
50
188.7215458
51
204.8240747
0
ARC
8
DEFAULT_255_1_234
10
21.7331078
20
52.8073067
40
0.8287794
50
180.3723947
51
188.9252049
0
ARC
8
DEFAULT_255_1_234
10
21.730383
20
52.8902402
40
0.8260467
50
169.5253763
51
180.2765336
0
ARC
8
DEFAULT_255_1_234
10
21.5401279
20
52.9252309
40
0.6326007
50
155.8315255
51
169.5089989
0
ARC
8
DEFAULT_255_1_234
10
21.412078
20
52.9846348
40
0.4914567
50
139.6258461
51
156.0379525
0
ARC
8
DEFAULT_255_1_234
10
21.3531113
20
53.0320799
40
0.4158054
50
122.6416387
51
139.3430715
0
ARC
8
DEFAULT_255_1_234
10
21.3631733
20
53.0137451
40
0.4366739
50
93.0223692
51
122.455762
0
ARC
8
DEFAULT_255_1_234
10
21.373973
20
52.9172709
40
0.5336137
50
89.975342
51
93.6341897
0
ARC
8
DEFAULT_255_1_234
10
21.3778616
20
52.9552375
40
0.4956606
50
73.9665422
51
90.4229648
0
ARC
8
DEFAULT_255_1_234
10
21.3962263
20
53.0267451
40
0.4218674
50
57.5178019
51
73.6813337
0
ARC
8
DEFAULT_255_1_234
10
21.3918046
20
53.0231462
40
0.4272816
50
28.7261108
51
57.2767933
0
ARC
8
DEFAULT_255_1_234
10
21.3007378
20
52.9668688
40
0.534218
50
24.2448911
51
29.3248482
0
ARC
8
DEFAULT_255_1_234
10
21.2081479
20
52.9285819
40
0.6343711
50
9.064382
51
23.9639114
0
ARC
8
DEFAULT_255_1_234
10
20.9825807
20
52.8906925
40
0.8630926
50
359.7586264
51
9.1891435
0
ARC
8
DEFAULT_255_1_234
10
20.8571287
20
52.8920343
40
0.834338
50
359.7133237
51
7.96545
0
ARC
8
DEFAULT_255_1_234
10
21.1533504
20
52.9347681
40
0.5350538
50
7.8291991
51
20.0421623
0
ARC
8
DEFAULT_255_1_234
10
21.3158067
20
52.9938606
40
0.3621841
50
20.0677553
51
35.9161685
0
ARC
8
DEFAULT_255_1_234
10
21.3933105
20
53.051467
40
0.2656263
50
35.6594382
51
85.1578074
0
ARC
8
DEFAULT_255_1_234
10
21.3748361
20
52.9399378
40
0.3784238
50
83.7959068
51
90.095906
0
ARC
8
DEFAULT_255_1_234
10
21.3705295
20
53.0132601
40
0.3051229
50
89.3102392
51
109.9889877
0
ARC
8
DEFAULT_255_1_234
10
21.3622778
20
53.0488433
40
0.2688988
50
110.9285147
51
143.9411762
0
ARC
8
DEFAULT_255_1_234
10
21.4553724
20
52.9776236
40
0.3860887
50
143.5289163
51
163.2980757
0
ARC
8
DEFAULT_255_1_234
10
21.6461545
20
52.9176433
40
0.5860659
50
163.0418846
51
174.3140048
0
ARC
8
DEFAULT_255_1_234
10
21.8865657
20
52.8898854
40
0.8280531
50
174.0509143
51
179.4176892
0
ARC
8
DEFAULT_255_1_234
10
21.8351992
20
52.8080634
40
0.7766558
50
179.6829237
51
188.9631324
0
ARC
8
DEFAULT_255_1_234
10
21.5681553
20
52.7645752
40
0.5060992
50
188.8100743
51
202.9300012
0
ARC
8
DEFAULT_255_1_234
10
21.4465182
20
52.7150855
40
0.3747967
50
203.2069261
51
215.7876482
0
ARC
8
DEFAULT_255_1_234
10
21.3616579
20
52.6479671
40
0.2667526
50
214.7521006
51
264.2834488
0
ARC
8
DEFAULT_255_1_234
10
21.3752234
20
52.733478
40
0.3532247
50
263.4755397
51
270.0949833
0
ARC
8
DEFAULT_255_1_234
10
21.3794345
20
52.7073374
40
0.3271036
50
269.3649385
51
287.5152008
0
ARC
8
DEFAULT_255_1_234
10
21.3972503
20
52.6426238
40
0.2600406
50
288.0630309
51
323.8113348
0
ARC
8
DEFAULT_255_1_234
10
21.3101345
20
52.7076049
40
0.3687189
50
323.6547608
51
342.6590488
0
ARC
8
DEFAULT_255_1_234
10
21.106996
20
52.7736952
40
0.5823286
50
342.4091907
51
353.6451149
0
ARC
8
DEFAULT_255_1_234
10
20.8238471
20
52.808919
40
0.8676442
50
353.4029884
51
359.4847795
0
LINE
8
DEFAULT_255_1_234
10
22.5331825
20
53.4404433
11
22.5331825
21
52.2654
0
LINE
8
DEFAULT_255_1_234
10
22.5331825
20
52.2654
11
22.3837921
21
52.2654
0
LINE
8
DEFAULT_255_1_234
10
22.3837921
20
52.2654
11
22.3837921
21
53.2557133
0
LINE
8
DEFAULT_255_1_234
10
22.3837921
20
53.2557133
11
22.0842083
21
53.1456785
0
LINE
8
DEFAULT_255_1_234
10
22.0842083
20
53.1456785
11
22.0842083
21
53.2806117
0
LINE
8
DEFAULT_255_1_234
10
22.0842083
20
53.2806117
11
22.5098904
21
53.4404433
0
LINE
8
DEFAULT_255_1_234
10
22.5098904
20
53.4404433
11
22.5331825
21
53.4404433
0
LINE
8
DEFAULT_255_1_234
10
23.2929849
20
52.8228026
11
23.2929849
21
52.7015234
0
LINE
8
DEFAULT_255_1_234
10
23.2929849
20
52.7015234
11
22.9010361
21
52.7015234
0
LINE
8
DEFAULT_255_1_234
10
22.9010361
20
52.7015234
11
22.9010361
21
52.8228026
0
LINE
8
DEFAULT_255_1_234
10
22.9010361
20
52.8228026
11
23.2929849
21
52.8228026
0
LINE
8
DEFAULT_255_1_234
10
24.1885237
20
52.3866792
11
24.1885237
21
52.2654
0
LINE
8
DEFAULT_255_1_234
10
24.1885237
20
52.2654
11
23.4222959
21
52.2654
0
LINE
8
DEFAULT_255_1_234
10
23.4222959
20
52.2654
11
23.4222959
21
52.3722221
0
LINE
8
DEFAULT_255_1_234
10
23.4222959
20
52.3722221
11
23.8270955
21
52.8219995
0
LINE
8
DEFAULT_255_1_234
10
23.5483942
20
53.0902595
11
23.399807
21
53.0902595
0
LINE
8
DEFAULT_255_1_234
10
23.9146415
20
52.7264218
11
23.6014037
21
52.3866792
0
LINE
8
DEFAULT_255_1_234
10
23.6014037
20
52.3866792
11
24.1885237
21
52.3866792
0
ARC
8
DEFAULT_255_1_234
10
22.4780788
20
54.0149527
40
1.8008286
50
318.5132453
51
320.7828378
0
ARC
8
DEFAULT_255_1_234
10
23.0067763
20
53.5846426
40
1.1191493
50
320.7372736
51
323.9737074
0
ARC
8
DEFAULT_255_1_234
10
23.3987619
20
53.3006361
40
0.6350923
50
323.8961724
51
328.6421089
0
ARC
8
DEFAULT_255_1_234
10
23.6034215
20
53.1744031
40
0.3946393
50
328.8299013
51
331.789948
0
ARC
8
DEFAULT_255_1_234
10
23.7031393
20
53.1229509
40
0.2824501
50
331.4255242
51
352.9364833
0
ARC
8
DEFAULT_255_1_234
10
23.7167894
20
53.1198976
40
0.2685315
50
353.2248685
51
0.0169286
0
ARC
8
DEFAULT_255_1_234
10
23.737777
20
53.122195
40
0.2475536
50
359.4866256
51
15.9339782
0
ARC
8
DEFAULT_255_1_234
10
23.7884756
20
53.1358286
40
0.1950618
50
16.1714718
51
43.5284424
0
ARC
8
DEFAULT_255_1_234
10
23.7962064
20
53.1435573
40
0.184134
50
43.4415429
51
83.1661404
0
ARC
8
DEFAULT_255_1_234
10
23.7827983
20
53.0698771
40
0.258926
50
82.160215
51
90.1505798
0
ARC
8
DEFAULT_255_1_234
10
23.779641
20
53.0161865
40
0.3126255
50
89.5460705
51
102.5418777
0
ARC
8
DEFAULT_255_1_234
10
23.7553496
20
53.1192665
40
0.2067346
50
102.1739365
51
129.2061916
0
ARC
8
DEFAULT_255_1_234
10
23.7474568
20
53.1317094
40
0.1921118
50
129.7279328
51
135.7542026
0
ARC
8
DEFAULT_255_1_234
10
23.7596095
20
53.1220045
40
0.2075944
50
136.175737
51
166.3674722
0
ARC
8
DEFAULT_255_1_234
10
23.8603015
20
53.0950182
40
0.3118201
50
165.9092917
51
178.8683903
0
ARC
8
DEFAULT_255_1_234
10
23.9467876
20
53.0903179
40
0.3983935
50
178.438168
51
180.0083905
0
ARC
8
DEFAULT_255_1_234
10
23.8066478
20
53.0942231
40
0.4068601
50
163.2878735
51
180.5581814
0
ARC
8
DEFAULT_255_1_234
10
23.7264739
20
53.116284
40
0.3237344
50
133.454115
51
162.9470031
0
ARC
8
DEFAULT_255_1_234
10
23.7443281
20
53.0973
40
0.349795
50
100.7869394
51
133.4384016
0
ARC
8
DEFAULT_255_1_234
10
23.7791052
20
52.9424319
40
0.5084616
50
89.6605301
51
101.3704185
0
ARC
8
DEFAULT_255_1_234
10
23.7857391
20
52.9485496
40
0.502348
50
78.2171172
51
90.4130393
0
ARC
8
DEFAULT_255_1_234
10
23.8212469
20
53.1109637
40
0.3361092
50
55.9268222
51
78.4888551
0
ARC
8
DEFAULT_255_1_234
10
23.840891
20
53.1448324
40
0.2970617
50
47.9292255
51
55.4054003
0
ARC
8
DEFAULT_255_1_234
10
23.851047
20
53.1551502
40
0.2825983
50
4.3347696
51
48.0560701
0
ARC
8
DEFAULT_255_1_234
10
23.7414864
20
53.1381601
40
0.393225
50
359.925209
51
5.5967654
0
ARC
8
DEFAULT_255_1_234
10
23.7843756
20
53.1437816
40
0.3503892
50
337.8914096
51
358.9967724
0
ARC
8
DEFAULT_255_1_234
10
23.5130168
20
53.2484706
40
0.6412172
50
326.9135351
51
338.3505194
0
ARC
8
DEFAULT_255_1_234
10
23.1144471
20
53.5039284
40
1.1146189
50
319.6472867
51
327.095818
0
ARC
8
DEFAULT_255_1_234
10
22.7311475
20
53.8201
40
1.6114559
50
317.2586784
51
319.9046139
0
LINE
8
DEFAULT_255_1_234
10
21.8537657
20
60.8245565
11
21.8537657
21
60.7498614
0
LINE
8
DEFAULT_255_1_234
10
21.6489563
20
60.2663507
11
21.8577815
21
60.1025033
0
LINE
8
DEFAULT_255_1_234
10
21.8577815
20
60.1025033
11
21.7525658
21
60.0053192
0
LINE
8
DEFAULT_255_1_234
10
21.7525658
20
60.0053192
11
21.5059914
21
60.2012937
0
LINE
8
DEFAULT_255_1_234
10
20.9124459
20
60.7394201
11
20.9124459
21
60.8237534
0
LINE
8
DEFAULT_255_1_234
10
21.6995563
20
60.7386169
11
21.6995563
21
60.8253597
0
LINE
8
DEFAULT_255_1_234
10
21.0666553
20
60.835801
11
21.0666553
21
60.7498614
0
ARC
8
DEFAULT_255_1_234
10
20.9583909
20
60.7459707
40
0.8953833
50
351.453011
51
0.2489685
0
ARC
8
DEFAULT_255_1_234
10
21.2168709
20
60.7059933
40
0.6338333
50
338.6861641
51
351.5540711
0
ARC
8
DEFAULT_255_1_234
10
21.3102593
20
60.6729828
40
0.5348431
50
336.2887631
51
338.3442418
0
ARC
8
DEFAULT_255_1_234
10
21.3442215
20
60.6543698
40
0.4962747
50
321.1170344
51
336.6795229
0
ARC
8
DEFAULT_255_1_234
10
21.4074044
20
60.6057206
40
0.4165565
50
305.4419708
51
320.8705636
0
ARC
8
DEFAULT_255_1_234
10
21.3877514
20
60.6804707
40
0.4935497
50
271.6373023
51
283.8611969
0
ARC
8
DEFAULT_255_1_234
10
21.3839767
20
60.7460572
40
0.5592206
50
269.9930596
51
271.8318864
0
ARC
8
DEFAULT_255_1_234
10
21.380221
20
60.6652681
40
0.4784458
50
252.5219675
51
270.4416499
0
ARC
8
DEFAULT_255_1_234
10
21.3658469
20
60.6113592
40
0.422716
50
237.5352116
51
252.1857531
0
ARC
8
DEFAULT_255_1_234
10
21.3747665
20
60.6227363
40
0.4371052
50
209.063312
51
237.3492538
0
ARC
8
DEFAULT_255_1_234
10
21.4617513
20
60.6773685
40
0.5397041
50
205.1183774
51
209.6470015
0
ARC
8
DEFAULT_255_1_234
10
21.541455
20
60.711183
40
0.6262326
50
188.7215458
51
204.8240747
0
ARC
8
DEFAULT_255_1_234
10
21.7412078
20
60.7448067
40
0.8287794
50
180.3723947
51
188.9252049
0
ARC
8
DEFAULT_255_1_234
10
21.738483
20
60.8277402
40
0.8260467
50
169.5253763
51
180.2765336
0
ARC
8
DEFAULT_255_1_234
10
21.5482279
20
60.8627309
40
0.6326007
50
155.8315255
51
169.5089989
0
ARC
8
DEFAULT_255_1_234
10
21.420178
20
60.9221348
40
0.4914567
50
139.6258461
51
156.0379525
0
ARC
8
DEFAULT_255_1_234
10
21.3612113
20
60.9695799
40
0.4158054
50
122.6416387
51
139.3430715
0
ARC
8
DEFAULT_255_1_234
10
21.3712733
20
60.9512451
40
0.4366739
50
93.0223692
51
122.455762
0
ARC
8
DEFAULT_255_1_234
10
21.382073
20
60.8547709
40
0.5336137
50
89.975342
51
93.6341897
0
ARC
8
DEFAULT_255_1_234
10
21.3859616
20
60.8927375
40
0.4956606
50
73.9665422
51
90.4229648
0
ARC
8
DEFAULT_255_1_234
10
21.4043263
20
60.9642451
40
0.4218674
50
57.5178019
51
73.6813337
0
ARC
8
DEFAULT_255_1_234
10
21.3999046
20
60.9606462
40
0.4272816
50
28.7261108
51
57.2767933
0
ARC
8
DEFAULT_255_1_234
10
21.3088378
20
60.9043688
40
0.534218
50
24.2448911
51
29.3248482
0
ARC
8
DEFAULT_255_1_234
10
21.2162479
20
60.8660819
40
0.6343711
50
9.064382
51
23.9639114
0
ARC
8
DEFAULT_255_1_234
10
20.9906807
20
60.8281925
40
0.8630926
50
359.7586264
51
9.1891435
0
ARC
8
DEFAULT_255_1_234
10
20.8652287
20
60.8295343
40
0.834338
50
359.7133237
51
7.96545
0
ARC
8
DEFAULT_255_1_234
10
21.1614504
20
60.8722681
40
0.5350538
50
7.8291991
51
20.0421623
0
ARC
8
DEFAULT_255_1_234
10
21.3239067
20
60.9313606
40
0.3621841
50
20.0677553
51
35.9161685
0
ARC
8
DEFAULT_255_1_234
10
21.4014105
20
60.988967
40
0.2656263
50
35.6594382
51
85.1578074
0
ARC
8
DEFAULT_255_1_234
10
21.3829361
20
60.8774378
40
0.3784238
50
83.7959068
51
90.095906
0
ARC
8
DEFAULT_255_1_234
10
21.3786295
20
60.9507601
40
0.3051229
50
89.3102392
51
109.9889877
0
ARC
8
DEFAULT_255_1_234
10
21.3703778
20
60.9863433
40
0.2688988
50
110.9285147
51
143.9411762
0
ARC
8
DEFAULT_255_1_234
10
21.4634724
20
60.9151236
40
0.3860887
50
143.5289163
51
163.2980757
0
ARC
8
DEFAULT_255_1_234
10
21.6542545
20
60.8551433
40
0.5860659
50
163.0418846
51
174.3140048
0
ARC
8
DEFAULT_255_1_234
10
21.8946657
20
60.8273854
40
0.8280531
50
174.0509143
51
179.4176892
0
ARC
8
DEFAULT_255_1_234
10
21.8432992
20
60.7455634
40
0.7766558
50
179.6829237
51
188.9631324
0
ARC
8
DEFAULT_255_1_234
10
21.5762553
20
60.7020752
40
0.5060992
50
188.8100743
51
202.9300012
0
ARC
8
DEFAULT_255_1_234
10
21.4546182
20
60.6525855
40
0.3747967
50
203.2069261
51
215.7876482
0
ARC
8
DEFAULT_255_1_234
10
21.3697579
20
60.5854671
40
0.2667526
50
214.7521006
51
264.2834488
0
ARC
8
DEFAULT_255_1_234
10
21.3833234
20
60.670978
40
0.3532247
50
263.4755397
51
270.0949833
0
ARC
8
DEFAULT_255_1_234
10
21.3875345
20
60.6448374
40
0.3271036
50
269.3649385
51
287.5152008
0
ARC
8
DEFAULT_255_1_234
10
21.4053503
20
60.5801238
40
0.2600406
50
288.0630309
51
323.8113348
0
ARC
8
DEFAULT_255_1_234
10
21.3182345
20
60.6451049
40
0.3687189
50
323.6547608
51
342.6590488
0
ARC
8
DEFAULT_255_1_234
10
21.115096
20
60.7111952
40
0.5823286
50
342.4091907
51
353.6451149
0
ARC
8
DEFAULT_255_1_234
10
20.8319471
20
60.746419
40
0.8676442
50
353.4029884
51
359.4847795
0
LINE
8
DEFAULT_255_1_234
10
22.5412825
20
61.3779433
11
22.5412825
21
60.2029
0
LINE
8
DEFAULT_255_1_234
10
22.5412825
20
60.2029
11
22.3918921
21
60.2029
0
LINE
8
DEFAULT_255_1_234
10
22.3918921
20
60.2029
11
22.3918921
21
61.1932133
0
LINE
8
DEFAULT_255_1_234
10
22.3918921
20
61.1932133
11
22.0923083
21
61.0831785
0
LINE
8
DEFAULT_255_1_234
10
22.0923083
20
61.0831785
11
22.0923083
21
61.2181117
0
LINE
8
DEFAULT_255_1_234
10
22.0923083
20
61.2181117
11
22.5179904
21
61.3779433
0
LINE
8
DEFAULT_255_1_234
10
22.5179904
20
61.3779433
11
22.5412825
21
61.3779433
0
LINE
8
DEFAULT_255_1_234
10
23.3010849
20
60.7603026
11
23.3010849
21
60.6390234
0
LINE
8
DEFAULT_255_1_234
10
23.3010849
20
60.6390234
11
22.9091361
21
60.6390234
0
LINE
8
DEFAULT_255_1_234
10
22.9091361
20
60.6390234
11
22.9091361
21
60.7603026
0
LINE
8
DEFAULT_255_1_234
10
22.9091361
20
60.7603026
11
23.3010849
21
60.7603026
0
LINE
8
DEFAULT_255_1_234
10
23.9187256
20
61.3779433
11
23.9187256
21
60.2029
0
LINE
8
DEFAULT_255_1_234
10
23.9187256
20
60.2029
11
23.7693353
21
60.2029
0
LINE
8
DEFAULT_255_1_234
10
23.7693353
20
60.2029
11
23.7693353
21
61.1932133
0
LINE
8
DEFAULT_255_1_234
10
23.7693353
20
61.1932133
11
23.4697514
21
61.0831785
0
LINE
8
DEFAULT_255_1_234
10
23.4697514
20
61.0831785
11
23.4697514
21
61.2181117
0
LINE
8
DEFAULT_255_1_234
10
23.4697514
20
61.2181117
11
23.8954335
21
61.3779433
0
LINE
8
DEFAULT_255_1_234
10
23.8954335
20
61.3779433
11
23.9187256
21
61.3779433
0
ENDSEC
0
EOF