0
SECTION
2
HEADER
9
$MEASUREMENT
70
1
0
ENDSEC
0
SECTION
2
TABLES
0
TABLE
2
LTYPE
0
LTYPE
72
65
70
64
2
CONTINUOUS
3
______
73
0
40
0
0
ENDTAB
0
TABLE
2
LAYER
0
LAYER
2
DEFAULT_255_2_778
70
0
62
255
6
CONTINUOUS
0
LAYER
2
DEFAULT_255_1_388
70
0
62
255
6
CONTINUOUS
0
ENDTAB
0
ENDSEC
0
SECTION
2
ENTITIES
0
ARC
8
DEFAULT_255_2_778
10
3.5695693
20
139.3052021
40
0.7914215
50
129.1312896
51
180.1450914
0
ARC
8
DEFAULT_255_2_778
10
3.5698345
20
139.3056893
40
0.7912112
50
89.854026
51
129.1684493
0
ARC
8
DEFAULT_255_2_778
10
25.7988937
20
139.3053758
40
0.7915249
50
39.4792447
51
90.147911
0
ARC
8
DEFAULT_255_2_778
10
25.7994935
20
139.3052224
40
0.7911595
50
359.8533901
51
39.5154338
0
ARC
8
DEFAULT_255_2_778
10
25.7991693
20
-1.9863501
40
0.7914836
50
309.4761667
51
0.1482649
0
ARC
8
DEFAULT_255_2_778
10
25.798898
20
-1.9867812
40
0.7913235
50
269.8517415
51
309.511178
0
ARC
8
DEFAULT_255_2_778
10
3.569842
20
-1.986723
40
0.7913815
50
219.1282118
51
270.1454017
0
ARC
8
DEFAULT_255_2_778
10
3.5695247
20
-1.9863406
40
0.7913769
50
179.8524075
51
219.1641908
0
LINE
8
DEFAULT_255_2_778
10
3.5718503
20
140.096898
11
25.7968503
21
140.096898
0
LINE
8
DEFAULT_255_2_778
10
26.5906503
20
139.303198
11
26.5906503
21
-1.984302
0
LINE
8
DEFAULT_255_2_778
10
25.7968503
20
-2.778102
11
3.5718503
21
-2.778102
0
LINE
8
DEFAULT_255_2_778
10
2.7781503
20
-1.984302
11
2.7781503
21
139.303198
0
LINE
8
DEFAULT_255_1_388
10
5.7957015
20
1.3381934
11
5.8255191
21
1.3381934
0
LINE
8
DEFAULT_255_1_388
10
5.8255191
20
1.3381934
11
5.8255191
21
1.1963338
0
LINE
8
DEFAULT_255_1_388
10
5.8255191
20
1.1963338
11
5.7947979
21
1.1963338
0
LINE
8
DEFAULT_255_1_388
10
5.1794705
20
0.5222747
11
5.1794705
21
0.5864278
0
LINE
8
DEFAULT_255_1_388
10
5.3475335
20
0.5647422
11
5.3475335
21
0.5032999
0
ARC
8
DEFAULT_255_1_388
10
5.8006871
20
0.6340826
40
0.562282
50
90.6001079
51
104.5146616
0
ARC
8
DEFAULT_255_1_388
10
5.756983
20
0.79661
40
0.3939917
50
104.2855758
51
133.8630124
0
ARC
8
DEFAULT_255_1_388
10
5.7754083
20
0.7844243
40
0.4155734
50
134.5304124
51
161.6210222
0
ARC
8
DEFAULT_255_1_388
10
5.9614015
20
0.7188421
40
0.6127682
50
161.2850533
51
174.2074364
0
ARC
8
DEFAULT_255_1_388
10
6.1203582
20
0.6969437
40
0.7731446
50
173.7817938
51
174.9251711
0
ARC
8
DEFAULT_255_1_388
10
5.6077775
20
0.541427
40
0.3412588
50
95.8332067
51
138.995412
0
ARC
8
DEFAULT_255_1_388
10
5.6329056
20
0.3975695
40
0.4870358
50
89.8755506
51
97.0540979
0
ARC
8
DEFAULT_255_1_388
10
5.6382445
20
0.4915841
40
0.3930432
50
71.6407016
51
90.6240821
0
ARC
8
DEFAULT_255_1_388
10
5.6551838
20
0.5539433
40
0.3285421
50
39.6368051
51
71.0190743
0
ARC
8
DEFAULT_255_1_388
10
5.5835746
20
0.4920586
40
0.4231706
50
10.6588054
51
39.9044509
0
ARC
8
DEFAULT_255_1_388
10
5.4094291
20
0.4542223
40
0.60133
50
359.6827842
51
11.1326896
0
ARC
8
DEFAULT_255_1_388
10
5.4049627
20
0.4462715
40
0.6058047
50
347.2485908
51
0.4371098
0
ARC
8
DEFAULT_255_1_388
10
5.5925413
20
0.4011379
40
0.4128987
50
318.1408565
51
347.6118497
0
ARC
8
DEFAULT_255_1_388
10
5.6291009
20
0.3710903
40
0.3656244
50
275.6342406
51
317.824739
0
ARC
8
DEFAULT_255_1_388
10
5.604253
20
0.5172827
40
0.513655
50
269.8872513
51
276.7916069
0
ARC
8
DEFAULT_255_1_388
10
5.5980723
20
0.4019181
40
0.398323
50
246.9139443
51
270.7436787
0
ARC
8
DEFAULT_255_1_388
10
5.5987919
20
0.3859044
40
0.3839368
50
218.1665534
51
245.8780431
0
ARC
8
DEFAULT_255_1_388
10
5.6977291
20
0.4686903
40
0.5128958
50
191.4115343
51
218.6077624
0
ARC
8
DEFAULT_255_1_388
10
5.9157607
20
0.5175777
40
0.7363054
50
179.6344971
51
191.7836758
0
ARC
8
DEFAULT_255_1_388
10
6.5437482
20
0.5939495
40
1.3642984
50
171.4523743
51
180.3158856
0
ARC
8
DEFAULT_255_1_388
10
6.0493209
20
0.6708895
40
0.8639311
50
157.9802296
51
171.6246761
0
ARC
8
DEFAULT_255_1_388
10
5.8002559
20
0.7702038
40
0.5958004
50
141.4299236
51
157.8541251
0
ARC
8
DEFAULT_255_1_388
10
5.7280643
20
0.8212746
40
0.5075416
50
102.871586
51
140.8564533
0
ARC
8
DEFAULT_255_1_388
10
5.8009195
20
0.5467943
40
0.7914163
50
90.377773
51
103.5868422
0
ARC
8
DEFAULT_255_1_388
10
5.6053717
20
0.4787543
40
0.2667015
50
89.8751238
51
126.2072139
0
ARC
8
DEFAULT_255_1_388
10
5.6105188
20
0.4613847
40
0.2838229
50
124.9742447
51
144.8960197
0
ARC
8
DEFAULT_255_1_388
10
5.5907433
20
0.4774981
40
0.2583845
50
145.2974778
51
160.2660922
0
ARC
8
DEFAULT_255_1_388
10
5.9363921
20
0.4997151
40
0.5888695
50
179.6512124
51
190.285571
0
ARC
8
DEFAULT_255_1_388
10
5.7458401
20
0.4637968
40
0.3949683
50
190.0944895
51
207.5099647
0
ARC
8
DEFAULT_255_1_388
10
5.6821982
20
0.4335177
40
0.3245464
50
207.9585471
51
216.325377
0
ARC
8
DEFAULT_255_1_388
10
5.6439619
20
0.4020712
40
0.2751259
50
215.7661336
51
232.5457193
0
ARC
8
DEFAULT_255_1_388
10
5.6008735
20
0.3473273
40
0.2054668
50
232.8005815
51
270.6605497
0
ARC
8
DEFAULT_255_1_388
10
5.606016
20
0.3882853
40
0.2464268
50
269.3550767
51
288.474612
0
ARC
8
DEFAULT_255_1_388
10
5.6164667
20
0.3489721
40
0.2058436
50
289.1831976
51
322.9685307
0
ARC
8
DEFAULT_255_1_388
10
5.5476768
20
0.4032279
40
0.2934408
50
322.6007085
51
346.5183319
0
ARC
8
DEFAULT_255_1_388
10
5.4174524
20
0.4364434
40
0.4278249
50
346.2584622
51
358.7739592
0
ARC
8
DEFAULT_255_1_388
10
5.30231
20
0.4426829
40
0.5430876
50
358.3757628
51
0.0082477
0
ARC
8
DEFAULT_255_1_388
10
5.3879918
20
0.4457856
40
0.4574157
50
359.6211417
51
11.28403
0
ARC
8
DEFAULT_255_1_388
10
5.5316524
20
0.4757535
40
0.3106708
50
11.0483152
51
31.8145585
0
ARC
8
DEFAULT_255_1_388
10
5.5664229
20
0.4946045
40
0.2711963
50
32.3028554
51
38.0820598
0
ARC
8
DEFAULT_255_1_388
10
5.6137462
20
0.5374717
40
0.2075566
50
36.8249851
51
85.741667
0
ARC
8
DEFAULT_255_1_388
10
5.6061875
20
0.4811065
40
0.2643487
50
85.0150021
51
90.050843
0
LINE
8
DEFAULT_255_1_388
10
6.9956351
20
0.7716585
11
6.9956351
21
0.6297989
0
LINE
8
DEFAULT_255_1_388
10
6.9956351
20
0.6297989
11
6.4254859
21
0.6297989
0
LINE
8
DEFAULT_255_1_388
10
6.4254859
20
0.6297989
11
6.4254859
21
0.1635596
0
LINE
8
DEFAULT_255_1_388
10
6.4254859
20
0.1635596
11
7.0877986
21
0.1635596
0
LINE
8
DEFAULT_255_1_388
10
7.0877986
20
0.1635596
11
7.0877986
21
0.0217
0
LINE
8
DEFAULT_255_1_388
10
7.0877986
20
0.0217
11
6.2520015
21
0.0217
0
LINE
8
DEFAULT_255_1_388
10
6.2520015
20
0.0217
11
6.2520015
21
1.3372898
0
LINE
8
DEFAULT_255_1_388
10
6.2520015
20
1.3372898
11
7.078763
21
1.3372898
0
LINE
8
DEFAULT_255_1_388
10
7.078763
20
1.3372898
11
7.078763
21
1.1945267
0
LINE
8
DEFAULT_255_1_388
10
7.078763
20
1.1945267
11
6.4254859
21
1.1945267
0
LINE
8
DEFAULT_255_1_388
10
6.4254859
20
1.1945267
11
6.4254859
21
0.7716585
0
LINE
8
DEFAULT_255_1_388
10
6.4254859
20
0.7716585
11
6.9956351
21
0.7716585
0
LINE
8
DEFAULT_255_1_388
10
7.667887
20
0.0217
11
7.3037505
21
0.0217
0
LINE
8
DEFAULT_255_1_388
10
7.3037505
20
0.0217
11
7.3037505
21
1.3372898
0
LINE
8
DEFAULT_255_1_388
10
7.3037505
20
1.3372898
11
7.6751155
21
1.3372898
0
LINE
8
DEFAULT_255_1_388
10
8.2552039
20
0.7237696
11
8.2552039
21
0.6397381
0
LINE
8
DEFAULT_255_1_388
10
7.6796333
20
1.1945267
11
7.4772349
21
1.1945267
0
LINE
8
DEFAULT_255_1_388
10
7.4772349
20
1.1945267
11
7.4772349
21
0.1635596
0
LINE
8
DEFAULT_255_1_388
10
7.4772349
20
0.1635596
11
7.6597549
21
0.1635596
0
LINE
8
DEFAULT_255_1_388
10
8.0835267
20
0.6433523
11
8.0835267
21
0.7201553
0
ARC
8
DEFAULT_255_1_388
10
7.679495
20
0.6774436
40
0.6598608
50
75.4100343
51
90.3802731
0
ARC
8
DEFAULT_255_1_388
10
7.7053196
20
0.7850691
40
0.5492049
50
60.1455157
51
75.1889627
0
ARC
8
DEFAULT_255_1_388
10
7.7231787
20
0.8161914
40
0.5133226
50
26.525419
51
60.1451222
0
ARC
8
DEFAULT_255_1_388
10
7.5971573
20
0.7493642
40
0.6559324
50
7.4029944
51
26.832209
0
ARC
8
DEFAULT_255_1_388
10
7.4177971
20
0.7214229
40
0.8374103
50
0.1605597
51
7.7176135
0
ARC
8
DEFAULT_255_1_388
10
7.4362371
20
0.6354321
40
0.8189782
50
348.7289744
51
0.30125
0
ARC
8
DEFAULT_255_1_388
10
7.6225835
20
0.5984156
40
0.628991
50
333.0706936
51
348.7181455
0
ARC
8
DEFAULT_255_1_388
10
7.7313463
20
0.5393449
40
0.5052808
50
299.2531435
51
333.4571133
0
ARC
8
DEFAULT_255_1_388
10
7.6907494
20
0.6164629
40
0.5924066
50
278.1072193
51
299.0340218
0
ARC
8
DEFAULT_255_1_388
10
7.6619542
20
0.7860979
40
0.7644209
50
270.4446841
51
278.4508355
0
ARC
8
DEFAULT_255_1_388
10
7.6643026
20
0.68153
40
0.5179903
50
269.4969684
51
284.0204874
0
ARC
8
DEFAULT_255_1_388
10
7.7042745
20
0.5279415
40
0.3592968
50
283.7699076
51
318.1557121
0
ARC
8
DEFAULT_255_1_388
10
7.666329
20
0.5563399
40
0.4065308
50
318.7417595
51
343.687252
0
ARC
8
DEFAULT_255_1_388
10
7.4633868
20
0.6197275
40
0.6191194
50
343.3324891
51
355.8548594
0
ARC
8
DEFAULT_255_1_388
10
7.2272906
20
0.6421719
40
0.856237
50
355.4988754
51
0.0789913
0
ARC
8
DEFAULT_255_1_388
10
7.3153705
20
0.724908
40
0.7681709
50
359.6455047
51
9.8607559
0
ARC
8
DEFAULT_255_1_388
10
7.5809428
20
0.7728664
40
0.498312
50
9.6573037
51
26.1931522
0
ARC
8
DEFAULT_255_1_388
10
7.6853503
20
0.8213587
40
0.3832303
50
26.5777895
51
40.1533752
0
ARC
8
DEFAULT_255_1_388
10
7.7141168
20
0.843802
40
0.3467742
50
40.3839958
51
80.1430923
0
ARC
8
DEFAULT_255_1_388
10
7.6773424
20
0.6807486
40
0.5137832
50
79.2153636
51
89.7445174
0
LINE
8
DEFAULT_255_1_388
10
9.0232337
20
1.3436148
11
9.0232337
21
0.0217
0
LINE
8
DEFAULT_255_1_388
10
9.0232337
20
0.0217
11
8.8551707
21
0.0217
0
LINE
8
DEFAULT_255_1_388
10
8.8551707
20
0.0217
11
8.8551707
21
1.135795
0
LINE
8
DEFAULT_255_1_388
10
8.8551707
20
1.135795
11
8.5181412
21
1.0120066
0
LINE
8
DEFAULT_255_1_388
10
8.5181412
20
1.0120066
11
8.5181412
21
1.1638055
0
LINE
8
DEFAULT_255_1_388
10
8.5181412
20
1.1638055
11
8.9970303
21
1.3436148
0
LINE
8
DEFAULT_255_1_388
10
8.9970303
20
1.3436148
11
9.0232337
21
1.3436148
0
LINE
8
DEFAULT_255_1_388
10
10.33792
20
0.799669
11
10.33792
21
0.5828135
0
LINE
8
DEFAULT_255_1_388
10
9.5075442
20
0.5602244
11
9.5075442
21
0.7834048
0
LINE
8
DEFAULT_255_1_388
10
10.1707605
20
0.5376353
11
10.1707605
21
0.8114153
0
LINE
8
DEFAULT_255_1_388
10
9.6747037
20
0.8240652
11
9.6747037
21
0.5566102
0
ARC
8
DEFAULT_255_1_388
10
8.9601534
20
0.5773118
40
1.3777776
50
353.8440855
51
0.2287917
0
ARC
8
DEFAULT_255_1_388
10
9.4820551
20
0.5190414
40
0.852639
50
344.4934746
51
353.9763743
0
ARC
8
DEFAULT_255_1_388
10
9.8187358
20
0.4233191
40
0.5026273
50
329.2803599
51
344.7473406
0
ARC
8
DEFAULT_255_1_388
10
9.9302854
20
0.3621038
40
0.3754848
50
324.9361395
51
328.6153007
0
ARC
8
DEFAULT_255_1_388
10
9.9728504
20
0.3323586
40
0.3235566
50
280.5801797
51
324.9173226
0
ARC
8
DEFAULT_255_1_388
10
9.9277132
20
0.5203236
40
0.5167077
50
269.5979457
51
281.6732777
0
ARC
8
DEFAULT_255_1_388
10
9.9196036
20
0.5068113
40
0.5032026
50
256.6228565
51
270.5105488
0
ARC
8
DEFAULT_255_1_388
10
9.8743779
20
0.3326345
40
0.3233092
50
215.8618351
51
257.2787793
0
ARC
8
DEFAULT_255_1_388
10
9.9892486
20
0.4097106
40
0.4615831
50
197.9695203
51
215.2622745
0
ARC
8
DEFAULT_255_1_388
10
10.2688161
20
0.5040641
40
0.7566307
50
187.8816486
51
198.2346584
0
ARC
8
DEFAULT_255_1_388
10
10.71414
20
0.5683453
40
1.2065653
50
180.8977266
51
188.0054894
0
ARC
8
DEFAULT_255_1_388
10
11.0191613
20
0.57984
40
1.5117443
50
180.7434591
51
181.152202
0
ARC
8
DEFAULT_255_1_388
10
10.8516609
20
0.7888371
40
1.3441277
50
173.7674302
51
180.2315596
0
ARC
8
DEFAULT_255_1_388
10
10.3434478
20
0.8462779
40
0.8326847
50
164.3058537
51
173.9000553
0
ARC
8
DEFAULT_255_1_388
10
10.0158478
20
0.9406652
40
0.4917711
50
148.7922028
51
164.5682288
0
ARC
8
DEFAULT_255_1_388
10
9.9089216
20
1.0003457
40
0.3694204
50
144.5883979
51
148.1161588
0
ARC
8
DEFAULT_255_1_388
10
9.8701961
20
1.0273667
40
0.322202
50
101.6440149
51
144.5142619
0
ARC
8
DEFAULT_255_1_388
10
9.9180153
20
0.8373337
40
0.5180451
50
89.528284
51
102.5820197
0
ARC
8
DEFAULT_255_1_388
10
9.9269145
20
0.8329376
40
0.5224441
50
77.0437914
51
90.508231
0
ARC
8
DEFAULT_255_1_388
10
9.9721399
20
1.0177272
40
0.3322297
50
48.2777708
51
77.4996087
0
ARC
8
DEFAULT_255_1_388
10
9.9803139
20
1.0322557
40
0.315966
50
36.3141586
51
47.6307332
0
ARC
8
DEFAULT_255_1_388
10
9.8825861
20
0.9664159
40
0.4337313
50
18.2931065
51
35.6770203
0
ARC
8
DEFAULT_255_1_388
10
9.5964702
20
0.8682107
40
0.7362203
50
8.0246996
51
18.5605636
0
ARC
8
DEFAULT_255_1_388
10
9.1281057
20
0.7990432
40
1.2096583
50
1.127539
51
8.1718423
0
ARC
8
DEFAULT_255_1_388
10
8.7632191
20
0.7847374
40
1.5747719
50
0.5432713
51
1.38669
0
ARC
8
DEFAULT_255_1_388
10
8.9689569
20
0.8154163
40
1.2018103
50
359.8092569
51
4.9408001
0
ARC
8
DEFAULT_255_1_388
10
9.4426151
20
0.85769
40
0.7262727
50
4.8364937
51
12.2906017
0
ARC
8
DEFAULT_255_1_388
10
9.7525615
20
0.9267485
40
0.4087324
50
12.0806994
51
23.8171225
0
ARC
8
DEFAULT_255_1_388
10
9.8846011
20
0.9826508
40
0.2653719
50
24.2874621
51
31.3934353
0
ARC
8
DEFAULT_255_1_388
10
9.9436447
20
1.0212822
40
0.1948607
50
30.7407708
51
82.4658033
0
ARC
8
DEFAULT_255_1_388
10
9.9234108
20
0.9219017
40
0.2961198
50
81.1057101
51
90.2187368
0
ARC
8
DEFAULT_255_1_388
10
9.919392
20
0.9509421
40
0.2670929
50
89.380395
51
105.6763916
0
ARC
8
DEFAULT_255_1_388
10
9.8987642
20
1.025932
40
0.1893189
50
105.7980655
51
149.7387869
0
ARC
8
DEFAULT_255_1_388
10
10.0184782
20
0.9539719
40
0.3289892
50
149.4208441
51
163.628295
0
ARC
8
DEFAULT_255_1_388
10
10.2537012
20
0.8822345
40
0.5749004
50
163.3764549
51
172.141138
0
ARC
8
DEFAULT_255_1_388
10
10.6249733
20
0.8290582
40
0.9499585
50
172.0258462
51
178.0705453
0
ARC
8
DEFAULT_255_1_388
10
10.9671286
20
0.8128682
40
1.2924734
50
177.8639301
51
179.5036263
0
ARC
8
DEFAULT_255_1_388
10
10.8452305
20
0.5525151
40
1.170534
50
179.7995545
51
185.246089
0
ARC
8
DEFAULT_255_1_388
10
10.3903898
20
0.5094404
40
0.7136613
50
185.1411911
51
193.0082205
0
ARC
8
DEFAULT_255_1_388
10
10.0930158
20
0.4391441
40
0.4080987
50
192.7897338
51
205.2507384
0
ARC
8
DEFAULT_255_1_388
10
9.9752368
20
0.3865538
40
0.2791522
50
205.8001921
51
211.2545876
0
ARC
8
DEFAULT_255_1_388
10
9.9163907
20
0.3471132
40
0.2084074
50
210.3789935
51
238.4007996
0
ARC
8
DEFAULT_255_1_388
10
9.9141993
20
0.3523786
40
0.2117943
50
239.6521916
51
265.9793852
0
ARC
8
DEFAULT_255_1_388
10
9.9237842
20
0.4280358
40
0.2879689
50
265.1324455
51
270.0603288
0
ARC
8
DEFAULT_255_1_388
10
9.9270219
20
0.3915418
40
0.2514919
50
269.3314378
51
287.2180039
0
ARC
8
DEFAULT_255_1_388
10
9.9425302
20
0.3349291
40
0.1928357
50
287.7957942
51
329.0808983
0
ARC
8
DEFAULT_255_1_388
10
9.8348059
20
0.4021651
40
0.319808
50
328.6635261
51
343.3325043
0
ARC
8
DEFAULT_255_1_388
10
9.5903517
20
0.4783195
40
0.5758408
50
343.0498092
51
351.9392499
0
ARC
8
DEFAULT_255_1_388
10
9.2002839
20
0.5358205
40
0.9701202
50
351.8071632
51
357.7957897
0
ARC
8
DEFAULT_255_1_388
10
8.8368316
20
0.5546724
40
1.3340376
50
357.5870923
51
359.2682493
0
LINE
8
DEFAULT_255_1_388
10
10.7625953
20
0.6469666
11
10.6288677
21
0.6813021
0
LINE
8
DEFAULT_255_1_388
10
10.6288677
20
0.6813021
11
10.6957315
21
1.3372898
0
LINE
8
DEFAULT_255_1_388
10
10.6957315
20
1.3372898
11
11.3697906
21
1.3372898
0
LINE
8
DEFAULT_255_1_388
10
11.3697906
20
1.3372898
11
11.3697906
21
1.1827803
0
LINE
8
DEFAULT_255_1_388
10
11.3697906
20
1.1827803
11
10.8375911
21
1.1827803
0
LINE
8
DEFAULT_255_1_388
10
10.8375911
20
1.1827803
11
10.7978343
21
0.8240652
0
LINE
8
DEFAULT_255_1_388
10
10.5818824
20
0.3677652
11
10.7400062
21
0.3677652
0
LINE
8
DEFAULT_255_1_388
10
10.8068699
20
0.6831092
11
10.7625953
21
0.6469666
0
ARC
8
DEFAULT_255_1_388
10
11.0064956
20
0.4663241
40
0.4141476
50
93.7181681
51
120.253934
0
ARC
8
DEFAULT_255_1_388
10
11.0171008
20
0.3754284
40
0.5055616
50
89.9660471
51
94.2495185
0
ARC
8
DEFAULT_255_1_388
10
11.021683
20
0.4417154
40
0.4392953
50
73.8045384
51
90.5585736
0
ARC
8
DEFAULT_255_1_388
10
11.0481088
20
0.538252
40
0.3392225
50
41.3071072
51
73.543002
0
ARC
8
DEFAULT_255_1_388
10
11.0012908
20
0.4979461
40
0.4009977
50
13.5075837
51
41.2174839
0
ARC
8
DEFAULT_255_1_388
10
10.8166005
20
0.4495907
40
0.5918864
50
1.1330171
51
13.8830737
0
ARC
8
DEFAULT_255_1_388
10
10.6569651
20
0.4410522
40
0.7516787
50
359.9925091
51
1.5431298
0
ARC
8
DEFAULT_255_1_388
10
10.8014266
20
0.4364027
40
0.6072343
50
347.8572712
51
0.4294349
0
ARC
8
DEFAULT_255_1_388
10
10.9983401
20
0.3917898
40
0.4053482
50
323.6727442
51
348.1674594
0
ARC
8
DEFAULT_255_1_388
10
11.0314366
20
0.3716175
40
0.3667495
50
316.8171818
51
323.1486802
0
ARC
8
DEFAULT_255_1_388
10
11.0383489
20
0.3674612
40
0.358869
50
281.839603
51
316.5458142
0
ARC
8
DEFAULT_255_1_388
10
10.9960777
20
0.5424363
40
0.5388223
50
269.5770964
51
282.4214641
0
ARC
8
DEFAULT_255_1_388
10
10.9880697
20
0.518393
40
0.5147801
50
256.2425863
51
270.4486481
0
ARC
8
DEFAULT_255_1_388
10
10.9544225
20
0.3834124
40
0.3756708
50
228.9024379
51
256.33135
0
ARC
8
DEFAULT_255_1_388
10
10.9461205
20
0.3703054
40
0.360344
50
193.7536029
51
228.5272638
0
ARC
8
DEFAULT_255_1_388
10
11.085377
20
0.4111463
40
0.5053599
50
184.9244437
51
194.4976052
0
ARC
8
DEFAULT_255_1_388
10
11.1070412
20
0.4151722
40
0.3700839
50
187.3596909
51
198.6733728
0
ARC
8
DEFAULT_255_1_388
10
10.9889655
20
0.3742373
40
0.2451195
50
198.4453795
51
217.7945479
0
ARC
8
DEFAULT_255_1_388
10
10.9556828
20
0.3506563
40
0.2043754
50
218.2887146
51
228.5613203
0
ARC
8
DEFAULT_255_1_388
10
10.9666835
20
0.3654902
40
0.2227819
50
228.9652423
51
258.1237049
0
ARC
8
DEFAULT_255_1_388
10
10.9898272
20
0.4645964
40
0.3245374
50
257.7260585
51
270.4013717
0
ARC
8
DEFAULT_255_1_388
10
10.994877
20
0.4145255
40
0.2744726
50
269.4204315
51
286.420998
0
ARC
8
DEFAULT_255_1_388
10
11.0115826
20
0.3538705
40
0.2115721
50
286.7250065
51
320.6004665
0
ARC
8
DEFAULT_255_1_388
10
10.9684741
20
0.3888527
40
0.2670878
50
320.6712228
51
344.5440474
0
ARC
8
DEFAULT_255_1_388
10
10.8383455
20
0.4270394
40
0.4026927
50
344.241448
51
356.735803
0
ARC
8
DEFAULT_255_1_388
10
10.6979762
20
0.4386656
40
0.5435085
50
356.3547471
51
0.0507222
0
ARC
8
DEFAULT_255_1_388
10
10.8482027
20
0.4421812
40
0.3932934
50
359.5579289
51
12.9534322
0
ARC
8
DEFAULT_255_1_388
10
10.9668867
20
0.4709586
40
0.2711827
50
12.6489751
51
41.608121
0
ARC
8
DEFAULT_255_1_388
10
10.9928027
20
0.4929946
40
0.2371737
50
41.7851122
51
85.9892156
0
ARC
8
DEFAULT_255_1_388
10
10.9789337
20
0.4014738
40
0.3295244
50
84.6965848
51
90.0672125
0
ARC
8
DEFAULT_255_1_388
10
10.9762905
20
0.3263118
40
0.4046926
50
89.6804991
51
99.161352
0
ARC
8
DEFAULT_255_1_388
10
10.9531914
20
0.4643848
40
0.2647044
50
98.9836248
51
113.8905702
0
ARC
8
DEFAULT_255_1_388
10
10.9273589
20
0.5253118
40
0.1985386
50
114.195234
51
127.3641866
0
LINE
8
DEFAULT_255_1_388
10
11.8016944
20
0.6469666
11
11.6679668
21
0.6813021
0
LINE
8
DEFAULT_255_1_388
10
11.6679668
20
0.6813021
11
11.7348306
21
1.3372898
0
LINE
8
DEFAULT_255_1_388
10
11.7348306
20
1.3372898
11
12.4088897
21
1.3372898
0
LINE
8
DEFAULT_255_1_388
10
12.4088897
20
1.3372898
11
12.4088897
21
1.1827803
0
LINE
8
DEFAULT_255_1_388
10
12.4088897
20
1.1827803
11
11.8766902
21
1.1827803
0
LINE
8
DEFAULT_255_1_388
10
11.8766902
20
1.1827803
11
11.8369334
21
0.8240652
0
LINE
8
DEFAULT_255_1_388
10
11.6209815
20
0.3677652
11
11.7791053
21
0.3677652
0
LINE
8
DEFAULT_255_1_388
10
11.845969
20
0.6831092
11
11.8016944
21
0.6469666
0
ARC
8
DEFAULT_255_1_388
10
12.0455948
20
0.4663241
40
0.4141476
50
93.7181681
51
120.253934
0
ARC
8
DEFAULT_255_1_388
10
12.0562
20
0.3754284
40
0.5055616
50
89.9660471
51
94.2495185
0
ARC
8
DEFAULT_255_1_388
10
12.0607822
20
0.4417154
40
0.4392953
50
73.8045384
51
90.5585736
0
ARC
8
DEFAULT_255_1_388
10
12.0872079
20
0.538252
40
0.3392225
50
41.3071072
51
73.543002
0
ARC
8
DEFAULT_255_1_388
10
12.0403899
20
0.4979461
40
0.4009977
50
13.5075837
51
41.2174839
0
ARC
8
DEFAULT_255_1_388
10
11.8556997
20
0.4495907
40
0.5918864
50
1.1330171
51
13.8830737
0
ARC
8
DEFAULT_255_1_388
10
11.6960642
20
0.4410522
40
0.7516787
50
359.9925091
51
1.5431298
0
ARC
8
DEFAULT_255_1_388
10
11.8405257
20
0.4364027
40
0.6072343
50
347.8572712
51
0.4294349
0
ARC
8
DEFAULT_255_1_388
10
12.0374392
20
0.3917898
40
0.4053482
50
323.6727442
51
348.1674594
0
ARC
8
DEFAULT_255_1_388
10
12.0705357
20
0.3716175
40
0.3667495
50
316.8171818
51
323.1486802
0
ARC
8
DEFAULT_255_1_388
10
12.077448
20
0.3674612
40
0.358869
50
281.839603
51
316.5458142
0
ARC
8
DEFAULT_255_1_388
10
12.0351768
20
0.5424363
40
0.5388223
50
269.5770964
51
282.4214641
0
ARC
8
DEFAULT_255_1_388
10
12.0271689
20
0.518393
40
0.5147801
50
256.2425863
51
270.4486481
0
ARC
8
DEFAULT_255_1_388
10
11.9935216
20
0.3834124
40
0.3756708
50
228.9024379
51
256.33135
0
ARC
8
DEFAULT_255_1_388
10
11.9852197
20
0.3703054
40
0.360344
50
193.7536029
51
228.5272638
0
ARC
8
DEFAULT_255_1_388
10
12.1244762
20
0.4111463
40
0.5053599
50
184.9244437
51
194.4976052
0
ARC
8
DEFAULT_255_1_388
10
12.1461403
20
0.4151722
40
0.3700839
50
187.3596909
51
198.6733728
0
ARC
8
DEFAULT_255_1_388
10
12.0280646
20
0.3742373
40
0.2451195
50
198.4453795
51
217.7945479
0
ARC
8
DEFAULT_255_1_388
10
11.9947819
20
0.3506563
40
0.2043754
50
218.2887146
51
228.5613203
0
ARC
8
DEFAULT_255_1_388
10
12.0057826
20
0.3654902
40
0.2227819
50
228.9652423
51
258.1237049
0
ARC
8
DEFAULT_255_1_388
10
12.0289263
20
0.4645964
40
0.3245374
50
257.7260585
51
270.4013717
0
ARC
8
DEFAULT_255_1_388
10
12.0339761
20
0.4145255
40
0.2744726
50
269.4204315
51
286.420998
0
ARC
8
DEFAULT_255_1_388
10
12.0506817
20
0.3538705
40
0.2115721
50
286.7250065
51
320.6004665
0
ARC
8
DEFAULT_255_1_388
10
12.0075732
20
0.3888527
40
0.2670878
50
320.6712228
51
344.5440474
0
ARC
8
DEFAULT_255_1_388
10
11.8774446
20
0.4270394
40
0.4026927
50
344.241448
51
356.735803
0
ARC
8
DEFAULT_255_1_388
10
11.7370753
20
0.4386656
40
0.5435085
50
356.3547471
51
0.0507222
0
ARC
8
DEFAULT_255_1_388
10
11.8873018
20
0.4421812
40
0.3932934
50
359.5579289
51
12.9534322
0
ARC
8
DEFAULT_255_1_388
10
12.0059858
20
0.4709586
40
0.2711827
50
12.6489751
51
41.608121
0
ARC
8
DEFAULT_255_1_388
10
12.0319018
20
0.4929946
40
0.2371737
50
41.7851122
51
85.9892156
0
ARC
8
DEFAULT_255_1_388
10
12.0180328
20
0.4014738
40
0.3295244
50
84.6965848
51
90.0672125
0
ARC
8
DEFAULT_255_1_388
10
12.0153896
20
0.3263118
40
0.4046926
50
89.6804991
51
99.161352
0
ARC
8
DEFAULT_255_1_388
10
11.9922905
20
0.4643848
40
0.2647044
50
98.9836248
51
113.8905702
0
ARC
8
DEFAULT_255_1_388
10
11.966458
20
0.5253118
40
0.1985386
50
114.195234
51
127.3641866
0
LINE
8
DEFAULT_255_1_388
10
12.995303
20
0.6487737
11
12.995303
21
0.5123355
0
LINE
8
DEFAULT_255_1_388
10
12.995303
20
0.5123355
11
12.5543636
21
0.5123355
0
LINE
8
DEFAULT_255_1_388
10
12.5543636
20
0.5123355
11
12.5543636
21
0.6487737
0
LINE
8
DEFAULT_255_1_388
10
12.5543636
20
0.6487737
11
12.995303
21
0.6487737
0
LINE
8
DEFAULT_255_1_388
10
13.6901441
20
1.3436148
11
13.6901441
21
0.0217
0
LINE
8
DEFAULT_255_1_388
10
13.6901441
20
0.0217
11
13.5220811
21
0.0217
0
LINE
8
DEFAULT_255_1_388
10
13.5220811
20
0.0217
11
13.5220811
21
1.135795
0
LINE
8
DEFAULT_255_1_388
10
13.5220811
20
1.135795
11
13.1850516
21
1.0120066
0
LINE
8
DEFAULT_255_1_388
10
13.1850516
20
1.0120066
11
13.1850516
21
1.1638055
0
LINE
8
DEFAULT_255_1_388
10
13.1850516
20
1.1638055
11
13.6639407
21
1.3436148
0
LINE
8
DEFAULT_255_1_388
10
13.6639407
20
1.3436148
11
13.6901441
21
1.3436148
0
LINE
8
DEFAULT_255_1_388
10
14.9488094
20
0.7445516
11
14.9488094
21
0.6026919
0
LINE
8
DEFAULT_255_1_388
10
14.9488094
20
0.6026919
11
14.3967315
21
0.6026919
0
LINE
8
DEFAULT_255_1_388
10
14.3967315
20
0.6026919
11
14.3967315
21
0.0217
0
LINE
8
DEFAULT_255_1_388
10
14.3967315
20
0.0217
11
14.2232471
21
0.0217
0
LINE
8
DEFAULT_255_1_388
10
14.2232471
20
0.0217
11
14.2232471
21
1.3372898
0
LINE
8
DEFAULT_255_1_388
10
14.2232471
20
1.3372898
11
15.0382623
21
1.3372898
0
LINE
8
DEFAULT_255_1_388
10
15.0382623
20
1.3372898
11
15.0382623
21
1.1945267
0
LINE
8
DEFAULT_255_1_388
10
15.0382623
20
1.1945267
11
14.3967315
21
1.1945267
0
LINE
8
DEFAULT_255_1_388
10
14.3967315
20
1.1945267
11
14.3967315
21
0.7445516
0
LINE
8
DEFAULT_255_1_388
10
14.3967315
20
0.7445516
11
14.9488094
21
0.7445516
0
LINE
8
DEFAULT_255_1_388
10
15.7023821
20
0.0217
11
15.2460821
21
0.0217
0
LINE
8
DEFAULT_255_1_388
10
15.2460821
20
0.0217
11
15.2460821
21
1.3372898
0
LINE
8
DEFAULT_255_1_388
10
15.2460821
20
1.3372898
11
15.6761788
21
1.3372898
0
LINE
8
DEFAULT_255_1_388
10
15.7087071
20
0.6370274
11
15.4195665
21
0.6370274
0
LINE
8
DEFAULT_255_1_388
10
15.4195665
20
0.6370274
11
15.4195665
21
0.1635596
0
LINE
8
DEFAULT_255_1_388
10
15.4195665
20
0.1635596
11
15.7059964
21
0.1635596
0
LINE
8
DEFAULT_255_1_388
10
15.4195665
20
1.1945267
11
15.4195665
21
0.7761763
0
LINE
8
DEFAULT_255_1_388
10
15.4195665
20
0.7761763
11
15.6816001
21
0.7761763
0
LINE
8
DEFAULT_255_1_388
10
15.6761788
20
1.1945267
11
15.4195665
21
1.1945267
0
ARC
8
DEFAULT_255_1_388
10
15.6804208
20
0.5084824
40
0.8288183
50
82.1256322
51
90.2932506
0
ARC
8
DEFAULT_255_1_388
10
15.7241783
20
0.814259
40
0.5199321
50
69.9044202
51
82.2857574
0
ARC
8
DEFAULT_255_1_388
10
15.7883775
20
0.9877993
40
0.3348993
50
51.1840204
51
70.018125
0
ARC
8
DEFAULT_255_1_388
10
15.8170608
20
1.0294945
40
0.2844579
50
12.1018086
51
50.421322
0
ARC
8
DEFAULT_255_1_388
10
15.6613479
20
0.9903937
40
0.4449429
50
359.5252354
51
12.8212369
0
ARC
8
DEFAULT_255_1_388
10
15.8390909
20
0.9825943
40
0.2672162
50
323.4907456
51
0.8818258
0
ARC
8
DEFAULT_255_1_388
10
15.7920321
20
1.0189523
40
0.3266736
50
298.6824053
51
323.2758285
0
ARC
8
DEFAULT_255_1_388
10
15.7513613
20
1.0865509
40
0.4055105
50
293.1994739
51
299.139634
0
ARC
8
DEFAULT_255_1_388
10
15.8270563
20
0.4019651
40
0.3229926
50
54.0009997
51
74.9168635
0
ARC
8
DEFAULT_255_1_388
10
15.840149
20
0.4241511
40
0.2973581
50
36.3578854
51
53.5293172
0
ARC
8
DEFAULT_255_1_388
10
15.8258858
20
0.413985
40
0.3148715
50
4.8189348
51
36.3090187
0
ARC
8
DEFAULT_255_1_388
10
15.7381882
20
0.4016383
40
0.4033265
50
359.9373213
51
5.5201284
0
ARC
8
DEFAULT_255_1_388
10
15.7017212
20
0.3970733
40
0.4398126
50
344.7479357
51
0.5372278
0
ARC
8
DEFAULT_255_1_388
10
15.813211
20
0.3670205
40
0.3243441
50
311.1785587
51
344.6887681
0
ARC
8
DEFAULT_255_1_388
10
15.7803654
20
0.4079084
40
0.3767511
50
286.0417804
51
310.8440924
0
ARC
8
DEFAULT_255_1_388
10
15.7233063
20
0.5931885
40
0.5705957
50
274.1044074
51
286.4070149
0
ARC
8
DEFAULT_255_1_388
10
15.7034279
20
0.8049901
40
0.7832907
50
269.9235077
51
274.4458593
0
ARC
8
DEFAULT_255_1_388
10
15.7085997
20
0.5418462
40
0.3782955
50
269.6057074
51
281.3740795
0
ARC
8
DEFAULT_255_1_388
10
15.7345495
20
0.4188569
40
0.2526069
50
281.105298
51
302.5134029
0
ARC
8
DEFAULT_255_1_388
10
15.7510883
20
0.3891944
40
0.2187131
50
303.0365425
51
311.8818034
0
ARC
8
DEFAULT_255_1_388
10
15.759106
20
0.3796602
40
0.2062624
50
311.9916937
51
351.7143773
0
ARC
8
DEFAULT_255_1_388
10
15.6672085
20
0.3982271
40
0.2999202
50
350.7343295
51
0.2221526
0
ARC
8
DEFAULT_255_1_388
10
15.6551173
20
0.404587
40
0.3120525
50
359.045729
51
17.2295312
0
ARC
8
DEFAULT_255_1_388
10
15.7720203
20
0.4393155
40
0.1901144
50
17.6685208
51
78.9940245
0
ARC
8
DEFAULT_255_1_388
10
15.7138564
20
0.2305011
40
0.4065575
50
76.565218
51
90.7103392
0
LINE
8
DEFAULT_255_1_388
10
15.7088161
20
0.6370274
11
15.7087071
21
0.6370274
0
ARC
8
DEFAULT_255_1_388
10
15.684139
20
1.1457949
40
0.3696273
50
269.6064514
51
281.4533785
0
ARC
8
DEFAULT_255_1_388
10
15.7092031
20
1.0275283
40
0.2487412
50
281.2044438
51
302.5143998
0
ARC
8
DEFAULT_255_1_388
10
15.7246284
20
0.9997576
40
0.2170405
50
303.0211308
51
309.8378766
0
ARC
8
DEFAULT_255_1_388
10
15.7452402
20
0.9766486
40
0.1860946
50
309.5229446
51
356.9509628
0
ARC
8
DEFAULT_255_1_388
10
15.6706528
20
0.9873831
40
0.2612347
50
355.4699226
51
0.0498632
0
ARC
8
DEFAULT_255_1_388
10
15.6392201
20
0.9898789
40
0.2926762
50
359.5558955
51
11.2092924
0
ARC
8
DEFAULT_255_1_388
10
15.7469169
20
1.0121667
40
0.1827036
50
10.9185717
51
31.322519
0
ARC
8
DEFAULT_255_1_388
10
15.7790717
20
1.0300571
40
0.1459418
50
31.8850633
51
52.1415586
0
ARC
8
DEFAULT_255_1_388
10
15.7482146
20
0.9864674
40
0.1993088
50
52.8283418
51
71.9850132
0
ARC
8
DEFAULT_255_1_388
10
15.7059307
20
0.8620158
40
0.3307407
50
71.686634
51
82.8453416
0
ARC
8
DEFAULT_255_1_388
10
15.6789954
20
0.6584892
40
0.536039
50
82.6981895
51
90.1730083
0
ARC
8
DEFAULT_255_1_388
10
15.6764785
20
0.7463836
40
0.4481429
50
89.8851568
51
90.0383283
0
LINE
8
DEFAULT_255_1_388
10
16.9041229
20
1.3436148
11
16.9041229
21
0.0217
0
LINE
8
DEFAULT_255_1_388
10
16.9041229
20
0.0217
11
16.7360599
21
0.0217
0
LINE
8
DEFAULT_255_1_388
10
16.7360599
20
0.0217
11
16.7360599
21
1.135795
0
LINE
8
DEFAULT_255_1_388
10
16.7360599
20
1.135795
11
16.3990303
21
1.0120066
0
LINE
8
DEFAULT_255_1_388
10
16.3990303
20
1.0120066
11
16.3990303
21
1.1638055
0
LINE
8
DEFAULT_255_1_388
10
16.3990303
20
1.1638055
11
16.8779195
21
1.3436148
0
LINE
8
DEFAULT_255_1_388
10
16.8779195
20
1.3436148
11
16.9041229
21
1.3436148
0
LINE
8
DEFAULT_255_1_388
10
18.2188091
20
0.799669
11
18.2188091
21
0.5828135
0
LINE
8
DEFAULT_255_1_388
10
17.3884334
20
0.5602244
11
17.3884334
21
0.7834048
0
LINE
8
DEFAULT_255_1_388
10
18.0516497
20
0.5376353
11
18.0516497
21
0.8114153
0
LINE
8
DEFAULT_255_1_388
10
17.5555928
20
0.8240652
11
17.5555928
21
0.5566102
0
ARC
8
DEFAULT_255_1_388
10
16.8410425
20
0.5773118
40
1.3777776
50
353.8440855
51
0.2287917
0
ARC
8
DEFAULT_255_1_388
10
17.3629443
20
0.5190414
40
0.852639
50
344.4934746
51
353.9763743
0
ARC
8
DEFAULT_255_1_388
10
17.699625
20
0.4233191
40
0.5026273
50
329.2803599
51
344.7473406
0
ARC
8
DEFAULT_255_1_388
10
17.8111746
20
0.3621038
40
0.3754848
50
324.9361395
51
328.6153007
0
ARC
8
DEFAULT_255_1_388
10
17.8537395
20
0.3323586
40
0.3235566
50
280.5801797
51
324.9173226
0
ARC
8
DEFAULT_255_1_388
10
17.8086024
20
0.5203236
40
0.5167077
50
269.5979457
51
281.6732777
0
ARC
8
DEFAULT_255_1_388
10
17.8004928
20
0.5068113
40
0.5032026
50
256.6228565
51
270.5105488
0
ARC
8
DEFAULT_255_1_388
10
17.755267
20
0.3326345
40
0.3233092
50
215.8618351
51
257.2787793
0
ARC
8
DEFAULT_255_1_388
10
17.8701377
20
0.4097106
40
0.4615831
50
197.9695203
51
215.2622745
0
ARC
8
DEFAULT_255_1_388
10
18.1497053
20
0.5040641
40
0.7566307
50
187.8816486
51
198.2346584
0
ARC
8
DEFAULT_255_1_388
10
18.5950291
20
0.5683453
40
1.2065653
50
180.8977266
51
188.0054894
0
ARC
8
DEFAULT_255_1_388
10
18.9000505
20
0.57984
40
1.5117443
50
180.7434591
51
181.152202
0
ARC
8
DEFAULT_255_1_388
10
18.7325501
20
0.7888371
40
1.3441277
50
173.7674302
51
180.2315596
0
ARC
8
DEFAULT_255_1_388
10
18.224337
20
0.8462779
40
0.8326847
50
164.3058537
51
173.9000553
0
ARC
8
DEFAULT_255_1_388
10
17.896737
20
0.9406652
40
0.4917711
50
148.7922028
51
164.5682288
0
ARC
8
DEFAULT_255_1_388
10
17.7898107
20
1.0003457
40
0.3694204
50
144.5883979
51
148.1161588
0
ARC
8
DEFAULT_255_1_388
10
17.7510852
20
1.0273667
40
0.322202
50
101.6440149
51
144.5142619
0
ARC
8
DEFAULT_255_1_388
10
17.7989045
20
0.8373337
40
0.5180451
50
89.528284
51
102.5820197
0
ARC
8
DEFAULT_255_1_388
10
17.8078037
20
0.8329376
40
0.5224441
50
77.0437914
51
90.508231
0
ARC
8
DEFAULT_255_1_388
10
17.853029
20
1.0177272
40
0.3322297
50
48.2777708
51
77.4996087
0
ARC
8
DEFAULT_255_1_388
10
17.861203
20
1.0322557
40
0.315966
50
36.3141586
51
47.6307332
0
ARC
8
DEFAULT_255_1_388
10
17.7634752
20
0.9664159
40
0.4337313
50
18.2931065
51
35.6770203
0
ARC
8
DEFAULT_255_1_388
10
17.4773593
20
0.8682107
40
0.7362203
50
8.0246996
51
18.5605636
0
ARC
8
DEFAULT_255_1_388
10
17.0089949
20
0.7990432
40
1.2096583
50
1.127539
51
8.1718423
0
ARC
8
DEFAULT_255_1_388
10
16.6441082
20
0.7847374
40
1.5747719
50
0.5432713
51
1.38669
0
ARC
8
DEFAULT_255_1_388
10
16.8498461
20
0.8154163
40
1.2018103
50
359.8092569
51
4.9408001
0
ARC
8
DEFAULT_255_1_388
10
17.3235042
20
0.85769
40
0.7262727
50
4.8364937
51
12.2906017
0
ARC
8
DEFAULT_255_1_388
10
17.6334507
20
0.9267485
40
0.4087324
50
12.0806994
51
23.8171225
0
ARC
8
DEFAULT_255_1_388
10
17.7654903
20
0.9826508
40
0.2653719
50
24.2874621
51
31.3934353
0
ARC
8
DEFAULT_255_1_388
10
17.8245339
20
1.0212822
40
0.1948607
50
30.7407708
51
82.4658033
0
ARC
8
DEFAULT_255_1_388
10
17.8043
20
0.9219017
40
0.2961198
50
81.1057101
51
90.2187368
0
ARC
8
DEFAULT_255_1_388
10
17.8002812
20
0.9509421
40
0.2670929
50
89.380395
51
105.6763916
0
ARC
8
DEFAULT_255_1_388
10
17.7796534
20
1.025932
40
0.1893189
50
105.7980655
51
149.7387869
0
ARC
8
DEFAULT_255_1_388
10
17.8993674
20
0.9539719
40
0.3289892
50
149.4208441
51
163.628295
0
ARC
8
DEFAULT_255_1_388
10
18.1345903
20
0.8822345
40
0.5749004
50
163.3764549
51
172.141138
0
ARC
8
DEFAULT_255_1_388
10
18.5058625
20
0.8290582
40
0.9499585
50
172.0258462
51
178.0705453
0
ARC
8
DEFAULT_255_1_388
10
18.8480177
20
0.8128682
40
1.2924734
50
177.8639301
51
179.5036263
0
ARC
8
DEFAULT_255_1_388
10
18.7261196
20
0.5525151
40
1.170534
50
179.7995545
51
185.246089
0
ARC
8
DEFAULT_255_1_388
10
18.2712789
20
0.5094404
40
0.7136613
50
185.1411911
51
193.0082205
0
ARC
8
DEFAULT_255_1_388
10
17.973905
20
0.4391441
40
0.4080987
50
192.7897338
51
205.2507384
0
ARC
8
DEFAULT_255_1_388
10
17.856126
20
0.3865538
40
0.2791522
50
205.8001921
51
211.2545876
0
ARC
8
DEFAULT_255_1_388
10
17.7972799
20
0.3471132
40
0.2084074
50
210.3789935
51
238.4007996
0
ARC
8
DEFAULT_255_1_388
10
17.7950885
20
0.3523786
40
0.2117943
50
239.6521916
51
265.9793852
0
ARC
8
DEFAULT_255_1_388
10
17.8046734
20
0.4280358
40
0.2879689
50
265.1324455
51
270.0603288
0
ARC
8
DEFAULT_255_1_388
10
17.8079111
20
0.3915418
40
0.2514919
50
269.3314378
51
287.2180039
0
ARC
8
DEFAULT_255_1_388
10
17.8234193
20
0.3349291
40
0.1928357
50
287.7957942
51
329.0808983
0
ARC
8
DEFAULT_255_1_388
10
17.715695
20
0.4021651
40
0.319808
50
328.6635261
51
343.3325043
0
ARC
8
DEFAULT_255_1_388
10
17.4712409
20
0.4783195
40
0.5758408
50
343.0498092
51
351.9392499
0
ARC
8
DEFAULT_255_1_388
10
17.081173
20
0.5358205
40
0.9701202
50
351.8071632
51
357.7957897
0
ARC
8
DEFAULT_255_1_388
10
16.7177208
20
0.5546724
40
1.3340376
50
357.5870923
51
359.2682493
0
LINE
8
DEFAULT_255_1_388
10
18.7979939
20
0.6487737
11
18.7979939
21
0.5123355
0
LINE
8
DEFAULT_255_1_388
10
18.7979939
20
0.5123355
11
18.3570545
21
0.5123355
0
LINE
8
DEFAULT_255_1_388
10
18.3570545
20
0.5123355
11
18.3570545
21
0.6487737
0
LINE
8
DEFAULT_255_1_388
10
18.3570545
20
0.6487737
11
18.7979939
21
0.6487737
0
LINE
8
DEFAULT_255_1_388
10
19.7684222
20
0.799669
11
19.7684222
21
0.5828135
0
LINE
8
DEFAULT_255_1_388
10
18.9380464
20
0.5602244
11
18.9380464
21
0.7834048
0
LINE
8
DEFAULT_255_1_388
10
19.6012627
20
0.5376353
11
19.6012627
21
0.8114153
0
LINE
8
DEFAULT_255_1_388
10
19.1052059
20
0.8240652
11
19.1052059
21
0.5566102
0
ARC
8
DEFAULT_255_1_388
10
18.3906556
20
0.5773118
40
1.3777776
50
353.8440855
51
0.2287917
0
ARC
8
DEFAULT_255_1_388
10
18.9125573
20
0.5190414
40
0.852639
50
344.4934746
51
353.9763743
0
ARC
8
DEFAULT_255_1_388
10
19.249238
20
0.4233191
40
0.5026273
50
329.2803599
51
344.7473406
0
ARC
8
DEFAULT_255_1_388
10
19.3607876
20
0.3621038
40
0.3754848
50
324.9361395
51
328.6153007
0
ARC
8
DEFAULT_255_1_388
10
19.4033526
20
0.3323586
40
0.3235566
50
280.5801797
51
324.9173226
0
ARC
8
DEFAULT_255_1_388
10
19.3582154
20
0.5203236
40
0.5167077
50
269.5979457
51
281.6732777
0
ARC
8
DEFAULT_255_1_388
10
19.3501058
20
0.5068113
40
0.5032026
50
256.6228565
51
270.5105488
0
ARC
8
DEFAULT_255_1_388
10
19.3048801
20
0.3326345
40
0.3233092
50
215.8618351
51
257.2787793
0
ARC
8
DEFAULT_255_1_388
10
19.4197508
20
0.4097106
40
0.4615831
50
197.9695203
51
215.2622745
0
ARC
8
DEFAULT_255_1_388
10
19.6993183
20
0.5040641
40
0.7566307
50
187.8816486
51
198.2346584
0
ARC
8
DEFAULT_255_1_388
10
20.1446422
20
0.5683453
40
1.2065653
50
180.8977266
51
188.0054894
0
ARC
8
DEFAULT_255_1_388
10
20.4496635
20
0.57984
40
1.5117443
50
180.7434591
51
181.152202
0
ARC
8
DEFAULT_255_1_388
10
20.2821631
20
0.7888371
40
1.3441277
50
173.7674302
51
180.2315596
0
ARC
8
DEFAULT_255_1_388
10
19.77395
20
0.8462779
40
0.8326847
50
164.3058537
51
173.9000553
0
ARC
8
DEFAULT_255_1_388
10
19.44635
20
0.9406652
40
0.4917711
50
148.7922028
51
164.5682288
0
ARC
8
DEFAULT_255_1_388
10
19.3394238
20
1.0003457
40
0.3694204
50
144.5883979
51
148.1161588
0
ARC
8
DEFAULT_255_1_388
10
19.3006983
20
1.0273667
40
0.322202
50
101.6440149
51
144.5142619
0
ARC
8
DEFAULT_255_1_388
10
19.3485175
20
0.8373337
40
0.5180451
50
89.528284
51
102.5820197
0
ARC
8
DEFAULT_255_1_388
10
19.3574167
20
0.8329376
40
0.5224441
50
77.0437914
51
90.508231
0
ARC
8
DEFAULT_255_1_388
10
19.4026421
20
1.0177272
40
0.3322297
50
48.2777708
51
77.4996087
0
ARC
8
DEFAULT_255_1_388
10
19.4108161
20
1.0322557
40
0.315966
50
36.3141586
51
47.6307332
0
ARC
8
DEFAULT_255_1_388
10
19.3130883
20
0.9664159
40
0.4337313
50
18.2931065
51
35.6770203
0
ARC
8
DEFAULT_255_1_388
10
19.0269724
20
0.8682107
40
0.7362203
50
8.0246996
51
18.5605636
0
ARC
8
DEFAULT_255_1_388
10
18.5586079
20
0.7990432
40
1.2096583
50
1.127539
51
8.1718423
0
ARC
8
DEFAULT_255_1_388
10
18.1937213
20
0.7847374
40
1.5747719
50
0.5432713
51
1.38669
0
ARC
8
DEFAULT_255_1_388
10
18.3994591
20
0.8154163
40
1.2018103
50
359.8092569
51
4.9408001
0
ARC
8
DEFAULT_255_1_388
10
18.8731173
20
0.85769
40
0.7262727
50
4.8364937
51
12.2906017
0
ARC
8
DEFAULT_255_1_388
10
19.1830637
20
0.9267485
40
0.4087324
50
12.0806994
51
23.8171225
0
ARC
8
DEFAULT_255_1_388
10
19.3151033
20
0.9826508
40
0.2653719
50
24.2874621
51
31.3934353
0
ARC
8
DEFAULT_255_1_388
10
19.3741469
20
1.0212822
40
0.1948607
50
30.7407708
51
82.4658033
0
ARC
8
DEFAULT_255_1_388
10
19.353913
20
0.9219017
40
0.2961198
50
81.1057101
51
90.2187368
0
ARC
8
DEFAULT_255_1_388
10
19.3498942
20
0.9509421
40
0.2670929
50
89.380395
51
105.6763916
0
ARC
8
DEFAULT_255_1_388
10
19.3292664
20
1.025932
40
0.1893189
50
105.7980655
51
149.7387869
0
ARC
8
DEFAULT_255_1_388
10
19.4489804
20
0.9539719
40
0.3289892
50
149.4208441
51
163.628295
0
ARC
8
DEFAULT_255_1_388
10
19.6842034
20
0.8822345
40
0.5749004
50
163.3764549
51
172.141138
0
ARC
8
DEFAULT_255_1_388
10
20.0554755
20
0.8290582
40
0.9499585
50
172.0258462
51
178.0705453
0
ARC
8
DEFAULT_255_1_388
10
20.3976308
20
0.8128682
40
1.2924734
50
177.8639301
51
179.5036263
0
ARC
8
DEFAULT_255_1_388
10
20.2757327
20
0.5525151
40
1.170534
50
179.7995545
51
185.246089
0
ARC
8
DEFAULT_255_1_388
10
19.820892
20
0.5094404
40
0.7136613
50
185.1411911
51
193.0082205
0
ARC
8
DEFAULT_255_1_388
10
19.523518
20
0.4391441
40
0.4080987
50
192.7897338
51
205.2507384
0
ARC
8
DEFAULT_255_1_388
10
19.405739
20
0.3865538
40
0.2791522
50
205.8001921
51
211.2545876
0
ARC
8
DEFAULT_255_1_388
10
19.3468929
20
0.3471132
40
0.2084074
50
210.3789935
51
238.4007996
0
ARC
8
DEFAULT_255_1_388
10
19.3447015
20
0.3523786
40
0.2117943
50
239.6521916
51
265.9793852
0
ARC
8
DEFAULT_255_1_388
10
19.3542864
20
0.4280358
40
0.2879689
50
265.1324455
51
270.0603288
0
ARC
8
DEFAULT_255_1_388
10
19.3575241
20
0.3915418
40
0.2514919
50
269.3314378
51
287.2180039
0
ARC
8
DEFAULT_255_1_388
10
19.3730324
20
0.3349291
40
0.1928357
50
287.7957942
51
329.0808983
0
ARC
8
DEFAULT_255_1_388
10
19.2653081
20
0.4021651
40
0.319808
50
328.6635261
51
343.3325043
0
ARC
8
DEFAULT_255_1_388
10
19.0208539
20
0.4783195
40
0.5758408
50
343.0498092
51
351.9392499
0
ARC
8
DEFAULT_255_1_388
10
18.6307861
20
0.5358205
40
0.9701202
50
351.8071632
51
357.7957897
0
ARC
8
DEFAULT_255_1_388
10
18.2673338
20
0.5546724
40
1.3340376
50
357.5870923
51
359.2682493
0
LINE
8
DEFAULT_255_1_388
10
20.4822381
20
0.0217
11
20.025938
21
0.0217
0
LINE
8
DEFAULT_255_1_388
10
20.025938
20
0.0217
11
20.025938
21
1.3372898
0
LINE
8
DEFAULT_255_1_388
10
20.025938
20
1.3372898
11
20.4560347
21
1.3372898
0
LINE
8
DEFAULT_255_1_388
10
20.488563
20
0.6370274
11
20.1994224
21
0.6370274
0
LINE
8
DEFAULT_255_1_388
10
20.1994224
20
0.6370274
11
20.1994224
21
0.1635596
0
LINE
8
DEFAULT_255_1_388
10
20.1994224
20
0.1635596
11
20.4858523
21
0.1635596
0
LINE
8
DEFAULT_255_1_388
10
20.1994224
20
1.1945267
11
20.1994224
21
0.7761763
0
LINE
8
DEFAULT_255_1_388
10
20.1994224
20
0.7761763
11
20.4614561
21
0.7761763
0
LINE
8
DEFAULT_255_1_388
10
20.4560347
20
1.1945267
11
20.1994224
21
1.1945267
0
ARC
8
DEFAULT_255_1_388
10
20.4602767
20
0.5084824
40
0.8288183
50
82.1256322
51
90.2932506
0
ARC
8
DEFAULT_255_1_388
10
20.5040342
20
0.814259
40
0.5199321
50
69.9044202
51
82.2857574
0
ARC
8
DEFAULT_255_1_388
10
20.5682335
20
0.9877993
40
0.3348993
50
51.1840204
51
70.018125
0
ARC
8
DEFAULT_255_1_388
10
20.5969167
20
1.0294945
40
0.2844579
50
12.1018086
51
50.421322
0
ARC
8
DEFAULT_255_1_388
10
20.4412039
20
0.9903937
40
0.4449429
50
359.5252354
51
12.8212369
0
ARC
8
DEFAULT_255_1_388
10
20.6189469
20
0.9825943
40
0.2672162
50
323.4907456
51
0.8818258
0
ARC
8
DEFAULT_255_1_388
10
20.5718881
20
1.0189523
40
0.3266736
50
298.6824053
51
323.2758285
0
ARC
8
DEFAULT_255_1_388
10
20.5312173
20
1.0865509
40
0.4055105
50
293.1994739
51
299.139634
0
ARC
8
DEFAULT_255_1_388
10
20.6069122
20
0.4019651
40
0.3229926
50
54.0009997
51
74.9168635
0
ARC
8
DEFAULT_255_1_388
10
20.6200049
20
0.4241511
40
0.2973581
50
36.3578854
51
53.5293172
0
ARC
8
DEFAULT_255_1_388
10
20.6057417
20
0.413985
40
0.3148715
50
4.8189348
51
36.3090187
0
ARC
8
DEFAULT_255_1_388
10
20.5180442
20
0.4016383
40
0.4033265
50
359.9373213
51
5.5201284
0
ARC
8
DEFAULT_255_1_388
10
20.4815772
20
0.3970733
40
0.4398126
50
344.7479357
51
0.5372278
0
ARC
8
DEFAULT_255_1_388
10
20.593067
20
0.3670205
40
0.3243441
50
311.1785587
51
344.6887681
0
ARC
8
DEFAULT_255_1_388
10
20.5602214
20
0.4079084
40
0.3767511
50
286.0417804
51
310.8440924
0
ARC
8
DEFAULT_255_1_388
10
20.5031623
20
0.5931885
40
0.5705957
50
274.1044074
51
286.4070149
0
ARC
8
DEFAULT_255_1_388
10
20.4832838
20
0.8049901
40
0.7832907
50
269.9235077
51
274.4458593
0
ARC
8
DEFAULT_255_1_388
10
20.4884556
20
0.5418462
40
0.3782955
50
269.6057074
51
281.3740795
0
ARC
8
DEFAULT_255_1_388
10
20.5144055
20
0.4188569
40
0.2526069
50
281.105298
51
302.5134029
0
ARC
8
DEFAULT_255_1_388
10
20.5309442
20
0.3891944
40
0.2187131
50
303.0365425
51
311.8818034
0
ARC
8
DEFAULT_255_1_388
10
20.538962
20
0.3796602
40
0.2062624
50
311.9916937
51
351.7143773
0
ARC
8
DEFAULT_255_1_388
10
20.4470644
20
0.3982271
40
0.2999202
50
350.7343295
51
0.2221526
0
ARC
8
DEFAULT_255_1_388
10
20.4349732
20
0.404587
40
0.3120525
50
359.045729
51
17.2295312
0
ARC
8
DEFAULT_255_1_388
10
20.5518763
20
0.4393155
40
0.1901144
50
17.6685208
51
78.9940245
0
ARC
8
DEFAULT_255_1_388
10
20.4937124
20
0.2305011
40
0.4065575
50
76.565218
51
90.7103392
0
LINE
8
DEFAULT_255_1_388
10
20.4886721
20
0.6370274
11
20.488563
21
0.6370274
0
ARC
8
DEFAULT_255_1_388
10
20.4639949
20
1.1457949
40
0.3696273
50
269.6064514
51
281.4533785
0
ARC
8
DEFAULT_255_1_388
10
20.489059
20
1.0275283
40
0.2487412
50
281.2044438
51
302.5143998
0
ARC
8
DEFAULT_255_1_388
10
20.5044844
20
0.9997576
40
0.2170405
50
303.0211308
51
309.8378766
0
ARC
8
DEFAULT_255_1_388
10
20.5250962
20
0.9766486
40
0.1860946
50
309.5229446
51
356.9509628
0
ARC
8
DEFAULT_255_1_388
10
20.4505088
20
0.9873831
40
0.2612347
50
355.4699226
51
0.0498632
0
ARC
8
DEFAULT_255_1_388
10
20.4190761
20
0.9898789
40
0.2926762
50
359.5558955
51
11.2092924
0
ARC
8
DEFAULT_255_1_388
10
20.5267728
20
1.0121667
40
0.1827036
50
10.9185717
51
31.322519
0
ARC
8
DEFAULT_255_1_388
10
20.5589276
20
1.0300571
40
0.1459418
50
31.8850633
51
52.1415586
0
ARC
8
DEFAULT_255_1_388
10
20.5280706
20
0.9864674
40
0.1993088
50
52.8283418
51
71.9850132
0
ARC
8
DEFAULT_255_1_388
10
20.4857866
20
0.8620158
40
0.3307407
50
71.686634
51
82.8453416
0
ARC
8
DEFAULT_255_1_388
10
20.4588514
20
0.6584892
40
0.536039
50
82.6981895
51
90.1730083
0
ARC
8
DEFAULT_255_1_388
10
20.4563345
20
0.7463836
40
0.4481429
50
89.8851568
51
90.0383283
0
LINE
8
DEFAULT_255_1_388
10
22.030044
20
0.0217
11
21.9044485
21
0.3650545
0
LINE
8
DEFAULT_255_1_388
10
21.9044485
20
0.3650545
11
21.3532742
21
0.3650545
0
LINE
8
DEFAULT_255_1_388
10
21.3532742
20
0.3650545
11
21.2294859
21
0.0217
0
LINE
8
DEFAULT_255_1_388
10
21.2294859
20
0.0217
11
21.0505801
21
0.0217
0
LINE
8
DEFAULT_255_1_388
10
21.0505801
20
0.0217
11
21.552962
21
1.3372898
0
LINE
8
DEFAULT_255_1_388
10
21.552962
20
1.3372898
11
21.7047608
21
1.3372898
0
LINE
8
DEFAULT_255_1_388
10
21.7047608
20
1.3372898
11
22.2080462
21
0.0217
0
LINE
8
DEFAULT_255_1_388
10
22.2080462
20
0.0217
11
22.030044
21
0.0217
0
LINE
8
DEFAULT_255_1_388
10
21.6288614
20
1.1231451
11
21.405681
21
0.5078177
0
LINE
8
DEFAULT_255_1_388
10
21.405681
20
0.5078177
11
21.8529454
21
0.5078177
0
LINE
8
DEFAULT_255_1_388
10
21.8529454
20
0.5078177
11
21.6288614
21
1.1231451
0
LINE
8
DEFAULT_255_1_388
10
23.2037742
20
0.1581382
11
23.2037742
21
0.0217
0
LINE
8
DEFAULT_255_1_388
10
23.2037742
20
0.0217
11
22.3417737
21
0.0217
0
LINE
8
DEFAULT_255_1_388
10
22.3417737
20
0.0217
11
22.3417737
21
0.1418741
0
LINE
8
DEFAULT_255_1_388
10
22.3417737
20
0.1418741
11
22.7971702
21
0.6478702
0
LINE
8
DEFAULT_255_1_388
10
22.4836333
20
0.9496607
11
22.3164739
21
0.9496607
0
LINE
8
DEFAULT_255_1_388
10
22.8956587
20
0.540346
11
22.5432686
21
0.1581382
0
LINE
8
DEFAULT_255_1_388
10
22.5432686
20
0.1581382
11
23.2037742
21
0.1581382
0
ARC
8
DEFAULT_255_1_388
10
21.2795762
20
1.9898983
40
2.0258655
50
318.5132526
51
320.7829045
0
ARC
8
DEFAULT_255_1_388
10
21.8743719
20
1.5057929
40
1.2589638
50
320.7372878
51
323.9739031
0
ARC
8
DEFAULT_255_1_388
10
22.315265
20
1.1863554
40
0.7145141
50
323.8962701
51
328.64194
0
ARC
8
DEFAULT_255_1_388
10
22.5454908
20
1.0443545
40
0.4440242
50
328.8294576
51
331.7891185
0
ARC
8
DEFAULT_255_1_388
10
22.6577228
20
0.9864374
40
0.3177517
50
331.4254512
51
352.9365785
0
ARC
8
DEFAULT_255_1_388
10
22.6730228
20
0.983005
40
0.3021496
50
353.2257659
51
0.0166158
0
ARC
8
DEFAULT_255_1_388
10
22.6966989
20
0.9855894
40
0.2784847
50
359.486299
51
15.9343185
0
ARC
8
DEFAULT_255_1_388
10
22.7537255
20
1.0009269
40
0.2194403
50
16.1712913
51
43.5286088
0
ARC
8
DEFAULT_255_1_388
10
22.76242
20
1.0096191
40
0.2071504
50
43.4417391
51
83.1661095
0
ARC
8
DEFAULT_255_1_388
10
22.7473361
20
0.9267316
40
0.2912888
50
82.160179
51
90.1505708
0
ARC
8
DEFAULT_255_1_388
10
22.7437843
20
0.8663279
40
0.3517025
50
89.5460741
51
102.5418361
0
ARC
8
DEFAULT_255_1_388
10
22.7164563
20
0.9822933
40
0.2325748
50
102.1738499
51
129.206123
0
ARC
8
DEFAULT_255_1_388
10
22.7076016
20
0.9962664
40
0.2161591
50
129.72865
51
135.753947
0
ARC
8
DEFAULT_255_1_388
10
22.7212498
20
0.9853728
40
0.2335433
50
136.1757367
51
166.3673339
0
ARC
8
DEFAULT_255_1_388
10
22.8345187
20
0.9550148
40
0.3507873
50
165.9090694
51
178.8684636
0
ARC
8
DEFAULT_255_1_388
10
22.9320958
20
0.9497263
40
0.4484624
50
178.4391136
51
180.0083808
0
ARC
8
DEFAULT_255_1_388
10
22.774166
20
0.9541197
40
0.4577138
50
163.2878482
51
180.5581842
0
ARC
8
DEFAULT_255_1_388
10
22.6839701
20
0.9789393
40
0.3641968
50
133.4540601
51
162.947111
0
ARC
8
DEFAULT_255_1_388
10
22.7040583
20
0.9575789
40
0.3935189
50
100.7869829
51
133.4382499
0
ARC
8
DEFAULT_255_1_388
10
22.7431828
20
0.7833399
40
0.5720313
50
89.660664
51
101.3702276
0
ARC
8
DEFAULT_255_1_388
10
22.7506436
20
0.7902263
40
0.5651495
50
78.2172678
51
90.412935
0
ARC
8
DEFAULT_255_1_388
10
22.7905902
20
0.9729511
40
0.378122
50
55.9269121
51
78.4888449
0
ARC
8
DEFAULT_255_1_388
10
22.8126617
20
1.0110187
40
0.3342379
50
47.929771
51
55.4049217
0
ARC
8
DEFAULT_255_1_388
10
22.8241148
20
1.0226618
40
0.3179217
50
4.334829
51
48.0560205
0
ARC
8
DEFAULT_255_1_388
10
22.7008949
20
1.0035487
40
0.442341
50
359.9251713
51
5.5971671
0
ARC
8
DEFAULT_255_1_388
10
22.7491104
20
1.0098728
40
0.3941854
50
337.8914027
51
358.9967534
0
ARC
8
DEFAULT_255_1_388
10
22.4438674
20
1.1276295
40
0.7213271
50
326.9132501
51
338.3508308
0
ARC
8
DEFAULT_255_1_388
10
21.9954786
20
1.4150105
40
1.2538973
50
319.6471833
51
327.0959558
0
ARC
8
DEFAULT_255_1_388
10
21.5641444
20
1.770805
40
1.8129975
50
317.2588228
51
319.9045804
0
ARC
8
DEFAULT_255_2_778
10
7.7537338
20
139.6512992
40
3.0484709
50
251.6854144
51
258.6071955
0
ARC
8
DEFAULT_255_2_778
10
7.539521
20
138.5696738
40
1.9458471
50
258.4992492
51
268.3986479
0
ARC
8
DEFAULT_255_2_778
10
7.5172314
20
138.1394206
40
1.5151737
50
268.7865272
51
269.9950384
0
ARC
8
DEFAULT_255_2_778
10
7.5277432
20
137.6882355
40
1.0640417
50
269.426895
51
279.6711067
0
ARC
8
DEFAULT_255_2_778
10
7.6417753
20
137.0586746
40
0.4243233
50
278.7731084
51
300.3324923
0
ARC
8
DEFAULT_255_2_778
10
7.760746
20
136.8560552
40
0.1893587
50
300.2240287
51
1.9041213
0
ARC
8
DEFAULT_255_2_778
10
7.7452705
20
136.8652089
40
0.2047497
50
359.1991369
51
359.99965
0
ARC
8
DEFAULT_255_2_778
10
7.7523233
20
136.8660378
40
0.1976988
50
359.7594145
51
47.1793976
0
ARC
8
DEFAULT_255_2_778
10
7.6187277
20
136.717431
40
0.3975169
50
47.6144502
51
60.8366176
0
ARC
8
DEFAULT_255_2_778
10
7.0190958
20
135.7014865
40
1.5771337
50
59.799464
51
64.8885807
0
ARC
8
DEFAULT_255_2_778
10
6.0948833
20
133.7724682
40
3.7160912
50
64.6076081
51
66.8386974
0
ARC
8
DEFAULT_255_2_778
10
9.6419609
20
142.1355052
40
5.368109
50
244.3032309
51
247.1393781
0
ARC
8
DEFAULT_255_2_778
10
8.5507088
20
139.875518
40
2.8584574
50
240.2323579
51
244.3709759
0
ARC
8
DEFAULT_255_2_778
10
7.7800475
20
138.5386591
40
1.315392
50
233.2209971
51
240.4606284
0
ARC
8
DEFAULT_255_2_778
10
7.3561477
20
137.9675187
40
0.6041399
50
225.6990744
51
232.9899679
0
ARC
8
DEFAULT_255_2_778
10
7.3965073
20
137.9919214
40
0.6499005
50
178.2783416
51
224.6550883
0
ARC
8
DEFAULT_255_2_778
10
7.5059624
20
138.0252974
40
0.7591885
50
157.033673
51
181.0453383
0
ARC
8
DEFAULT_255_2_778
10
7.378439
20
138.0661396
40
0.6259551
50
124.9113017
51
155.9211516
0
ARC
8
DEFAULT_255_2_778
10
7.5960466
20
137.7575681
40
1.0035357
50
100.4079723
51
125.0168617
0
ARC
8
DEFAULT_255_2_778
10
7.6991199
20
137.2635046
40
1.5081396
50
89.6483922
51
100.8684975
0
ARC
8
DEFAULT_255_2_778
10
7.7083242
20
136.9112988
40
1.8603169
50
89.5079487
51
89.9984402
0
ARC
8
DEFAULT_255_2_778
10
7.7099573
20
136.8460694
40
1.9255311
50
83.9170631
51
89.5732113
0
ARC
8
DEFAULT_255_2_778
10
7.5071517
20
134.8384957
40
3.9433074
50
80.7325723
51
84.0779772
0
ARC
8
DEFAULT_255_2_778
10
7.0208457
20
131.815582
40
7.0050837
50
78.5086351
51
80.7886813
0
ARC
8
DEFAULT_255_2_778
10
7.6620177
20
136.4150544
40
1.9415426
50
67.135818
51
78.0934208
0
ARC
8
DEFAULT_255_2_778
10
7.7851814
20
136.9854809
40
1.3579807
50
78.2126325
51
89.7333975
0
ARC
8
DEFAULT_255_2_778
10
7.7793853
20
137.4006211
40
0.9429038
50
89.2638155
51
100.5666868
0
ARC
8
DEFAULT_255_2_778
10
7.6660949
20
137.9704419
40
0.362036
50
99.4784875
51
124.329414
0
ARC
8
DEFAULT_255_2_778
10
7.5705593
20
138.118551
40
0.1859067
50
125.7571195
51
182.2824883
0
ARC
8
DEFAULT_255_2_778
10
7.5493239
20
138.1118629
40
0.1645253
50
180.2492993
51
239.8144161
0
ARC
8
DEFAULT_255_2_778
10
7.932718
20
138.7119128
40
0.876484
50
237.8725734
51
242.8068846
0
ARC
8
DEFAULT_255_2_778
10
9.4175857
20
141.5284958
40
4.0604642
50
242.3328458
51
244.031083
0
ARC
8
DEFAULT_255_2_778
10
12.3804066
20
147.5769314
40
10.7955807
50
243.950624
51
244.8024316
0
ARC
8
DEFAULT_255_2_778
10
15.4009918
20
153.9609175
40
17.8580926
50
244.7535425
51
244.9563234
0
ARC
8
DEFAULT_255_2_778
10
5.8652927
20
133.4593264
40
4.7527588
50
62.2505456
51
65.4301556
0
ARC
8
DEFAULT_255_2_778
10
6.9275435
20
135.4674172
40
2.4810291
50
57.2951304
51
62.3684211
0
ARC
8
DEFAULT_255_2_778
10
7.6807233
20
136.6307235
40
1.0952081
50
48.7345704
51
57.5685367
0
ARC
8
DEFAULT_255_2_778
10
8.0117486
20
137.0182722
40
0.5856147
50
44.3236031
51
48.0704418
0
ARC
8
DEFAULT_255_2_778
10
7.9783002
20
136.9982468
40
0.6236013
50
1.3523843
51
43.4925744
0
ARC
8
DEFAULT_255_2_778
10
7.7103531
20
136.9653151
40
0.8926473
50
359.9763756
51
3.0599076
0
ARC
8
DEFAULT_255_2_778
10
7.8645343
20
136.9502407
40
0.7386124
50
333.0361889
51
1.1408766
0
ARC
8
DEFAULT_255_2_778
10
7.8947908
20
136.9571919
40
0.7150741
50
300.8430083
51
331.4403095
0
ARC
8
DEFAULT_255_2_778
10
7.694568
20
137.2707162
40
1.0869673
50
281.4258583
51
301.4316118
0
ARC
8
DEFAULT_255_2_778
10
7.5632666
20
137.8789414
40
1.7091691
50
270.2273513
51
281.7010805
0
ARC
8
DEFAULT_255_2_778
10
7.5453797
20
138.3556043
40
2.1859577
50
269.9983113
51
270.6466065
0
LINE
8
DEFAULT_255_2_778
10
7.5453153
20
136.1696465
11
7.5438002
21
136.169647
0
ARC
8
DEFAULT_255_2_778
10
7.5509161
20
139.3525969
40
3.1829579
50
256.2431122
51
269.871909
0
ARC
8
DEFAULT_255_2_778
10
21.7538511
20
139.5771629
40
2.9720345
50
251.5709223
51
258.7508181
0
ARC
8
DEFAULT_255_2_778
10
21.5538128
20
138.5539385
40
1.9294488
50
258.6495077
51
268.8281511
0
ARC
8
DEFAULT_255_2_778
10
21.5355488
20
138.1591193
40
1.5343723
50
269.2085037
51
269.9981866
0
ARC
8
DEFAULT_255_2_778
10
21.5473849
20
137.6907184
40
1.0660376
50
269.3612297
51
279.5899087
0
ARC
8
DEFAULT_255_2_778
10
21.6608439
20
137.0592324
40
0.424527
50
278.6895227
51
300.2363944
0
ARC
8
DEFAULT_255_2_778
10
21.7799083
20
136.8557793
40
0.188796
50
300.1108484
51
1.9024905
0
ARC
8
DEFAULT_255_2_778
10
21.7439577
20
136.8664221
40
0.2246851
50
358.8842611
51
0.0019649
0
ARC
8
DEFAULT_255_2_778
10
21.7769791
20
136.8703385
40
0.1917038
50
358.831716
51
47.0900458
0
ARC
8
DEFAULT_255_2_778
10
21.6364654
20
136.710984
40
0.4041259
50
47.8812665
51
61.174665
0
ARC
8
DEFAULT_255_2_778
10
21.0418848
20
135.6910117
40
1.5846568
50
60.1210877
51
65.1917015
0
ARC
8
DEFAULT_255_2_778
10
20.1415278
20
133.7854122
40
3.6922188
50
64.9168629
51
67.1565628
0
ARC
8
DEFAULT_255_2_778
10
23.6275467
20
142.0569888
40
5.2839333
50
244.2656926
51
247.1407051
0
ARC
8
DEFAULT_255_2_778
10
22.5594997
20
139.848765
40
2.8309849
50
240.1545061
51
244.3326325
0
ARC
8
DEFAULT_255_2_778
10
21.7856548
20
138.5127346
40
1.2870531
50
232.697515
51
240.4357497
0
ARC
8
DEFAULT_255_2_778
10
21.3705506
20
137.9617218
40
0.5972006
50
225.5850892
51
232.3393736
0
ARC
8
DEFAULT_255_2_778
10
21.4133941
20
137.9912933
40
0.6483829
50
178.7795739
51
224.7095916
0
ARC
8
DEFAULT_255_2_778
10
21.6669319
20
138.0153135
40
0.9018316
50
179.997867
51
180.6487041
0
ARC
8
DEFAULT_255_2_778
10
21.5167738
20
138.0291249
40
0.7517998
50
156.9195758
51
181.050088
0
ARC
8
DEFAULT_255_2_778
10
21.3928482
20
138.0685712
40
0.6224513
50
124.7111133
51
155.7879672
0
ARC
8
DEFAULT_255_2_778
10
21.6055459
20
137.7766942
40
0.9835402
50
101.7934503
51
125.2143527
0
ARC
8
DEFAULT_255_2_778
10
21.729848
20
137.2241326
40
1.5498677
50
89.5248728
51
102.1166783
0
ARC
8
DEFAULT_255_2_778
10
21.7283109
20
136.6705834
40
2.1034129
50
83.2889725
51
89.6080411
0
ARC
8
DEFAULT_255_2_778
10
21.529975
20
134.9027668
40
3.8823067
50
79.4764054
51
83.4308492
0
ARC
8
DEFAULT_255_2_778
10
21.2186357
20
133.1495673
40
5.6628977
50
78.2224868
51
79.6190915
0
ARC
8
DEFAULT_255_2_778
10
21.6838473
20
136.4270715
40
1.9311543
50
67.1323814
51
78.3148813
0
ARC
8
DEFAULT_255_2_778
10
21.801359
20
136.9785614
40
1.3672981
50
78.4565774
51
89.7552271
0
ARC
8
DEFAULT_255_2_778
10
21.7951366
20
137.409447
40
0.9364778
50
89.2619009
51
100.5950934
0
ARC
8
DEFAULT_255_2_778
10
21.6824182
20
137.9749169
40
0.3599879
50
99.5087086
51
124.406715
0
ARC
8
DEFAULT_255_2_778
10
21.5878565
20
138.121343
40
0.1858061
50
125.8630185
51
182.2986975
0
ARC
8
DEFAULT_255_2_778
10
21.5497296
20
138.1138047
40
0.1475296
50
179.9666559
51
180.100057
0
ARC
8
DEFAULT_255_2_778
10
21.566185
20
138.113793
40
0.163985
50
180.0859454
51
239.8819968
0
ARC
8
DEFAULT_255_2_778
10
21.9379018
20
138.7005619
40
0.8584853
50
238.072871
51
243.0442008
0
ARC
8
DEFAULT_255_2_778
10
23.4872034
20
141.6655845
40
4.2038426
50
242.5409111
51
244.1884903
0
ARC
8
DEFAULT_255_2_778
10
26.6463384
20
148.160196
40
11.4260319
50
244.1076525
51
244.9219574
0
ARC
8
DEFAULT_255_2_778
10
29.9038827
20
155.083855
40
19.0777309
50
244.8743531
51
245.066969
0
ARC
8
DEFAULT_255_2_778
10
19.8865272
20
133.4916274
40
4.7250654
50
62.0340028
51
65.293009
0
ARC
8
DEFAULT_255_2_778
10
20.9507744
20
135.4865758
40
2.464003
50
57.1127289
51
62.13736
0
ARC
8
DEFAULT_255_2_778
10
21.7037139
20
136.6402906
40
1.0863604
50
48.3695509
51
57.4197129
0
ARC
8
DEFAULT_255_2_778
10
22.0286268
20
137.0170419
40
0.5889589
50
44.472493
51
47.6467012
0
ARC
8
DEFAULT_255_2_778
10
21.9979457
20
136.9999032
40
0.6229283
50
1.2061613
51
43.6203607
0
ARC
8
DEFAULT_255_2_778
10
21.7312413
20
136.9674903
40
0.890659
50
359.9779196
51
2.9299178
0
ARC
8
DEFAULT_255_2_778
10
21.8802547
20
136.9523837
40
0.7417924
50
333.172934
51
1.140392
0
ARC
8
DEFAULT_255_2_778
10
21.9146167
20
136.9570736
40
0.7135172
50
300.9808035
51
331.5913995
0
ARC
8
DEFAULT_255_2_778
10
21.7182603
20
137.2669862
40
1.0803281
50
281.9040909
51
301.4483918
0
ARC
8
DEFAULT_255_2_778
10
21.5848425
20
137.8655518
40
1.6935565
50
270.5796874
51
282.1436175
0
ARC
8
DEFAULT_255_2_778
10
21.5636722
20
138.3604735
40
2.1887267
50
269.9959074
51
271.0027751
0
LINE
8
DEFAULT_255_2_778
10
21.5635158
20
136.1717468
11
21.5625002
21
136.171747
0
ARC
8
DEFAULT_255_2_778
10
21.5700221
20
139.3605174
40
3.1887792
50
256.2556596
51
269.8648469
0
LINE
8
DEFAULT_255_2_778
10
6.7958002
20
136.262547
11
6.7958002
21
136.757247
0
LINE
8
DEFAULT_255_2_778
10
8.4164002
20
138.680247
11
8.4164002
21
138.204047
0
LINE
8
DEFAULT_255_2_778
10
6.7940002
20
136.260947
11
6.7958002
21
136.262547
0
LINE
8
DEFAULT_255_2_778
10
8.9866002
20
138.729747
11
9.6629002
21
138.729747
0
LINE
8
DEFAULT_255_2_778
10
9.6629002
20
138.729747
11
9.6629002
21
136.222347
0
LINE
8
DEFAULT_255_2_778
10
9.6629002
20
136.222347
11
8.9866002
21
136.222347
0
LINE
8
DEFAULT_255_2_778
10
8.9866002
20
136.222347
11
8.9866002
21
138.729747
0
LINE
8
DEFAULT_255_2_778
10
10.2809002
20
136.222347
11
10.2809002
21
138.729747
0
LINE
8
DEFAULT_255_2_778
10
10.2809002
20
138.729747
11
12.0132002
21
138.729747
0
LINE
8
DEFAULT_255_2_778
10
12.0132002
20
138.729747
11
12.0132002
21
138.276047
0
LINE
8
DEFAULT_255_2_778
10
12.0132002
20
138.276047
11
10.9321002
21
138.276047
0
LINE
8
DEFAULT_255_2_778
10
10.9321002
20
138.276047
11
10.9321002
21
137.709747
0
LINE
8
DEFAULT_255_2_778
10
10.9321002
20
137.709747
11
11.8735002
21
137.709747
0
LINE
8
DEFAULT_255_2_778
10
11.8735002
20
137.709747
11
11.8735002
21
137.296247
0
LINE
8
DEFAULT_255_2_778
10
11.8735002
20
137.296247
11
10.9321002
21
137.296247
0
LINE
8
DEFAULT_255_2_778
10
10.9321002
20
137.296247
11
10.9321002
21
136.700947
0
LINE
8
DEFAULT_255_2_778
10
10.9321002
20
136.700947
11
12.0412002
21
136.700947
0
LINE
8
DEFAULT_255_2_778
10
12.0412002
20
136.700947
11
12.0412002
21
136.220747
0
LINE
8
DEFAULT_255_2_778
10
12.0412002
20
136.220747
11
10.2809002
21
136.222347
0
LINE
8
DEFAULT_255_2_778
10
12.4817002
20
136.222347
11
12.4817002
21
138.729747
0
LINE
8
DEFAULT_255_2_778
10
12.4817002
20
138.729747
11
13.3575002
21
138.729747
0
LINE
8
DEFAULT_255_2_778
10
13.3575002
20
138.729747
11
13.9671002
21
137.127447
0
LINE
8
DEFAULT_255_2_778
10
13.9671002
20
137.127447
11
14.5897002
21
138.729747
0
LINE
8
DEFAULT_255_2_778
10
14.5897002
20
138.729747
11
15.4215002
21
138.729747
0
LINE
8
DEFAULT_255_2_778
10
15.4215002
20
138.729747
11
15.4215002
21
136.222347
0
LINE
8
DEFAULT_255_2_778
10
15.4215002
20
136.222347
11
14.7812002
21
136.222347
0
LINE
8
DEFAULT_255_2_778
10
14.7812002
20
136.222347
11
14.7812002
21
137.998147
0
LINE
8
DEFAULT_255_2_778
10
14.7812002
20
137.998147
11
14.0724002
21
136.197947
0
LINE
8
DEFAULT_255_2_778
10
14.0724002
20
136.197947
11
13.6515002
21
136.197947
0
LINE
8
DEFAULT_255_2_778
10
13.6515002
20
136.197947
11
12.9559002
21
137.998147
0
LINE
8
DEFAULT_255_2_778
10
12.9559002
20
137.998147
11
12.9559002
21
136.222047
0
LINE
8
DEFAULT_255_2_778
10
12.9559002
20
136.222047
11
12.4817002
21
136.222347
0
LINE
8
DEFAULT_255_2_778
10
16.0409002
20
136.222347
11
16.0409002
21
138.729747
0
LINE
8
DEFAULT_255_2_778
10
16.0409002
20
138.729747
11
17.7731002
21
138.729747
0
LINE
8
DEFAULT_255_2_778
10
17.7731002
20
138.729747
11
17.7731002
21
138.276047
0
LINE
8
DEFAULT_255_2_778
10
17.7731002
20
138.276047
11
16.6921002
21
138.276047
0
LINE
8
DEFAULT_255_2_778
10
16.6921002
20
138.276047
11
16.6921002
21
137.709747
0
LINE
8
DEFAULT_255_2_778
10
16.6921002
20
137.709747
11
17.6334002
21
137.709747
0
LINE
8
DEFAULT_255_2_778
10
17.6334002
20
137.709747
11
17.6334002
21
137.296247
0
LINE
8
DEFAULT_255_2_778
10
17.6334002
20
137.296247
11
16.6921002
21
137.296247
0
LINE
8
DEFAULT_255_2_778
10
16.6921002
20
137.296247
11
16.6921002
21
136.700947
0
LINE
8
DEFAULT_255_2_778
10
16.6921002
20
136.700947
11
17.8030002
21
136.700947
0
LINE
8
DEFAULT_255_2_778
10
17.8030002
20
136.700947
11
17.8030002
21
136.220747
0
LINE
8
DEFAULT_255_2_778
10
17.8030002
20
136.220747
11
16.0409002
21
136.222347
0
LINE
8
DEFAULT_255_2_778
10
18.2454002
20
136.222347
11
18.2454002
21
138.729747
0
LINE
8
DEFAULT_255_2_778
10
18.2454002
20
138.729747
11
19.0283002
21
138.729747
0
LINE
8
DEFAULT_255_2_778
10
19.0283002
20
138.729747
11
19.8586002
21
137.050947
0
LINE
8
DEFAULT_255_2_778
10
19.8586002
20
137.050947
11
19.8586002
21
138.729747
0
LINE
8
DEFAULT_255_2_778
10
19.8586002
20
138.729747
11
20.3343002
21
138.729747
0
LINE
8
DEFAULT_255_2_778
10
20.3343002
20
138.729747
11
20.3343002
21
136.222347
0
LINE
8
DEFAULT_255_2_778
10
20.3343002
20
136.222347
11
19.5739002
21
136.222347
0
LINE
8
DEFAULT_255_2_778
10
19.5739002
20
136.222347
11
18.7214002
21
137.923547
0
LINE
8
DEFAULT_255_2_778
10
18.7214002
20
137.923547
11
18.7214002
21
136.222347
0
LINE
8
DEFAULT_255_2_778
10
18.7214002
20
136.222347
11
18.2454002
21
136.222347
0
LINE
8
DEFAULT_255_2_778
10
20.8143002
20
136.262747
11
20.8143002
21
136.757547
0
LINE
8
DEFAULT_255_2_778
10
22.3745002
20
138.693247
11
22.4343002
21
138.682647
0
LINE
8
DEFAULT_255_2_778
10
22.4343002
20
138.682647
11
22.4343002
21
138.206447
0
LINE
8
DEFAULT_255_2_778
10
20.8124002
20
136.263047
11
20.8143002
21
136.262747
0
LINE
8
DEFAULT_255_2_778
10
9.3927417
20
124.221908
11
10.7156417
21
124.221908
0
LINE
8
DEFAULT_255_2_778
10
10.7156417
20
124.221908
11
10.7156417
21
99.086508
0
LINE
8
DEFAULT_255_2_778
10
9.3926834
20
99.0864333
11
12.0384834
21
99.0864333
0
LINE
8
DEFAULT_255_2_778
10
12.0384834
20
99.0864333
11
12.0384834
21
93.7947333
0
LINE
8
DEFAULT_255_2_778
10
12.0384834
20
93.7947333
11
9.3926834
21
93.7947333
0
LINE
8
DEFAULT_255_2_778
10
9.3926834
20
93.7947333
11
9.3926834
21
99.0864333
0
LINE
8
DEFAULT_255_2_778
10
10.1865
20
94.3239666
11
10.1865
21
98.5572666
0
LINE
8
DEFAULT_255_2_778
10
9.9219167
20
97.763575
11
10.1865167
21
98.557275
0
LINE
8
DEFAULT_255_2_778
10
10.1865167
20
98.557275
11
10.4511167
21
97.763575
0
LINE
8
DEFAULT_255_2_778
10
10.4511167
20
97.763575
11
9.9219167
21
97.763575
0
LINE
8
DEFAULT_255_2_778
10
11.2448
20
98.5572666
11
11.2448
21
94.3239666
0
LINE
8
DEFAULT_255_2_778
10
10.9802167
20
95.117675
11
11.2448167
21
94.323975
0
LINE
8
DEFAULT_255_2_778
10
11.2448167
20
94.323975
11
11.5094167
21
95.117675
0
LINE
8
DEFAULT_255_2_778
10
11.5094167
20
95.117675
11
10.9802167
21
95.117675
0
LINE
8
DEFAULT_255_2_778
10
10.7156335
20
93.7947483
11
10.7156335
21
68.6593483
0
LINE
8
DEFAULT_255_2_778
10
10.7156335
20
68.6593483
11
9.3927335
21
68.6593483
0
LINE
8
DEFAULT_255_2_778
10
19.9760335
20
124.2218483
11
18.6531335
21
124.2218483
0
LINE
8
DEFAULT_255_2_778
10
18.6531335
20
124.2218483
11
18.6531335
21
67.3364483
0
LINE
8
DEFAULT_255_2_778
10
18.6531335
20
62.0447483
11
18.6531335
21
5.1593483
0
LINE
8
DEFAULT_255_2_778
10
18.6531335
20
5.1593483
11
19.9760335
21
5.1593483
0
LINE
8
DEFAULT_255_2_778
10
17.3301834
20
67.3364333
11
19.9759834
21
67.3364333
0
LINE
8
DEFAULT_255_2_778
10
19.9759834
20
67.3364333
11
19.9759834
21
62.0447333
0
LINE
8
DEFAULT_255_2_778
10
19.9759834
20
62.0447333
11
17.3301834
21
62.0447333
0
LINE
8
DEFAULT_255_2_778
10
17.3301834
20
62.0447333
11
17.3301834
21
67.3364333
0
LINE
8
DEFAULT_255_2_778
10
18.124
20
66.5426833
11
18.124
21
62.8384833
0
ARC
8
DEFAULT_255_2_778
10
19.0491335
20
66.1466666
40
0.3960095
50
89.8710075
51
180.1289967
0
ARC
8
DEFAULT_255_2_778
10
19.050838
20
66.1466878
40
0.395988
50
359.8679252
51
90.1176342
0
ARC
8
DEFAULT_255_2_778
10
19.0508595
20
66.1449405
40
0.3959664
50
269.8792548
51
0.1207452
0
ARC
8
DEFAULT_255_2_778
10
19.0491123
20
66.1449621
40
0.3959881
50
179.8823802
51
270.1320647
0
LINE
8
DEFAULT_255_2_778
10
18.653125
20
66.145775
11
18.653125
21
66.145775
0
ARC
8
DEFAULT_255_2_778
10
19.0491335
20
63.2362666
40
0.3960095
50
89.8710075
51
180.1289967
0
ARC
8
DEFAULT_255_2_778
10
19.050838
20
63.2362878
40
0.395988
50
359.8679252
51
90.1176342
0
ARC
8
DEFAULT_255_2_778
10
19.0508595
20
63.2345405
40
0.3959664
50
269.8792548
51
0.1207452
0
ARC
8
DEFAULT_255_2_778
10
19.0491123
20
63.2345621
40
0.3959881
50
179.8823802
51
270.1320647
0
LINE
8
DEFAULT_255_2_778
10
18.653125
20
63.235375
11
18.653125
21
63.235375
0
LINE
8
DEFAULT_255_1_388
10
11.8743903
20
134.9518898
11
11.8743903
21
133.7781596
0
LINE
8
DEFAULT_255_1_388
10
11.8743903
20
133.7781596
11
12.4978498
21
133.7781596
0
LINE
8
DEFAULT_255_1_388
10
12.4978498
20
133.7781596
11
12.4978498
21
133.6363
0
LINE
8
DEFAULT_255_1_388
10
12.4978498
20
133.6363
11
11.7000024
21
133.6363
0
LINE
8
DEFAULT_255_1_388
10
11.7000024
20
133.6363
11
11.7000024
21
134.9518898
0
LINE
8
DEFAULT_255_1_388
10
11.7000024
20
134.9518898
11
11.8743903
21
134.9518898
0
LINE
8
DEFAULT_255_1_388
10
13.6489909
20
134.3347553
11
13.6489909
21
134.2516274
0
LINE
8
DEFAULT_255_1_388
10
12.5909169
20
134.2398811
11
12.5909169
21
134.3347553
0
LINE
8
DEFAULT_255_1_388
10
13.4764101
20
134.2389775
11
13.4764101
21
134.3365625
0
LINE
8
DEFAULT_255_1_388
10
12.7634978
20
134.3483088
11
12.7634978
21
134.2516274
0
ARC
8
DEFAULT_255_1_388
10
12.6767648
20
134.2471726
40
0.9722364
50
350.4878118
51
0.2625322
0
ARC
8
DEFAULT_255_1_388
10
12.9347608
20
134.2027994
40
0.7104556
50
336.0277991
51
350.5787241
0
ARC
8
DEFAULT_255_1_388
10
13.0860714
20
134.1344243
40
0.544417
50
319.887443
51
336.1331163
0
ARC
8
DEFAULT_255_1_388
10
13.1538527
20
134.0801733
40
0.4576311
50
302.4806296
51
319.6144102
0
ARC
8
DEFAULT_255_1_388
10
13.1409148
20
134.1051067
40
0.4856183
50
275.8196423
51
302.1885521
0
ARC
8
DEFAULT_255_1_388
10
13.1222009
20
134.2336466
40
0.6154183
50
269.9169897
51
276.339506
0
ARC
8
DEFAULT_255_1_388
10
13.117161
20
134.156468
40
0.5382553
50
252.5221437
51
270.441579
0
ARC
8
DEFAULT_255_1_388
10
13.100986
20
134.0958046
40
0.4755426
50
237.5349961
51
252.1858334
0
ARC
8
DEFAULT_255_1_388
10
13.1110236
20
134.108612
40
0.4917393
50
209.0632754
51
237.3492577
0
ARC
8
DEFAULT_255_1_388
10
13.2089562
20
134.1701104
40
0.6072464
50
205.118533
51
209.6465345
0
ARC
8
DEFAULT_255_1_388
10
13.2985564
20
134.2081174
40
0.7045164
50
188.7216633
51
204.8239753
0
ARC
8
DEFAULT_255_1_388
10
13.523234
20
134.2459387
40
0.9323368
50
180.3722704
51
188.9253909
0
ARC
8
DEFAULT_255_1_388
10
13.5201901
20
134.3392416
40
0.929284
50
169.5253055
51
180.2766048
0
ARC
8
DEFAULT_255_1_388
10
13.30617
20
134.3786024
40
0.7116745
50
155.8314601
51
169.5088611
0
ARC
8
DEFAULT_255_1_388
10
13.1621163
20
134.4454312
40
0.5528904
50
139.6259579
51
156.0379072
0
ARC
8
DEFAULT_255_1_388
10
13.0957697
20
134.4988143
40
0.4677708
50
122.6414784
51
139.3431662
0
ARC
8
DEFAULT_255_1_388
10
13.1070952
20
134.4781787
40
0.4912586
50
93.0224537
51
122.4556091
0
ARC
8
DEFAULT_255_1_388
10
13.1192473
20
134.3695776
40
0.6003837
50
89.9756766
51
93.6340839
0
ARC
8
DEFAULT_255_1_388
10
13.123607
20
134.4144879
40
0.5554884
50
73.7463329
51
90.4234008
0
ARC
8
DEFAULT_255_1_388
10
13.1433543
20
134.4909772
40
0.4765353
50
57.663051
51
73.4516911
0
ARC
8
DEFAULT_255_1_388
10
13.1424581
20
134.4934108
40
0.4749629
50
29.1441355
51
57.4146687
0
ARC
8
DEFAULT_255_1_388
10
13.0372393
20
134.4277046
40
0.5988917
50
24.0985653
51
29.732054
0
ARC
8
DEFAULT_255_1_388
10
12.9210024
20
134.3795154
40
0.7246823
50
8.6654943
51
23.8241215
0
ARC
8
DEFAULT_255_1_388
10
12.6696443
20
134.3385037
40
0.9793537
50
359.7807044
51
8.8218476
0
ARC
8
DEFAULT_255_1_388
10
12.5406147
20
134.3413731
40
0.9358078
50
359.7054632
51
8.0359751
0
ARC
8
DEFAULT_255_1_388
10
12.8781199
20
134.3905252
40
0.5947474
50
7.8926278
51
20.2962188
0
ARC
8
DEFAULT_255_1_388
10
13.0612049
20
134.4580367
40
0.3996117
50
20.3231056
51
36.4990255
0
ARC
8
DEFAULT_255_1_388
10
13.1383346
20
134.5174399
40
0.3022818
50
36.1436715
51
85.6627846
0
ARC
8
DEFAULT_255_1_388
10
13.1200602
20
134.4004881
40
0.4203853
50
84.3845912
51
90.076054
0
ARC
8
DEFAULT_255_1_388
10
13.1152956
20
134.4747416
40
0.346157
50
89.3037228
51
109.9046209
0
ARC
8
DEFAULT_255_1_388
10
13.1048789
20
134.5177379
40
0.3022217
50
110.8229774
51
143.917961
0
ARC
8
DEFAULT_255_1_388
10
13.2099149
20
134.4375455
40
0.434348
50
143.5289166
51
163.2980252
0
ARC
8
DEFAULT_255_1_388
10
13.4245436
20
134.3700685
40
0.659321
50
163.0418884
51
174.3139873
0
ARC
8
DEFAULT_255_1_388
10
13.6950401
20
134.3388378
40
0.9315905
50
174.050934
51
179.4174954
0
ARC
8
DEFAULT_255_1_388
10
13.6382345
20
134.2469382
40
0.8747493
50
179.6928582
51
188.7908948
0
ARC
8
DEFAULT_255_1_388
10
13.3386144
20
134.1990086
40
0.5713262
50
188.6328449
51
202.5630732
0
ARC
8
DEFAULT_255_1_388
10
13.1974981
20
134.1423142
40
0.4192612
50
202.8078931
51
216.1195888
0
ARC
8
DEFAULT_255_1_388
10
13.1064498
20
134.0690479
40
0.3025752
50
215.0755613
51
264.6379773
0
ARC
8
DEFAULT_255_1_388
10
13.1207336
20
134.1625376
40
0.3970284
50
263.8464302
51
270.0830805
0
ARC
8
DEFAULT_255_1_388
10
13.1253881
20
134.1334808
40
0.3679937
50
269.3649295
51
287.5149684
0
ARC
8
DEFAULT_255_1_388
10
13.1454321
20
134.0606714
40
0.2925408
50
288.0629019
51
323.8115617
0
ARC
8
DEFAULT_255_1_388
10
13.0474298
20
134.1337754
40
0.4148018
50
323.6546541
51
342.6591359
0
ARC
8
DEFAULT_255_1_388
10
12.8188955
20
134.208128
40
0.6551163
50
342.4092446
51
353.6451501
0
ARC
8
DEFAULT_255_1_388
10
12.5003749
20
134.2477565
40
0.9760748
50
353.4027553
51
359.4846611
0
LINE
8
DEFAULT_255_1_388
10
14.8805493
20
134.2913842
11
14.8805493
21
133.8088808
0
LINE
8
DEFAULT_255_1_388
10
13.86675
20
134.2308454
11
13.86675
21
134.3455981
0
LINE
8
DEFAULT_255_1_388
10
14.8805493
20
134.5660678
11
14.7070649
21
134.5660678
0
LINE
8
DEFAULT_255_1_388
10
14.0411379
20
134.3501159
11
14.0411379
21
134.2425917
0
LINE
8
DEFAULT_255_1_388
10
14.7079685
20
133.8549626
11
14.7079685
21
134.1504282
0
LINE
8
DEFAULT_255_1_388
10
14.7079685
20
134.1504282
11
14.4034672
21
134.1504282
0
LINE
8
DEFAULT_255_1_388
10
14.4034672
20
134.1504282
11
14.4034672
21
134.2913842
0
LINE
8
DEFAULT_255_1_388
10
14.4034672
20
134.2913842
11
14.8805493
21
134.2913842
0
ARC
8
DEFAULT_255_1_388
10
14.5620093
20
134.0331284
40
0.3895571
50
295.8437277
51
324.8549962
0
ARC
8
DEFAULT_255_1_388
10
14.5152475
20
134.1177619
40
0.4861381
50
291.5691164
51
296.4556269
0
ARC
8
DEFAULT_255_1_388
10
14.4577478
20
134.2713801
40
0.6501442
50
278.6622213
51
291.3047061
0
ARC
8
DEFAULT_255_1_388
10
14.419551
20
134.5130557
40
0.8948168
50
270.0200506
51
278.7494673
0
ARC
8
DEFAULT_255_1_388
10
14.4151714
20
134.6976453
40
1.0794166
50
270.0022372
51
270.2490917
0
ARC
8
DEFAULT_255_1_388
10
14.4109606
20
134.2017827
40
0.5835695
50
253.5785313
51
270.4175629
0
ARC
8
DEFAULT_255_1_388
10
14.3914603
20
134.1262625
40
0.5056241
50
238.8203954
51
253.2788387
0
ARC
8
DEFAULT_255_1_388
10
14.3892518
20
134.1205224
40
0.4995712
50
206.7883476
51
238.696262
0
ARC
8
DEFAULT_255_1_388
10
14.4767914
20
134.1729847
40
0.6014056
50
206.1137778
51
207.4912776
0
ARC
8
DEFAULT_255_1_388
10
14.543475
20
134.2013284
40
0.6737692
50
188.6922336
51
205.782076
0
ARC
8
DEFAULT_255_1_388
10
14.7523109
20
134.2368455
40
0.8855812
50
180.3881972
51
188.9218085
0
ARC
8
DEFAULT_255_1_388
10
14.8904267
20
134.3519622
40
1.0236965
50
170.2024645
51
180.3561986
0
ARC
8
DEFAULT_255_1_388
10
14.5345417
20
134.4156101
40
0.6621746
50
154.2856519
51
170.3893388
0
ARC
8
DEFAULT_255_1_388
10
14.390338
20
134.4816192
40
0.5036209
50
139.8400879
51
153.9334639
0
ARC
8
DEFAULT_255_1_388
10
14.3499284
20
134.5139716
40
0.4518751
50
98.4190017
51
139.6707015
0
ARC
8
DEFAULT_255_1_388
10
14.3926252
20
134.3063755
40
0.6635912
50
89.7660128
51
99.4415389
0
ARC
8
DEFAULT_255_1_388
10
14.3999648
20
134.3137517
40
0.6562258
50
78.0552044
51
90.4042252
0
ARC
8
DEFAULT_255_1_388
10
14.4454712
20
134.5183661
40
0.4466287
50
54.6380186
51
78.3338577
0
ARC
8
DEFAULT_255_1_388
10
14.466901
20
134.5544444
40
0.4048184
50
50.0313964
51
54.1562739
0
ARC
8
DEFAULT_255_1_388
10
14.4547904
20
134.5435798
40
0.4209308
50
18.1092229
51
49.7179911
0
ARC
8
DEFAULT_255_1_388
10
14.2908984
20
134.4835399
40
0.5953982
50
7.967396
51
18.698492
0
ARC
8
DEFAULT_255_1_388
10
14.3078245
20
134.4974236
40
0.4050986
50
9.7558763
51
27.3214087
0
ARC
8
DEFAULT_255_1_388
10
14.434671
20
134.5608087
40
0.2633168
50
27.736147
51
84.5257861
0
ARC
8
DEFAULT_255_1_388
10
14.3978119
20
134.3758988
40
0.4513019
50
82.1064239
51
90.1997295
0
ARC
8
DEFAULT_255_1_388
10
14.3922135
20
134.4330501
40
0.3941684
50
89.4148952
51
105.5824837
0
ARC
8
DEFAULT_255_1_388
10
14.3633016
20
134.5383043
40
0.2850167
50
105.6678541
51
144.2649156
0
ARC
8
DEFAULT_255_1_388
10
14.4637909
20
134.4668024
40
0.4083468
50
144.3560675
51
162.8564185
0
ARC
8
DEFAULT_255_1_388
10
14.6982351
20
134.3915083
40
0.6545749
50
162.6076338
51
173.6779811
0
ARC
8
DEFAULT_255_1_388
10
15.0426466
20
134.3496422
40
1.0015089
50
173.4670996
51
179.9729015
0
ARC
8
DEFAULT_255_1_388
10
14.8279337
20
134.2378636
40
0.78681
50
179.6556955
51
190.007958
0
ARC
8
DEFAULT_255_1_388
10
14.5673618
20
134.190066
40
0.5218997
50
189.8117884
51
206.6795375
0
ARC
8
DEFAULT_255_1_388
10
14.4723064
20
134.1457514
40
0.4170788
50
207.1031171
51
217.7074698
0
ARC
8
DEFAULT_255_1_388
10
14.4009495
20
134.0836596
40
0.3226945
50
216.7345117
51
265.6812141
0
ARC
8
DEFAULT_255_1_388
10
14.4156637
20
134.185403
40
0.4253149
50
264.7367524
51
270.0610826
0
ARC
8
DEFAULT_255_1_388
10
14.4182823
20
134.5049173
40
0.7448321
50
269.8334494
51
276.0538364
0
ARC
8
DEFAULT_255_1_388
10
14.4415685
20
134.2909924
40
0.5296446
50
275.9894423
51
284.4615914
0
ARC
8
DEFAULT_255_1_388
10
14.4637198
20
134.197757
40
0.4338353
50
284.7038488
51
286.4938196
0
ARC
8
DEFAULT_255_1_388
10
14.5096347
20
134.0498371
40
0.2789738
50
286.0770429
51
304.2629628
0
ARC
8
DEFAULT_255_1_388
10
14.5246505
20
134.025268
40
0.2502188
50
304.5886247
51
317.1074126
0
LINE
8
DEFAULT_255_1_388
10
16.1816821
20
134.3347553
11
16.1816821
21
134.2516274
0
LINE
8
DEFAULT_255_1_388
10
15.1236081
20
134.2398811
11
15.1236081
21
134.3347553
0
LINE
8
DEFAULT_255_1_388
10
16.0091013
20
134.2389775
11
16.0091013
21
134.3365625
0
LINE
8
DEFAULT_255_1_388
10
15.2961889
20
134.3483088
11
15.2961889
21
134.2516274
0
ARC
8
DEFAULT_255_1_388
10
15.2094559
20
134.2471726
40
0.9722364
50
350.4878118
51
0.2625322
0
ARC
8
DEFAULT_255_1_388
10
15.4674519
20
134.2027994
40
0.7104556
50
336.0277991
51
350.5787241
0
ARC
8
DEFAULT_255_1_388
10
15.6187626
20
134.1344243
40
0.544417
50
319.887443
51
336.1331163
0
ARC
8
DEFAULT_255_1_388
10
15.6865438
20
134.0801733
40
0.4576311
50
302.4806296
51
319.6144102
0
ARC
8
DEFAULT_255_1_388
10
15.6736059
20
134.1051067
40
0.4856183
50
275.8196423
51
302.1885521
0
ARC
8
DEFAULT_255_1_388
10
15.6548921
20
134.2336466
40
0.6154183
50
269.9169897
51
276.339506
0
ARC
8
DEFAULT_255_1_388
10
15.6498521
20
134.156468
40
0.5382553
50
252.5221437
51
270.441579
0
ARC
8
DEFAULT_255_1_388
10
15.6336772
20
134.0958046
40
0.4755426
50
237.5349961
51
252.1858334
0
ARC
8
DEFAULT_255_1_388
10
15.6437148
20
134.108612
40
0.4917393
50
209.0632754
51
237.3492577
0
ARC
8
DEFAULT_255_1_388
10
15.7416474
20
134.1701104
40
0.6072464
50
205.118533
51
209.6465345
0
ARC
8
DEFAULT_255_1_388
10
15.8312476
20
134.2081174
40
0.7045164
50
188.7216633
51
204.8239753
0
ARC
8
DEFAULT_255_1_388
10
16.0559251
20
134.2459387
40
0.9323368
50
180.3722704
51
188.9253909
0
ARC
8
DEFAULT_255_1_388
10
16.0528813
20
134.3392416
40
0.929284
50
169.5253055
51
180.2766048
0
ARC
8
DEFAULT_255_1_388
10
15.8388612
20
134.3786024
40
0.7116745
50
155.8314601
51
169.5088611
0
ARC
8
DEFAULT_255_1_388
10
15.6948075
20
134.4454312
40
0.5528904
50
139.6259579
51
156.0379072
0
ARC
8
DEFAULT_255_1_388
10
15.6284608
20
134.4988143
40
0.4677708
50
122.6414784
51
139.3431662
0
ARC
8
DEFAULT_255_1_388
10
15.6397863
20
134.4781787
40
0.4912586
50
93.0224537
51
122.4556091
0
ARC
8
DEFAULT_255_1_388
10
15.6519384
20
134.3695776
40
0.6003837
50
89.9756766
51
93.6340839
0
ARC
8
DEFAULT_255_1_388
10
15.6562982
20
134.4144879
40
0.5554884
50
73.7463329
51
90.4234008
0
ARC
8
DEFAULT_255_1_388
10
15.6760455
20
134.4909772
40
0.4765353
50
57.663051
51
73.4516911
0
ARC
8
DEFAULT_255_1_388
10
15.6751493
20
134.4934108
40
0.4749629
50
29.1441355
51
57.4146687
0
ARC
8
DEFAULT_255_1_388
10
15.5699304
20
134.4277046
40
0.5988917
50
24.0985653
51
29.732054
0
ARC
8
DEFAULT_255_1_388
10
15.4536936
20
134.3795154
40
0.7246823
50
8.6654943
51
23.8241215
0
ARC
8
DEFAULT_255_1_388
10
15.2023354
20
134.3385037
40
0.9793537
50
359.7807044
51
8.8218476
0
ARC
8
DEFAULT_255_1_388
10
15.0733059
20
134.3413731
40
0.9358078
50
359.7054632
51
8.0359751
0
ARC
8
DEFAULT_255_1_388
10
15.410811
20
134.3905252
40
0.5947474
50
7.8926278
51
20.2962188
0
ARC
8
DEFAULT_255_1_388
10
15.593896
20
134.4580367
40
0.3996117
50
20.3231056
51
36.4990255
0
ARC
8
DEFAULT_255_1_388
10
15.6710258
20
134.5174399
40
0.3022818
50
36.1436715
51
85.6627846
0
ARC
8
DEFAULT_255_1_388
10
15.6527513
20
134.4004881
40
0.4203853
50
84.3845912
51
90.076054
0
ARC
8
DEFAULT_255_1_388
10
15.6479868
20
134.4747416
40
0.346157
50
89.3037228
51
109.9046209
0
ARC
8
DEFAULT_255_1_388
10
15.6375701
20
134.5177379
40
0.3022217
50
110.8229774
51
143.917961
0
ARC
8
DEFAULT_255_1_388
10
15.742606
20
134.4375455
40
0.434348
50
143.5289166
51
163.2980252
0
ARC
8
DEFAULT_255_1_388
10
15.9572347
20
134.3700685
40
0.659321
50
163.0418884
51
174.3139873
0
ARC
8
DEFAULT_255_1_388
10
16.2277312
20
134.3388378
40
0.9315905
50
174.050934
51
179.4174954
0
ARC
8
DEFAULT_255_1_388
10
16.1709256
20
134.2469382
40
0.8747493
50
179.6928582
51
188.7908948
0
ARC
8
DEFAULT_255_1_388
10
15.8713056
20
134.1990086
40
0.5713262
50
188.6328449
51
202.5630732
0
ARC
8
DEFAULT_255_1_388
10
15.7301893
20
134.1423142
40
0.4192612
50
202.8078931
51
216.1195888
0
ARC
8
DEFAULT_255_1_388
10
15.639141
20
134.0690479
40
0.3025752
50
215.0755613
51
264.6379773
0
ARC
8
DEFAULT_255_1_388
10
15.6534247
20
134.1625376
40
0.3970284
50
263.8464302
51
270.0830805
0
ARC
8
DEFAULT_255_1_388
10
15.6580792
20
134.1334808
40
0.3679937
50
269.3649295
51
287.5149684
0
ARC
8
DEFAULT_255_1_388
10
15.6781233
20
134.0606714
40
0.2925408
50
288.0629019
51
323.8115617
0
ARC
8
DEFAULT_255_1_388
10
15.5801209
20
134.1337754
40
0.4148018
50
323.6546541
51
342.6591359
0
ARC
8
DEFAULT_255_1_388
10
15.3515867
20
134.208128
40
0.6551163
50
342.4092446
51
353.6451501
0
ARC
8
DEFAULT_255_1_388
10
15.033066
20
134.2477565
40
0.9760748
50
353.4027553
51
359.4846611
0
LINE
8
DEFAULT_255_1_388
10
16.615393
20
134.9518898
11
16.6027431
21
134.007665
0
LINE
8
DEFAULT_255_1_388
10
16.6027431
20
134.007665
11
16.4518479
21
134.007665
0
LINE
8
DEFAULT_255_1_388
10
16.4518479
20
134.007665
11
16.4401015
21
134.9518898
0
LINE
8
DEFAULT_255_1_388
10
16.4401015
20
134.9518898
11
16.615393
21
134.9518898
0
ARC
8
DEFAULT_255_1_388
10
16.5436523
20
133.721367
40
0.1098807
50
162.1590611
51
180.5399346
0
ARC
8
DEFAULT_255_1_388
10
16.5277195
20
133.7257402
40
0.0933768
50
137.7277365
51
161.7181922
0
ARC
8
DEFAULT_255_1_388
10
16.5169778
20
133.7351029
40
0.0791313
50
105.0575066
51
137.5123887
0
ARC
8
DEFAULT_255_1_388
10
16.5293898
20
133.6933042
40
0.1227245
50
92.079604
51
105.5836659
0
ARC
8
DEFAULT_255_1_388
10
16.5322016
20
133.652528
40
0.1635813
50
89.9777561
51
92.5455333
0
ARC
8
DEFAULT_255_1_388
10
16.533328
20
133.6785026
40
0.1376108
50
78.2146238
51
90.4425575
0
ARC
8
DEFAULT_255_1_388
10
16.5437299
20
133.7260893
40
0.0889038
50
56.0846294
51
78.513157
0
ARC
8
DEFAULT_255_1_388
10
16.5500481
20
133.7369062
40
0.076406
50
42.5256948
51
55.4905267
0
ARC
8
DEFAULT_255_1_388
10
16.536106
20
133.7240025
40
0.0954029
50
2.3979246
51
42.5772935
0
ARC
8
DEFAULT_255_1_388
10
16.5066548
20
133.720385
40
0.1250024
50
359.9754749
51
3.4898669
0
ARC
8
DEFAULT_255_1_388
10
16.5244119
20
133.7193134
40
0.1072501
50
342.7080553
51
0.5438816
0
ARC
8
DEFAULT_255_1_388
10
16.5422247
20
133.7144231
40
0.0887911
50
316.2437112
51
342.3044844
0
ARC
8
DEFAULT_255_1_388
10
16.5482199
20
133.709135
40
0.0808041
50
285.5329375
51
316.0120478
0
ARC
8
DEFAULT_255_1_388
10
16.5356013
20
133.7507841
40
0.1243152
50
272.5951018
51
285.9959118
0
ARC
8
DEFAULT_255_1_388
10
16.5323685
20
133.7932497
40
0.1668889
50
269.9645002
51
273.0437198
0
ARC
8
DEFAULT_255_1_388
10
16.5312475
20
133.7689444
40
0.1425873
50
259.0276379
51
270.4088926
0
ARC
8
DEFAULT_255_1_388
10
16.5210974
20
133.7188669
40
0.0914943
50
239.4136983
51
259.2987891
0
ARC
8
DEFAULT_255_1_388
10
16.5128643
20
133.7036076
40
0.0741718
50
223.0069967
51
238.8908794
0
ARC
8
DEFAULT_255_1_388
10
16.5257992
20
133.7154672
40
0.0917202
50
184.7846131
51
222.91318
0
ARC
8
DEFAULT_255_1_388
10
16.5567616
20
133.7201692
40
0.122985
50
179.9244007
51
185.7644089
0
LINE
8
DEFAULT_255_1_388
10
4.1665903
20
132.9674898
11
4.1665903
21
131.7937596
0
LINE
8
DEFAULT_255_1_388
10
4.1665903
20
131.7937596
11
4.7900498
21
131.7937596
0
LINE
8
DEFAULT_255_1_388
10
4.7900498
20
131.7937596
11
4.7900498
21
131.6519
0
LINE
8
DEFAULT_255_1_388
10
4.7900498
20
131.6519
11
3.9922024
21
131.6519
0
LINE
8
DEFAULT_255_1_388
10
3.9922024
20
131.6519
11
3.9922024
21
132.9674898
0
LINE
8
DEFAULT_255_1_388
10
3.9922024
20
132.9674898
11
4.1665903
21
132.9674898
0
LINE
8
DEFAULT_255_1_388
10
5.4939265
20
132.9738148
11
5.4939265
21
131.6519
0
LINE
8
DEFAULT_255_1_388
10
5.4939265
20
131.6519
11
5.3258635
21
131.6519
0
LINE
8
DEFAULT_255_1_388
10
5.3258635
20
131.6519
11
5.3258635
21
132.765995
0
LINE
8
DEFAULT_255_1_388
10
5.3258635
20
132.765995
11
4.988834
21
132.6422066
0
LINE
8
DEFAULT_255_1_388
10
4.988834
20
132.6422066
11
4.988834
21
132.7940055
0
LINE
8
DEFAULT_255_1_388
10
4.988834
20
132.7940055
11
5.4677231
21
132.9738148
0
LINE
8
DEFAULT_255_1_388
10
5.4677231
20
132.9738148
11
5.4939265
21
132.9738148
0
LINE
8
DEFAULT_255_1_388
10
4.1848367
20
69.4674898
11
4.1848367
21
68.1519
0
LINE
8
DEFAULT_255_1_388
10
4.1848367
20
68.1519
11
4.0113523
21
68.1519
0
LINE
8
DEFAULT_255_1_388
10
4.0113523
20
68.1519
11
4.0113523
21
69.4674898
0
LINE
8
DEFAULT_255_1_388
10
4.0113523
20
69.4674898
11
4.1848367
21
69.4674898
0
ARC
8
DEFAULT_255_1_388
10
4.9389672
20
69.121272
40
0.3175098
50
338.8762533
51
0.5167111
0
ARC
8
DEFAULT_255_1_388
10
4.9579266
20
69.11616
40
0.2979894
50
325.8415285
51
338.4793574
0
ARC
8
DEFAULT_255_1_388
10
4.91399
20
69.1466242
40
0.351452
50
296.7587686
51
325.7536481
0
ARC
8
DEFAULT_255_1_388
10
4.8811527
20
69.2020363
40
0.4157374
50
296.0927901
51
297.3613472
0
ARC
8
DEFAULT_255_1_388
10
4.9105723
20
68.4637593
40
0.395855
50
47.9007294
51
67.1948823
0
ARC
8
DEFAULT_255_1_388
10
4.9326365
20
68.4914599
40
0.360516
50
35.2363914
51
47.551141
0
ARC
8
DEFAULT_255_1_388
10
4.9620769
20
68.5111093
40
0.3251343
50
359.2759765
51
35.4014143
0
ARC
8
DEFAULT_255_1_388
10
4.8782695
20
68.5028787
40
0.4089365
50
343.1293083
51
0.5775513
0
ARC
8
DEFAULT_255_1_388
10
4.9597809
20
68.4804336
40
0.3244269
50
310.8496669
51
342.7449331
0
ARC
8
DEFAULT_255_1_388
10
4.9127683
20
68.5340913
40
0.3957651
50
281.5472888
51
310.9170406
0
ARC
8
DEFAULT_255_1_388
10
4.8726558
20
68.7087814
40
0.5749654
50
269.619248
51
281.9789564
0
ARC
8
DEFAULT_255_1_388
10
4.8645336
20
68.7088776
40
0.5750649
50
257.4585678
51
270.4285689
0
ARC
8
DEFAULT_255_1_388
10
4.8216856
20
68.5284741
40
0.389671
50
228.7554326
51
257.8484789
0
ARC
8
DEFAULT_255_1_388
10
4.7868341
20
68.4865228
40
0.335154
50
184.0104975
51
228.5071184
0
ARC
8
DEFAULT_255_1_388
10
4.9176734
20
68.506443
40
0.4671891
50
179.9315832
51
185.3253753
0
ARC
8
DEFAULT_255_1_388
10
4.7853246
20
68.5106592
40
0.33486
50
145.6796023
51
180.6259786
0
ARC
8
DEFAULT_255_1_388
10
4.8037012
20
68.4978271
40
0.3572723
50
115.5537685
51
145.6415986
0
ARC
8
DEFAULT_255_1_388
10
4.8420056
20
68.4292087
40
0.4357296
50
113.243307
51
116.2057839
0
ARC
8
DEFAULT_255_1_388
10
4.8248708
20
69.1489379
40
0.3549126
50
222.9549744
51
244.1370481
0
ARC
8
DEFAULT_255_1_388
10
4.8111351
20
69.1335378
40
0.3343711
50
213.3436887
51
222.6274467
0
ARC
8
DEFAULT_255_1_388
10
4.789542
20
69.1188653
40
0.3082678
50
180.431584
51
213.271499
0
ARC
8
DEFAULT_255_1_388
10
4.8530419
20
69.1241296
40
0.3718363
50
179.9991191
51
181.1690594
0
ARC
8
DEFAULT_255_1_388
10
4.9002875
20
69.1280072
40
0.4190996
50
164.6186169
51
180.529336
0
ARC
8
DEFAULT_255_1_388
10
4.7992524
20
69.155178
40
0.3144772
50
132.2455553
51
164.5090724
0
ARC
8
DEFAULT_255_1_388
10
4.8315503
20
69.118607
40
0.3632644
50
100.7053914
51
132.1386381
0
ARC
8
DEFAULT_255_1_388
10
4.8658564
20
68.9636118
40
0.5219578
50
89.6730358
51
101.2451698
0
ARC
8
DEFAULT_255_1_388
10
4.8728555
20
68.9832648
40
0.5023124
50
76.287748
51
90.4586006
0
ARC
8
DEFAULT_255_1_388
10
4.9073057
20
69.1207671
40
0.3605639
50
47.8240511
51
76.4266241
0
ARC
8
DEFAULT_255_1_388
10
4.9323441
20
69.1500599
40
0.3220463
50
6.9168387
51
47.6262497
0
ARC
8
DEFAULT_255_1_388
10
4.7988894
20
69.1254004
40
0.4575765
50
359.8415968
51
7.9697453
0
ARC
8
DEFAULT_255_1_388
10
4.8373164
20
68.5133519
40
0.2827228
50
359.445363
51
16.9256873
0
ARC
8
DEFAULT_255_1_388
10
4.8900598
20
68.5278781
40
0.2280396
50
17.2920767
51
45.4630727
0
ARC
8
DEFAULT_255_1_388
10
4.8839733
20
68.5226324
40
0.2360485
50
45.30305
51
83.1920945
0
ARC
8
DEFAULT_255_1_388
10
4.8678478
20
68.4324473
40
0.3275527
50
82.2612665
51
90.1434275
0
ARC
8
DEFAULT_255_1_388
10
4.8643754
20
68.4586869
40
0.3013237
50
89.4956434
51
104.8580688
0
ARC
8
DEFAULT_255_1_388
10
4.8444944
20
68.5340455
40
0.2233867
50
104.8856641
51
135.244616
0
ARC
8
DEFAULT_255_1_388
10
4.8500933
20
68.5290352
40
0.2308906
50
135.3399546
51
172.1044062
0
ARC
8
DEFAULT_255_1_388
10
4.9408457
20
68.5116667
40
0.3232034
50
171.2645637
51
180.186429
0
ARC
8
DEFAULT_255_1_388
10
4.9218462
20
68.5080426
40
0.304213
50
179.5154935
51
193.6464289
0
ARC
8
DEFAULT_255_1_388
10
4.8300138
20
68.4846473
40
0.209456
50
193.3540274
51
225.8258581
0
ARC
8
DEFAULT_255_1_388
10
4.834601
20
68.4926076
40
0.2183738
50
226.4180634
51
255.8552336
0
ARC
8
DEFAULT_255_1_388
10
4.8634477
20
68.5979521
40
0.3275812
50
255.4654104
51
268.7987425
0
ARC
8
DEFAULT_255_1_388
10
4.8687653
20
68.6921545
40
0.4218877
50
268.3449238
51
270.0094605
0
ARC
8
DEFAULT_255_1_388
10
4.8713886
20
68.6153094
40
0.3450519
50
269.5759586
51
282.0820163
0
ARC
8
DEFAULT_255_1_388
10
4.8966923
20
68.5034363
40
0.2303642
50
281.752014
51
306.6056188
0
ARC
8
DEFAULT_255_1_388
10
4.9077731
20
68.4852802
40
0.2091906
50
307.1346085
51
314.027845
0
ARC
8
DEFAULT_255_1_388
10
4.9037243
20
68.4882459
40
0.2141385
50
314.2552483
51
350.1694025
0
ARC
8
DEFAULT_255_1_388
10
4.807948
20
68.5090175
40
0.312082
50
349.4140529
51
0.2933014
0
ARC
8
DEFAULT_255_1_388
10
4.8664757
20
69.0893924
40
0.2588377
50
89.477747
51
105.729729
0
ARC
8
DEFAULT_255_1_388
10
4.8511677
20
69.1462367
40
0.1999733
50
105.9233417
51
135.1660906
0
ARC
8
DEFAULT_255_1_388
10
4.8534708
20
69.1446412
40
0.2027322
50
135.3052302
51
168.9883645
0
ARC
8
DEFAULT_255_1_388
10
4.9465724
20
69.1232996
40
0.2982129
50
168.3801673
51
180.3602268
0
ARC
8
DEFAULT_255_1_388
10
4.9208841
20
69.1190622
40
0.2725291
50
179.5033122
51
194.9125571
0
ARC
8
DEFAULT_255_1_388
10
4.8550248
20
69.1017427
40
0.204431
50
194.9720816
51
224.194444
0
ARC
8
DEFAULT_255_1_388
10
4.8518613
20
69.0991635
40
0.2003651
50
224.2962453
51
262.015664
0
ARC
8
DEFAULT_255_1_388
10
4.8678617
20
69.1814315
40
0.2840925
50
261.1245923
51
270.1962896
0
ARC
8
DEFAULT_255_1_388
10
4.8712098
20
69.1603859
40
0.2630559
50
269.4827276
51
285.0987215
0
ARC
8
DEFAULT_255_1_388
10
4.8885534
20
69.0953175
40
0.1957162
50
285.1585357
51
315.9484501
0
ARC
8
DEFAULT_255_1_388
10
4.8785408
20
69.1045315
40
0.2093195
50
316.0413965
51
351.916092
0
ARC
8
DEFAULT_255_1_388
10
4.7960782
20
69.1204323
40
0.2932279
50
351.105835
51
0.1939062
0
ARC
8
DEFAULT_255_1_388
10
4.8256416
20
69.1238224
40
0.2636739
50
359.4789618
51
16.0678224
0
ARC
8
DEFAULT_255_1_388
10
4.8791888
20
69.1382721
40
0.2082215
50
16.3252067
51
44.7913869
0
ARC
8
DEFAULT_255_1_388
10
4.877195
20
69.138332
40
0.2095992
50
44.3957814
51
88.2499162
0
ARC
8
DEFAULT_255_1_388
10
4.8689285
20
69.0695006
40
0.2787189
50
86.9833854
51
90.0192215
0
LINE
8
DEFAULT_255_1_388
10
4.1848367
20
77.4049898
11
4.1848367
21
76.0894
0
LINE
8
DEFAULT_255_1_388
10
4.1848367
20
76.0894
11
4.0113523
21
76.0894
0
LINE
8
DEFAULT_255_1_388
10
4.0113523
20
76.0894
11
4.0113523
21
77.4049898
0
LINE
8
DEFAULT_255_1_388
10
4.0113523
20
77.4049898
11
4.1848367
21
77.4049898
0
LINE
8
DEFAULT_255_1_388
10
5.3079673
20
77.4049898
11
5.3079673
21
77.3110191
0
LINE
8
DEFAULT_255_1_388
10
5.3079673
20
77.3110191
11
4.7631179
21
76.0894
0
LINE
8
DEFAULT_255_1_388
10
4.7631179
20
76.0894
11
4.5878264
21
76.0894
0
LINE
8
DEFAULT_255_1_388
10
4.5878264
20
76.0894
11
5.1308687
21
77.267648
0
LINE
8
DEFAULT_255_1_388
10
5.1308687
20
77.267648
11
4.4188599
21
77.267648
0
LINE
8
DEFAULT_255_1_388
10
4.4188599
20
77.267648
11
4.4188599
21
77.4049898
0
LINE
8
DEFAULT_255_1_388
10
4.4188599
20
77.4049898
11
5.3079673
21
77.4049898
0
LINE
8
DEFAULT_255_1_388
10
4.1848367
20
85.3424898
11
4.1848367
21
84.0269
0
LINE
8
DEFAULT_255_1_388
10
4.1848367
20
84.0269
11
4.0113523
21
84.0269
0
LINE
8
DEFAULT_255_1_388
10
4.0113523
20
84.0269
11
4.0113523
21
85.3424898
0
LINE
8
DEFAULT_255_1_388
10
4.0113523
20
85.3424898
11
4.1848367
21
85.3424898
0
LINE
8
DEFAULT_255_1_388
10
5.0847869
20
85.3433934
11
5.1146045
21
85.3433934
0
LINE
8
DEFAULT_255_1_388
10
5.1146045
20
85.3433934
11
5.1146045
21
85.2015338
0
LINE
8
DEFAULT_255_1_388
10
5.1146045
20
85.2015338
11
5.0838833
21
85.2015338
0
LINE
8
DEFAULT_255_1_388
10
4.4685559
20
84.5274747
11
4.4685559
21
84.5916278
0
LINE
8
DEFAULT_255_1_388
10
4.6366189
20
84.5699422
11
4.6366189
21
84.5084999
0
ARC
8
DEFAULT_255_1_388
10
5.0897725
20
84.6392826
40
0.562282
50
90.6001079
51
104.5146616
0
ARC
8
DEFAULT_255_1_388
10
5.0460684
20
84.80181
40
0.3939917
50
104.2855758
51
133.8630124
0
ARC
8
DEFAULT_255_1_388
10
5.0644937
20
84.7896243
40
0.4155734
50
134.5304124
51
161.6210222
0
ARC
8
DEFAULT_255_1_388
10
5.2504869
20
84.7240421
40
0.6127682
50
161.2850533
51
174.2074364
0
ARC
8
DEFAULT_255_1_388
10
5.4094436
20
84.7021437
40
0.7731446
50
173.7817938
51
174.9251711
0
ARC
8
DEFAULT_255_1_388
10
4.8968629
20
84.546627
40
0.3412588
50
95.8332067
51
138.995412
0
ARC
8
DEFAULT_255_1_388
10
4.921991
20
84.4027695
40
0.4870358
50
89.8755506
51
97.0540979
0
ARC
8
DEFAULT_255_1_388
10
4.9273299
20
84.4967841
40
0.3930432
50
71.6407016
51
90.6240821
0
ARC
8
DEFAULT_255_1_388
10
4.9442692
20
84.5591433
40
0.3285421
50
39.6368051
51
71.0190743
0
ARC
8
DEFAULT_255_1_388
10
4.87266
20
84.4972586
40
0.4231706
50
10.6588054
51
39.9044509
0
ARC
8
DEFAULT_255_1_388
10
4.6985145
20
84.4594223
40
0.60133
50
359.6827842
51
11.1326896
0
ARC
8
DEFAULT_255_1_388
10
4.6940481
20
84.4514715
40
0.6058047
50
347.2485908
51
0.4371098
0
ARC
8
DEFAULT_255_1_388
10
4.8816267
20
84.4063379
40
0.4128987
50
318.1408565
51
347.6118497
0
ARC
8
DEFAULT_255_1_388
10
4.9181863
20
84.3762903
40
0.3656244
50
275.6342406
51
317.824739
0
ARC
8
DEFAULT_255_1_388
10
4.8933384
20
84.5224827
40
0.513655
50
269.8872513
51
276.7916069
0
ARC
8
DEFAULT_255_1_388
10
4.8871577
20
84.4071181
40
0.398323
50
246.9139443
51
270.7436787
0
ARC
8
DEFAULT_255_1_388
10
4.8878773
20
84.3911044
40
0.3839368
50
218.1665534
51
245.8780431
0
ARC
8
DEFAULT_255_1_388
10
4.9868145
20
84.4738903
40
0.5128958
50
191.4115343
51
218.6077624
0
ARC
8
DEFAULT_255_1_388
10
5.2048461
20
84.5227777
40
0.7363054
50
179.6344971
51
191.7836758
0
ARC
8
DEFAULT_255_1_388
10
5.8328336
20
84.5991495
40
1.3642984
50
171.4523743
51
180.3158856
0
ARC
8
DEFAULT_255_1_388
10
5.3384063
20
84.6760895
40
0.8639311
50
157.9802296
51
171.6246761
0
ARC
8
DEFAULT_255_1_388
10
5.0893413
20
84.7754038
40
0.5958004
50
141.4299236
51
157.8541251
0
ARC
8
DEFAULT_255_1_388
10
5.0171497
20
84.8264746
40
0.5075416
50
102.871586
51
140.8564533
0
ARC
8
DEFAULT_255_1_388
10
5.0900049
20
84.5519943
40
0.7914163
50
90.377773
51
103.5868422
0
ARC
8
DEFAULT_255_1_388
10
4.8944571
20
84.4839543
40
0.2667015
50
89.8751238
51
126.2072139
0
ARC
8
DEFAULT_255_1_388
10
4.8996042
20
84.4665847
40
0.2838229
50
124.9742447
51
144.8960197
0
ARC
8
DEFAULT_255_1_388
10
4.8798287
20
84.4826981
40
0.2583845
50
145.2974778
51
160.2660922
0
ARC
8
DEFAULT_255_1_388
10
5.2254775
20
84.5049151
40
0.5888695
50
179.6512124
51
190.285571
0
ARC
8
DEFAULT_255_1_388
10
5.0349255
20
84.4689968
40
0.3949683
50
190.0944895
51
207.5099647
0
ARC
8
DEFAULT_255_1_388
10
4.9712836
20
84.4387177
40
0.3245464
50
207.9585471
51
216.325377
0
ARC
8
DEFAULT_255_1_388
10
4.9330473
20
84.4072712
40
0.2751259
50
215.7661336
51
232.5457193
0
ARC
8
DEFAULT_255_1_388
10
4.8899589
20
84.3525273
40
0.2054668
50
232.8005815
51
270.6605497
0
ARC
8
DEFAULT_255_1_388
10
4.8951014
20
84.3934853
40
0.2464268
50
269.3550767
51
288.474612
0
ARC
8
DEFAULT_255_1_388
10
4.9055521
20
84.3541721
40
0.2058436
50
289.1831976
51
322.9685307
0
ARC
8
DEFAULT_255_1_388
10
4.8367622
20
84.4084279
40
0.2934408
50
322.6007085
51
346.5183319
0
ARC
8
DEFAULT_255_1_388
10
4.7065378
20
84.4416434
40
0.4278249
50
346.2584622
51
358.7739592
0
ARC
8
DEFAULT_255_1_388
10
4.5913954
20
84.4478829
40
0.5430876
50
358.3757628
51
0.0082477
0
ARC
8
DEFAULT_255_1_388
10
4.6770772
20
84.4509856
40
0.4574157
50
359.6211417
51
11.28403
0
ARC
8
DEFAULT_255_1_388
10
4.8207378
20
84.4809535
40
0.3106708
50
11.0483152
51
31.8145585
0
ARC
8
DEFAULT_255_1_388
10
4.8555084
20
84.4998045
40
0.2711963
50
32.3028554
51
38.0820598
0
ARC
8
DEFAULT_255_1_388
10
4.9028316
20
84.5426717
40
0.2075566
50
36.8249851
51
85.741667
0
ARC
8
DEFAULT_255_1_388
10
4.8952729
20
84.4863065
40
0.2643487
50
85.0150021
51
90.050843
0
LINE
8
DEFAULT_255_1_388
10
4.1848367
20
93.2799898
11
4.1848367
21
91.9644
0
LINE
8
DEFAULT_255_1_388
10
4.1848367
20
91.9644
11
4.0113523
21
91.9644
0
LINE
8
DEFAULT_255_1_388
10
4.0113523
20
91.9644
11
4.0113523
21
93.2799898
0
LINE
8
DEFAULT_255_1_388
10
4.0113523
20
93.2799898
11
4.1848367
21
93.2799898
0
LINE
8
DEFAULT_255_1_388
10
4.6691472
20
92.5896666
11
4.5354197
21
92.6240021
0
LINE
8
DEFAULT_255_1_388
10
4.5354197
20
92.6240021
11
4.6022834
21
93.2799898
0
LINE
8
DEFAULT_255_1_388
10
4.6022834
20
93.2799898
11
5.2763425
21
93.2799898
0
LINE
8
DEFAULT_255_1_388
10
5.2763425
20
93.2799898
11
5.2763425
21
93.1254803
0
LINE
8
DEFAULT_255_1_388
10
5.2763425
20
93.1254803
11
4.7441431
21
93.1254803
0
LINE
8
DEFAULT_255_1_388
10
4.7441431
20
93.1254803
11
4.7043862
21
92.7667652
0
LINE
8
DEFAULT_255_1_388
10
4.4884343
20
92.3104652
11
4.6465581
21
92.3104652
0
LINE
8
DEFAULT_255_1_388
10
4.7134219
20
92.6258092
11
4.6691472
21
92.5896666
0
ARC
8
DEFAULT_255_1_388
10
4.9130476
20
92.4090241
40
0.4141476
50
93.7181681
51
120.253934
0
ARC
8
DEFAULT_255_1_388
10
4.9236528
20
92.3181284
40
0.5055616
50
89.9660471
51
94.2495185
0
ARC
8
DEFAULT_255_1_388
10
4.928235
20
92.3844154
40
0.4392953
50
73.8045384
51
90.5585736
0
ARC
8
DEFAULT_255_1_388
10
4.9546608
20
92.480952
40
0.3392225
50
41.3071072
51
73.543002
0
ARC
8
DEFAULT_255_1_388
10
4.9078428
20
92.4406461
40
0.4009977
50
13.5075837
51
41.2174839
0
ARC
8
DEFAULT_255_1_388
10
4.7231525
20
92.3922907
40
0.5918864
50
1.1330171
51
13.8830737
0
ARC
8
DEFAULT_255_1_388
10
4.5635171
20
92.3837522
40
0.7516787
50
359.9925091
51
1.5431298
0
ARC
8
DEFAULT_255_1_388
10
4.7079786
20
92.3791027
40
0.6072343
50
347.8572712
51
0.4294349
0
ARC
8
DEFAULT_255_1_388
10
4.904892
20
92.3344898
40
0.4053482
50
323.6727442
51
348.1674594
0
ARC
8
DEFAULT_255_1_388
10
4.9379885
20
92.3143175
40
0.3667495
50
316.8171818
51
323.1486802
0
ARC
8
DEFAULT_255_1_388
10
4.9449009
20
92.3101612
40
0.358869
50
281.839603
51
316.5458142
0
ARC
8
DEFAULT_255_1_388
10
4.9026296
20
92.4851363
40
0.5388223
50
269.5770964
51
282.4214641
0
ARC
8
DEFAULT_255_1_388
10
4.8946217
20
92.461093
40
0.5147801
50
256.2425863
51
270.4486481
0
ARC
8
DEFAULT_255_1_388
10
4.8609745
20
92.3261124
40
0.3756708
50
228.9024379
51
256.33135
0
ARC
8
DEFAULT_255_1_388
10
4.8526725
20
92.3130054
40
0.360344
50
193.7536029
51
228.5272638
0
ARC
8
DEFAULT_255_1_388
10
4.991929
20
92.3538463
40
0.5053599
50
184.9244437
51
194.4976052
0
ARC
8
DEFAULT_255_1_388
10
5.0135931
20
92.3578722
40
0.3700839
50
187.3596909
51
198.6733728
0
ARC
8
DEFAULT_255_1_388
10
4.8955175
20
92.3169373
40
0.2451195
50
198.4453795
51
217.7945479
0
ARC
8
DEFAULT_255_1_388
10
4.8622347
20
92.2933563
40
0.2043754
50
218.2887146
51
228.5613203
0
ARC
8
DEFAULT_255_1_388
10
4.8732354
20
92.3081902
40
0.2227819
50
228.9652423
51
258.1237049
0
ARC
8
DEFAULT_255_1_388
10
4.8963791
20
92.4072964
40
0.3245374
50
257.7260585
51
270.4013717
0
ARC
8
DEFAULT_255_1_388
10
4.9014289
20
92.3572255
40
0.2744726
50
269.4204315
51
286.420998
0
ARC
8
DEFAULT_255_1_388
10
4.9181345
20
92.2965705
40
0.2115721
50
286.7250065
51
320.6004665
0
ARC
8
DEFAULT_255_1_388
10
4.8750261
20
92.3315527
40
0.2670878
50
320.6712228
51
344.5440474
0
ARC
8
DEFAULT_255_1_388
10
4.7448974
20
92.3697394
40
0.4026927
50
344.241448
51
356.735803
0
ARC
8
DEFAULT_255_1_388
10
4.6045282
20
92.3813656
40
0.5435085
50
356.3547471
51
0.0507222
0
ARC
8
DEFAULT_255_1_388
10
4.7547547
20
92.3848812
40
0.3932934
50
359.5579289
51
12.9534322
0
ARC
8
DEFAULT_255_1_388
10
4.8734387
20
92.4136586
40
0.2711827
50
12.6489751
51
41.608121
0
ARC
8
DEFAULT_255_1_388
10
4.8993547
20
92.4356946
40
0.2371737
50
41.7851122
51
85.9892156
0
ARC
8
DEFAULT_255_1_388
10
4.8854857
20
92.3441738
40
0.3295244
50
84.6965848
51
90.0672125
0
ARC
8
DEFAULT_255_1_388
10
4.8828424
20
92.2690118
40
0.4046926
50
89.6804991
51
99.161352
0
ARC
8
DEFAULT_255_1_388
10
4.8597433
20
92.4070848
40
0.2647044
50
98.9836248
51
113.8905702
0
ARC
8
DEFAULT_255_1_388
10
4.8339108
20
92.4680118
40
0.1985386
50
114.195234
51
127.3641866
0
LINE
8
DEFAULT_255_1_388
10
4.3171367
20
101.2174898
11
4.3171367
21
99.9019
0
LINE
8
DEFAULT_255_1_388
10
4.3171367
20
99.9019
11
4.1436523
21
99.9019
0
LINE
8
DEFAULT_255_1_388
10
4.1436523
20
99.9019
11
4.1436523
21
101.2174898
0
LINE
8
DEFAULT_255_1_388
10
4.1436523
20
101.2174898
11
4.3171367
21
101.2174898
0
LINE
8
DEFAULT_255_1_388
10
5.2966005
20
101.2174898
11
5.2966005
21
100.343743
0
LINE
8
DEFAULT_255_1_388
10
5.2966005
20
100.343743
11
5.4791206
21
100.343743
0
LINE
8
DEFAULT_255_1_388
10
5.4791206
20
100.343743
11
5.4791206
21
100.2073048
0
LINE
8
DEFAULT_255_1_388
10
5.4791206
20
100.2073048
11
5.2966005
21
100.2073048
0
LINE
8
DEFAULT_255_1_388
10
5.2966005
20
100.2073048
11
5.2966005
21
99.9019
0
LINE
8
DEFAULT_255_1_388
10
5.2966005
20
99.9019
11
5.1285375
21
99.9019
0
LINE
8
DEFAULT_255_1_388
10
5.1285375
20
99.9019
11
5.1285375
21
100.2073048
0
LINE
8
DEFAULT_255_1_388
10
5.1285375
20
100.2073048
11
4.5294743
21
100.2073048
0
LINE
8
DEFAULT_255_1_388
10
4.5294743
20
100.2073048
11
4.5294743
21
100.3057933
0
LINE
8
DEFAULT_255_1_388
10
4.5294743
20
100.3057933
11
5.1185983
21
101.2174898
0
LINE
8
DEFAULT_255_1_388
10
5.1185983
20
101.2174898
11
5.2966005
21
101.2174898
0
LINE
8
DEFAULT_255_1_388
10
5.1086591
20
100.9527455
11
4.7192229
21
100.343743
0
LINE
8
DEFAULT_255_1_388
10
4.7192229
20
100.343743
11
5.1285375
21
100.343743
0
LINE
8
DEFAULT_255_1_388
10
5.1285375
20
100.343743
11
5.1285375
21
100.988888
0
LINE
8
DEFAULT_255_1_388
10
5.1285375
20
100.988888
11
5.1086591
21
100.9527455
0
LINE
8
DEFAULT_255_1_388
10
4.1848367
20
109.1549898
11
4.1848367
21
107.8394
0
LINE
8
DEFAULT_255_1_388
10
4.1848367
20
107.8394
11
4.0113523
21
107.8394
0
LINE
8
DEFAULT_255_1_388
10
4.0113523
20
107.8394
11
4.0113523
21
109.1549898
0
LINE
8
DEFAULT_255_1_388
10
4.0113523
20
109.1549898
11
4.1848367
21
109.1549898
0
LINE
8
DEFAULT_255_1_388
10
4.7016755
20
108.4420775
11
4.7016755
21
108.5785157
0
LINE
8
DEFAULT_255_1_388
10
4.7016755
20
108.5785157
11
4.827271
21
108.5785157
0
LINE
8
DEFAULT_255_1_388
10
4.6131262
20
108.8098282
11
4.4459668
21
108.8098282
0
LINE
8
DEFAULT_255_1_388
10
4.4342205
20
108.1863688
11
4.6022834
21
108.1863688
0
LINE
8
DEFAULT_255_1_388
10
4.827271
20
108.4420775
11
4.7016755
21
108.4420775
0
ARC
8
DEFAULT_255_1_388
10
4.8239936
20
108.9601922
40
0.3816905
50
270.491971
51
281.8953028
0
ARC
8
DEFAULT_255_1_388
10
4.8511363
20
108.8362199
40
0.2547877
50
281.6690378
51
301.2943765
0
ARC
8
DEFAULT_255_1_388
10
4.8702815
20
108.8011926
40
0.2149197
50
301.7834992
51
311.754567
0
ARC
8
DEFAULT_255_1_388
10
4.8805856
20
108.789765
40
0.1995326
50
311.7325027
51
354.2803031
0
ARC
8
DEFAULT_255_1_388
10
4.7988272
20
108.803828
40
0.2823461
50
353.0941646
51
0.1174696
0
ARC
8
DEFAULT_255_1_388
10
4.746983
20
108.8091874
40
0.3342238
50
359.1804452
51
15.0452323
0
ARC
8
DEFAULT_255_1_388
10
4.8983888
20
108.8533546
40
0.1765747
50
13.957816
51
77.6713812
0
ARC
8
DEFAULT_255_1_388
10
4.8549124
20
108.6975464
40
0.3381982
50
76.111571
51
90.7028736
0
ARC
8
DEFAULT_255_1_388
10
4.8482536
20
108.728325
40
0.3074046
50
89.5321574
51
103.5319393
0
ARC
8
DEFAULT_255_1_388
10
4.825692
20
108.8182443
40
0.2147041
50
103.2930114
51
133.5619756
0
ARC
8
DEFAULT_255_1_388
10
4.8206861
20
108.8249351
40
0.2064084
50
133.8349761
51
173.5343225
0
ARC
8
DEFAULT_255_1_388
10
4.9020519
20
108.8105144
40
0.2889266
50
172.5097183
51
180.1360699
0
ARC
8
DEFAULT_255_1_388
10
4.7950283
20
108.814388
40
0.3490913
50
155.3483706
51
180.7484035
0
ARC
8
DEFAULT_255_1_388
10
4.7895258
20
108.8111519
40
0.3454798
50
131.5745177
51
154.4799474
0
ARC
8
DEFAULT_255_1_388
10
4.8247541
20
108.7755422
40
0.3955058
50
96.9874487
51
131.9690874
0
ARC
8
DEFAULT_255_1_388
10
4.8494434
20
108.6354407
40
0.537622
50
89.8592909
51
97.7827481
0
ARC
8
DEFAULT_255_1_388
10
4.8548543
20
108.605936
40
0.5671399
50
78.3654493
51
90.4132586
0
ARC
8
DEFAULT_255_1_388
10
4.8951184
20
108.7925918
40
0.3762034
50
56.6229818
51
78.6387103
0
ARC
8
DEFAULT_255_1_388
10
4.9193013
20
108.8348846
40
0.3275964
50
47.0254604
51
56.085558
0
ARC
8
DEFAULT_255_1_388
10
4.9215264
20
108.8393189
40
0.3228382
50
10.9207523
51
46.777927
0
ARC
8
DEFAULT_255_1_388
10
4.7680858
20
108.8038401
40
0.4802559
50
359.6364235
51
11.6087615
0
ARC
8
DEFAULT_255_1_388
10
4.9745024
20
108.8021404
40
0.273833
50
332.3549969
51
359.7179765
0
ARC
8
DEFAULT_255_1_388
10
4.9013424
20
108.8368285
40
0.3547505
50
325.2332381
51
332.8746682
0
ARC
8
DEFAULT_255_1_388
10
4.9185007
20
108.8248763
40
0.3338396
50
292.9803892
51
325.2391113
0
ARC
8
DEFAULT_255_1_388
10
4.8874203
20
108.8853679
40
0.4016959
50
292.542178
51
293.6931461
0
ARC
8
DEFAULT_255_1_388
10
4.9317775
20
108.1588036
40
0.372079
50
57.643292
51
72.8626085
0
ARC
8
DEFAULT_255_1_388
10
4.9716609
20
108.2234273
40
0.2961455
50
36.7246661
51
57.4701329
0
ARC
8
DEFAULT_255_1_388
10
4.9703766
20
108.224847
40
0.2963321
50
8.054535
51
36.3561529
0
ARC
8
DEFAULT_255_1_388
10
4.8733439
20
108.2074073
40
0.3948682
50
359.8316595
51
8.5873361
0
ARC
8
DEFAULT_255_1_388
10
4.8310913
20
108.201997
40
0.4371398
50
343.9831631
51
0.557075
0
ARC
8
DEFAULT_255_1_388
10
4.9307962
20
108.1746963
40
0.3337749
50
311.6358204
51
343.7652116
0
ARC
8
DEFAULT_255_1_388
10
4.8882216
20
108.2226955
40
0.3979351
50
279.7829743
51
311.625622
0
ARC
8
DEFAULT_255_1_388
10
4.8543351
20
108.3843642
40
0.5630417
50
269.7285092
51
280.3857694
0
ARC
8
DEFAULT_255_1_388
10
4.8473664
20
108.3797241
40
0.5584119
50
256.6827433
51
270.4412869
0
ARC
8
DEFAULT_255_1_388
10
4.8092651
20
108.2239698
40
0.3980715
50
229.4223821
51
256.8554507
0
ARC
8
DEFAULT_255_1_388
10
4.7626204
20
108.1714683
40
0.3278564
50
181.8183354
51
229.6455015
0
ARC
8
DEFAULT_255_1_388
10
4.8795814
20
108.1861825
40
0.4453611
50
179.9760419
51
183.2330638
0
ARC
8
DEFAULT_255_1_388
10
4.8602366
20
108.1838781
40
0.2579652
50
179.4467996
51
196.2871626
0
ARC
8
DEFAULT_255_1_388
10
4.805382
20
108.1688709
40
0.2011057
50
196.5661293
51
227.7059371
0
ARC
8
DEFAULT_255_1_388
10
4.8238427
20
108.1895155
40
0.2287994
50
227.7653015
51
257.8763321
0
ARC
8
DEFAULT_255_1_388
10
4.849151
20
108.2955961
40
0.3378385
50
257.4583525
51
270.4267406
0
ARC
8
DEFAULT_255_1_388
10
4.854276
20
108.328223
40
0.3704652
50
269.5965319
51
280.8788143
0
ARC
8
DEFAULT_255_1_388
10
4.8800988
20
108.1992529
40
0.2389415
50
280.6347277
51
299.8594068
0
ARC
8
DEFAULT_255_1_388
10
4.9015757
20
108.1584736
40
0.19289
50
300.3575552
51
314.5515667
0
ARC
8
DEFAULT_255_1_388
10
4.8922433
20
108.1653025
40
0.204312
50
315.0730962
51
345.0429362
0
ARC
8
DEFAULT_255_1_388
10
4.7883941
20
108.1955539
40
0.31246
50
344.598526
51
357.9270698
0
ARC
8
DEFAULT_255_1_388
10
4.6874245
20
108.2024705
40
0.4136265
50
357.4755098
51
0.0224936
0
ARC
8
DEFAULT_255_1_388
10
4.8027123
20
108.2052099
40
0.2983498
50
359.5051035
51
13.4236939
0
ARC
8
DEFAULT_255_1_388
10
4.9002213
20
108.2301637
40
0.1977186
50
12.9497905
51
48.7550905
0
ARC
8
DEFAULT_255_1_388
10
4.8797135
20
108.2021373
40
0.2323321
50
49.509109
51
72.1832965
0
ARC
8
DEFAULT_255_1_388
10
4.8394603
20
108.0826632
40
0.358397
50
71.9008458
51
84.3555134
0
ARC
8
DEFAULT_255_1_388
10
4.8212998
20
107.9294712
40
0.512641
50
84.019632
51
89.3326067
0
LINE
8
DEFAULT_255_1_388
10
4.1848367
20
117.0924898
11
4.1848367
21
115.7769
0
LINE
8
DEFAULT_255_1_388
10
4.1848367
20
115.7769
11
4.0113523
21
115.7769
0
LINE
8
DEFAULT_255_1_388
10
4.0113523
20
115.7769
11
4.0113523
21
117.0924898
0
LINE
8
DEFAULT_255_1_388
10
4.0113523
20
117.0924898
11
4.1848367
21
117.0924898
0
LINE
8
DEFAULT_255_1_388
10
5.3206172
20
115.9133382
11
5.3206172
21
115.7769
0
LINE
8
DEFAULT_255_1_388
10
5.3206172
20
115.7769
11
4.4586167
21
115.7769
0
LINE
8
DEFAULT_255_1_388
10
4.4586167
20
115.7769
11
4.4586167
21
115.8970741
0
LINE
8
DEFAULT_255_1_388
10
4.4586167
20
115.8970741
11
4.9140132
21
116.4030702
0
LINE
8
DEFAULT_255_1_388
10
4.6004763
20
116.7048607
11
4.4333169
21
116.7048607
0
LINE
8
DEFAULT_255_1_388
10
5.0125017
20
116.295546
11
4.6601116
21
115.9133382
0
LINE
8
DEFAULT_255_1_388
10
4.6601116
20
115.9133382
11
5.3206172
21
115.9133382
0
ARC
8
DEFAULT_255_1_388
10
3.3964191
20
117.7450983
40
2.0258655
50
318.5132526
51
320.7829045
0
ARC
8
DEFAULT_255_1_388
10
3.9912148
20
117.2609929
40
1.2589638
50
320.7372878
51
323.9739031
0
ARC
8
DEFAULT_255_1_388
10
4.432108
20
116.9415554
40
0.7145141
50
323.8962701
51
328.64194
0
ARC
8
DEFAULT_255_1_388
10
4.6623338
20
116.7995545
40
0.4440242
50
328.8294576
51
331.7891185
0
ARC
8
DEFAULT_255_1_388
10
4.7745658
20
116.7416374
40
0.3177517
50
331.4254512
51
352.9365785
0
ARC
8
DEFAULT_255_1_388
10
4.7898658
20
116.738205
40
0.3021496
50
353.2257659
51
0.0166158
0
ARC
8
DEFAULT_255_1_388
10
4.8135418
20
116.7407894
40
0.2784847
50
359.486299
51
15.9343185
0
ARC
8
DEFAULT_255_1_388
10
4.8705685
20
116.7561269
40
0.2194403
50
16.1712913
51
43.5286088
0
ARC
8
DEFAULT_255_1_388
10
4.879263
20
116.7648191
40
0.2071504
50
43.4417391
51
83.1661095
0
ARC
8
DEFAULT_255_1_388
10
4.8641791
20
116.6819316
40
0.2912888
50
82.160179
51
90.1505708
0
ARC
8
DEFAULT_255_1_388
10
4.8606272
20
116.6215279
40
0.3517025
50
89.5460741
51
102.5418361
0
ARC
8
DEFAULT_255_1_388
10
4.8332992
20
116.7374933
40
0.2325748
50
102.1738499
51
129.206123
0
ARC
8
DEFAULT_255_1_388
10
4.8244446
20
116.7514664
40
0.2161591
50
129.72865
51
135.753947
0
ARC
8
DEFAULT_255_1_388
10
4.8380928
20
116.7405728
40
0.2335433
50
136.1757367
51
166.3673339
0
ARC
8
DEFAULT_255_1_388
10
4.9513616
20
116.7102148
40
0.3507873
50
165.9090694
51
178.8684636
0
ARC
8
DEFAULT_255_1_388
10
5.0489388
20
116.7049263
40
0.4484624
50
178.4391136
51
180.0083808
0
ARC
8
DEFAULT_255_1_388
10
4.8910089
20
116.7093197
40
0.4577138
50
163.2878482
51
180.5581842
0
ARC
8
DEFAULT_255_1_388
10
4.800813
20
116.7341393
40
0.3641968
50
133.4540601
51
162.947111
0
ARC
8
DEFAULT_255_1_388
10
4.8209012
20
116.7127789
40
0.3935189
50
100.7869829
51
133.4382499
0
ARC
8
DEFAULT_255_1_388
10
4.8600257
20
116.5385399
40
0.5720313
50
89.660664
51
101.3702276
0
ARC
8
DEFAULT_255_1_388
10
4.8674866
20
116.5454263
40
0.5651495
50
78.2172678
51
90.412935
0
ARC
8
DEFAULT_255_1_388
10
4.9074332
20
116.7281511
40
0.378122
50
55.9269121
51
78.4888449
0
ARC
8
DEFAULT_255_1_388
10
4.9295047
20
116.7662187
40
0.3342379
50
47.929771
51
55.4049217
0
ARC
8
DEFAULT_255_1_388
10
4.9409577
20
116.7778618
40
0.3179217
50
4.334829
51
48.0560205
0
ARC
8
DEFAULT_255_1_388
10
4.8177379
20
116.7587487
40
0.442341
50
359.9251713
51
5.5971671
0
ARC
8
DEFAULT_255_1_388
10
4.8659534
20
116.7650728
40
0.3941854
50
337.8914027
51
358.9967534
0
ARC
8
DEFAULT_255_1_388
10
4.5607104
20
116.8828295
40
0.7213271
50
326.9132501
51
338.3508308
0
ARC
8
DEFAULT_255_1_388
10
4.1123216
20
117.1702105
40
1.2538973
50
319.6471833
51
327.0959558
0
ARC
8
DEFAULT_255_1_388
10
3.6809874
20
117.526005
40
1.8129975
50
317.2588228
51
319.9045804
0
LINE
8
DEFAULT_255_1_388
10
4.1769367
20
125.0299898
11
4.1769367
21
123.7144
0
LINE
8
DEFAULT_255_1_388
10
4.1769367
20
123.7144
11
4.0034523
21
123.7144
0
LINE
8
DEFAULT_255_1_388
10
4.0034523
20
123.7144
11
4.0034523
21
125.0299898
0
LINE
8
DEFAULT_255_1_388
10
4.0034523
20
125.0299898
11
4.1769367
21
125.0299898
0
LINE
8
DEFAULT_255_1_388
10
5.0000839
20
125.0363148
11
5.0000839
21
123.7144
0
LINE
8
DEFAULT_255_1_388
10
5.0000839
20
123.7144
11
4.8320209
21
123.7144
0
LINE
8
DEFAULT_255_1_388
10
4.8320209
20
123.7144
11
4.8320209
21
124.828495
0
LINE
8
DEFAULT_255_1_388
10
4.8320209
20
124.828495
11
4.4949914
21
124.7047066
0
LINE
8
DEFAULT_255_1_388
10
4.4949914
20
124.7047066
11
4.4949914
21
124.8565055
0
LINE
8
DEFAULT_255_1_388
10
4.4949914
20
124.8565055
11
4.9738805
21
125.0363148
0
LINE
8
DEFAULT_255_1_388
10
4.9738805
20
125.0363148
11
5.0000839
21
125.0363148
0
LINE
8
DEFAULT_255_1_388
10
24.314591
20
132.9674898
11
24.314591
21
131.6519
0
LINE
8
DEFAULT_255_1_388
10
24.314591
20
131.6519
11
24.1402031
21
131.6519
0
LINE
8
DEFAULT_255_1_388
10
24.1402031
20
131.6519
11
23.4778903
21
132.6656993
0
LINE
8
DEFAULT_255_1_388
10
23.4778903
20
132.6656993
11
23.4778903
21
131.6519
0
LINE
8
DEFAULT_255_1_388
10
23.4778903
20
131.6519
11
23.3035024
21
131.6519
0
LINE
8
DEFAULT_255_1_388
10
23.3035024
20
131.6519
11
23.3035024
21
132.9674898
0
LINE
8
DEFAULT_255_1_388
10
23.3035024
20
132.9674898
11
23.4778903
21
132.9674898
0
LINE
8
DEFAULT_255_1_388
10
23.4778903
20
132.9674898
11
24.1420102
21
131.9491727
0
LINE
8
DEFAULT_255_1_388
10
24.1420102
20
131.9491727
11
24.1420102
21
132.9674898
0
LINE
8
DEFAULT_255_1_388
10
24.1420102
20
132.9674898
11
24.314591
21
132.9674898
0
LINE
8
DEFAULT_255_1_388
10
21.7606661
20
5.3512589
11
21.7606661
21
5.2672274
0
LINE
8
DEFAULT_255_1_388
10
21.5302571
20
4.7232816
11
21.7651839
21
4.5389544
0
LINE
8
DEFAULT_255_1_388
10
21.7651839
20
4.5389544
11
21.6468169
21
4.4296231
0
LINE
8
DEFAULT_255_1_388
10
21.6468169
20
4.4296231
11
21.3694227
21
4.6500929
0
LINE
8
DEFAULT_255_1_388
10
20.7016885
20
5.2554811
11
20.7016885
21
5.3503553
0
LINE
8
DEFAULT_255_1_388
10
21.5871817
20
5.2545775
11
21.5871817
21
5.3521625
0
LINE
8
DEFAULT_255_1_388
10
20.8751729
20
5.3639088
11
20.8751729
21
5.2672274
0
ARC
8
DEFAULT_255_1_388
10
20.753354
20
5.2628529
40
1.0073215
50
351.4530536
51
0.2488167
0
ARC
8
DEFAULT_255_1_388
10
21.0441709
20
5.2178749
40
0.7130509
50
338.6860608
51
351.554089
0
ARC
8
DEFAULT_255_1_388
10
21.1494166
20
5.1806573
40
0.6014866
50
336.2886209
51
338.3448103
0
ARC
8
DEFAULT_255_1_388
10
21.187441
20
5.1597952
40
0.5582958
50
321.1168943
51
336.6796496
0
ARC
8
DEFAULT_255_1_388
10
21.2585183
20
5.1050644
40
0.4686152
50
305.4418419
51
320.8706891
0
ARC
8
DEFAULT_255_1_388
10
21.2364048
20
5.1891492
40
0.5552257
50
271.6372169
51
283.8614231
0
ARC
8
DEFAULT_255_1_388
10
21.2321501
20
5.2632271
40
0.6293984
50
269.993693
51
271.8317035
0
ARC
8
DEFAULT_255_1_388
10
21.2279326
20
5.172068
40
0.5382553
50
252.5221437
51
270.441579
0
ARC
8
DEFAULT_255_1_388
10
21.2117576
20
5.1114046
40
0.4755426
50
237.5349961
51
252.1858334
0
ARC
8
DEFAULT_255_1_388
10
21.2217952
20
5.124212
40
0.4917393
50
209.0632754
51
237.3492577
0
ARC
8
DEFAULT_255_1_388
10
21.3197278
20
5.1857104
40
0.6072464
50
205.118533
51
209.6465345
0
ARC
8
DEFAULT_255_1_388
10
21.409328
20
5.2237174
40
0.7045164
50
188.7216633
51
204.8239753
0
ARC
8
DEFAULT_255_1_388
10
21.6340056
20
5.2615387
40
0.9323368
50
180.3722704
51
188.9253909
0
ARC
8
DEFAULT_255_1_388
10
21.6309617
20
5.3548416
40
0.929284
50
169.5253055
51
180.2766048
0
ARC
8
DEFAULT_255_1_388
10
21.4169416
20
5.3942024
40
0.7116745
50
155.8314601
51
169.5088611
0
ARC
8
DEFAULT_255_1_388
10
21.2728879
20
5.4610312
40
0.5528904
50
139.6259579
51
156.0379072
0
ARC
8
DEFAULT_255_1_388
10
21.2065413
20
5.5144143
40
0.4677708
50
122.6414784
51
139.3431662
0
ARC
8
DEFAULT_255_1_388
10
21.2178668
20
5.4937787
40
0.4912586
50
93.0224537
51
122.4556091
0
ARC
8
DEFAULT_255_1_388
10
21.2300189
20
5.3851776
40
0.6003837
50
89.9756766
51
93.6340839
0
ARC
8
DEFAULT_255_1_388
10
21.2343886
20
5.4279547
40
0.5576216
50
73.9666049
51
90.4228101
0
ARC
8
DEFAULT_255_1_388
10
21.2550535
20
5.5084139
40
0.4745905
50
57.5177173
51
73.6814962
0
ARC
8
DEFAULT_255_1_388
10
21.2500759
20
5.5043592
40
0.4806881
50
28.7260666
51
57.2767723
0
ARC
8
DEFAULT_255_1_388
10
21.1476166
20
5.4410397
40
0.6010032
50
24.2451459
51
29.3250018
0
ARC
8
DEFAULT_255_1_388
10
21.0434631
20
5.3979744
40
0.713663
50
9.0643887
51
23.9639114
0
ARC
8
DEFAULT_255_1_388
10
20.7897068
20
5.3553505
40
0.9709678
50
359.7585581
51
9.1891216
0
ARC
8
DEFAULT_255_1_388
10
20.6485656
20
5.3568562
40
0.9386278
50
359.7134836
51
7.9655743
0
ARC
8
DEFAULT_255_1_388
10
20.9818355
20
5.4049391
40
0.6019121
50
7.8289718
51
20.0423308
0
ARC
8
DEFAULT_255_1_388
10
21.1645823
20
5.4714145
40
0.4074504
50
20.0676743
51
35.9162425
0
ARC
8
DEFAULT_255_1_388
10
21.2517702
20
5.5362196
40
0.2988273
50
35.659429
51
85.1578517
0
ARC
8
DEFAULT_255_1_388
10
21.2309864
20
5.4107214
40
0.4257521
50
83.7963246
51
90.0959039
0
ARC
8
DEFAULT_255_1_388
10
21.2261408
20
5.4932384
40
0.3432594
50
89.3101324
51
109.9889786
0
ARC
8
DEFAULT_255_1_388
10
21.2168598
20
5.5332665
40
0.3025108
50
110.9286914
51
143.9411475
0
ARC
8
DEFAULT_255_1_388
10
21.32159
20
5.4531455
40
0.434348
50
143.5289166
51
163.2980252
0
ARC
8
DEFAULT_255_1_388
10
21.5362187
20
5.3856685
40
0.659321
50
163.0418884
51
174.3139873
0
ARC
8
DEFAULT_255_1_388
10
21.8067152
20
5.3544378
40
0.9315905
50
174.050934
51
179.4174954
0
ARC
8
DEFAULT_255_1_388
10
21.7488866
20
5.2623922
40
0.8737271
50
179.6829249
51
188.9631837
0
ARC
8
DEFAULT_255_1_388
10
21.4484597
20
5.2134648
40
0.569348
50
188.8098723
51
202.9300437
0
ARC
8
DEFAULT_255_1_388
10
21.3116329
20
5.1577968
40
0.4216493
50
203.2071737
51
215.7877161
0
ARC
8
DEFAULT_255_1_388
10
21.2161612
20
5.082285
40
0.3000949
50
214.7520738
51
264.283405
0
ARC
8
DEFAULT_255_1_388
10
21.2314203
20
5.1784645
40
0.3973553
50
263.4754673
51
270.0952411
0
ARC
8
DEFAULT_255_1_388
10
21.2361596
20
5.1490808
40
0.3679937
50
269.3649295
51
287.5149684
0
ARC
8
DEFAULT_255_1_388
10
21.2562037
20
5.0762714
40
0.2925408
50
288.0629019
51
323.8115617
0
ARC
8
DEFAULT_255_1_388
10
21.1582013
20
5.1493754
40
0.4148018
50
323.6546541
51
342.6591359
0
ARC
8
DEFAULT_255_1_388
10
20.9296671
20
5.223728
40
0.6551163
50
342.4092446
51
353.6451501
0
ARC
8
DEFAULT_255_1_388
10
20.6111465
20
5.2633565
40
0.9760748
50
353.4027553
51
359.4846611
0
ARC
8
DEFAULT_255_1_388
10
22.4651006
20
5.621272
40
0.3175098
50
338.8762533
51
0.5167111
0
ARC
8
DEFAULT_255_1_388
10
22.48406
20
5.61616
40
0.2979894
50
325.8415285
51
338.4793574
0
ARC
8
DEFAULT_255_1_388
10
22.4401233
20
5.6466242
40
0.351452
50
296.7587686
51
325.7536481
0
ARC
8
DEFAULT_255_1_388
10
22.4072861
20
5.7020363
40
0.4157374
50
296.0927901
51
297.3613472
0
ARC
8
DEFAULT_255_1_388
10
22.4367056
20
4.9637593
40
0.395855
50
47.9007294
51
67.1948823
0
ARC
8
DEFAULT_255_1_388
10
22.4587698
20
4.9914599
40
0.360516
50
35.2363914
51
47.551141
0
ARC
8
DEFAULT_255_1_388
10
22.4882102
20
5.0111093
40
0.3251343
50
359.2759765
51
35.4014143
0
ARC
8
DEFAULT_255_1_388
10
22.4044029
20
5.0028787
40
0.4089365
50
343.1293083
51
0.5775513
0
ARC
8
DEFAULT_255_1_388
10
22.4859142
20
4.9804336
40
0.3244269
50
310.8496669
51
342.7449331
0
ARC
8
DEFAULT_255_1_388
10
22.4389017
20
5.0340913
40
0.3957651
50
281.5472888
51
310.9170406
0
ARC
8
DEFAULT_255_1_388
10
22.3987891
20
5.2087814
40
0.5749654
50
269.619248
51
281.9789564
0
ARC
8
DEFAULT_255_1_388
10
22.3906669
20
5.2088776
40
0.5750649
50
257.4585678
51
270.4285689
0
ARC
8
DEFAULT_255_1_388
10
22.3478189
20
5.0284741
40
0.389671
50
228.7554326
51
257.8484789
0
ARC
8
DEFAULT_255_1_388
10
22.3129675
20
4.9865228
40
0.335154
50
184.0104975
51
228.5071184
0
ARC
8
DEFAULT_255_1_388
10
22.4438067
20
5.006443
40
0.4671891
50
179.9315832
51
185.3253753
0
ARC
8
DEFAULT_255_1_388
10
22.311458
20
5.0106592
40
0.33486
50
145.6796023
51
180.6259786
0
ARC
8
DEFAULT_255_1_388
10
22.3298346
20
4.9978271
40
0.3572723
50
115.5537685
51
145.6415986
0
ARC
8
DEFAULT_255_1_388
10
22.368139
20
4.9292087
40
0.4357296
50
113.243307
51
116.2057839
0
ARC
8
DEFAULT_255_1_388
10
22.3510041
20
5.6489379
40
0.3549126
50
222.9549744
51
244.1370481
0
ARC
8
DEFAULT_255_1_388
10
22.3372685
20
5.6335378
40
0.3343711
50
213.3436887
51
222.6274467
0
ARC
8
DEFAULT_255_1_388
10
22.3156754
20
5.6188653
40
0.3082678
50
180.431584
51
213.271499
0
ARC
8
DEFAULT_255_1_388
10
22.3791753
20
5.6241296
40
0.3718363
50
179.9991191
51
181.1690594
0
ARC
8
DEFAULT_255_1_388
10
22.4264209
20
5.6280072
40
0.4190996
50
164.6186169
51
180.529336
0
ARC
8
DEFAULT_255_1_388
10
22.3253858
20
5.655178
40
0.3144772
50
132.2455553
51
164.5090724
0
ARC
8
DEFAULT_255_1_388
10
22.3576836
20
5.618607
40
0.3632644
50
100.7053914
51
132.1386381
0
ARC
8
DEFAULT_255_1_388
10
22.3919897
20
5.4636118
40
0.5219578
50
89.6730358
51
101.2451698
0
ARC
8
DEFAULT_255_1_388
10
22.3989888
20
5.4832648
40
0.5023124
50
76.287748
51
90.4586006
0
ARC
8
DEFAULT_255_1_388
10
22.433439
20
5.6207671
40
0.3605639
50
47.8240511
51
76.4266241
0
ARC
8
DEFAULT_255_1_388
10
22.4584775
20
5.6500599
40
0.3220463
50
6.9168387
51
47.6262497
0
ARC
8
DEFAULT_255_1_388
10
22.3250228
20
5.6254004
40
0.4575765
50
359.8415968
51
7.9697453
0
ARC
8
DEFAULT_255_1_388
10
22.3634497
20
5.0133519
40
0.2827228
50
359.445363
51
16.9256873
0
ARC
8
DEFAULT_255_1_388
10
22.4161931
20
5.0278781
40
0.2280396
50
17.2920767
51
45.4630727
0
ARC
8
DEFAULT_255_1_388
10
22.4101067
20
5.0226324
40
0.2360485
50
45.30305
51
83.1920945
0
ARC
8
DEFAULT_255_1_388
10
22.3939811
20
4.9324473
40
0.3275527
50
82.2612665
51
90.1434275
0
ARC
8
DEFAULT_255_1_388
10
22.3905088
20
4.9586869
40
0.3013237
50
89.4956434
51
104.8580688
0
ARC
8
DEFAULT_255_1_388
10
22.3706277
20
5.0340455
40
0.2233867
50
104.8856641
51
135.244616
0
ARC
8
DEFAULT_255_1_388
10
22.3762266
20
5.0290352
40
0.2308906
50
135.3399546
51
172.1044062
0
ARC
8
DEFAULT_255_1_388
10
22.4669791
20
5.0116667
40
0.3232034
50
171.2645637
51
180.186429
0
ARC
8
DEFAULT_255_1_388
10
22.4479795
20
5.0080426
40
0.304213
50
179.5154935
51
193.6464289
0
ARC
8
DEFAULT_255_1_388
10
22.3561471
20
4.9846473
40
0.209456
50
193.3540274
51
225.8258581
0
ARC
8
DEFAULT_255_1_388
10
22.3607343
20
4.9926076
40
0.2183738
50
226.4180634
51
255.8552336
0
ARC
8
DEFAULT_255_1_388
10
22.389581
20
5.0979521
40
0.3275812
50
255.4654104
51
268.7987425
0
ARC
8
DEFAULT_255_1_388
10
22.3948987
20
5.1921545
40
0.4218877
50
268.3449238
51
270.0094605
0
ARC
8
DEFAULT_255_1_388
10
22.397522
20
5.1153094
40
0.3450519
50
269.5759586
51
282.0820163
0
ARC
8
DEFAULT_255_1_388
10
22.4228256
20
5.0034363
40
0.2303642
50
281.752014
51
306.6056188
0
ARC
8
DEFAULT_255_1_388
10
22.4339064
20
4.9852802
40
0.2091906
50
307.1346085
51
314.027845
0
ARC
8
DEFAULT_255_1_388
10
22.4298576
20
4.9882459
40
0.2141385
50
314.2552483
51
350.1694025
0
ARC
8
DEFAULT_255_1_388
10
22.3340813
20
5.0090175
40
0.312082
50
349.4140529
51
0.2933014
0
ARC
8
DEFAULT_255_1_388
10
22.392609
20
5.5893924
40
0.2588377
50
89.477747
51
105.729729
0
ARC
8
DEFAULT_255_1_388
10
22.377301
20
5.6462367
40
0.1999733
50
105.9233417
51
135.1660906
0
ARC
8
DEFAULT_255_1_388
10
22.3796041
20
5.6446412
40
0.2027322
50
135.3052302
51
168.9883645
0
ARC
8
DEFAULT_255_1_388
10
22.4727057
20
5.6232996
40
0.2982129
50
168.3801673
51
180.3602268
0
ARC
8
DEFAULT_255_1_388
10
22.4470174
20
5.6190622
40
0.2725291
50
179.5033122
51
194.9125571
0
ARC
8
DEFAULT_255_1_388
10
22.3811581
20
5.6017427
40
0.204431
50
194.9720816
51
224.194444
0
ARC
8
DEFAULT_255_1_388
10
22.3779946
20
5.5991635
40
0.2003651
50
224.2962453
51
262.015664
0
ARC
8
DEFAULT_255_1_388
10
22.393995
20
5.6814315
40
0.2840925
50
261.1245923
51
270.1962896
0
ARC
8
DEFAULT_255_1_388
10
22.3973432
20
5.6603859
40
0.2630559
50
269.4827276
51
285.0987215
0
ARC
8
DEFAULT_255_1_388
10
22.4146868
20
5.5953175
40
0.1957162
50
285.1585357
51
315.9484501
0
ARC
8
DEFAULT_255_1_388
10
22.4046741
20
5.6045315
40
0.2093195
50
316.0413965
51
351.916092
0
ARC
8
DEFAULT_255_1_388
10
22.3222116
20
5.6204323
40
0.2932279
50
351.105835
51
0.1939062
0
ARC
8
DEFAULT_255_1_388
10
22.351775
20
5.6238224
40
0.2636739
50
359.4789618
51
16.0678224
0
ARC
8
DEFAULT_255_1_388
10
22.4053222
20
5.6382721
40
0.2082215
50
16.3252067
51
44.7913869
0
ARC
8
DEFAULT_255_1_388
10
22.4033284
20
5.638332
40
0.2095992
50
44.3957814
51
88.2499162
0
ARC
8
DEFAULT_255_1_388
10
22.3950618
20
5.5695006
40
0.2787189
50
86.9833854
51
90.0192215
0
LINE
8
DEFAULT_255_1_388
10
23.3888892
20
5.2789737
11
23.3888892
21
5.1425355
0
LINE
8
DEFAULT_255_1_388
10
23.3888892
20
5.1425355
11
22.9479498
21
5.1425355
0
LINE
8
DEFAULT_255_1_388
10
22.9479498
20
5.1425355
11
22.9479498
21
5.2789737
0
LINE
8
DEFAULT_255_1_388
10
22.9479498
20
5.2789737
11
23.3888892
21
5.2789737
0
LINE
8
DEFAULT_255_1_388
10
24.3963636
20
4.7883382
11
24.3963636
21
4.6519
0
LINE
8
DEFAULT_255_1_388
10
24.3963636
20
4.6519
11
23.5343631
21
4.6519
0
LINE
8
DEFAULT_255_1_388
10
23.5343631
20
4.6519
11
23.5343631
21
4.7720741
0
LINE
8
DEFAULT_255_1_388
10
23.5343631
20
4.7720741
11
23.9897596
21
5.2780702
0
LINE
8
DEFAULT_255_1_388
10
23.6762227
20
5.5798607
11
23.5090633
21
5.5798607
0
LINE
8
DEFAULT_255_1_388
10
24.0882481
20
5.170546
11
23.735858
21
4.7883382
0
LINE
8
DEFAULT_255_1_388
10
23.735858
20
4.7883382
11
24.3963636
21
4.7883382
0
ARC
8
DEFAULT_255_1_388
10
22.4721655
20
6.6200983
40
2.0258655
50
318.5132526
51
320.7829045
0
ARC
8
DEFAULT_255_1_388
10
23.0669612
20
6.1359929
40
1.2589638
50
320.7372878
51
323.9739031
0
ARC
8
DEFAULT_255_1_388
10
23.5078544
20
5.8165554
40
0.7145141
50
323.8962701
51
328.64194
0
ARC
8
DEFAULT_255_1_388
10
23.7380801
20
5.6745545
40
0.4440242
50
328.8294576
51
331.7891185
0
ARC
8
DEFAULT_255_1_388
10
23.8503122
20
5.6166374
40
0.3177517
50
331.4254512
51
352.9365785
0
ARC
8
DEFAULT_255_1_388
10
23.8656121
20
5.613205
40
0.3021496
50
353.2257659
51
0.0166158
0
ARC
8
DEFAULT_255_1_388
10
23.8892882
20
5.6157894
40
0.2784847
50
359.486299
51
15.9343185
0
ARC
8
DEFAULT_255_1_388
10
23.9463149
20
5.6311269
40
0.2194403
50
16.1712913
51
43.5286088
0
ARC
8
DEFAULT_255_1_388
10
23.9550093
20
5.6398191
40
0.2071504
50
43.4417391
51
83.1661095
0
ARC
8
DEFAULT_255_1_388
10
23.9399255
20
5.5569316
40
0.2912888
50
82.160179
51
90.1505708
0
ARC
8
DEFAULT_255_1_388
10
23.9363736
20
5.4965279
40
0.3517025
50
89.5460741
51
102.5418361
0
ARC
8
DEFAULT_255_1_388
10
23.9090456
20
5.6124933
40
0.2325748
50
102.1738499
51
129.206123
0
ARC
8
DEFAULT_255_1_388
10
23.900191
20
5.6264664
40
0.2161591
50
129.72865
51
135.753947
0
ARC
8
DEFAULT_255_1_388
10
23.9138392
20
5.6155728
40
0.2335433
50
136.1757367
51
166.3673339
0
ARC
8
DEFAULT_255_1_388
10
24.027108
20
5.5852148
40
0.3507873
50
165.9090694
51
178.8684636
0
ARC
8
DEFAULT_255_1_388
10
24.1246852
20
5.5799263
40
0.4484624
50
178.4391136
51
180.0083808
0
ARC
8
DEFAULT_255_1_388
10
23.9667553
20
5.5843197
40
0.4577138
50
163.2878482
51
180.5581842
0
ARC
8
DEFAULT_255_1_388
10
23.8765594
20
5.6091393
40
0.3641968
50
133.4540601
51
162.947111
0
ARC
8
DEFAULT_255_1_388
10
23.8966476
20
5.5877789
40
0.3935189
50
100.7869829
51
133.4382499
0
ARC
8
DEFAULT_255_1_388
10
23.9357721
20
5.4135399
40
0.5720313
50
89.660664
51
101.3702276
0
ARC
8
DEFAULT_255_1_388
10
23.943233
20
5.4204263
40
0.5651495
50
78.2172678
51
90.412935
0
ARC
8
DEFAULT_255_1_388
10
23.9831796
20
5.6031511
40
0.378122
50
55.9269121
51
78.4888449
0
ARC
8
DEFAULT_255_1_388
10
24.0052511
20
5.6412187
40
0.3342379
50
47.929771
51
55.4049217
0
ARC
8
DEFAULT_255_1_388
10
24.0167041
20
5.6528618
40
0.3179217
50
4.334829
51
48.0560205
0
ARC
8
DEFAULT_255_1_388
10
23.8934843
20
5.6337487
40
0.442341
50
359.9251713
51
5.5971671
0
ARC
8
DEFAULT_255_1_388
10
23.9416998
20
5.6400728
40
0.3941854
50
337.8914027
51
358.9967534
0
ARC
8
DEFAULT_255_1_388
10
23.6364568
20
5.7578295
40
0.7213271
50
326.9132501
51
338.3508308
0
ARC
8
DEFAULT_255_1_388
10
23.188068
20
6.0452105
40
1.2538973
50
319.6471833
51
327.0959558
0
ARC
8
DEFAULT_255_1_388
10
22.7567338
20
6.401005
40
1.8129975
50
317.2588228
51
319.9045804
0
LINE
8
DEFAULT_255_1_388
10
21.7691661
20
13.2887589
11
21.7691661
21
13.2047274
0
LINE
8
DEFAULT_255_1_388
10
21.5387571
20
12.6607816
11
21.7736839
21
12.4764544
0
LINE
8
DEFAULT_255_1_388
10
21.7736839
20
12.4764544
11
21.6553169
21
12.3671231
0
LINE
8
DEFAULT_255_1_388
10
21.6553169
20
12.3671231
11
21.3779227
21
12.5875929
0
LINE
8
DEFAULT_255_1_388
10
20.7101885
20
13.1929811
11
20.7101885
21
13.2878553
0
LINE
8
DEFAULT_255_1_388
10
21.5956817
20
13.1920775
11
21.5956817
21
13.2896625
0
LINE
8
DEFAULT_255_1_388
10
20.8836729
20
13.3014088
11
20.8836729
21
13.2047274
0
ARC
8
DEFAULT_255_1_388
10
20.761854
20
13.2003529
40
1.0073215
50
351.4530536
51
0.2488167
0
ARC
8
DEFAULT_255_1_388
10
21.0526709
20
13.1553749
40
0.7130509
50
338.6860608
51
351.554089
0
ARC
8
DEFAULT_255_1_388
10
21.1579166
20
13.1181573
40
0.6014866
50
336.2886209
51
338.3448103
0
ARC
8
DEFAULT_255_1_388
10
21.195941
20
13.0972952
40
0.5582958
50
321.1168943
51
336.6796496
0
ARC
8
DEFAULT_255_1_388
10
21.2670183
20
13.0425644
40
0.4686152
50
305.4418419
51
320.8706891
0
ARC
8
DEFAULT_255_1_388
10
21.2449048
20
13.1266492
40
0.5552257
50
271.6372169
51
283.8614231
0
ARC
8
DEFAULT_255_1_388
10
21.2406501
20
13.2007271
40
0.6293984
50
269.993693
51
271.8317035
0
ARC
8
DEFAULT_255_1_388
10
21.2364326
20
13.109568
40
0.5382553
50
252.5221437
51
270.441579
0
ARC
8
DEFAULT_255_1_388
10
21.2202576
20
13.0489046
40
0.4755426
50
237.5349961
51
252.1858334
0
ARC
8
DEFAULT_255_1_388
10
21.2302952
20
13.061712
40
0.4917393
50
209.0632754
51
237.3492577
0
ARC
8
DEFAULT_255_1_388
10
21.3282278
20
13.1232104
40
0.6072464
50
205.118533
51
209.6465345
0
ARC
8
DEFAULT_255_1_388
10
21.417828
20
13.1612174
40
0.7045164
50
188.7216633
51
204.8239753
0
ARC
8
DEFAULT_255_1_388
10
21.6425056
20
13.1990387
40
0.9323368
50
180.3722704
51
188.9253909
0
ARC
8
DEFAULT_255_1_388
10
21.6394617
20
13.2923416
40
0.929284
50
169.5253055
51
180.2766048
0
ARC
8
DEFAULT_255_1_388
10
21.4254416
20
13.3317024
40
0.7116745
50
155.8314601
51
169.5088611
0
ARC
8
DEFAULT_255_1_388
10
21.2813879
20
13.3985312
40
0.5528904
50
139.6259579
51
156.0379072
0
ARC
8
DEFAULT_255_1_388
10
21.2150413
20
13.4519143
40
0.4677708
50
122.6414784
51
139.3431662
0
ARC
8
DEFAULT_255_1_388
10
21.2263668
20
13.4312787
40
0.4912586
50
93.0224537
51
122.4556091
0
ARC
8
DEFAULT_255_1_388
10
21.2385189
20
13.3226776
40
0.6003837
50
89.9756766
51
93.6340839
0
ARC
8
DEFAULT_255_1_388
10
21.2428886
20
13.3654547
40
0.5576216
50
73.9666049
51
90.4228101
0
ARC
8
DEFAULT_255_1_388
10
21.2635535
20
13.4459139
40
0.4745905
50
57.5177173
51
73.6814962
0
ARC
8
DEFAULT_255_1_388
10
21.2585759
20
13.4418592
40
0.4806881
50
28.7260666
51
57.2767723
0
ARC
8
DEFAULT_255_1_388
10
21.1561166
20
13.3785397
40
0.6010032
50
24.2451459
51
29.3250018
0
ARC
8
DEFAULT_255_1_388
10
21.0519631
20
13.3354744
40
0.713663
50
9.0643887
51
23.9639114
0
ARC
8
DEFAULT_255_1_388
10
20.7982068
20
13.2928505
40
0.9709678
50
359.7585581
51
9.1891216
0
ARC
8
DEFAULT_255_1_388
10
20.6570656
20
13.2943562
40
0.9386278
50
359.7134836
51
7.9655743
0
ARC
8
DEFAULT_255_1_388
10
20.9903355
20
13.3424391
40
0.6019121
50
7.8289718
51
20.0423308
0
ARC
8
DEFAULT_255_1_388
10
21.1730823
20
13.4089145
40
0.4074504
50
20.0676743
51
35.9162425
0
ARC
8
DEFAULT_255_1_388
10
21.2602702
20
13.4737196
40
0.2988273
50
35.659429
51
85.1578517
0
ARC
8
DEFAULT_255_1_388
10
21.2394864
20
13.3482214
40
0.4257521
50
83.7963246
51
90.0959039
0
ARC
8
DEFAULT_255_1_388
10
21.2346408
20
13.4307384
40
0.3432594
50
89.3101324
51
109.9889786
0
ARC
8
DEFAULT_255_1_388
10
21.2253598
20
13.4707665
40
0.3025108
50
110.9286914
51
143.9411475
0
ARC
8
DEFAULT_255_1_388
10
21.33009
20
13.3906455
40
0.434348
50
143.5289166
51
163.2980252
0
ARC
8
DEFAULT_255_1_388
10
21.5447187
20
13.3231685
40
0.659321
50
163.0418884
51
174.3139873
0
ARC
8
DEFAULT_255_1_388
10
21.8152152
20
13.2919378
40
0.9315905
50
174.050934
51
179.4174954
0
ARC
8
DEFAULT_255_1_388
10
21.7573866
20
13.1998922
40
0.8737271
50
179.6829249
51
188.9631837
0
ARC
8
DEFAULT_255_1_388
10
21.4569597
20
13.1509648
40
0.569348
50
188.8098723
51
202.9300437
0
ARC
8
DEFAULT_255_1_388
10
21.3201329
20
13.0952968
40
0.4216493
50
203.2071737
51
215.7877161
0
ARC
8
DEFAULT_255_1_388
10
21.2246612
20
13.019785
40
0.3000949
50
214.7520738
51
264.283405
0
ARC
8
DEFAULT_255_1_388
10
21.2399203
20
13.1159645
40
0.3973553
50
263.4754673
51
270.0952411
0
ARC
8
DEFAULT_255_1_388
10
21.2446596
20
13.0865808
40
0.3679937
50
269.3649295
51
287.5149684
0
ARC
8
DEFAULT_255_1_388
10
21.2647037
20
13.0137714
40
0.2925408
50
288.0629019
51
323.8115617
0
ARC
8
DEFAULT_255_1_388
10
21.1667013
20
13.0868754
40
0.4148018
50
323.6546541
51
342.6591359
0
ARC
8
DEFAULT_255_1_388
10
20.9381671
20
13.161228
40
0.6551163
50
342.4092446
51
353.6451501
0
ARC
8
DEFAULT_255_1_388
10
20.6196465
20
13.2008565
40
0.9760748
50
353.4027553
51
359.4846611
0
ARC
8
DEFAULT_255_1_388
10
22.4736006
20
13.558772
40
0.3175098
50
338.8762533
51
0.5167111
0
ARC
8
DEFAULT_255_1_388
10
22.49256
20
13.55366
40
0.2979894
50
325.8415285
51
338.4793574
0
ARC
8
DEFAULT_255_1_388
10
22.4486233
20
13.5841242
40
0.351452
50
296.7587686
51
325.7536481
0
ARC
8
DEFAULT_255_1_388
10
22.4157861
20
13.6395363
40
0.4157374
50
296.0927901
51
297.3613472
0
ARC
8
DEFAULT_255_1_388
10
22.4452056
20
12.9012593
40
0.395855
50
47.9007294
51
67.1948823
0
ARC
8
DEFAULT_255_1_388
10
22.4672698
20
12.9289599
40
0.360516
50
35.2363914
51
47.551141
0
ARC
8
DEFAULT_255_1_388
10
22.4967102
20
12.9486093
40
0.3251343
50
359.2759765
51
35.4014143
0
ARC
8
DEFAULT_255_1_388
10
22.4129029
20
12.9403787
40
0.4089365
50
343.1293083
51
0.5775513
0
ARC
8
DEFAULT_255_1_388
10
22.4944142
20
12.9179336
40
0.3244269
50
310.8496669
51
342.7449331
0
ARC
8
DEFAULT_255_1_388
10
22.4474017
20
12.9715913
40
0.3957651
50
281.5472888
51
310.9170406
0
ARC
8
DEFAULT_255_1_388
10
22.4072891
20
13.1462814
40
0.5749654
50
269.619248
51
281.9789564
0
ARC
8
DEFAULT_255_1_388
10
22.3991669
20
13.1463776
40
0.5750649
50
257.4585678
51
270.4285689
0
ARC
8
DEFAULT_255_1_388
10
22.3563189
20
12.9659741
40
0.389671
50
228.7554326
51
257.8484789
0
ARC
8
DEFAULT_255_1_388
10
22.3214675
20
12.9240228
40
0.335154
50
184.0104975
51
228.5071184
0
ARC
8
DEFAULT_255_1_388
10
22.4523067
20
12.943943
40
0.4671891
50
179.9315832
51
185.3253753
0
ARC
8
DEFAULT_255_1_388
10
22.319958
20
12.9481592
40
0.33486
50
145.6796023
51
180.6259786
0
ARC
8
DEFAULT_255_1_388
10
22.3383346
20
12.9353271
40
0.3572723
50
115.5537685
51
145.6415986
0
ARC
8
DEFAULT_255_1_388
10
22.376639
20
12.8667087
40
0.4357296
50
113.243307
51
116.2057839
0
ARC
8
DEFAULT_255_1_388
10
22.3595041
20
13.5864379
40
0.3549126
50
222.9549744
51
244.1370481
0
ARC
8
DEFAULT_255_1_388
10
22.3457685
20
13.5710378
40
0.3343711
50
213.3436887
51
222.6274467
0
ARC
8
DEFAULT_255_1_388
10
22.3241754
20
13.5563653
40
0.3082678
50
180.431584
51
213.271499
0
ARC
8
DEFAULT_255_1_388
10
22.3876753
20
13.5616296
40
0.3718363
50
179.9991191
51
181.1690594
0
ARC
8
DEFAULT_255_1_388
10
22.4349209
20
13.5655072
40
0.4190996
50
164.6186169
51
180.529336
0
ARC
8
DEFAULT_255_1_388
10
22.3338858
20
13.592678
40
0.3144772
50
132.2455553
51
164.5090724
0
ARC
8
DEFAULT_255_1_388
10
22.3661836
20
13.556107
40
0.3632644
50
100.7053914
51
132.1386381
0
ARC
8
DEFAULT_255_1_388
10
22.4004897
20
13.4011118
40
0.5219578
50
89.6730358
51
101.2451698
0
ARC
8
DEFAULT_255_1_388
10
22.4074888
20
13.4207648
40
0.5023124
50
76.287748
51
90.4586006
0
ARC
8
DEFAULT_255_1_388
10
22.441939
20
13.5582671
40
0.3605639
50
47.8240511
51
76.4266241
0
ARC
8
DEFAULT_255_1_388
10
22.4669775
20
13.5875599
40
0.3220463
50
6.9168387
51
47.6262497
0
ARC
8
DEFAULT_255_1_388
10
22.3335228
20
13.5629004
40
0.4575765
50
359.8415968
51
7.9697453
0
ARC
8
DEFAULT_255_1_388
10
22.3719497
20
12.9508519
40
0.2827228
50
359.445363
51
16.9256873
0
ARC
8
DEFAULT_255_1_388
10
22.4246931
20
12.9653781
40
0.2280396
50
17.2920767
51
45.4630727
0
ARC
8
DEFAULT_255_1_388
10
22.4186067
20
12.9601324
40
0.2360485
50
45.30305
51
83.1920945
0
ARC
8
DEFAULT_255_1_388
10
22.4024811
20
12.8699473
40
0.3275527
50
82.2612665
51
90.1434275
0
ARC
8
DEFAULT_255_1_388
10
22.3990088
20
12.8961869
40
0.3013237
50
89.4956434
51
104.8580688
0
ARC
8
DEFAULT_255_1_388
10
22.3791277
20
12.9715455
40
0.2233867
50
104.8856641
51
135.244616
0
ARC
8
DEFAULT_255_1_388
10
22.3847266
20
12.9665352
40
0.2308906
50
135.3399546
51
172.1044062
0
ARC
8
DEFAULT_255_1_388
10
22.4754791
20
12.9491667
40
0.3232034
50
171.2645637
51
180.186429
0
ARC
8
DEFAULT_255_1_388
10
22.4564795
20
12.9455426
40
0.304213
50
179.5154935
51
193.6464289
0
ARC
8
DEFAULT_255_1_388
10
22.3646471
20
12.9221473
40
0.209456
50
193.3540274
51
225.8258581
0
ARC
8
DEFAULT_255_1_388
10
22.3692343
20
12.9301076
40
0.2183738
50
226.4180634
51
255.8552336
0
ARC
8
DEFAULT_255_1_388
10
22.398081
20
13.0354521
40
0.3275812
50
255.4654104
51
268.7987425
0
ARC
8
DEFAULT_255_1_388
10
22.4033987
20
13.1296545
40
0.4218877
50
268.3449238
51
270.0094605
0
ARC
8
DEFAULT_255_1_388
10
22.406022
20
13.0528094
40
0.3450519
50
269.5759586
51
282.0820163
0
ARC
8
DEFAULT_255_1_388
10
22.4313256
20
12.9409363
40
0.2303642
50
281.752014
51
306.6056188
0
ARC
8
DEFAULT_255_1_388
10
22.4424064
20
12.9227802
40
0.2091906
50
307.1346085
51
314.027845
0
ARC
8
DEFAULT_255_1_388
10
22.4383576
20
12.9257459
40
0.2141385
50
314.2552483
51
350.1694025
0
ARC
8
DEFAULT_255_1_388
10
22.3425813
20
12.9465175
40
0.312082
50
349.4140529
51
0.2933014
0
ARC
8
DEFAULT_255_1_388
10
22.401109
20
13.5268924
40
0.2588377
50
89.477747
51
105.729729
0
ARC
8
DEFAULT_255_1_388
10
22.385801
20
13.5837367
40
0.1999733
50
105.9233417
51
135.1660906
0
ARC
8
DEFAULT_255_1_388
10
22.3881041
20
13.5821412
40
0.2027322
50
135.3052302
51
168.9883645
0
ARC
8
DEFAULT_255_1_388
10
22.4812057
20
13.5607996
40
0.2982129
50
168.3801673
51
180.3602268
0
ARC
8
DEFAULT_255_1_388
10
22.4555174
20
13.5565622
40
0.2725291
50
179.5033122
51
194.9125571
0
ARC
8
DEFAULT_255_1_388
10
22.3896581
20
13.5392427
40
0.204431
50
194.9720816
51
224.194444
0
ARC
8
DEFAULT_255_1_388
10
22.3864946
20
13.5366635
40
0.2003651
50
224.2962453
51
262.015664
0
ARC
8
DEFAULT_255_1_388
10
22.402495
20
13.6189315
40
0.2840925
50
261.1245923
51
270.1962896
0
ARC
8
DEFAULT_255_1_388
10
22.4058432
20
13.5978859
40
0.2630559
50
269.4827276
51
285.0987215
0
ARC
8
DEFAULT_255_1_388
10
22.4231868
20
13.5328175
40
0.1957162
50
285.1585357
51
315.9484501
0
ARC
8
DEFAULT_255_1_388
10
22.4131741
20
13.5420315
40
0.2093195
50
316.0413965
51
351.916092
0
ARC
8
DEFAULT_255_1_388
10
22.3307116
20
13.5579323
40
0.2932279
50
351.105835
51
0.1939062
0
ARC
8
DEFAULT_255_1_388
10
22.360275
20
13.5613224
40
0.2636739
50
359.4789618
51
16.0678224
0
ARC
8
DEFAULT_255_1_388
10
22.4138222
20
13.5757721
40
0.2082215
50
16.3252067
51
44.7913869
0
ARC
8
DEFAULT_255_1_388
10
22.4118284
20
13.575832
40
0.2095992
50
44.3957814
51
88.2499162
0
ARC
8
DEFAULT_255_1_388
10
22.4035618
20
13.5070006
40
0.2787189
50
86.9833854
51
90.0192215
0
LINE
8
DEFAULT_255_1_388
10
23.3973892
20
13.2164737
11
23.3973892
21
13.0800355
0
LINE
8
DEFAULT_255_1_388
10
23.3973892
20
13.0800355
11
22.9564498
21
13.0800355
0
LINE
8
DEFAULT_255_1_388
10
22.9564498
20
13.0800355
11
22.9564498
21
13.2164737
0
LINE
8
DEFAULT_255_1_388
10
22.9564498
20
13.2164737
11
23.3973892
21
13.2164737
0
LINE
8
DEFAULT_255_1_388
10
24.0922303
20
13.9113148
11
24.0922303
21
12.5894
0
LINE
8
DEFAULT_255_1_388
10
24.0922303
20
12.5894
11
23.9241673
21
12.5894
0
LINE
8
DEFAULT_255_1_388
10
23.9241673
20
12.5894
11
23.9241673
21
13.703495
0
LINE
8
DEFAULT_255_1_388
10
23.9241673
20
13.703495
11
23.5871377
21
13.5797066
0
LINE
8
DEFAULT_255_1_388
10
23.5871377
20
13.5797066
11
23.5871377
21
13.7315055
0
LINE
8
DEFAULT_255_1_388
10
23.5871377
20
13.7315055
11
24.0660269
21
13.9113148
0
LINE
8
DEFAULT_255_1_388
10
24.0660269
20
13.9113148
11
24.0922303
21
13.9113148
0
LINE
8
DEFAULT_255_1_388
10
21.7606661
20
21.2262589
11
21.7606661
21
21.1422274
0
LINE
8
DEFAULT_255_1_388
10
21.5302571
20
20.5982816
11
21.7651839
21
20.4139544
0
LINE
8
DEFAULT_255_1_388
10
21.7651839
20
20.4139544
11
21.6468169
21
20.3046231
0
LINE
8
DEFAULT_255_1_388
10
21.6468169
20
20.3046231
11
21.3694227
21
20.5250929
0
LINE
8
DEFAULT_255_1_388
10
20.7016885
20
21.1304811
11
20.7016885
21
21.2253553
0
LINE
8
DEFAULT_255_1_388
10
21.5871817
20
21.1295775
11
21.5871817
21
21.2271625
0
LINE
8
DEFAULT_255_1_388
10
20.8751729
20
21.2389088
11
20.8751729
21
21.1422274
0
ARC
8
DEFAULT_255_1_388
10
20.753354
20
21.1378529
40
1.0073215
50
351.4530536
51
0.2488167
0
ARC
8
DEFAULT_255_1_388
10
21.0441709
20
21.0928749
40
0.7130509
50
338.6860608
51
351.554089
0
ARC
8
DEFAULT_255_1_388
10
21.1494166
20
21.0556573
40
0.6014866
50
336.2886209
51
338.3448103
0
ARC
8
DEFAULT_255_1_388
10
21.187441
20
21.0347952
40
0.5582958
50
321.1168943
51
336.6796496
0
ARC
8
DEFAULT_255_1_388
10
21.2585183
20
20.9800644
40
0.4686152
50
305.4418419
51
320.8706891
0
ARC
8
DEFAULT_255_1_388
10
21.2364048
20
21.0641492
40
0.5552257
50
271.6372169
51
283.8614231
0
ARC
8
DEFAULT_255_1_388
10
21.2321501
20
21.1382271
40
0.6293984
50
269.993693
51
271.8317035
0
ARC
8
DEFAULT_255_1_388
10
21.2279326
20
21.047068
40
0.5382553
50
252.5221437
51
270.441579
0
ARC
8
DEFAULT_255_1_388
10
21.2117576
20
20.9864046
40
0.4755426
50
237.5349961
51
252.1858334
0
ARC
8
DEFAULT_255_1_388
10
21.2217952
20
20.999212
40
0.4917393
50
209.0632754
51
237.3492577
0
ARC
8
DEFAULT_255_1_388
10
21.3197278
20
21.0607104
40
0.6072464
50
205.118533
51
209.6465345
0
ARC
8
DEFAULT_255_1_388
10
21.409328
20
21.0987174
40
0.7045164
50
188.7216633
51
204.8239753
0
ARC
8
DEFAULT_255_1_388
10
21.6340056
20
21.1365387
40
0.9323368
50
180.3722704
51
188.9253909
0
ARC
8
DEFAULT_255_1_388
10
21.6309617
20
21.2298416
40
0.929284
50
169.5253055
51
180.2766048
0
ARC
8
DEFAULT_255_1_388
10
21.4169416
20
21.2692024
40
0.7116745
50
155.8314601
51
169.5088611
0
ARC
8
DEFAULT_255_1_388
10
21.2728879
20
21.3360312
40
0.5528904
50
139.6259579
51
156.0379072
0
ARC
8
DEFAULT_255_1_388
10
21.2065413
20
21.3894143
40
0.4677708
50
122.6414784
51
139.3431662
0
ARC
8
DEFAULT_255_1_388
10
21.2178668
20
21.3687787
40
0.4912586
50
93.0224537
51
122.4556091
0
ARC
8
DEFAULT_255_1_388
10
21.2300189
20
21.2601776
40
0.6003837
50
89.9756766
51
93.6340839
0
ARC
8
DEFAULT_255_1_388
10
21.2343886
20
21.3029547
40
0.5576216
50
73.9666049
51
90.4228101
0
ARC
8
DEFAULT_255_1_388
10
21.2550535
20
21.3834139
40
0.4745905
50
57.5177173
51
73.6814962
0
ARC
8
DEFAULT_255_1_388
10
21.2500759
20
21.3793592
40
0.4806881
50
28.7260666
51
57.2767723
0
ARC
8
DEFAULT_255_1_388
10
21.1476166
20
21.3160397
40
0.6010032
50
24.2451459
51
29.3250018
0
ARC
8
DEFAULT_255_1_388
10
21.0434631
20
21.2729744
40
0.713663
50
9.0643887
51
23.9639114
0
ARC
8
DEFAULT_255_1_388
10
20.7897068
20
21.2303505
40
0.9709678
50
359.7585581
51
9.1891216
0
ARC
8
DEFAULT_255_1_388
10
20.6485656
20
21.2318562
40
0.9386278
50
359.7134836
51
7.9655743
0
ARC
8
DEFAULT_255_1_388
10
20.9818355
20
21.2799391
40
0.6019121
50
7.8289718
51
20.0423308
0
ARC
8
DEFAULT_255_1_388
10
21.1645823
20
21.3464145
40
0.4074504
50
20.0676743
51
35.9162425
0
ARC
8
DEFAULT_255_1_388
10
21.2517702
20
21.4112196
40
0.2988273
50
35.659429
51
85.1578517
0
ARC
8
DEFAULT_255_1_388
10
21.2309864
20
21.2857214
40
0.4257521
50
83.7963246
51
90.0959039
0
ARC
8
DEFAULT_255_1_388
10
21.2261408
20
21.3682384
40
0.3432594
50
89.3101324
51
109.9889786
0
ARC
8
DEFAULT_255_1_388
10
21.2168598
20
21.4082665
40
0.3025108
50
110.9286914
51
143.9411475
0
ARC
8
DEFAULT_255_1_388
10
21.32159
20
21.3281455
40
0.434348
50
143.5289166
51
163.2980252
0
ARC
8
DEFAULT_255_1_388
10
21.5362187
20
21.2606685
40
0.659321
50
163.0418884
51
174.3139873
0
ARC
8
DEFAULT_255_1_388
10
21.8067152
20
21.2294378
40
0.9315905
50
174.050934
51
179.4174954
0
ARC
8
DEFAULT_255_1_388
10
21.7488866
20
21.1373922
40
0.8737271
50
179.6829249
51
188.9631837
0
ARC
8
DEFAULT_255_1_388
10
21.4484597
20
21.0884648
40
0.569348
50
188.8098723
51
202.9300437
0
ARC
8
DEFAULT_255_1_388
10
21.3116329
20
21.0327968
40
0.4216493
50
203.2071737
51
215.7877161
0
ARC
8
DEFAULT_255_1_388
10
21.2161612
20
20.957285
40
0.3000949
50
214.7520738
51
264.283405
0
ARC
8
DEFAULT_255_1_388
10
21.2314203
20
21.0534645
40
0.3973553
50
263.4754673
51
270.0952411
0
ARC
8
DEFAULT_255_1_388
10
21.2361596
20
21.0240808
40
0.3679937
50
269.3649295
51
287.5149684
0
ARC
8
DEFAULT_255_1_388
10
21.2562037
20
20.9512714
40
0.2925408
50
288.0629019
51
323.8115617
0
ARC
8
DEFAULT_255_1_388
10
21.1582013
20
21.0243754
40
0.4148018
50
323.6546541
51
342.6591359
0
ARC
8
DEFAULT_255_1_388
10
20.9296671
20
21.098728
40
0.6551163
50
342.4092446
51
353.6451501
0
ARC
8
DEFAULT_255_1_388
10
20.6111465
20
21.1383565
40
0.9760748
50
353.4027553
51
359.4846611
0
LINE
8
DEFAULT_255_1_388
10
22.8341006
20
21.8424898
11
22.8341006
21
21.7485191
0
LINE
8
DEFAULT_255_1_388
10
22.8341006
20
21.7485191
11
22.2892513
21
20.5269
0
LINE
8
DEFAULT_255_1_388
10
22.2892513
20
20.5269
11
22.1139598
21
20.5269
0
LINE
8
DEFAULT_255_1_388
10
22.1139598
20
20.5269
11
22.657002
21
21.705148
0
LINE
8
DEFAULT_255_1_388
10
22.657002
20
21.705148
11
21.9449932
21
21.705148
0
LINE
8
DEFAULT_255_1_388
10
21.9449932
20
21.705148
11
21.9449932
21
21.8424898
0
LINE
8
DEFAULT_255_1_388
10
21.9449932
20
21.8424898
11
22.8341006
21
21.8424898
0
LINE
8
DEFAULT_255_1_388
10
23.3888892
20
21.1539737
11
23.3888892
21
21.0175355
0
LINE
8
DEFAULT_255_1_388
10
23.3888892
20
21.0175355
11
22.9479498
21
21.0175355
0
LINE
8
DEFAULT_255_1_388
10
22.9479498
20
21.0175355
11
22.9479498
21
21.1539737
0
LINE
8
DEFAULT_255_1_388
10
22.9479498
20
21.1539737
11
23.3888892
21
21.1539737
0
LINE
8
DEFAULT_255_1_388
10
24.3963636
20
20.6633382
11
24.3963636
21
20.5269
0
LINE
8
DEFAULT_255_1_388
10
24.3963636
20
20.5269
11
23.5343631
21
20.5269
0
LINE
8
DEFAULT_255_1_388
10
23.5343631
20
20.5269
11
23.5343631
21
20.6470741
0
LINE
8
DEFAULT_255_1_388
10
23.5343631
20
20.6470741
11
23.9897596
21
21.1530702
0
LINE
8
DEFAULT_255_1_388
10
23.6762227
20
21.4548607
11
23.5090633
21
21.4548607
0
LINE
8
DEFAULT_255_1_388
10
24.0882481
20
21.045546
11
23.735858
21
20.6633382
0
LINE
8
DEFAULT_255_1_388
10
23.735858
20
20.6633382
11
24.3963636
21
20.6633382
0
ARC
8
DEFAULT_255_1_388
10
22.4721655
20
22.4950983
40
2.0258655
50
318.5132526
51
320.7829045
0
ARC
8
DEFAULT_255_1_388
10
23.0669612
20
22.0109929
40
1.2589638
50
320.7372878
51
323.9739031
0
ARC
8
DEFAULT_255_1_388
10
23.5078544
20
21.6915554
40
0.7145141
50
323.8962701
51
328.64194
0
ARC
8
DEFAULT_255_1_388
10
23.7380801
20
21.5495545
40
0.4440242
50
328.8294576
51
331.7891185
0
ARC
8
DEFAULT_255_1_388
10
23.8503122
20
21.4916374
40
0.3177517
50
331.4254512
51
352.9365785
0
ARC
8
DEFAULT_255_1_388
10
23.8656121
20
21.488205
40
0.3021496
50
353.2257659
51
0.0166158
0
ARC
8
DEFAULT_255_1_388
10
23.8892882
20
21.4907894
40
0.2784847
50
359.486299
51
15.9343185
0
ARC
8
DEFAULT_255_1_388
10
23.9463149
20
21.5061269
40
0.2194403
50
16.1712913
51
43.5286088
0
ARC
8
DEFAULT_255_1_388
10
23.9550093
20
21.5148191
40
0.2071504
50
43.4417391
51
83.1661095
0
ARC
8
DEFAULT_255_1_388
10
23.9399255
20
21.4319316
40
0.2912888
50
82.160179
51
90.1505708
0
ARC
8
DEFAULT_255_1_388
10
23.9363736
20
21.3715279
40
0.3517025
50
89.5460741
51
102.5418361
0
ARC
8
DEFAULT_255_1_388
10
23.9090456
20
21.4874933
40
0.2325748
50
102.1738499
51
129.206123
0
ARC
8
DEFAULT_255_1_388
10
23.900191
20
21.5014664
40
0.2161591
50
129.72865
51
135.753947
0
ARC
8
DEFAULT_255_1_388
10
23.9138392
20
21.4905728
40
0.2335433
50
136.1757367
51
166.3673339
0
ARC
8
DEFAULT_255_1_388
10
24.027108
20
21.4602148
40
0.3507873
50
165.9090694
51
178.8684636
0
ARC
8
DEFAULT_255_1_388
10
24.1246852
20
21.4549263
40
0.4484624
50
178.4391136
51
180.0083808
0
ARC
8
DEFAULT_255_1_388
10
23.9667553
20
21.4593197
40
0.4577138
50
163.2878482
51
180.5581842
0
ARC
8
DEFAULT_255_1_388
10
23.8765594
20
21.4841393
40
0.3641968
50
133.4540601
51
162.947111
0
ARC
8
DEFAULT_255_1_388
10
23.8966476
20
21.4627789
40
0.3935189
50
100.7869829
51
133.4382499
0
ARC
8
DEFAULT_255_1_388
10
23.9357721
20
21.2885399
40
0.5720313
50
89.660664
51
101.3702276
0
ARC
8
DEFAULT_255_1_388
10
23.943233
20
21.2954263
40
0.5651495
50
78.2172678
51
90.412935
0
ARC
8
DEFAULT_255_1_388
10
23.9831796
20
21.4781511
40
0.378122
50
55.9269121
51
78.4888449
0
ARC
8
DEFAULT_255_1_388
10
24.0052511
20
21.5162187
40
0.3342379
50
47.929771
51
55.4049217
0
ARC
8
DEFAULT_255_1_388
10
24.0167041
20
21.5278618
40
0.3179217
50
4.334829
51
48.0560205
0
ARC
8
DEFAULT_255_1_388
10
23.8934843
20
21.5087487
40
0.442341
50
359.9251713
51
5.5971671
0
ARC
8
DEFAULT_255_1_388
10
23.9416998
20
21.5150728
40
0.3941854
50
337.8914027
51
358.9967534
0
ARC
8
DEFAULT_255_1_388
10
23.6364568
20
21.6328295
40
0.7213271
50
326.9132501
51
338.3508308
0
ARC
8
DEFAULT_255_1_388
10
23.188068
20
21.9202105
40
1.2538973
50
319.6471833
51
327.0959558
0
ARC
8
DEFAULT_255_1_388
10
22.7567338
20
22.276005
40
1.8129975
50
317.2588228
51
319.9045804
0
LINE
8
DEFAULT_255_1_388
10
21.7691661
20
29.1637589
11
21.7691661
21
29.0797274
0
LINE
8
DEFAULT_255_1_388
10
21.5387571
20
28.5357816
11
21.7736839
21
28.3514544
0
LINE
8
DEFAULT_255_1_388
10
21.7736839
20
28.3514544
11
21.6553169
21
28.2421231
0
LINE
8
DEFAULT_255_1_388
10
21.6553169
20
28.2421231
11
21.3779227
21
28.4625929
0
LINE
8
DEFAULT_255_1_388
10
20.7101885
20
29.0679811
11
20.7101885
21
29.1628553
0
LINE
8
DEFAULT_255_1_388
10
21.5956817
20
29.0670775
11
21.5956817
21
29.1646625
0
LINE
8
DEFAULT_255_1_388
10
20.8836729
20
29.1764088
11
20.8836729
21
29.0797274
0
ARC
8
DEFAULT_255_1_388
10
20.761854
20
29.0753529
40
1.0073215
50
351.4530536
51
0.2488167
0
ARC
8
DEFAULT_255_1_388
10
21.0526709
20
29.0303749
40
0.7130509
50
338.6860608
51
351.554089
0
ARC
8
DEFAULT_255_1_388
10
21.1579166
20
28.9931573
40
0.6014866
50
336.2886209
51
338.3448103
0
ARC
8
DEFAULT_255_1_388
10
21.195941
20
28.9722952
40
0.5582958
50
321.1168943
51
336.6796496
0
ARC
8
DEFAULT_255_1_388
10
21.2670183
20
28.9175644
40
0.4686152
50
305.4418419
51
320.8706891
0
ARC
8
DEFAULT_255_1_388
10
21.2449048
20
29.0016492
40
0.5552257
50
271.6372169
51
283.8614231
0
ARC
8
DEFAULT_255_1_388
10
21.2406501
20
29.0757271
40
0.6293984
50
269.993693
51
271.8317035
0
ARC
8
DEFAULT_255_1_388
10
21.2364326
20
28.984568
40
0.5382553
50
252.5221437
51
270.441579
0
ARC
8
DEFAULT_255_1_388
10
21.2202576
20
28.9239046
40
0.4755426
50
237.5349961
51
252.1858334
0
ARC
8
DEFAULT_255_1_388
10
21.2302952
20
28.936712
40
0.4917393
50
209.0632754
51
237.3492577
0
ARC
8
DEFAULT_255_1_388
10
21.3282278
20
28.9982104
40
0.6072464
50
205.118533
51
209.6465345
0
ARC
8
DEFAULT_255_1_388
10
21.417828
20
29.0362174
40
0.7045164
50
188.7216633
51
204.8239753
0
ARC
8
DEFAULT_255_1_388
10
21.6425056
20
29.0740387
40
0.9323368
50
180.3722704
51
188.9253909
0
ARC
8
DEFAULT_255_1_388
10
21.6394617
20
29.1673416
40
0.929284
50
169.5253055
51
180.2766048
0
ARC
8
DEFAULT_255_1_388
10
21.4254416
20
29.2067024
40
0.7116745
50
155.8314601
51
169.5088611
0
ARC
8
DEFAULT_255_1_388
10
21.2813879
20
29.2735312
40
0.5528904
50
139.6259579
51
156.0379072
0
ARC
8
DEFAULT_255_1_388
10
21.2150413
20
29.3269143
40
0.4677708
50
122.6414784
51
139.3431662
0
ARC
8
DEFAULT_255_1_388
10
21.2263668
20
29.3062787
40
0.4912586
50
93.0224537
51
122.4556091
0
ARC
8
DEFAULT_255_1_388
10
21.2385189
20
29.1976776
40
0.6003837
50
89.9756766
51
93.6340839
0
ARC
8
DEFAULT_255_1_388
10
21.2428886
20
29.2404547
40
0.5576216
50
73.9666049
51
90.4228101
0
ARC
8
DEFAULT_255_1_388
10
21.2635535
20
29.3209139
40
0.4745905
50
57.5177173
51
73.6814962
0
ARC
8
DEFAULT_255_1_388
10
21.2585759
20
29.3168592
40
0.4806881
50
28.7260666
51
57.2767723
0
ARC
8
DEFAULT_255_1_388
10
21.1561166
20
29.2535397
40
0.6010032
50
24.2451459
51
29.3250018
0
ARC
8
DEFAULT_255_1_388
10
21.0519631
20
29.2104744
40
0.713663
50
9.0643887
51
23.9639114
0
ARC
8
DEFAULT_255_1_388
10
20.7982068
20
29.1678505
40
0.9709678
50
359.7585581
51
9.1891216
0
ARC
8
DEFAULT_255_1_388
10
20.6570656
20
29.1693562
40
0.9386278
50
359.7134836
51
7.9655743
0
ARC
8
DEFAULT_255_1_388
10
20.9903355
20
29.2174391
40
0.6019121
50
7.8289718
51
20.0423308
0
ARC
8
DEFAULT_255_1_388
10
21.1730823
20
29.2839145
40
0.4074504
50
20.0676743
51
35.9162425
0
ARC
8
DEFAULT_255_1_388
10
21.2602702
20
29.3487196
40
0.2988273
50
35.659429
51
85.1578517
0
ARC
8
DEFAULT_255_1_388
10
21.2394864
20
29.2232214
40
0.4257521
50
83.7963246
51
90.0959039
0
ARC
8
DEFAULT_255_1_388
10
21.2346408
20
29.3057384
40
0.3432594
50
89.3101324
51
109.9889786
0
ARC
8
DEFAULT_255_1_388
10
21.2253598
20
29.3457665
40
0.3025108
50
110.9286914
51
143.9411475
0
ARC
8
DEFAULT_255_1_388
10
21.33009
20
29.2656455
40
0.434348
50
143.5289166
51
163.2980252
0
ARC
8
DEFAULT_255_1_388
10
21.5447187
20
29.1981685
40
0.659321
50
163.0418884
51
174.3139873
0
ARC
8
DEFAULT_255_1_388
10
21.8152152
20
29.1669378
40
0.9315905
50
174.050934
51
179.4174954
0
ARC
8
DEFAULT_255_1_388
10
21.7573866
20
29.0748922
40
0.8737271
50
179.6829249
51
188.9631837
0
ARC
8
DEFAULT_255_1_388
10
21.4569597
20
29.0259648
40
0.569348
50
188.8098723
51
202.9300437
0
ARC
8
DEFAULT_255_1_388
10
21.3201329
20
28.9702968
40
0.4216493
50
203.2071737
51
215.7877161
0
ARC
8
DEFAULT_255_1_388
10
21.2246612
20
28.894785
40
0.3000949
50
214.7520738
51
264.283405
0
ARC
8
DEFAULT_255_1_388
10
21.2399203
20
28.9909645
40
0.3973553
50
263.4754673
51
270.0952411
0
ARC
8
DEFAULT_255_1_388
10
21.2446596
20
28.9615808
40
0.3679937
50
269.3649295
51
287.5149684
0
ARC
8
DEFAULT_255_1_388
10
21.2647037
20
28.8887714
40
0.2925408
50
288.0629019
51
323.8115617
0
ARC
8
DEFAULT_255_1_388
10
21.1667013
20
28.9618754
40
0.4148018
50
323.6546541
51
342.6591359
0
ARC
8
DEFAULT_255_1_388
10
20.9381671
20
29.036228
40
0.6551163
50
342.4092446
51
353.6451501
0
ARC
8
DEFAULT_255_1_388
10
20.6196465
20
29.0758565
40
0.9760748
50
353.4027553
51
359.4846611
0
LINE
8
DEFAULT_255_1_388
10
22.8426006
20
29.7799898
11
22.8426006
21
29.6860191
0
LINE
8
DEFAULT_255_1_388
10
22.8426006
20
29.6860191
11
22.2977513
21
28.4644
0
LINE
8
DEFAULT_255_1_388
10
22.2977513
20
28.4644
11
22.1224598
21
28.4644
0
LINE
8
DEFAULT_255_1_388
10
22.1224598
20
28.4644
11
22.665502
21
29.642648
0
LINE
8
DEFAULT_255_1_388
10
22.665502
20
29.642648
11
21.9534932
21
29.642648
0
LINE
8
DEFAULT_255_1_388
10
21.9534932
20
29.642648
11
21.9534932
21
29.7799898
0
LINE
8
DEFAULT_255_1_388
10
21.9534932
20
29.7799898
11
22.8426006
21
29.7799898
0
LINE
8
DEFAULT_255_1_388
10
23.3973892
20
29.0914737
11
23.3973892
21
28.9550355
0
LINE
8
DEFAULT_255_1_388
10
23.3973892
20
28.9550355
11
22.9564498
21
28.9550355
0
LINE
8
DEFAULT_255_1_388
10
22.9564498
20
28.9550355
11
22.9564498
21
29.0914737
0
LINE
8
DEFAULT_255_1_388
10
22.9564498
20
29.0914737
11
23.3973892
21
29.0914737
0
LINE
8
DEFAULT_255_1_388
10
24.0922303
20
29.7863148
11
24.0922303
21
28.4644
0
LINE
8
DEFAULT_255_1_388
10
24.0922303
20
28.4644
11
23.9241673
21
28.4644
0
LINE
8
DEFAULT_255_1_388
10
23.9241673
20
28.4644
11
23.9241673
21
29.578495
0
LINE
8
DEFAULT_255_1_388
10
23.9241673
20
29.578495
11
23.5871377
21
29.4547066
0
LINE
8
DEFAULT_255_1_388
10
23.5871377
20
29.4547066
11
23.5871377
21
29.6065055
0
LINE
8
DEFAULT_255_1_388
10
23.5871377
20
29.6065055
11
24.0660269
21
29.7863148
0
LINE
8
DEFAULT_255_1_388
10
24.0660269
20
29.7863148
11
24.0922303
21
29.7863148
0
LINE
8
DEFAULT_255_1_388
10
21.7606661
20
37.1012589
11
21.7606661
21
37.0172274
0
LINE
8
DEFAULT_255_1_388
10
21.5302571
20
36.4732816
11
21.7651839
21
36.2889544
0
LINE
8
DEFAULT_255_1_388
10
21.7651839
20
36.2889544
11
21.6468169
21
36.1796231
0
LINE
8
DEFAULT_255_1_388
10
21.6468169
20
36.1796231
11
21.3694227
21
36.4000929
0
LINE
8
DEFAULT_255_1_388
10
20.7016885
20
37.0054811
11
20.7016885
21
37.1003553
0
LINE
8
DEFAULT_255_1_388
10
21.5871817
20
37.0045775
11
21.5871817
21
37.1021625
0
LINE
8
DEFAULT_255_1_388
10
20.8751729
20
37.1139088
11
20.8751729
21
37.0172274
0
ARC
8
DEFAULT_255_1_388
10
20.753354
20
37.0128529
40
1.0073215
50
351.4530536
51
0.2488167
0
ARC
8
DEFAULT_255_1_388
10
21.0441709
20
36.9678749
40
0.7130509
50
338.6860608
51
351.554089
0
ARC
8
DEFAULT_255_1_388
10
21.1494166
20
36.9306573
40
0.6014866
50
336.2886209
51
338.3448103
0
ARC
8
DEFAULT_255_1_388
10
21.187441
20
36.9097952
40
0.5582958
50
321.1168943
51
336.6796496
0
ARC
8
DEFAULT_255_1_388
10
21.2585183
20
36.8550644
40
0.4686152
50
305.4418419
51
320.8706891
0
ARC
8
DEFAULT_255_1_388
10
21.2364048
20
36.9391492
40
0.5552257
50
271.6372169
51
283.8614231
0
ARC
8
DEFAULT_255_1_388
10
21.2321501
20
37.0132271
40
0.6293984
50
269.993693
51
271.8317035
0
ARC
8
DEFAULT_255_1_388
10
21.2279326
20
36.922068
40
0.5382553
50
252.5221437
51
270.441579
0
ARC
8
DEFAULT_255_1_388
10
21.2117576
20
36.8614046
40
0.4755426
50
237.5349961
51
252.1858334
0
ARC
8
DEFAULT_255_1_388
10
21.2217952
20
36.874212
40
0.4917393
50
209.0632754
51
237.3492577
0
ARC
8
DEFAULT_255_1_388
10
21.3197278
20
36.9357104
40
0.6072464
50
205.118533
51
209.6465345
0
ARC
8
DEFAULT_255_1_388
10
21.409328
20
36.9737174
40
0.7045164
50
188.7216633
51
204.8239753
0
ARC
8
DEFAULT_255_1_388
10
21.6340056
20
37.0115387
40
0.9323368
50
180.3722704
51
188.9253909
0
ARC
8
DEFAULT_255_1_388
10
21.6309617
20
37.1048416
40
0.929284
50
169.5253055
51
180.2766048
0
ARC
8
DEFAULT_255_1_388
10
21.4169416
20
37.1442024
40
0.7116745
50
155.8314601
51
169.5088611
0
ARC
8
DEFAULT_255_1_388
10
21.2728879
20
37.2110312
40
0.5528904
50
139.6259579
51
156.0379072
0
ARC
8
DEFAULT_255_1_388
10
21.2065413
20
37.2644143
40
0.4677708
50
122.6414784
51
139.3431662
0
ARC
8
DEFAULT_255_1_388
10
21.2178668
20
37.2437787
40
0.4912586
50
93.0224537
51
122.4556091
0
ARC
8
DEFAULT_255_1_388
10
21.2300189
20
37.1351776
40
0.6003837
50
89.9756766
51
93.6340839
0
ARC
8
DEFAULT_255_1_388
10
21.2343886
20
37.1779547
40
0.5576216
50
73.9666049
51
90.4228101
0
ARC
8
DEFAULT_255_1_388
10
21.2550535
20
37.2584139
40
0.4745905
50
57.5177173
51
73.6814962
0
ARC
8
DEFAULT_255_1_388
10
21.2500759
20
37.2543592
40
0.4806881
50
28.7260666
51
57.2767723
0
ARC
8
DEFAULT_255_1_388
10
21.1476166
20
37.1910397
40
0.6010032
50
24.2451459
51
29.3250018
0
ARC
8
DEFAULT_255_1_388
10
21.0434631
20
37.1479744
40
0.713663
50
9.0643887
51
23.9639114
0
ARC
8
DEFAULT_255_1_388
10
20.7897068
20
37.1053505
40
0.9709678
50
359.7585581
51
9.1891216
0
ARC
8
DEFAULT_255_1_388
10
20.6485656
20
37.1068562
40
0.9386278
50
359.7134836
51
7.9655743
0
ARC
8
DEFAULT_255_1_388
10
20.9818355
20
37.1549391
40
0.6019121
50
7.8289718
51
20.0423308
0
ARC
8
DEFAULT_255_1_388
10
21.1645823
20
37.2214145
40
0.4074504
50
20.0676743
51
35.9162425
0
ARC
8
DEFAULT_255_1_388
10
21.2517702
20
37.2862196
40
0.2988273
50
35.659429
51
85.1578517
0
ARC
8
DEFAULT_255_1_388
10
21.2309864
20
37.1607214
40
0.4257521
50
83.7963246
51
90.0959039
0
ARC
8
DEFAULT_255_1_388
10
21.2261408
20
37.2432384
40
0.3432594
50
89.3101324
51
109.9889786
0
ARC
8
DEFAULT_255_1_388
10
21.2168598
20
37.2832665
40
0.3025108
50
110.9286914
51
143.9411475
0
ARC
8
DEFAULT_255_1_388
10
21.32159
20
37.2031455
40
0.434348
50
143.5289166
51
163.2980252
0
ARC
8
DEFAULT_255_1_388
10
21.5362187
20
37.1356685
40
0.659321
50
163.0418884
51
174.3139873
0
ARC
8
DEFAULT_255_1_388
10
21.8067152
20
37.1044378
40
0.9315905
50
174.050934
51
179.4174954
0
ARC
8
DEFAULT_255_1_388
10
21.7488866
20
37.0123922
40
0.8737271
50
179.6829249
51
188.9631837
0
ARC
8
DEFAULT_255_1_388
10
21.4484597
20
36.9634648
40
0.569348
50
188.8098723
51
202.9300437
0
ARC
8
DEFAULT_255_1_388
10
21.3116329
20
36.9077968
40
0.4216493
50
203.2071737
51
215.7877161
0
ARC
8
DEFAULT_255_1_388
10
21.2161612
20
36.832285
40
0.3000949
50
214.7520738
51
264.283405
0
ARC
8
DEFAULT_255_1_388
10
21.2314203
20
36.9284645
40
0.3973553
50
263.4754673
51
270.0952411
0
ARC
8
DEFAULT_255_1_388
10
21.2361596
20
36.8990808
40
0.3679937
50
269.3649295
51
287.5149684
0
ARC
8
DEFAULT_255_1_388
10
21.2562037
20
36.8262714
40
0.2925408
50
288.0629019
51
323.8115617
0
ARC
8
DEFAULT_255_1_388
10
21.1582013
20
36.8993754
40
0.4148018
50
323.6546541
51
342.6591359
0
ARC
8
DEFAULT_255_1_388
10
20.9296671
20
36.973728
40
0.6551163
50
342.4092446
51
353.6451501
0
ARC
8
DEFAULT_255_1_388
10
20.6111465
20
37.0133565
40
0.9760748
50
353.4027553
51
359.4846611
0
LINE
8
DEFAULT_255_1_388
10
22.6109202
20
37.7183934
11
22.6407378
21
37.7183934
0
LINE
8
DEFAULT_255_1_388
10
22.6407378
20
37.7183934
11
22.6407378
21
37.5765338
0
LINE
8
DEFAULT_255_1_388
10
22.6407378
20
37.5765338
11
22.6100167
21
37.5765338
0
LINE
8
DEFAULT_255_1_388
10
21.9946893
20
36.9024747
11
21.9946893
21
36.9666278
0
LINE
8
DEFAULT_255_1_388
10
22.1627522
20
36.9449422
11
22.1627522
21
36.8834999
0
ARC
8
DEFAULT_255_1_388
10
22.6159058
20
37.0142826
40
0.562282
50
90.6001079
51
104.5146616
0
ARC
8
DEFAULT_255_1_388
10
22.5722018
20
37.17681
40
0.3939917
50
104.2855758
51
133.8630124
0
ARC
8
DEFAULT_255_1_388
10
22.590627
20
37.1646243
40
0.4155734
50
134.5304124
51
161.6210222
0
ARC
8
DEFAULT_255_1_388
10
22.7766202
20
37.0990421
40
0.6127682
50
161.2850533
51
174.2074364
0
ARC
8
DEFAULT_255_1_388
10
22.9355769
20
37.0771437
40
0.7731446
50
173.7817938
51
174.9251711
0
ARC
8
DEFAULT_255_1_388
10
22.4229963
20
36.921627
40
0.3412588
50
95.8332067
51
138.995412
0
ARC
8
DEFAULT_255_1_388
10
22.4481243
20
36.7777695
40
0.4870358
50
89.8755506
51
97.0540979
0
ARC
8
DEFAULT_255_1_388
10
22.4534632
20
36.8717841
40
0.3930432
50
71.6407016
51
90.6240821
0
ARC
8
DEFAULT_255_1_388
10
22.4704026
20
36.9341433
40
0.3285421
50
39.6368051
51
71.0190743
0
ARC
8
DEFAULT_255_1_388
10
22.3987933
20
36.8722586
40
0.4231706
50
10.6588054
51
39.9044509
0
ARC
8
DEFAULT_255_1_388
10
22.2246479
20
36.8344223
40
0.60133
50
359.6827842
51
11.1326896
0
ARC
8
DEFAULT_255_1_388
10
22.2201815
20
36.8264715
40
0.6058047
50
347.2485908
51
0.4371098
0
ARC
8
DEFAULT_255_1_388
10
22.40776
20
36.7813379
40
0.4128987
50
318.1408565
51
347.6118497
0
ARC
8
DEFAULT_255_1_388
10
22.4443197
20
36.7512903
40
0.3656244
50
275.6342406
51
317.824739
0
ARC
8
DEFAULT_255_1_388
10
22.4194718
20
36.8974827
40
0.513655
50
269.8872513
51
276.7916069
0
ARC
8
DEFAULT_255_1_388
10
22.413291
20
36.7821181
40
0.398323
50
246.9139443
51
270.7436787
0
ARC
8
DEFAULT_255_1_388
10
22.4140106
20
36.7661044
40
0.3839368
50
218.1665534
51
245.8780431
0
ARC
8
DEFAULT_255_1_388
10
22.5129478
20
36.8488903
40
0.5128958
50
191.4115343
51
218.6077624
0
ARC
8
DEFAULT_255_1_388
10
22.7309795
20
36.8977777
40
0.7363054
50
179.6344971
51
191.7836758
0
ARC
8
DEFAULT_255_1_388
10
23.3589669
20
36.9741495
40
1.3642984
50
171.4523743
51
180.3158856
0
ARC
8
DEFAULT_255_1_388
10
22.8645396
20
37.0510895
40
0.8639311
50
157.9802296
51
171.6246761
0
ARC
8
DEFAULT_255_1_388
10
22.6154747
20
37.1504038
40
0.5958004
50
141.4299236
51
157.8541251
0
ARC
8
DEFAULT_255_1_388
10
22.543283
20
37.2014746
40
0.5075416
50
102.871586
51
140.8564533
0
ARC
8
DEFAULT_255_1_388
10
22.6161383
20
36.9269943
40
0.7914163
50
90.377773
51
103.5868422
0
ARC
8
DEFAULT_255_1_388
10
22.4205904
20
36.8589543
40
0.2667015
50
89.8751238
51
126.2072139
0
ARC
8
DEFAULT_255_1_388
10
22.4257375
20
36.8415847
40
0.2838229
50
124.9742447
51
144.8960197
0
ARC
8
DEFAULT_255_1_388
10
22.405962
20
36.8576981
40
0.2583845
50
145.2974778
51
160.2660922
0
ARC
8
DEFAULT_255_1_388
10
22.7516108
20
36.8799151
40
0.5888695
50
179.6512124
51
190.285571
0
ARC
8
DEFAULT_255_1_388
10
22.5610588
20
36.8439968
40
0.3949683
50
190.0944895
51
207.5099647
0
ARC
8
DEFAULT_255_1_388
10
22.497417
20
36.8137177
40
0.3245464
50
207.9585471
51
216.325377
0
ARC
8
DEFAULT_255_1_388
10
22.4591807
20
36.7822712
40
0.2751259
50
215.7661336
51
232.5457193
0
ARC
8
DEFAULT_255_1_388
10
22.4160923
20
36.7275273
40
0.2054668
50
232.8005815
51
270.6605497
0
ARC
8
DEFAULT_255_1_388
10
22.4212347
20
36.7684853
40
0.2464268
50
269.3550767
51
288.474612
0
ARC
8
DEFAULT_255_1_388
10
22.4316854
20
36.7291721
40
0.2058436
50
289.1831976
51
322.9685307
0
ARC
8
DEFAULT_255_1_388
10
22.3628956
20
36.7834279
40
0.2934408
50
322.6007085
51
346.5183319
0
ARC
8
DEFAULT_255_1_388
10
22.2326712
20
36.8166434
40
0.4278249
50
346.2584622
51
358.7739592
0
ARC
8
DEFAULT_255_1_388
10
22.1175287
20
36.8228829
40
0.5430876
50
358.3757628
51
0.0082477
0
ARC
8
DEFAULT_255_1_388
10
22.2032106
20
36.8259856
40
0.4574157
50
359.6211417
51
11.28403
0
ARC
8
DEFAULT_255_1_388
10
22.3468712
20
36.8559535
40
0.3106708
50
11.0483152
51
31.8145585
0
ARC
8
DEFAULT_255_1_388
10
22.3816417
20
36.8748045
40
0.2711963
50
32.3028554
51
38.0820598
0
ARC
8
DEFAULT_255_1_388
10
22.428965
20
36.9176717
40
0.2075566
50
36.8249851
51
85.741667
0
ARC
8
DEFAULT_255_1_388
10
22.4214063
20
36.8613065
40
0.2643487
50
85.0150021
51
90.050843
0
LINE
8
DEFAULT_255_1_388
10
23.3888892
20
37.0289737
11
23.3888892
21
36.8925355
0
LINE
8
DEFAULT_255_1_388
10
23.3888892
20
36.8925355
11
22.9479498
21
36.8925355
0
LINE
8
DEFAULT_255_1_388
10
22.9479498
20
36.8925355
11
22.9479498
21
37.0289737
0
LINE
8
DEFAULT_255_1_388
10
22.9479498
20
37.0289737
11
23.3888892
21
37.0289737
0
LINE
8
DEFAULT_255_1_388
10
24.3963636
20
36.5383382
11
24.3963636
21
36.4019
0
LINE
8
DEFAULT_255_1_388
10
24.3963636
20
36.4019
11
23.5343631
21
36.4019
0
LINE
8
DEFAULT_255_1_388
10
23.5343631
20
36.4019
11
23.5343631
21
36.5220741
0
LINE
8
DEFAULT_255_1_388
10
23.5343631
20
36.5220741
11
23.9897596
21
37.0280702
0
LINE
8
DEFAULT_255_1_388
10
23.6762227
20
37.3298607
11
23.5090633
21
37.3298607
0
LINE
8
DEFAULT_255_1_388
10
24.0882481
20
36.920546
11
23.735858
21
36.5383382
0
LINE
8
DEFAULT_255_1_388
10
23.735858
20
36.5383382
11
24.3963636
21
36.5383382
0
ARC
8
DEFAULT_255_1_388
10
22.4721655
20
38.3700983
40
2.0258655
50
318.5132526
51
320.7829045
0
ARC
8
DEFAULT_255_1_388
10
23.0669612
20
37.8859929
40
1.2589638
50
320.7372878
51
323.9739031
0
ARC
8
DEFAULT_255_1_388
10
23.5078544
20
37.5665554
40
0.7145141
50
323.8962701
51
328.64194
0
ARC
8
DEFAULT_255_1_388
10
23.7380801
20
37.4245545
40
0.4440242
50
328.8294576
51
331.7891185
0
ARC
8
DEFAULT_255_1_388
10
23.8503122
20
37.3666374
40
0.3177517
50
331.4254512
51
352.9365785
0
ARC
8
DEFAULT_255_1_388
10
23.8656121
20
37.363205
40
0.3021496
50
353.2257659
51
0.0166158
0
ARC
8
DEFAULT_255_1_388
10
23.8892882
20
37.3657894
40
0.2784847
50
359.486299
51
15.9343185
0
ARC
8
DEFAULT_255_1_388
10
23.9463149
20
37.3811269
40
0.2194403
50
16.1712913
51
43.5286088
0
ARC
8
DEFAULT_255_1_388
10
23.9550093
20
37.3898191
40
0.2071504
50
43.4417391
51
83.1661095
0
ARC
8
DEFAULT_255_1_388
10
23.9399255
20
37.3069316
40
0.2912888
50
82.160179
51
90.1505708
0
ARC
8
DEFAULT_255_1_388
10
23.9363736
20
37.2465279
40
0.3517025
50
89.5460741
51
102.5418361
0
ARC
8
DEFAULT_255_1_388
10
23.9090456
20
37.3624933
40
0.2325748
50
102.1738499
51
129.206123
0
ARC
8
DEFAULT_255_1_388
10
23.900191
20
37.3764664
40
0.2161591
50
129.72865
51
135.753947
0
ARC
8
DEFAULT_255_1_388
10
23.9138392
20
37.3655728
40
0.2335433
50
136.1757367
51
166.3673339
0
ARC
8
DEFAULT_255_1_388
10
24.027108
20
37.3352148
40
0.3507873
50
165.9090694
51
178.8684636
0
ARC
8
DEFAULT_255_1_388
10
24.1246852
20
37.3299263
40
0.4484624
50
178.4391136
51
180.0083808
0
ARC
8
DEFAULT_255_1_388
10
23.9667553
20
37.3343197
40
0.4577138
50
163.2878482
51
180.5581842
0
ARC
8
DEFAULT_255_1_388
10
23.8765594
20
37.3591393
40
0.3641968
50
133.4540601
51
162.947111
0
ARC
8
DEFAULT_255_1_388
10
23.8966476
20
37.3377789
40
0.3935189
50
100.7869829
51
133.4382499
0
ARC
8
DEFAULT_255_1_388
10
23.9357721
20
37.1635399
40
0.5720313
50
89.660664
51
101.3702276
0
ARC
8
DEFAULT_255_1_388
10
23.943233
20
37.1704263
40
0.5651495
50
78.2172678
51
90.412935
0
ARC
8
DEFAULT_255_1_388
10
23.9831796
20
37.3531511
40
0.378122
50
55.9269121
51
78.4888449
0
ARC
8
DEFAULT_255_1_388
10
24.0052511
20
37.3912187
40
0.3342379
50
47.929771
51
55.4049217
0
ARC
8
DEFAULT_255_1_388
10
24.0167041
20
37.4028618
40
0.3179217
50
4.334829
51
48.0560205
0
ARC
8
DEFAULT_255_1_388
10
23.8934843
20
37.3837487
40
0.442341
50
359.9251713
51
5.5971671
0
ARC
8
DEFAULT_255_1_388
10
23.9416998
20
37.3900728
40
0.3941854
50
337.8914027
51
358.9967534
0
ARC
8
DEFAULT_255_1_388
10
23.6364568
20
37.5078295
40
0.7213271
50
326.9132501
51
338.3508308
0
ARC
8
DEFAULT_255_1_388
10
23.188068
20
37.7952105
40
1.2538973
50
319.6471833
51
327.0959558
0
ARC
8
DEFAULT_255_1_388
10
22.7567338
20
38.151005
40
1.8129975
50
317.2588228
51
319.9045804
0
LINE
8
DEFAULT_255_1_388
10
21.7691661
20
45.0387589
11
21.7691661
21
44.9547274
0
LINE
8
DEFAULT_255_1_388
10
21.5387571
20
44.4107816
11
21.7736839
21
44.2264544
0
LINE
8
DEFAULT_255_1_388
10
21.7736839
20
44.2264544
11
21.6553169
21
44.1171231
0
LINE
8
DEFAULT_255_1_388
10
21.6553169
20
44.1171231
11
21.3779227
21
44.3375929
0
LINE
8
DEFAULT_255_1_388
10
20.7101885
20
44.9429811
11
20.7101885
21
45.0378553
0
LINE
8
DEFAULT_255_1_388
10
21.5956817
20
44.9420775
11
21.5956817
21
45.0396625
0
LINE
8
DEFAULT_255_1_388
10
20.8836729
20
45.0514088
11
20.8836729
21
44.9547274
0
ARC
8
DEFAULT_255_1_388
10
20.761854
20
44.9503529
40
1.0073215
50
351.4530536
51
0.2488167
0
ARC
8
DEFAULT_255_1_388
10
21.0526709
20
44.9053749
40
0.7130509
50
338.6860608
51
351.554089
0
ARC
8
DEFAULT_255_1_388
10
21.1579166
20
44.8681573
40
0.6014866
50
336.2886209
51
338.3448103
0
ARC
8
DEFAULT_255_1_388
10
21.195941
20
44.8472952
40
0.5582958
50
321.1168943
51
336.6796496
0
ARC
8
DEFAULT_255_1_388
10
21.2670183
20
44.7925644
40
0.4686152
50
305.4418419
51
320.8706891
0
ARC
8
DEFAULT_255_1_388
10
21.2449048
20
44.8766492
40
0.5552257
50
271.6372169
51
283.8614231
0
ARC
8
DEFAULT_255_1_388
10
21.2406501
20
44.9507271
40
0.6293984
50
269.993693
51
271.8317035
0
ARC
8
DEFAULT_255_1_388
10
21.2364326
20
44.859568
40
0.5382553
50
252.5221437
51
270.441579
0
ARC
8
DEFAULT_255_1_388
10
21.2202576
20
44.7989046
40
0.4755426
50
237.5349961
51
252.1858334
0
ARC
8
DEFAULT_255_1_388
10
21.2302952
20
44.811712
40
0.4917393
50
209.0632754
51
237.3492577
0
ARC
8
DEFAULT_255_1_388
10
21.3282278
20
44.8732104
40
0.6072464
50
205.118533
51
209.6465345
0
ARC
8
DEFAULT_255_1_388
10
21.417828
20
44.9112174
40
0.7045164
50
188.7216633
51
204.8239753
0
ARC
8
DEFAULT_255_1_388
10
21.6425056
20
44.9490387
40
0.9323368
50
180.3722704
51
188.9253909
0
ARC
8
DEFAULT_255_1_388
10
21.6394617
20
45.0423416
40
0.929284
50
169.5253055
51
180.2766048
0
ARC
8
DEFAULT_255_1_388
10
21.4254416
20
45.0817024
40
0.7116745
50
155.8314601
51
169.5088611
0
ARC
8
DEFAULT_255_1_388
10
21.2813879
20
45.1485312
40
0.5528904
50
139.6259579
51
156.0379072
0
ARC
8
DEFAULT_255_1_388
10
21.2150413
20
45.2019143
40
0.4677708
50
122.6414784
51
139.3431662
0
ARC
8
DEFAULT_255_1_388
10
21.2263668
20
45.1812787
40
0.4912586
50
93.0224537
51
122.4556091
0
ARC
8
DEFAULT_255_1_388
10
21.2385189
20
45.0726776
40
0.6003837
50
89.9756766
51
93.6340839
0
ARC
8
DEFAULT_255_1_388
10
21.2428886
20
45.1154547
40
0.5576216
50
73.9666049
51
90.4228101
0
ARC
8
DEFAULT_255_1_388
10
21.2635535
20
45.1959139
40
0.4745905
50
57.5177173
51
73.6814962
0
ARC
8
DEFAULT_255_1_388
10
21.2585759
20
45.1918592
40
0.4806881
50
28.7260666
51
57.2767723
0
ARC
8
DEFAULT_255_1_388
10
21.1561166
20
45.1285397
40
0.6010032
50
24.2451459
51
29.3250018
0
ARC
8
DEFAULT_255_1_388
10
21.0519631
20
45.0854744
40
0.713663
50
9.0643887
51
23.9639114
0
ARC
8
DEFAULT_255_1_388
10
20.7982068
20
45.0428505
40
0.9709678
50
359.7585581
51
9.1891216
0
ARC
8
DEFAULT_255_1_388
10
20.6570656
20
45.0443562
40
0.9386278
50
359.7134836
51
7.9655743
0
ARC
8
DEFAULT_255_1_388
10
20.9903355
20
45.0924391
40
0.6019121
50
7.8289718
51
20.0423308
0
ARC
8
DEFAULT_255_1_388
10
21.1730823
20
45.1589145
40
0.4074504
50
20.0676743
51
35.9162425
0
ARC
8
DEFAULT_255_1_388
10
21.2602702
20
45.2237196
40
0.2988273
50
35.659429
51
85.1578517
0
ARC
8
DEFAULT_255_1_388
10
21.2394864
20
45.0982214
40
0.4257521
50
83.7963246
51
90.0959039
0
ARC
8
DEFAULT_255_1_388
10
21.2346408
20
45.1807384
40
0.3432594
50
89.3101324
51
109.9889786
0
ARC
8
DEFAULT_255_1_388
10
21.2253598
20
45.2207665
40
0.3025108
50
110.9286914
51
143.9411475
0
ARC
8
DEFAULT_255_1_388
10
21.33009
20
45.1406455
40
0.434348
50
143.5289166
51
163.2980252
0
ARC
8
DEFAULT_255_1_388
10
21.5447187
20
45.0731685
40
0.659321
50
163.0418884
51
174.3139873
0
ARC
8
DEFAULT_255_1_388
10
21.8152152
20
45.0419378
40
0.9315905
50
174.050934
51
179.4174954
0
ARC
8
DEFAULT_255_1_388
10
21.7573866
20
44.9498922
40
0.8737271
50
179.6829249
51
188.9631837
0
ARC
8
DEFAULT_255_1_388
10
21.4569597
20
44.9009648
40
0.569348
50
188.8098723
51
202.9300437
0
ARC
8
DEFAULT_255_1_388
10
21.3201329
20
44.8452968
40
0.4216493
50
203.2071737
51
215.7877161
0
ARC
8
DEFAULT_255_1_388
10
21.2246612
20
44.769785
40
0.3000949
50
214.7520738
51
264.283405
0
ARC
8
DEFAULT_255_1_388
10
21.2399203
20
44.8659645
40
0.3973553
50
263.4754673
51
270.0952411
0
ARC
8
DEFAULT_255_1_388
10
21.2446596
20
44.8365808
40
0.3679937
50
269.3649295
51
287.5149684
0
ARC
8
DEFAULT_255_1_388
10
21.2647037
20
44.7637714
40
0.2925408
50
288.0629019
51
323.8115617
0
ARC
8
DEFAULT_255_1_388
10
21.1667013
20
44.8368754
40
0.4148018
50
323.6546541
51
342.6591359
0
ARC
8
DEFAULT_255_1_388
10
20.9381671
20
44.911228
40
0.6551163
50
342.4092446
51
353.6451501
0
ARC
8
DEFAULT_255_1_388
10
20.6196465
20
44.9508565
40
0.9760748
50
353.4027553
51
359.4846611
0
LINE
8
DEFAULT_255_1_388
10
22.6194202
20
45.6558934
11
22.6492378
21
45.6558934
0
LINE
8
DEFAULT_255_1_388
10
22.6492378
20
45.6558934
11
22.6492378
21
45.5140338
0
LINE
8
DEFAULT_255_1_388
10
22.6492378
20
45.5140338
11
22.6185167
21
45.5140338
0
LINE
8
DEFAULT_255_1_388
10
22.0031893
20
44.8399747
11
22.0031893
21
44.9041278
0
LINE
8
DEFAULT_255_1_388
10
22.1712522
20
44.8824422
11
22.1712522
21
44.8209999
0
ARC
8
DEFAULT_255_1_388
10
22.6244058
20
44.9517826
40
0.562282
50
90.6001079
51
104.5146616
0
ARC
8
DEFAULT_255_1_388
10
22.5807018
20
45.11431
40
0.3939917
50
104.2855758
51
133.8630124
0
ARC
8
DEFAULT_255_1_388
10
22.599127
20
45.1021243
40
0.4155734
50
134.5304124
51
161.6210222
0
ARC
8
DEFAULT_255_1_388
10
22.7851202
20
45.0365421
40
0.6127682
50
161.2850533
51
174.2074364
0
ARC
8
DEFAULT_255_1_388
10
22.9440769
20
45.0146437
40
0.7731446
50
173.7817938
51
174.9251711
0
ARC
8
DEFAULT_255_1_388
10
22.4314963
20
44.859127
40
0.3412588
50
95.8332067
51
138.995412
0
ARC
8
DEFAULT_255_1_388
10
22.4566243
20
44.7152695
40
0.4870358
50
89.8755506
51
97.0540979
0
ARC
8
DEFAULT_255_1_388
10
22.4619632
20
44.8092841
40
0.3930432
50
71.6407016
51
90.6240821
0
ARC
8
DEFAULT_255_1_388
10
22.4789026
20
44.8716433
40
0.3285421
50
39.6368051
51
71.0190743
0
ARC
8
DEFAULT_255_1_388
10
22.4072933
20
44.8097586
40
0.4231706
50
10.6588054
51
39.9044509
0
ARC
8
DEFAULT_255_1_388
10
22.2331479
20
44.7719223
40
0.60133
50
359.6827842
51
11.1326896
0
ARC
8
DEFAULT_255_1_388
10
22.2286815
20
44.7639715
40
0.6058047
50
347.2485908
51
0.4371098
0
ARC
8
DEFAULT_255_1_388
10
22.41626
20
44.7188379
40
0.4128987
50
318.1408565
51
347.6118497
0
ARC
8
DEFAULT_255_1_388
10
22.4528197
20
44.6887903
40
0.3656244
50
275.6342406
51
317.824739
0
ARC
8
DEFAULT_255_1_388
10
22.4279718
20
44.8349827
40
0.513655
50
269.8872513
51
276.7916069
0
ARC
8
DEFAULT_255_1_388
10
22.421791
20
44.7196181
40
0.398323
50
246.9139443
51
270.7436787
0
ARC
8
DEFAULT_255_1_388
10
22.4225106
20
44.7036044
40
0.3839368
50
218.1665534
51
245.8780431
0
ARC
8
DEFAULT_255_1_388
10
22.5214478
20
44.7863903
40
0.5128958
50
191.4115343
51
218.6077624
0
ARC
8
DEFAULT_255_1_388
10
22.7394795
20
44.8352777
40
0.7363054
50
179.6344971
51
191.7836758
0
ARC
8
DEFAULT_255_1_388
10
23.3674669
20
44.9116495
40
1.3642984
50
171.4523743
51
180.3158856
0
ARC
8
DEFAULT_255_1_388
10
22.8730396
20
44.9885895
40
0.8639311
50
157.9802296
51
171.6246761
0
ARC
8
DEFAULT_255_1_388
10
22.6239747
20
45.0879038
40
0.5958004
50
141.4299236
51
157.8541251
0
ARC
8
DEFAULT_255_1_388
10
22.551783
20
45.1389746
40
0.5075416
50
102.871586
51
140.8564533
0
ARC
8
DEFAULT_255_1_388
10
22.6246383
20
44.8644943
40
0.7914163
50
90.377773
51
103.5868422
0
ARC
8
DEFAULT_255_1_388
10
22.4290904
20
44.7964543
40
0.2667015
50
89.8751238
51
126.2072139
0
ARC
8
DEFAULT_255_1_388
10
22.4342375
20
44.7790847
40
0.2838229
50
124.9742447
51
144.8960197
0
ARC
8
DEFAULT_255_1_388
10
22.414462
20
44.7951981
40
0.2583845
50
145.2974778
51
160.2660922
0
ARC
8
DEFAULT_255_1_388
10
22.7601108
20
44.8174151
40
0.5888695
50
179.6512124
51
190.285571
0
ARC
8
DEFAULT_255_1_388
10
22.5695588
20
44.7814968
40
0.3949683
50
190.0944895
51
207.5099647
0
ARC
8
DEFAULT_255_1_388
10
22.505917
20
44.7512177
40
0.3245464
50
207.9585471
51
216.325377
0
ARC
8
DEFAULT_255_1_388
10
22.4676807
20
44.7197712
40
0.2751259
50
215.7661336
51
232.5457193
0
ARC
8
DEFAULT_255_1_388
10
22.4245923
20
44.6650273
40
0.2054668
50
232.8005815
51
270.6605497
0
ARC
8
DEFAULT_255_1_388
10
22.4297347
20
44.7059853
40
0.2464268
50
269.3550767
51
288.474612
0
ARC
8
DEFAULT_255_1_388
10
22.4401854
20
44.6666721
40
0.2058436
50
289.1831976
51
322.9685307
0
ARC
8
DEFAULT_255_1_388
10
22.3713956
20
44.7209279
40
0.2934408
50
322.6007085
51
346.5183319
0
ARC
8
DEFAULT_255_1_388
10
22.2411712
20
44.7541434
40
0.4278249
50
346.2584622
51
358.7739592
0
ARC
8
DEFAULT_255_1_388
10
22.1260287
20
44.7603829
40
0.5430876
50
358.3757628
51
0.0082477
0
ARC
8
DEFAULT_255_1_388
10
22.2117106
20
44.7634856
40
0.4574157
50
359.6211417
51
11.28403
0
ARC
8
DEFAULT_255_1_388
10
22.3553712
20
44.7934535
40
0.3106708
50
11.0483152
51
31.8145585
0
ARC
8
DEFAULT_255_1_388
10
22.3901417
20
44.8123045
40
0.2711963
50
32.3028554
51
38.0820598
0
ARC
8
DEFAULT_255_1_388
10
22.437465
20
44.8551717
40
0.2075566
50
36.8249851
51
85.741667
0
ARC
8
DEFAULT_255_1_388
10
22.4299063
20
44.7988065
40
0.2643487
50
85.0150021
51
90.050843
0
LINE
8
DEFAULT_255_1_388
10
23.3973892
20
44.9664737
11
23.3973892
21
44.8300355
0
LINE
8
DEFAULT_255_1_388
10
23.3973892
20
44.8300355
11
22.9564498
21
44.8300355
0
LINE
8
DEFAULT_255_1_388
10
22.9564498
20
44.8300355
11
22.9564498
21
44.9664737
0
LINE
8
DEFAULT_255_1_388
10
22.9564498
20
44.9664737
11
23.3973892
21
44.9664737
0
LINE
8
DEFAULT_255_1_388
10
24.0922303
20
45.6613148
11
24.0922303
21
44.3394
0
LINE
8
DEFAULT_255_1_388
10
24.0922303
20
44.3394
11
23.9241673
21
44.3394
0
LINE
8
DEFAULT_255_1_388
10
23.9241673
20
44.3394
11
23.9241673
21
45.453495
0
LINE
8
DEFAULT_255_1_388
10
23.9241673
20
45.453495
11
23.5871377
21
45.3297066
0
LINE
8
DEFAULT_255_1_388
10
23.5871377
20
45.3297066
11
23.5871377
21
45.4815055
0
LINE
8
DEFAULT_255_1_388
10
23.5871377
20
45.4815055
11
24.0660269
21
45.6613148
0
LINE
8
DEFAULT_255_1_388
10
24.0660269
20
45.6613148
11
24.0922303
21
45.6613148
0
LINE
8
DEFAULT_255_1_388
10
21.7606661
20
52.9762589
11
21.7606661
21
52.8922274
0
LINE
8
DEFAULT_255_1_388
10
21.5302571
20
52.3482816
11
21.7651839
21
52.1639544
0
LINE
8
DEFAULT_255_1_388
10
21.7651839
20
52.1639544
11
21.6468169
21
52.0546231
0
LINE
8
DEFAULT_255_1_388
10
21.6468169
20
52.0546231
11
21.3694227
21
52.2750929
0
LINE
8
DEFAULT_255_1_388
10
20.7016885
20
52.8804811
11
20.7016885
21
52.9753553
0
LINE
8
DEFAULT_255_1_388
10
21.5871817
20
52.8795775
11
21.5871817
21
52.9771625
0
LINE
8
DEFAULT_255_1_388
10
20.8751729
20
52.9889088
11
20.8751729
21
52.8922274
0
ARC
8
DEFAULT_255_1_388
10
20.753354
20
52.8878529
40
1.0073215
50
351.4530536
51
0.2488167
0
ARC
8
DEFAULT_255_1_388
10
21.0441709
20
52.8428749
40
0.7130509
50
338.6860608
51
351.554089
0
ARC
8
DEFAULT_255_1_388
10
21.1494166
20
52.8056573
40
0.6014866
50
336.2886209
51
338.3448103
0
ARC
8
DEFAULT_255_1_388
10
21.187441
20
52.7847952
40
0.5582958
50
321.1168943
51
336.6796496
0
ARC
8
DEFAULT_255_1_388
10
21.2585183
20
52.7300644
40
0.4686152
50
305.4418419
51
320.8706891
0
ARC
8
DEFAULT_255_1_388
10
21.2364048
20
52.8141492
40
0.5552257
50
271.6372169
51
283.8614231
0
ARC
8
DEFAULT_255_1_388
10
21.2321501
20
52.8882271
40
0.6293984
50
269.993693
51
271.8317035
0
ARC
8
DEFAULT_255_1_388
10
21.2279326
20
52.797068
40
0.5382553
50
252.5221437
51
270.441579
0
ARC
8
DEFAULT_255_1_388
10
21.2117576
20
52.7364046
40
0.4755426
50
237.5349961
51
252.1858334
0
ARC
8
DEFAULT_255_1_388
10
21.2217952
20
52.749212
40
0.4917393
50
209.0632754
51
237.3492577
0
ARC
8
DEFAULT_255_1_388
10
21.3197278
20
52.8107104
40
0.6072464
50
205.118533
51
209.6465345
0
ARC
8
DEFAULT_255_1_388
10
21.409328
20
52.8487174
40
0.7045164
50
188.7216633
51
204.8239753
0
ARC
8
DEFAULT_255_1_388
10
21.6340056
20
52.8865387
40
0.9323368
50
180.3722704
51
188.9253909
0
ARC
8
DEFAULT_255_1_388
10
21.6309617
20
52.9798416
40
0.929284
50
169.5253055
51
180.2766048
0
ARC
8
DEFAULT_255_1_388
10
21.4169416
20
53.0192024
40
0.7116745
50
155.8314601
51
169.5088611
0
ARC
8
DEFAULT_255_1_388
10
21.2728879
20
53.0860312
40
0.5528904
50
139.6259579
51
156.0379072
0
ARC
8
DEFAULT_255_1_388
10
21.2065413
20
53.1394143
40
0.4677708
50
122.6414784
51
139.3431662
0
ARC
8
DEFAULT_255_1_388
10
21.2178668
20
53.1187787
40
0.4912586
50
93.0224537
51
122.4556091
0
ARC
8
DEFAULT_255_1_388
10
21.2300189
20
53.0101776
40
0.6003837
50
89.9756766
51
93.6340839
0
ARC
8
DEFAULT_255_1_388
10
21.2343886
20
53.0529547
40
0.5576216
50
73.9666049
51
90.4228101
0
ARC
8
DEFAULT_255_1_388
10
21.2550535
20
53.1334139
40
0.4745905
50
57.5177173
51
73.6814962
0
ARC
8
DEFAULT_255_1_388
10
21.2500759
20
53.1293592
40
0.4806881
50
28.7260666
51
57.2767723
0
ARC
8
DEFAULT_255_1_388
10
21.1476166
20
53.0660397
40
0.6010032
50
24.2451459
51
29.3250018
0
ARC
8
DEFAULT_255_1_388
10
21.0434631
20
53.0229744
40
0.713663
50
9.0643887
51
23.9639114
0
ARC
8
DEFAULT_255_1_388
10
20.7897068
20
52.9803505
40
0.9709678
50
359.7585581
51
9.1891216
0
ARC
8
DEFAULT_255_1_388
10
20.6485656
20
52.9818562
40
0.9386278
50
359.7134836
51
7.9655743
0
ARC
8
DEFAULT_255_1_388
10
20.9818355
20
53.0299391
40
0.6019121
50
7.8289718
51
20.0423308
0
ARC
8
DEFAULT_255_1_388
10
21.1645823
20
53.0964145
40
0.4074504
50
20.0676743
51
35.9162425
0
ARC
8
DEFAULT_255_1_388
10
21.2517702
20
53.1612196
40
0.2988273
50
35.659429
51
85.1578517
0
ARC
8
DEFAULT_255_1_388
10
21.2309864
20
53.0357214
40
0.4257521
50
83.7963246
51
90.0959039
0
ARC
8
DEFAULT_255_1_388
10
21.2261408
20
53.1182384
40
0.3432594
50
89.3101324
51
109.9889786
0
ARC
8
DEFAULT_255_1_388
10
21.2168598
20
53.1582665
40
0.3025108
50
110.9286914
51
143.9411475
0
ARC
8
DEFAULT_255_1_388
10
21.32159
20
53.0781455
40
0.434348
50
143.5289166
51
163.2980252
0
ARC
8
DEFAULT_255_1_388
10
21.5362187
20
53.0106685
40
0.659321
50
163.0418884
51
174.3139873
0
ARC
8
DEFAULT_255_1_388
10
21.8067152
20
52.9794378
40
0.9315905
50
174.050934
51
179.4174954
0
ARC
8
DEFAULT_255_1_388
10
21.7488866
20
52.8873922
40
0.8737271
50
179.6829249
51
188.9631837
0
ARC
8
DEFAULT_255_1_388
10
21.4484597
20
52.8384648
40
0.569348
50
188.8098723
51
202.9300437
0
ARC
8
DEFAULT_255_1_388
10
21.3116329
20
52.7827968
40
0.4216493
50
203.2071737
51
215.7877161
0
ARC
8
DEFAULT_255_1_388
10
21.2161612
20
52.707285
40
0.3000949
50
214.7520738
51
264.283405
0
ARC
8
DEFAULT_255_1_388
10
21.2314203
20
52.8034645
40
0.3973553
50
263.4754673
51
270.0952411
0
ARC
8
DEFAULT_255_1_388
10
21.2361596
20
52.7740808
40
0.3679937
50
269.3649295
51
287.5149684
0
ARC
8
DEFAULT_255_1_388
10
21.2562037
20
52.7012714
40
0.2925408
50
288.0629019
51
323.8115617
0
ARC
8
DEFAULT_255_1_388
10
21.1582013
20
52.7743754
40
0.4148018
50
323.6546541
51
342.6591359
0
ARC
8
DEFAULT_255_1_388
10
20.9296671
20
52.848728
40
0.6551163
50
342.4092446
51
353.6451501
0
ARC
8
DEFAULT_255_1_388
10
20.6111465
20
52.8883565
40
0.9760748
50
353.4027553
51
359.4846611
0
LINE
8
DEFAULT_255_1_388
10
22.1952806
20
52.9021666
11
22.061553
21
52.9365021
0
LINE
8
DEFAULT_255_1_388
10
22.061553
20
52.9365021
11
22.1284168
21
53.5924898
0
LINE
8
DEFAULT_255_1_388
10
22.1284168
20
53.5924898
11
22.8024759
21
53.5924898
0
LINE
8
DEFAULT_255_1_388
10
22.8024759
20
53.5924898
11
22.8024759
21
53.4379803
0
LINE
8
DEFAULT_255_1_388
10
22.8024759
20
53.4379803
11
22.2702764
21
53.4379803
0
LINE
8
DEFAULT_255_1_388
10
22.2702764
20
53.4379803
11
22.2305196
21
53.0792652
0
LINE
8
DEFAULT_255_1_388
10
22.0145677
20
52.6229652
11
22.1726915
21
52.6229652
0
LINE
8
DEFAULT_255_1_388
10
22.2395552
20
52.9383092
11
22.1952806
21
52.9021666
0
ARC
8
DEFAULT_255_1_388
10
22.4391809
20
52.7215241
40
0.4141476
50
93.7181681
51
120.253934
0
ARC
8
DEFAULT_255_1_388
10
22.4497862
20
52.6306284
40
0.5055616
50
89.9660471
51
94.2495185
0
ARC
8
DEFAULT_255_1_388
10
22.4543683
20
52.6969154
40
0.4392953
50
73.8045384
51
90.5585736
0
ARC
8
DEFAULT_255_1_388
10
22.4807941
20
52.793452
40
0.3392225
50
41.3071072
51
73.543002
0
ARC
8
DEFAULT_255_1_388
10
22.4339761
20
52.7531461
40
0.4009977
50
13.5075837
51
41.2174839
0
ARC
8
DEFAULT_255_1_388
10
22.2492858
20
52.7047907
40
0.5918864
50
1.1330171
51
13.8830737
0
ARC
8
DEFAULT_255_1_388
10
22.0896504
20
52.6962522
40
0.7516787
50
359.9925091
51
1.5431298
0
ARC
8
DEFAULT_255_1_388
10
22.2341119
20
52.6916027
40
0.6072343
50
347.8572712
51
0.4294349
0
ARC
8
DEFAULT_255_1_388
10
22.4310254
20
52.6469898
40
0.4053482
50
323.6727442
51
348.1674594
0
ARC
8
DEFAULT_255_1_388
10
22.4641219
20
52.6268175
40
0.3667495
50
316.8171818
51
323.1486802
0
ARC
8
DEFAULT_255_1_388
10
22.4710342
20
52.6226612
40
0.358869
50
281.839603
51
316.5458142
0
ARC
8
DEFAULT_255_1_388
10
22.428763
20
52.7976363
40
0.5388223
50
269.5770964
51
282.4214641
0
ARC
8
DEFAULT_255_1_388
10
22.4207551
20
52.773593
40
0.5147801
50
256.2425863
51
270.4486481
0
ARC
8
DEFAULT_255_1_388
10
22.3871078
20
52.6386124
40
0.3756708
50
228.9024379
51
256.33135
0
ARC
8
DEFAULT_255_1_388
10
22.3788058
20
52.6255054
40
0.360344
50
193.7536029
51
228.5272638
0
ARC
8
DEFAULT_255_1_388
10
22.5180623
20
52.6663463
40
0.5053599
50
184.9244437
51
194.4976052
0
ARC
8
DEFAULT_255_1_388
10
22.5397265
20
52.6703722
40
0.3700839
50
187.3596909
51
198.6733728
0
ARC
8
DEFAULT_255_1_388
10
22.4216508
20
52.6294373
40
0.2451195
50
198.4453795
51
217.7945479
0
ARC
8
DEFAULT_255_1_388
10
22.3883681
20
52.6058563
40
0.2043754
50
218.2887146
51
228.5613203
0
ARC
8
DEFAULT_255_1_388
10
22.3993688
20
52.6206902
40
0.2227819
50
228.9652423
51
258.1237049
0
ARC
8
DEFAULT_255_1_388
10
22.4225125
20
52.7197964
40
0.3245374
50
257.7260585
51
270.4013717
0
ARC
8
DEFAULT_255_1_388
10
22.4275623
20
52.6697255
40
0.2744726
50
269.4204315
51
286.420998
0
ARC
8
DEFAULT_255_1_388
10
22.4442679
20
52.6090705
40
0.2115721
50
286.7250065
51
320.6004665
0
ARC
8
DEFAULT_255_1_388
10
22.4011594
20
52.6440527
40
0.2670878
50
320.6712228
51
344.5440474
0
ARC
8
DEFAULT_255_1_388
10
22.2710308
20
52.6822394
40
0.4026927
50
344.241448
51
356.735803
0
ARC
8
DEFAULT_255_1_388
10
22.1306615
20
52.6938656
40
0.5435085
50
356.3547471
51
0.0507222
0
ARC
8
DEFAULT_255_1_388
10
22.280888
20
52.6973812
40
0.3932934
50
359.5579289
51
12.9534322
0
ARC
8
DEFAULT_255_1_388
10
22.399572
20
52.7261586
40
0.2711827
50
12.6489751
51
41.608121
0
ARC
8
DEFAULT_255_1_388
10
22.425488
20
52.7481946
40
0.2371737
50
41.7851122
51
85.9892156
0
ARC
8
DEFAULT_255_1_388
10
22.411619
20
52.6566738
40
0.3295244
50
84.6965848
51
90.0672125
0
ARC
8
DEFAULT_255_1_388
10
22.4089758
20
52.5815118
40
0.4046926
50
89.6804991
51
99.161352
0
ARC
8
DEFAULT_255_1_388
10
22.3858767
20
52.7195848
40
0.2647044
50
98.9836248
51
113.8905702
0
ARC
8
DEFAULT_255_1_388
10
22.3600442
20
52.7805118
40
0.1985386
50
114.195234
51
127.3641866
0
LINE
8
DEFAULT_255_1_388
10
23.3888892
20
52.9039737
11
23.3888892
21
52.7675355
0
LINE
8
DEFAULT_255_1_388
10
23.3888892
20
52.7675355
11
22.9479498
21
52.7675355
0
LINE
8
DEFAULT_255_1_388
10
22.9479498
20
52.7675355
11
22.9479498
21
52.9039737
0
LINE
8
DEFAULT_255_1_388
10
22.9479498
20
52.9039737
11
23.3888892
21
52.9039737
0
LINE
8
DEFAULT_255_1_388
10
24.3963636
20
52.4133382
11
24.3963636
21
52.2769
0
LINE
8
DEFAULT_255_1_388
10
24.3963636
20
52.2769
11
23.5343631
21
52.2769
0
LINE
8
DEFAULT_255_1_388
10
23.5343631
20
52.2769
11
23.5343631
21
52.3970741
0
LINE
8
DEFAULT_255_1_388
10
23.5343631
20
52.3970741
11
23.9897596
21
52.9030702
0
LINE
8
DEFAULT_255_1_388
10
23.6762227
20
53.2048607
11
23.5090633
21
53.2048607
0
LINE
8
DEFAULT_255_1_388
10
24.0882481
20
52.795546
11
23.735858
21
52.4133382
0
LINE
8
DEFAULT_255_1_388
10
23.735858
20
52.4133382
11
24.3963636
21
52.4133382
0
ARC
8
DEFAULT_255_1_388
10
22.4721655
20
54.2450983
40
2.0258655
50
318.5132526
51
320.7829045
0
ARC
8
DEFAULT_255_1_388
10
23.0669612
20
53.7609929
40
1.2589638
50
320.7372878
51
323.9739031
0
ARC
8
DEFAULT_255_1_388
10
23.5078544
20
53.4415554
40
0.7145141
50
323.8962701
51
328.64194
0
ARC
8
DEFAULT_255_1_388
10
23.7380801
20
53.2995545
40
0.4440242
50
328.8294576
51
331.7891185
0
ARC
8
DEFAULT_255_1_388
10
23.8503122
20
53.2416374
40
0.3177517
50
331.4254512
51
352.9365785
0
ARC
8
DEFAULT_255_1_388
10
23.8656121
20
53.238205
40
0.3021496
50
353.2257659
51
0.0166158
0
ARC
8
DEFAULT_255_1_388
10
23.8892882
20
53.2407894
40
0.2784847
50
359.486299
51
15.9343185
0
ARC
8
DEFAULT_255_1_388
10
23.9463149
20
53.2561269
40
0.2194403
50
16.1712913
51
43.5286088
0
ARC
8
DEFAULT_255_1_388
10
23.9550093
20
53.2648191
40
0.2071504
50
43.4417391
51
83.1661095
0
ARC
8
DEFAULT_255_1_388
10
23.9399255
20
53.1819316
40
0.2912888
50
82.160179
51
90.1505708
0
ARC
8
DEFAULT_255_1_388
10
23.9363736
20
53.1215279
40
0.3517025
50
89.5460741
51
102.5418361
0
ARC
8
DEFAULT_255_1_388
10
23.9090456
20
53.2374933
40
0.2325748
50
102.1738499
51
129.206123
0
ARC
8
DEFAULT_255_1_388
10
23.900191
20
53.2514664
40
0.2161591
50
129.72865
51
135.753947
0
ARC
8
DEFAULT_255_1_388
10
23.9138392
20
53.2405728
40
0.2335433
50
136.1757367
51
166.3673339
0
ARC
8
DEFAULT_255_1_388
10
24.027108
20
53.2102148
40
0.3507873
50
165.9090694
51
178.8684636
0
ARC
8
DEFAULT_255_1_388
10
24.1246852
20
53.2049263
40
0.4484624
50
178.4391136
51
180.0083808
0
ARC
8
DEFAULT_255_1_388
10
23.9667553
20
53.2093197
40
0.4577138
50
163.2878482
51
180.5581842
0
ARC
8
DEFAULT_255_1_388
10
23.8765594
20
53.2341393
40
0.3641968
50
133.4540601
51
162.947111
0
ARC
8
DEFAULT_255_1_388
10
23.8966476
20
53.2127789
40
0.3935189
50
100.7869829
51
133.4382499
0
ARC
8
DEFAULT_255_1_388
10
23.9357721
20
53.0385399
40
0.5720313
50
89.660664
51
101.3702276
0
ARC
8
DEFAULT_255_1_388
10
23.943233
20
53.0454263
40
0.5651495
50
78.2172678
51
90.412935
0
ARC
8
DEFAULT_255_1_388
10
23.9831796
20
53.2281511
40
0.378122
50
55.9269121
51
78.4888449
0
ARC
8
DEFAULT_255_1_388
10
24.0052511
20
53.2662187
40
0.3342379
50
47.929771
51
55.4049217
0
ARC
8
DEFAULT_255_1_388
10
24.0167041
20
53.2778618
40
0.3179217
50
4.334829
51
48.0560205
0
ARC
8
DEFAULT_255_1_388
10
23.8934843
20
53.2587487
40
0.442341
50
359.9251713
51
5.5971671
0
ARC
8
DEFAULT_255_1_388
10
23.9416998
20
53.2650728
40
0.3941854
50
337.8914027
51
358.9967534
0
ARC
8
DEFAULT_255_1_388
10
23.6364568
20
53.3828295
40
0.7213271
50
326.9132501
51
338.3508308
0
ARC
8
DEFAULT_255_1_388
10
23.188068
20
53.6702105
40
1.2538973
50
319.6471833
51
327.0959558
0
ARC
8
DEFAULT_255_1_388
10
22.7567338
20
54.026005
40
1.8129975
50
317.2588228
51
319.9045804
0
LINE
8
DEFAULT_255_1_388
10
21.7691661
20
60.9137589
11
21.7691661
21
60.8297274
0
LINE
8
DEFAULT_255_1_388
10
21.5387571
20
60.2857816
11
21.7736839
21
60.1014544
0
LINE
8
DEFAULT_255_1_388
10
21.7736839
20
60.1014544
11
21.6553169
21
59.9921231
0
LINE
8
DEFAULT_255_1_388
10
21.6553169
20
59.9921231
11
21.3779227
21
60.2125929
0
LINE
8
DEFAULT_255_1_388
10
20.7101885
20
60.8179811
11
20.7101885
21
60.9128553
0
LINE
8
DEFAULT_255_1_388
10
21.5956817
20
60.8170775
11
21.5956817
21
60.9146625
0
LINE
8
DEFAULT_255_1_388
10
20.8836729
20
60.9264088
11
20.8836729
21
60.8297274
0
ARC
8
DEFAULT_255_1_388
10
20.761854
20
60.8253529
40
1.0073215
50
351.4530536
51
0.2488167
0
ARC
8
DEFAULT_255_1_388
10
21.0526709
20
60.7803749
40
0.7130509
50
338.6860608
51
351.554089
0
ARC
8
DEFAULT_255_1_388
10
21.1579166
20
60.7431573
40
0.6014866
50
336.2886209
51
338.3448103
0
ARC
8
DEFAULT_255_1_388
10
21.195941
20
60.7222952
40
0.5582958
50
321.1168943
51
336.6796496
0
ARC
8
DEFAULT_255_1_388
10
21.2670183
20
60.6675644
40
0.4686152
50
305.4418419
51
320.8706891
0
ARC
8
DEFAULT_255_1_388
10
21.2449048
20
60.7516492
40
0.5552257
50
271.6372169
51
283.8614231
0
ARC
8
DEFAULT_255_1_388
10
21.2406501
20
60.8257271
40
0.6293984
50
269.993693
51
271.8317035
0
ARC
8
DEFAULT_255_1_388
10
21.2364326
20
60.734568
40
0.5382553
50
252.5221437
51
270.441579
0
ARC
8
DEFAULT_255_1_388
10
21.2202576
20
60.6739046
40
0.4755426
50
237.5349961
51
252.1858334
0
ARC
8
DEFAULT_255_1_388
10
21.2302952
20
60.686712
40
0.4917393
50
209.0632754
51
237.3492577
0
ARC
8
DEFAULT_255_1_388
10
21.3282278
20
60.7482104
40
0.6072464
50
205.118533
51
209.6465345
0
ARC
8
DEFAULT_255_1_388
10
21.417828
20
60.7862174
40
0.7045164
50
188.7216633
51
204.8239753
0
ARC
8
DEFAULT_255_1_388
10
21.6425056
20
60.8240387
40
0.9323368
50
180.3722704
51
188.9253909
0
ARC
8
DEFAULT_255_1_388
10
21.6394617
20
60.9173416
40
0.929284
50
169.5253055
51
180.2766048
0
ARC
8
DEFAULT_255_1_388
10
21.4254416
20
60.9567024
40
0.7116745
50
155.8314601
51
169.5088611
0
ARC
8
DEFAULT_255_1_388
10
21.2813879
20
61.0235312
40
0.5528904
50
139.6259579
51
156.0379072
0
ARC
8
DEFAULT_255_1_388
10
21.2150413
20
61.0769143
40
0.4677708
50
122.6414784
51
139.3431662
0
ARC
8
DEFAULT_255_1_388
10
21.2263668
20
61.0562787
40
0.4912586
50
93.0224537
51
122.4556091
0
ARC
8
DEFAULT_255_1_388
10
21.2385189
20
60.9476776
40
0.6003837
50
89.9756766
51
93.6340839
0
ARC
8
DEFAULT_255_1_388
10
21.2428886
20
60.9904547
40
0.5576216
50
73.9666049
51
90.4228101
0
ARC
8
DEFAULT_255_1_388
10
21.2635535
20
61.0709139
40
0.4745905
50
57.5177173
51
73.6814962
0
ARC
8
DEFAULT_255_1_388
10
21.2585759
20
61.0668592
40
0.4806881
50
28.7260666
51
57.2767723
0
ARC
8
DEFAULT_255_1_388
10
21.1561166
20
61.0035397
40
0.6010032
50
24.2451459
51
29.3250018
0
ARC
8
DEFAULT_255_1_388
10
21.0519631
20
60.9604744
40
0.713663
50
9.0643887
51
23.9639114
0
ARC
8
DEFAULT_255_1_388
10
20.7982068
20
60.9178505
40
0.9709678
50
359.7585581
51
9.1891216
0
ARC
8
DEFAULT_255_1_388
10
20.6570656
20
60.9193562
40
0.9386278
50
359.7134836
51
7.9655743
0
ARC
8
DEFAULT_255_1_388
10
20.9903355
20
60.9674391
40
0.6019121
50
7.8289718
51
20.0423308
0
ARC
8
DEFAULT_255_1_388
10
21.1730823
20
61.0339145
40
0.4074504
50
20.0676743
51
35.9162425
0
ARC
8
DEFAULT_255_1_388
10
21.2602702
20
61.0987196
40
0.2988273
50
35.659429
51
85.1578517
0
ARC
8
DEFAULT_255_1_388
10
21.2394864
20
60.9732214
40
0.4257521
50
83.7963246
51
90.0959039
0
ARC
8
DEFAULT_255_1_388
10
21.2346408
20
61.0557384
40
0.3432594
50
89.3101324
51
109.9889786
0
ARC
8
DEFAULT_255_1_388
10
21.2253598
20
61.0957665
40
0.3025108
50
110.9286914
51
143.9411475
0
ARC
8
DEFAULT_255_1_388
10
21.33009
20
61.0156455
40
0.434348
50
143.5289166
51
163.2980252
0
ARC
8
DEFAULT_255_1_388
10
21.5447187
20
60.9481685
40
0.659321
50
163.0418884
51
174.3139873
0
ARC
8
DEFAULT_255_1_388
10
21.8152152
20
60.9169378
40
0.9315905
50
174.050934
51
179.4174954
0
ARC
8
DEFAULT_255_1_388
10
21.7573866
20
60.8248922
40
0.8737271
50
179.6829249
51
188.9631837
0
ARC
8
DEFAULT_255_1_388
10
21.4569597
20
60.7759648
40
0.569348
50
188.8098723
51
202.9300437
0
ARC
8
DEFAULT_255_1_388
10
21.3201329
20
60.7202968
40
0.4216493
50
203.2071737
51
215.7877161
0
ARC
8
DEFAULT_255_1_388
10
21.2246612
20
60.644785
40
0.3000949
50
214.7520738
51
264.283405
0
ARC
8
DEFAULT_255_1_388
10
21.2399203
20
60.7409645
40
0.3973553
50
263.4754673
51
270.0952411
0
ARC
8
DEFAULT_255_1_388
10
21.2446596
20
60.7115808
40
0.3679937
50
269.3649295
51
287.5149684
0
ARC
8
DEFAULT_255_1_388
10
21.2647037
20
60.6387714
40
0.2925408
50
288.0629019
51
323.8115617
0
ARC
8
DEFAULT_255_1_388
10
21.1667013
20
60.7118754
40
0.4148018
50
323.6546541
51
342.6591359
0
ARC
8
DEFAULT_255_1_388
10
20.9381671
20
60.786228
40
0.6551163
50
342.4092446
51
353.6451501
0
ARC
8
DEFAULT_255_1_388
10
20.6196465
20
60.8258565
40
0.9760748
50
353.4027553
51
359.4846611
0
LINE
8
DEFAULT_255_1_388
10
22.2037806
20
60.8396666
11
22.070053
21
60.8740021
0
LINE
8
DEFAULT_255_1_388
10
22.070053
20
60.8740021
11
22.1369168
21
61.5299898
0
LINE
8
DEFAULT_255_1_388
10
22.1369168
20
61.5299898
11
22.8109759
21
61.5299898
0
LINE
8
DEFAULT_255_1_388
10
22.8109759
20
61.5299898
11
22.8109759
21
61.3754803
0
LINE
8
DEFAULT_255_1_388
10
22.8109759
20
61.3754803
11
22.2787764
21
61.3754803
0
LINE
8
DEFAULT_255_1_388
10
22.2787764
20
61.3754803
11
22.2390196
21
61.0167652
0
LINE
8
DEFAULT_255_1_388
10
22.0230677
20
60.5604652
11
22.1811915
21
60.5604652
0
LINE
8
DEFAULT_255_1_388
10
22.2480552
20
60.8758092
11
22.2037806
21
60.8396666
0
ARC
8
DEFAULT_255_1_388
10
22.4476809
20
60.6590241
40
0.4141476
50
93.7181681
51
120.253934
0
ARC
8
DEFAULT_255_1_388
10
22.4582862
20
60.5681284
40
0.5055616
50
89.9660471
51
94.2495185
0
ARC
8
DEFAULT_255_1_388
10
22.4628683
20
60.6344154
40
0.4392953
50
73.8045384
51
90.5585736
0
ARC
8
DEFAULT_255_1_388
10
22.4892941
20
60.730952
40
0.3392225
50
41.3071072
51
73.543002
0
ARC
8
DEFAULT_255_1_388
10
22.4424761
20
60.6906461
40
0.4009977
50
13.5075837
51
41.2174839
0
ARC
8
DEFAULT_255_1_388
10
22.2577858
20
60.6422907
40
0.5918864
50
1.1330171
51
13.8830737
0
ARC
8
DEFAULT_255_1_388
10
22.0981504
20
60.6337522
40
0.7516787
50
359.9925091
51
1.5431298
0
ARC
8
DEFAULT_255_1_388
10
22.2426119
20
60.6291027
40
0.6072343
50
347.8572712
51
0.4294349
0
ARC
8
DEFAULT_255_1_388
10
22.4395254
20
60.5844898
40
0.4053482
50
323.6727442
51
348.1674594
0
ARC
8
DEFAULT_255_1_388
10
22.4726219
20
60.5643175
40
0.3667495
50
316.8171818
51
323.1486802
0
ARC
8
DEFAULT_255_1_388
10
22.4795342
20
60.5601612
40
0.358869
50
281.839603
51
316.5458142
0
ARC
8
DEFAULT_255_1_388
10
22.437263
20
60.7351363
40
0.5388223
50
269.5770964
51
282.4214641
0
ARC
8
DEFAULT_255_1_388
10
22.4292551
20
60.711093
40
0.5147801
50
256.2425863
51
270.4486481
0
ARC
8
DEFAULT_255_1_388
10
22.3956078
20
60.5761124
40
0.3756708
50
228.9024379
51
256.33135
0
ARC
8
DEFAULT_255_1_388
10
22.3873058
20
60.5630054
40
0.360344
50
193.7536029
51
228.5272638
0
ARC
8
DEFAULT_255_1_388
10
22.5265623
20
60.6038463
40
0.5053599
50
184.9244437
51
194.4976052
0
ARC
8
DEFAULT_255_1_388
10
22.5482265
20
60.6078722
40
0.3700839
50
187.3596909
51
198.6733728
0
ARC
8
DEFAULT_255_1_388
10
22.4301508
20
60.5669373
40
0.2451195
50
198.4453795
51
217.7945479
0
ARC
8
DEFAULT_255_1_388
10
22.3968681
20
60.5433563
40
0.2043754
50
218.2887146
51
228.5613203
0
ARC
8
DEFAULT_255_1_388
10
22.4078688
20
60.5581902
40
0.2227819
50
228.9652423
51
258.1237049
0
ARC
8
DEFAULT_255_1_388
10
22.4310125
20
60.6572964
40
0.3245374
50
257.7260585
51
270.4013717
0
ARC
8
DEFAULT_255_1_388
10
22.4360623
20
60.6072255
40
0.2744726
50
269.4204315
51
286.420998
0
ARC
8
DEFAULT_255_1_388
10
22.4527679
20
60.5465705
40
0.2115721
50
286.7250065
51
320.6004665
0
ARC
8
DEFAULT_255_1_388
10
22.4096594
20
60.5815527
40
0.2670878
50
320.6712228
51
344.5440474
0
ARC
8
DEFAULT_255_1_388
10
22.2795308
20
60.6197394
40
0.4026927
50
344.241448
51
356.735803
0
ARC
8
DEFAULT_255_1_388
10
22.1391615
20
60.6313656
40
0.5435085
50
356.3547471
51
0.0507222
0
ARC
8
DEFAULT_255_1_388
10
22.289388
20
60.6348812
40
0.3932934
50
359.5579289
51
12.9534322
0
ARC
8
DEFAULT_255_1_388
10
22.408072
20
60.6636586
40
0.2711827
50
12.6489751
51
41.608121
0
ARC
8
DEFAULT_255_1_388
10
22.433988
20
60.6856946
40
0.2371737
50
41.7851122
51
85.9892156
0
ARC
8
DEFAULT_255_1_388
10
22.420119
20
60.5941738
40
0.3295244
50
84.6965848
51
90.0672125
0
ARC
8
DEFAULT_255_1_388
10
22.4174758
20
60.5190118
40
0.4046926
50
89.6804991
51
99.161352
0
ARC
8
DEFAULT_255_1_388
10
22.3943767
20
60.6570848
40
0.2647044
50
98.9836248
51
113.8905702
0
ARC
8
DEFAULT_255_1_388
10
22.3685442
20
60.7180118
40
0.1985386
50
114.195234
51
127.3641866
0
LINE
8
DEFAULT_255_1_388
10
23.3973892
20
60.8414737
11
23.3973892
21
60.7050355
0
LINE
8
DEFAULT_255_1_388
10
23.3973892
20
60.7050355
11
22.9564498
21
60.7050355
0
LINE
8
DEFAULT_255_1_388
10
22.9564498
20
60.7050355
11
22.9564498
21
60.8414737
0
LINE
8
DEFAULT_255_1_388
10
22.9564498
20
60.8414737
11
23.3973892
21
60.8414737
0
LINE
8
DEFAULT_255_1_388
10
24.0922303
20
61.5363148
11
24.0922303
21
60.2144
0
LINE
8
DEFAULT_255_1_388
10
24.0922303
20
60.2144
11
23.9241673
21
60.2144
0
LINE
8
DEFAULT_255_1_388
10
23.9241673
20
60.2144
11
23.9241673
21
61.328495
0
LINE
8
DEFAULT_255_1_388
10
23.9241673
20
61.328495
11
23.5871377
21
61.2047066
0
LINE
8
DEFAULT_255_1_388
10
23.5871377
20
61.2047066
11
23.5871377
21
61.3565055
0
LINE
8
DEFAULT_255_1_388
10
23.5871377
20
61.3565055
11
24.0660269
21
61.5363148
0
LINE
8
DEFAULT_255_1_388
10
24.0660269
20
61.5363148
11
24.0922303
21
61.5363148
0
LINE
8
DEFAULT_255_1_388
10
21.7606661
20
68.8512589
11
21.7606661
21
68.7672274
0
LINE
8
DEFAULT_255_1_388
10
21.5302571
20
68.2232816
11
21.7651839
21
68.0389544
0
LINE
8
DEFAULT_255_1_388
10
21.7651839
20
68.0389544
11
21.6468169
21
67.9296231
0
LINE
8
DEFAULT_255_1_388
10
21.6468169
20
67.9296231
11
21.3694227
21
68.1500929
0
LINE
8
DEFAULT_255_1_388
10
20.7016885
20
68.7554811
11
20.7016885
21
68.8503553
0
LINE
8
DEFAULT_255_1_388
10
21.5871817
20
68.7545775
11
21.5871817
21
68.8521625
0
LINE
8
DEFAULT_255_1_388
10
20.8751729
20
68.8639088
11
20.8751729
21
68.7672274
0
ARC
8
DEFAULT_255_1_388
10
20.753354
20
68.7628529
40
1.0073215
50
351.4530536
51
0.2488167
0
ARC
8
DEFAULT_255_1_388
10
21.0441709
20
68.7178749
40
0.7130509
50
338.6860608
51
351.554089
0
ARC
8
DEFAULT_255_1_388
10
21.1494166
20
68.6806573
40
0.6014866
50
336.2886209
51
338.3448103
0
ARC
8
DEFAULT_255_1_388
10
21.187441
20
68.6597952
40
0.5582958
50
321.1168943
51
336.6796496
0
ARC
8
DEFAULT_255_1_388
10
21.2585183
20
68.6050644
40
0.4686152
50
305.4418419
51
320.8706891
0
ARC
8
DEFAULT_255_1_388
10
21.2364048
20
68.6891492
40
0.5552257
50
271.6372169
51
283.8614231
0
ARC
8
DEFAULT_255_1_388
10
21.2321501
20
68.7632271
40
0.6293984
50
269.993693
51
271.8317035
0
ARC
8
DEFAULT_255_1_388
10
21.2279326
20
68.672068
40
0.5382553
50
252.5221437
51
270.441579
0
ARC
8
DEFAULT_255_1_388
10
21.2117576
20
68.6114046
40
0.4755426
50
237.5349961
51
252.1858334
0
ARC
8
DEFAULT_255_1_388
10
21.2217952
20
68.624212
40
0.4917393
50
209.0632754
51
237.3492577
0
ARC
8
DEFAULT_255_1_388
10
21.3197278
20
68.6857104
40
0.6072464
50
205.118533
51
209.6465345
0
ARC
8
DEFAULT_255_1_388
10
21.409328
20
68.7237174
40
0.7045164
50
188.7216633
51
204.8239753
0
ARC
8
DEFAULT_255_1_388
10
21.6340056
20
68.7615387
40
0.9323368
50
180.3722704
51
188.9253909
0
ARC
8
DEFAULT_255_1_388
10
21.6309617
20
68.8548416
40
0.929284
50
169.5253055
51
180.2766048
0
ARC
8
DEFAULT_255_1_388
10
21.4169416
20
68.8942024
40
0.7116745
50
155.8314601
51
169.5088611
0
ARC
8
DEFAULT_255_1_388
10
21.2728879
20
68.9610312
40
0.5528904
50
139.6259579
51
156.0379072
0
ARC
8
DEFAULT_255_1_388
10
21.2065413
20
69.0144143
40
0.4677708
50
122.6414784
51
139.3431662
0
ARC
8
DEFAULT_255_1_388
10
21.2178668
20
68.9937787
40
0.4912586
50
93.0224537
51
122.4556091
0
ARC
8
DEFAULT_255_1_388
10
21.2300189
20
68.8851776
40
0.6003837
50
89.9756766
51
93.6340839
0
ARC
8
DEFAULT_255_1_388
10
21.2343886
20
68.9279547
40
0.5576216
50
73.9666049
51
90.4228101
0
ARC
8
DEFAULT_255_1_388
10
21.2550535
20
69.0084139
40
0.4745905
50
57.5177173
51
73.6814962
0
ARC
8
DEFAULT_255_1_388
10
21.2500759
20
69.0043592
40
0.4806881
50
28.7260666
51
57.2767723
0
ARC
8
DEFAULT_255_1_388
10
21.1476166
20
68.9410397
40
0.6010032
50
24.2451459
51
29.3250018
0
ARC
8
DEFAULT_255_1_388
10
21.0434631
20
68.8979744
40
0.713663
50
9.0643887
51
23.9639114
0
ARC
8
DEFAULT_255_1_388
10
20.7897068
20
68.8553505
40
0.9709678
50
359.7585581
51
9.1891216
0
ARC
8
DEFAULT_255_1_388
10
20.6485656
20
68.8568562
40
0.9386278
50
359.7134836
51
7.9655743
0
ARC
8
DEFAULT_255_1_388
10
20.9818355
20
68.9049391
40
0.6019121
50
7.8289718
51
20.0423308
0
ARC
8
DEFAULT_255_1_388
10
21.1645823
20
68.9714145
40
0.4074504
50
20.0676743
51
35.9162425
0
ARC
8
DEFAULT_255_1_388
10
21.2517702
20
69.0362196
40
0.2988273
50
35.659429
51
85.1578517
0
ARC
8
DEFAULT_255_1_388
10
21.2309864
20
68.9107214
40
0.4257521
50
83.7963246
51
90.0959039
0
ARC
8
DEFAULT_255_1_388
10
21.2261408
20
68.9932384
40
0.3432594
50
89.3101324
51
109.9889786
0
ARC
8
DEFAULT_255_1_388
10
21.2168598
20
69.0332665
40
0.3025108
50
110.9286914
51
143.9411475
0
ARC
8
DEFAULT_255_1_388
10
21.32159
20
68.9531455
40
0.434348
50
143.5289166
51
163.2980252
0
ARC
8
DEFAULT_255_1_388
10
21.5362187
20
68.8856685
40
0.659321
50
163.0418884
51
174.3139873
0
ARC
8
DEFAULT_255_1_388
10
21.8067152
20
68.8544378
40
0.9315905
50
174.050934
51
179.4174954
0
ARC
8
DEFAULT_255_1_388
10
21.7488866
20
68.7623922
40
0.8737271
50
179.6829249
51
188.9631837
0
ARC
8
DEFAULT_255_1_388
10
21.4484597
20
68.7134648
40
0.569348
50
188.8098723
51
202.9300437
0
ARC
8
DEFAULT_255_1_388
10
21.3116329
20
68.6577968
40
0.4216493
50
203.2071737
51
215.7877161
0
ARC
8
DEFAULT_255_1_388
10
21.2161612
20
68.582285
40
0.3000949
50
214.7520738
51
264.283405
0
ARC
8
DEFAULT_255_1_388
10
21.2314203
20
68.6784645
40
0.3973553
50
263.4754673
51
270.0952411
0
ARC
8
DEFAULT_255_1_388
10
21.2361596
20
68.6490808
40
0.3679937
50
269.3649295
51
287.5149684
0
ARC
8
DEFAULT_255_1_388
10
21.2562037
20
68.5762714
40
0.2925408
50
288.0629019
51
323.8115617
0
ARC
8
DEFAULT_255_1_388
10
21.1582013
20
68.6493754
40
0.4148018
50
323.6546541
51
342.6591359
0
ARC
8
DEFAULT_255_1_388
10
20.9296671
20
68.723728
40
0.6551163
50
342.4092446
51
353.6451501
0
ARC
8
DEFAULT_255_1_388
10
20.6111465
20
68.7633565
40
0.9760748
50
353.4027553
51
359.4846611
0
LINE
8
DEFAULT_255_1_388
10
22.6904339
20
69.4674898
11
22.6904339
21
68.593743
0
LINE
8
DEFAULT_255_1_388
10
22.6904339
20
68.593743
11
22.8729539
21
68.593743
0
LINE
8
DEFAULT_255_1_388
10
22.8729539
20
68.593743
11
22.8729539
21
68.4573048
0
LINE
8
DEFAULT_255_1_388
10
22.8729539
20
68.4573048
11
22.6904339
21
68.4573048
0
LINE
8
DEFAULT_255_1_388
10
22.6904339
20
68.4573048
11
22.6904339
21
68.1519
0
LINE
8
DEFAULT_255_1_388
10
22.6904339
20
68.1519
11
22.5223709
21
68.1519
0
LINE
8
DEFAULT_255_1_388
10
22.5223709
20
68.1519
11
22.5223709
21
68.4573048
0
LINE
8
DEFAULT_255_1_388
10
22.5223709
20
68.4573048
11
21.9233077
21
68.4573048
0
LINE
8
DEFAULT_255_1_388
10
21.9233077
20
68.4573048
11
21.9233077
21
68.5557933
0
LINE
8
DEFAULT_255_1_388
10
21.9233077
20
68.5557933
11
22.5124317
21
69.4674898
0
LINE
8
DEFAULT_255_1_388
10
22.5124317
20
69.4674898
11
22.6904339
21
69.4674898
0
LINE
8
DEFAULT_255_1_388
10
22.5024925
20
69.2027455
11
22.1130562
21
68.593743
0
LINE
8
DEFAULT_255_1_388
10
22.1130562
20
68.593743
11
22.5223709
21
68.593743
0
LINE
8
DEFAULT_255_1_388
10
22.5223709
20
68.593743
11
22.5223709
21
69.238888
0
LINE
8
DEFAULT_255_1_388
10
22.5223709
20
69.238888
11
22.5024925
21
69.2027455
0
LINE
8
DEFAULT_255_1_388
10
23.3888892
20
68.7789737
11
23.3888892
21
68.6425355
0
LINE
8
DEFAULT_255_1_388
10
23.3888892
20
68.6425355
11
22.9479498
21
68.6425355
0
LINE
8
DEFAULT_255_1_388
10
22.9479498
20
68.6425355
11
22.9479498
21
68.7789737
0
LINE
8
DEFAULT_255_1_388
10
22.9479498
20
68.7789737
11
23.3888892
21
68.7789737
0
LINE
8
DEFAULT_255_1_388
10
24.3963636
20
68.2883382
11
24.3963636
21
68.1519
0
LINE
8
DEFAULT_255_1_388
10
24.3963636
20
68.1519
11
23.5343631
21
68.1519
0
LINE
8
DEFAULT_255_1_388
10
23.5343631
20
68.1519
11
23.5343631
21
68.2720741
0
LINE
8
DEFAULT_255_1_388
10
23.5343631
20
68.2720741
11
23.9897596
21
68.7780702
0
LINE
8
DEFAULT_255_1_388
10
23.6762227
20
69.0798607
11
23.5090633
21
69.0798607
0
LINE
8
DEFAULT_255_1_388
10
24.0882481
20
68.670546
11
23.735858
21
68.2883382
0
LINE
8
DEFAULT_255_1_388
10
23.735858
20
68.2883382
11
24.3963636
21
68.2883382
0
ARC
8
DEFAULT_255_1_388
10
22.4721655
20
70.1200983
40
2.0258655
50
318.5132526
51
320.7829045
0
ARC
8
DEFAULT_255_1_388
10
23.0669612
20
69.6359929
40
1.2589638
50
320.7372878
51
323.9739031
0
ARC
8
DEFAULT_255_1_388
10
23.5078544
20
69.3165554
40
0.7145141
50
323.8962701
51
328.64194
0
ARC
8
DEFAULT_255_1_388
10
23.7380801
20
69.1745545
40
0.4440242
50
328.8294576
51
331.7891185
0
ARC
8
DEFAULT_255_1_388
10
23.8503122
20
69.1166374
40
0.3177517
50
331.4254512
51
352.9365785
0
ARC
8
DEFAULT_255_1_388
10
23.8656121
20
69.113205
40
0.3021496
50
353.2257659
51
0.0166158
0
ARC
8
DEFAULT_255_1_388
10
23.8892882
20
69.1157894
40
0.2784847
50
359.486299
51
15.9343185
0
ARC
8
DEFAULT_255_1_388
10
23.9463149
20
69.1311269
40
0.2194403
50
16.1712913
51
43.5286088
0
ARC
8
DEFAULT_255_1_388
10
23.9550093
20
69.1398191
40
0.2071504
50
43.4417391
51
83.1661095
0
ARC
8
DEFAULT_255_1_388
10
23.9399255
20
69.0569316
40
0.2912888
50
82.160179
51
90.1505708
0
ARC
8
DEFAULT_255_1_388
10
23.9363736
20
68.9965279
40
0.3517025
50
89.5460741
51
102.5418361
0
ARC
8
DEFAULT_255_1_388
10
23.9090456
20
69.1124933
40
0.2325748
50
102.1738499
51
129.206123
0
ARC
8
DEFAULT_255_1_388
10
23.900191
20
69.1264664
40
0.2161591
50
129.72865
51
135.753947
0
ARC
8
DEFAULT_255_1_388
10
23.9138392
20
69.1155728
40
0.2335433
50
136.1757367
51
166.3673339
0
ARC
8
DEFAULT_255_1_388
10
24.027108
20
69.0852148
40
0.3507873
50
165.9090694
51
178.8684636
0
ARC
8
DEFAULT_255_1_388
10
24.1246852
20
69.0799263
40
0.4484624
50
178.4391136
51
180.0083808
0
ARC
8
DEFAULT_255_1_388
10
23.9667553
20
69.0843197
40
0.4577138
50
163.2878482
51
180.5581842
0
ARC
8
DEFAULT_255_1_388
10
23.8765594
20
69.1091393
40
0.3641968
50
133.4540601
51
162.947111
0
ARC
8
DEFAULT_255_1_388
10
23.8966476
20
69.0877789
40
0.3935189
50
100.7869829
51
133.4382499
0
ARC
8
DEFAULT_255_1_388
10
23.9357721
20
68.9135399
40
0.5720313
50
89.660664
51
101.3702276
0
ARC
8
DEFAULT_255_1_388
10
23.943233
20
68.9204263
40
0.5651495
50
78.2172678
51
90.412935
0
ARC
8
DEFAULT_255_1_388
10
23.9831796
20
69.1031511
40
0.378122
50
55.9269121
51
78.4888449
0
ARC
8
DEFAULT_255_1_388
10
24.0052511
20
69.1412187
40
0.3342379
50
47.929771
51
55.4049217
0
ARC
8
DEFAULT_255_1_388
10
24.0167041
20
69.1528618
40
0.3179217
50
4.334829
51
48.0560205
0
ARC
8
DEFAULT_255_1_388
10
23.8934843
20
69.1337487
40
0.442341
50
359.9251713
51
5.5971671
0
ARC
8
DEFAULT_255_1_388
10
23.9416998
20
69.1400728
40
0.3941854
50
337.8914027
51
358.9967534
0
ARC
8
DEFAULT_255_1_388
10
23.6364568
20
69.2578295
40
0.7213271
50
326.9132501
51
338.3508308
0
ARC
8
DEFAULT_255_1_388
10
23.188068
20
69.5452105
40
1.2538973
50
319.6471833
51
327.0959558
0
ARC
8
DEFAULT_255_1_388
10
22.7567338
20
69.901005
40
1.8129975
50
317.2588228
51
319.9045804
0
LINE
8
DEFAULT_255_1_388
10
21.7691661
20
76.7887589
11
21.7691661
21
76.7047274
0
LINE
8
DEFAULT_255_1_388
10
21.5387571
20
76.1607816
11
21.7736839
21
75.9764544
0
LINE
8
DEFAULT_255_1_388
10
21.7736839
20
75.9764544
11
21.6553169
21
75.8671231
0
LINE
8
DEFAULT_255_1_388
10
21.6553169
20
75.8671231
11
21.3779227
21
76.0875929
0
LINE
8
DEFAULT_255_1_388
10
20.7101885
20
76.6929811
11
20.7101885
21
76.7878553
0
LINE
8
DEFAULT_255_1_388
10
21.5956817
20
76.6920775
11
21.5956817
21
76.7896625
0
LINE
8
DEFAULT_255_1_388
10
20.8836729
20
76.8014088
11
20.8836729
21
76.7047274
0
ARC
8
DEFAULT_255_1_388
10
20.761854
20
76.7003529
40
1.0073215
50
351.4530536
51
0.2488167
0
ARC
8
DEFAULT_255_1_388
10
21.0526709
20
76.6553749
40
0.7130509
50
338.6860608
51
351.554089
0
ARC
8
DEFAULT_255_1_388
10
21.1579166
20
76.6181573
40
0.6014866
50
336.2886209
51
338.3448103
0
ARC
8
DEFAULT_255_1_388
10
21.195941
20
76.5972952
40
0.5582958
50
321.1168943
51
336.6796496
0
ARC
8
DEFAULT_255_1_388
10
21.2670183
20
76.5425644
40
0.4686152
50
305.4418419
51
320.8706891
0
ARC
8
DEFAULT_255_1_388
10
21.2449048
20
76.6266492
40
0.5552257
50
271.6372169
51
283.8614231
0
ARC
8
DEFAULT_255_1_388
10
21.2406501
20
76.7007271
40
0.6293984
50
269.993693
51
271.8317035
0
ARC
8
DEFAULT_255_1_388
10
21.2364326
20
76.609568
40
0.5382553
50
252.5221437
51
270.441579
0
ARC
8
DEFAULT_255_1_388
10
21.2202576
20
76.5489046
40
0.4755426
50
237.5349961
51
252.1858334
0
ARC
8
DEFAULT_255_1_388
10
21.2302952
20
76.561712
40
0.4917393
50
209.0632754
51
237.3492577
0
ARC
8
DEFAULT_255_1_388
10
21.3282278
20
76.6232104
40
0.6072464
50
205.118533
51
209.6465345
0
ARC
8
DEFAULT_255_1_388
10
21.417828
20
76.6612174
40
0.7045164
50
188.7216633
51
204.8239753
0
ARC
8
DEFAULT_255_1_388
10
21.6425056
20
76.6990387
40
0.9323368
50
180.3722704
51
188.9253909
0
ARC
8
DEFAULT_255_1_388
10
21.6394617
20
76.7923416
40
0.929284
50
169.5253055
51
180.2766048
0
ARC
8
DEFAULT_255_1_388
10
21.4254416
20
76.8317024
40
0.7116745
50
155.8314601
51
169.5088611
0
ARC
8
DEFAULT_255_1_388
10
21.2813879
20
76.8985312
40
0.5528904
50
139.6259579
51
156.0379072
0
ARC
8
DEFAULT_255_1_388
10
21.2150413
20
76.9519143
40
0.4677708
50
122.6414784
51
139.3431662
0
ARC
8
DEFAULT_255_1_388
10
21.2263668
20
76.9312787
40
0.4912586
50
93.0224537
51
122.4556091
0
ARC
8
DEFAULT_255_1_388
10
21.2385189
20
76.8226776
40
0.6003837
50
89.9756766
51
93.6340839
0
ARC
8
DEFAULT_255_1_388
10
21.2428886
20
76.8654547
40
0.5576216
50
73.9666049
51
90.4228101
0
ARC
8
DEFAULT_255_1_388
10
21.2635535
20
76.9459139
40
0.4745905
50
57.5177173
51
73.6814962
0
ARC
8
DEFAULT_255_1_388
10
21.2585759
20
76.9418592
40
0.4806881
50
28.7260666
51
57.2767723
0
ARC
8
DEFAULT_255_1_388
10
21.1561166
20
76.8785397
40
0.6010032
50
24.2451459
51
29.3250018
0
ARC
8
DEFAULT_255_1_388
10
21.0519631
20
76.8354744
40
0.713663
50
9.0643887
51
23.9639114
0
ARC
8
DEFAULT_255_1_388
10
20.7982068
20
76.7928505
40
0.9709678
50
359.7585581
51
9.1891216
0
ARC
8
DEFAULT_255_1_388
10
20.6570656
20
76.7943562
40
0.9386278
50
359.7134836
51
7.9655743
0
ARC
8
DEFAULT_255_1_388
10
20.9903355
20
76.8424391
40
0.6019121
50
7.8289718
51
20.0423308
0
ARC
8
DEFAULT_255_1_388
10
21.1730823
20
76.9089145
40
0.4074504
50
20.0676743
51
35.9162425
0
ARC
8
DEFAULT_255_1_388
10
21.2602702
20
76.9737196
40
0.2988273
50
35.659429
51
85.1578517
0
ARC
8
DEFAULT_255_1_388
10
21.2394864
20
76.8482214
40
0.4257521
50
83.7963246
51
90.0959039
0
ARC
8
DEFAULT_255_1_388
10
21.2346408
20
76.9307384
40
0.3432594
50
89.3101324
51
109.9889786
0
ARC
8
DEFAULT_255_1_388
10
21.2253598
20
76.9707665
40
0.3025108
50
110.9286914
51
143.9411475
0
ARC
8
DEFAULT_255_1_388
10
21.33009
20
76.8906455
40
0.434348
50
143.5289166
51
163.2980252
0
ARC
8
DEFAULT_255_1_388
10
21.5447187
20
76.8231685
40
0.659321
50
163.0418884
51
174.3139873
0
ARC
8
DEFAULT_255_1_388
10
21.8152152
20
76.7919378
40
0.9315905
50
174.050934
51
179.4174954
0
ARC
8
DEFAULT_255_1_388
10
21.7573866
20
76.6998922
40
0.8737271
50
179.6829249
51
188.9631837
0
ARC
8
DEFAULT_255_1_388
10
21.4569597
20
76.6509648
40
0.569348
50
188.8098723
51
202.9300437
0
ARC
8
DEFAULT_255_1_388
10
21.3201329
20
76.5952968
40
0.4216493
50
203.2071737
51
215.7877161
0
ARC
8
DEFAULT_255_1_388
10
21.2246612
20
76.519785
40
0.3000949
50
214.7520738
51
264.283405
0
ARC
8
DEFAULT_255_1_388
10
21.2399203
20
76.6159645
40
0.3973553
50
263.4754673
51
270.0952411
0
ARC
8
DEFAULT_255_1_388
10
21.2446596
20
76.5865808
40
0.3679937
50
269.3649295
51
287.5149684
0
ARC
8
DEFAULT_255_1_388
10
21.2647037
20
76.5137714
40
0.2925408
50
288.0629019
51
323.8115617
0
ARC
8
DEFAULT_255_1_388
10
21.1667013
20
76.5868754
40
0.4148018
50
323.6546541
51
342.6591359
0
ARC
8
DEFAULT_255_1_388
10
20.9381671
20
76.661228
40
0.6551163
50
342.4092446
51
353.6451501
0
ARC
8
DEFAULT_255_1_388
10
20.6196465
20
76.7008565
40
0.9760748
50
353.4027553
51
359.4846611
0
LINE
8
DEFAULT_255_1_388
10
22.6989339
20
77.4049898
11
22.6989339
21
76.531243
0
LINE
8
DEFAULT_255_1_388
10
22.6989339
20
76.531243
11
22.8814539
21
76.531243
0
LINE
8
DEFAULT_255_1_388
10
22.8814539
20
76.531243
11
22.8814539
21
76.3948048
0
LINE
8
DEFAULT_255_1_388
10
22.8814539
20
76.3948048
11
22.6989339
21
76.3948048
0
LINE
8
DEFAULT_255_1_388
10
22.6989339
20
76.3948048
11
22.6989339
21
76.0894
0
LINE
8
DEFAULT_255_1_388
10
22.6989339
20
76.0894
11
22.5308709
21
76.0894
0
LINE
8
DEFAULT_255_1_388
10
22.5308709
20
76.0894
11
22.5308709
21
76.3948048
0
LINE
8
DEFAULT_255_1_388
10
22.5308709
20
76.3948048
11
21.9318077
21
76.3948048
0
LINE
8
DEFAULT_255_1_388
10
21.9318077
20
76.3948048
11
21.9318077
21
76.4932933
0
LINE
8
DEFAULT_255_1_388
10
21.9318077
20
76.4932933
11
22.5209317
21
77.4049898
0
LINE
8
DEFAULT_255_1_388
10
22.5209317
20
77.4049898
11
22.6989339
21
77.4049898
0
LINE
8
DEFAULT_255_1_388
10
22.5109925
20
77.1402455
11
22.1215562
21
76.531243
0
LINE
8
DEFAULT_255_1_388
10
22.1215562
20
76.531243
11
22.5308709
21
76.531243
0
LINE
8
DEFAULT_255_1_388
10
22.5308709
20
76.531243
11
22.5308709
21
77.176388
0
LINE
8
DEFAULT_255_1_388
10
22.5308709
20
77.176388
11
22.5109925
21
77.1402455
0
LINE
8
DEFAULT_255_1_388
10
23.3973892
20
76.7164737
11
23.3973892
21
76.5800355
0
LINE
8
DEFAULT_255_1_388
10
23.3973892
20
76.5800355
11
22.9564498
21
76.5800355
0
LINE
8
DEFAULT_255_1_388
10
22.9564498
20
76.5800355
11
22.9564498
21
76.7164737
0
LINE
8
DEFAULT_255_1_388
10
22.9564498
20
76.7164737
11
23.3973892
21
76.7164737
0
LINE
8
DEFAULT_255_1_388
10
24.0922303
20
77.4113148
11
24.0922303
21
76.0894
0
LINE
8
DEFAULT_255_1_388
10
24.0922303
20
76.0894
11
23.9241673
21
76.0894
0
LINE
8
DEFAULT_255_1_388
10
23.9241673
20
76.0894
11
23.9241673
21
77.203495
0
LINE
8
DEFAULT_255_1_388
10
23.9241673
20
77.203495
11
23.5871377
21
77.0797066
0
LINE
8
DEFAULT_255_1_388
10
23.5871377
20
77.0797066
11
23.5871377
21
77.2315055
0
LINE
8
DEFAULT_255_1_388
10
23.5871377
20
77.2315055
11
24.0660269
21
77.4113148
0
LINE
8
DEFAULT_255_1_388
10
24.0660269
20
77.4113148
11
24.0922303
21
77.4113148
0
LINE
8
DEFAULT_255_1_388
10
21.7606661
20
84.7262589
11
21.7606661
21
84.6422274
0
LINE
8
DEFAULT_255_1_388
10
21.5302571
20
84.0982816
11
21.7651839
21
83.9139544
0
LINE
8
DEFAULT_255_1_388
10
21.7651839
20
83.9139544
11
21.6468169
21
83.8046231
0
LINE
8
DEFAULT_255_1_388
10
21.6468169
20
83.8046231
11
21.3694227
21
84.0250929
0
LINE
8
DEFAULT_255_1_388
10
20.7016885
20
84.6304811
11
20.7016885
21
84.7253553
0
LINE
8
DEFAULT_255_1_388
10
21.5871817
20
84.6295775
11
21.5871817
21
84.7271625
0
LINE
8
DEFAULT_255_1_388
10
20.8751729
20
84.7389088
11
20.8751729
21
84.6422274
0
ARC
8
DEFAULT_255_1_388
10
20.753354
20
84.6378529
40
1.0073215
50
351.4530536
51
0.2488167
0
ARC
8
DEFAULT_255_1_388
10
21.0441709
20
84.5928749
40
0.7130509
50
338.6860608
51
351.554089
0
ARC
8
DEFAULT_255_1_388
10
21.1494166
20
84.5556573
40
0.6014866
50
336.2886209
51
338.3448103
0
ARC
8
DEFAULT_255_1_388
10
21.187441
20
84.5347952
40
0.5582958
50
321.1168943
51
336.6796496
0
ARC
8
DEFAULT_255_1_388
10
21.2585183
20
84.4800644
40
0.4686152
50
305.4418419
51
320.8706891
0
ARC
8
DEFAULT_255_1_388
10
21.2364048
20
84.5641492
40
0.5552257
50
271.6372169
51
283.8614231
0
ARC
8
DEFAULT_255_1_388
10
21.2321501
20
84.6382271
40
0.6293984
50
269.993693
51
271.8317035
0
ARC
8
DEFAULT_255_1_388
10
21.2279326
20
84.547068
40
0.5382553
50
252.5221437
51
270.441579
0
ARC
8
DEFAULT_255_1_388
10
21.2117576
20
84.4864046
40
0.4755426
50
237.5349961
51
252.1858334
0
ARC
8
DEFAULT_255_1_388
10
21.2217952
20
84.499212
40
0.4917393
50
209.0632754
51
237.3492577
0
ARC
8
DEFAULT_255_1_388
10
21.3197278
20
84.5607104
40
0.6072464
50
205.118533
51
209.6465345
0
ARC
8
DEFAULT_255_1_388
10
21.409328
20
84.5987174
40
0.7045164
50
188.7216633
51
204.8239753
0
ARC
8
DEFAULT_255_1_388
10
21.6340056
20
84.6365387
40
0.9323368
50
180.3722704
51
188.9253909
0
ARC
8
DEFAULT_255_1_388
10
21.6309617
20
84.7298416
40
0.929284
50
169.5253055
51
180.2766048
0
ARC
8
DEFAULT_255_1_388
10
21.4169416
20
84.7692024
40
0.7116745
50
155.8314601
51
169.5088611
0
ARC
8
DEFAULT_255_1_388
10
21.2728879
20
84.8360312
40
0.5528904
50
139.6259579
51
156.0379072
0
ARC
8
DEFAULT_255_1_388
10
21.2065413
20
84.8894143
40
0.4677708
50
122.6414784
51
139.3431662
0
ARC
8
DEFAULT_255_1_388
10
21.2178668
20
84.8687787
40
0.4912586
50
93.0224537
51
122.4556091
0
ARC
8
DEFAULT_255_1_388
10
21.2300189
20
84.7601776
40
0.6003837
50
89.9756766
51
93.6340839
0
ARC
8
DEFAULT_255_1_388
10
21.2343886
20
84.8029547
40
0.5576216
50
73.9666049
51
90.4228101
0
ARC
8
DEFAULT_255_1_388
10
21.2550535
20
84.8834139
40
0.4745905
50
57.5177173
51
73.6814962
0
ARC
8
DEFAULT_255_1_388
10
21.2500759
20
84.8793592
40
0.4806881
50
28.7260666
51
57.2767723
0
ARC
8
DEFAULT_255_1_388
10
21.1476166
20
84.8160397
40
0.6010032
50
24.2451459
51
29.3250018
0
ARC
8
DEFAULT_255_1_388
10
21.0434631
20
84.7729744
40
0.713663
50
9.0643887
51
23.9639114
0
ARC
8
DEFAULT_255_1_388
10
20.7897068
20
84.7303505
40
0.9709678
50
359.7585581
51
9.1891216
0
ARC
8
DEFAULT_255_1_388
10
20.6485656
20
84.7318562
40
0.9386278
50
359.7134836
51
7.9655743
0
ARC
8
DEFAULT_255_1_388
10
20.9818355
20
84.7799391
40
0.6019121
50
7.8289718
51
20.0423308
0
ARC
8
DEFAULT_255_1_388
10
21.1645823
20
84.8464145
40
0.4074504
50
20.0676743
51
35.9162425
0
ARC
8
DEFAULT_255_1_388
10
21.2517702
20
84.9112196
40
0.2988273
50
35.659429
51
85.1578517
0
ARC
8
DEFAULT_255_1_388
10
21.2309864
20
84.7857214
40
0.4257521
50
83.7963246
51
90.0959039
0
ARC
8
DEFAULT_255_1_388
10
21.2261408
20
84.8682384
40
0.3432594
50
89.3101324
51
109.9889786
0
ARC
8
DEFAULT_255_1_388
10
21.2168598
20
84.9082665
40
0.3025108
50
110.9286914
51
143.9411475
0
ARC
8
DEFAULT_255_1_388
10
21.32159
20
84.8281455
40
0.434348
50
143.5289166
51
163.2980252
0
ARC
8
DEFAULT_255_1_388
10
21.5362187
20
84.7606685
40
0.659321
50
163.0418884
51
174.3139873
0
ARC
8
DEFAULT_255_1_388
10
21.8067152
20
84.7294378
40
0.9315905
50
174.050934
51
179.4174954
0
ARC
8
DEFAULT_255_1_388
10
21.7488866
20
84.6373922
40
0.8737271
50
179.6829249
51
188.9631837
0
ARC
8
DEFAULT_255_1_388
10
21.4484597
20
84.5884648
40
0.569348
50
188.8098723
51
202.9300437
0
ARC
8
DEFAULT_255_1_388
10
21.3116329
20
84.5327968
40
0.4216493
50
203.2071737
51
215.7877161
0
ARC
8
DEFAULT_255_1_388
10
21.2161612
20
84.457285
40
0.3000949
50
214.7520738
51
264.283405
0
ARC
8
DEFAULT_255_1_388
10
21.2314203
20
84.5534645
40
0.3973553
50
263.4754673
51
270.0952411
0
ARC
8
DEFAULT_255_1_388
10
21.2361596
20
84.5240808
40
0.3679937
50
269.3649295
51
287.5149684
0
ARC
8
DEFAULT_255_1_388
10
21.2562037
20
84.4512714
40
0.2925408
50
288.0629019
51
323.8115617
0
ARC
8
DEFAULT_255_1_388
10
21.1582013
20
84.5243754
40
0.4148018
50
323.6546541
51
342.6591359
0
ARC
8
DEFAULT_255_1_388
10
20.9296671
20
84.598728
40
0.6551163
50
342.4092446
51
353.6451501
0
ARC
8
DEFAULT_255_1_388
10
20.6111465
20
84.6383565
40
0.9760748
50
353.4027553
51
359.4846611
0
LINE
8
DEFAULT_255_1_388
10
22.2278089
20
84.6295775
11
22.2278089
21
84.7660157
0
LINE
8
DEFAULT_255_1_388
10
22.2278089
20
84.7660157
11
22.3534043
21
84.7660157
0
LINE
8
DEFAULT_255_1_388
10
22.1392596
20
84.9973282
11
21.9721001
21
84.9973282
0
LINE
8
DEFAULT_255_1_388
10
21.9603538
20
84.3738688
11
22.1284168
21
84.3738688
0
LINE
8
DEFAULT_255_1_388
10
22.3534043
20
84.6295775
11
22.2278089
21
84.6295775
0
ARC
8
DEFAULT_255_1_388
10
22.350127
20
85.1476922
40
0.3816905
50
270.491971
51
281.8953028
0
ARC
8
DEFAULT_255_1_388
10
22.3772697
20
85.0237199
40
0.2547877
50
281.6690378
51
301.2943765
0
ARC
8
DEFAULT_255_1_388
10
22.3964148
20
84.9886926
40
0.2149197
50
301.7834992
51
311.754567
0
ARC
8
DEFAULT_255_1_388
10
22.406719
20
84.977265
40
0.1995326
50
311.7325027
51
354.2803031
0
ARC
8
DEFAULT_255_1_388
10
22.3249606
20
84.991328
40
0.2823461
50
353.0941646
51
0.1174696
0
ARC
8
DEFAULT_255_1_388
10
22.2731163
20
84.9966874
40
0.3342238
50
359.1804452
51
15.0452323
0
ARC
8
DEFAULT_255_1_388
10
22.4245222
20
85.0408546
40
0.1765747
50
13.957816
51
77.6713812
0
ARC
8
DEFAULT_255_1_388
10
22.3810458
20
84.8850464
40
0.3381982
50
76.111571
51
90.7028736
0
ARC
8
DEFAULT_255_1_388
10
22.374387
20
84.915825
40
0.3074046
50
89.5321574
51
103.5319393
0
ARC
8
DEFAULT_255_1_388
10
22.3518253
20
85.0057443
40
0.2147041
50
103.2930114
51
133.5619756
0
ARC
8
DEFAULT_255_1_388
10
22.3468195
20
85.0124351
40
0.2064084
50
133.8349761
51
173.5343225
0
ARC
8
DEFAULT_255_1_388
10
22.4281852
20
84.9980144
40
0.2889266
50
172.5097183
51
180.1360699
0
ARC
8
DEFAULT_255_1_388
10
22.3211616
20
85.001888
40
0.3490913
50
155.3483706
51
180.7484035
0
ARC
8
DEFAULT_255_1_388
10
22.3156592
20
84.9986519
40
0.3454798
50
131.5745177
51
154.4799474
0
ARC
8
DEFAULT_255_1_388
10
22.3508874
20
84.9630422
40
0.3955058
50
96.9874487
51
131.9690874
0
ARC
8
DEFAULT_255_1_388
10
22.3755767
20
84.8229407
40
0.537622
50
89.8592909
51
97.7827481
0
ARC
8
DEFAULT_255_1_388
10
22.3809876
20
84.793436
40
0.5671399
50
78.3654493
51
90.4132586
0
ARC
8
DEFAULT_255_1_388
10
22.4212517
20
84.9800918
40
0.3762034
50
56.6229818
51
78.6387103
0
ARC
8
DEFAULT_255_1_388
10
22.4454347
20
85.0223846
40
0.3275964
50
47.0254604
51
56.085558
0
ARC
8
DEFAULT_255_1_388
10
22.4476598
20
85.0268189
40
0.3228382
50
10.9207523
51
46.777927
0
ARC
8
DEFAULT_255_1_388
10
22.2942191
20
84.9913401
40
0.4802559
50
359.6364235
51
11.6087615
0
ARC
8
DEFAULT_255_1_388
10
22.5006357
20
84.9896404
40
0.273833
50
332.3549969
51
359.7179765
0
ARC
8
DEFAULT_255_1_388
10
22.4274758
20
85.0243285
40
0.3547505
50
325.2332381
51
332.8746682
0
ARC
8
DEFAULT_255_1_388
10
22.4446341
20
85.0123763
40
0.3338396
50
292.9803892
51
325.2391113
0
ARC
8
DEFAULT_255_1_388
10
22.4135536
20
85.0728679
40
0.4016959
50
292.542178
51
293.6931461
0
ARC
8
DEFAULT_255_1_388
10
22.4579108
20
84.3463036
40
0.372079
50
57.643292
51
72.8626085
0
ARC
8
DEFAULT_255_1_388
10
22.4977943
20
84.4109273
40
0.2961455
50
36.7246661
51
57.4701329
0
ARC
8
DEFAULT_255_1_388
10
22.49651
20
84.412347
40
0.2963321
50
8.054535
51
36.3561529
0
ARC
8
DEFAULT_255_1_388
10
22.3994772
20
84.3949073
40
0.3948682
50
359.8316595
51
8.5873361
0
ARC
8
DEFAULT_255_1_388
10
22.3572246
20
84.389497
40
0.4371398
50
343.9831631
51
0.557075
0
ARC
8
DEFAULT_255_1_388
10
22.4569296
20
84.3621963
40
0.3337749
50
311.6358204
51
343.7652116
0
ARC
8
DEFAULT_255_1_388
10
22.414355
20
84.4101955
40
0.3979351
50
279.7829743
51
311.625622
0
ARC
8
DEFAULT_255_1_388
10
22.3804685
20
84.5718642
40
0.5630417
50
269.7285092
51
280.3857694
0
ARC
8
DEFAULT_255_1_388
10
22.3734998
20
84.5672241
40
0.5584119
50
256.6827433
51
270.4412869
0
ARC
8
DEFAULT_255_1_388
10
22.3353984
20
84.4114698
40
0.3980715
50
229.4223821
51
256.8554507
0
ARC
8
DEFAULT_255_1_388
10
22.2887538
20
84.3589683
40
0.3278564
50
181.8183354
51
229.6455015
0
ARC
8
DEFAULT_255_1_388
10
22.4057147
20
84.3736825
40
0.4453611
50
179.9760419
51
183.2330638
0
ARC
8
DEFAULT_255_1_388
10
22.38637
20
84.3713781
40
0.2579652
50
179.4467996
51
196.2871626
0
ARC
8
DEFAULT_255_1_388
10
22.3315153
20
84.3563709
40
0.2011057
50
196.5661293
51
227.7059371
0
ARC
8
DEFAULT_255_1_388
10
22.3499761
20
84.3770155
40
0.2287994
50
227.7653015
51
257.8763321
0
ARC
8
DEFAULT_255_1_388
10
22.3752844
20
84.4830961
40
0.3378385
50
257.4583525
51
270.4267406
0
ARC
8
DEFAULT_255_1_388
10
22.3804093
20
84.515723
40
0.3704652
50
269.5965319
51
280.8788143
0
ARC
8
DEFAULT_255_1_388
10
22.4062321
20
84.3867529
40
0.2389415
50
280.6347277
51
299.8594068
0
ARC
8
DEFAULT_255_1_388
10
22.4277091
20
84.3459736
40
0.19289
50
300.3575552
51
314.5515667
0
ARC
8
DEFAULT_255_1_388
10
22.4183767
20
84.3528025
40
0.204312
50
315.0730962
51
345.0429362
0
ARC
8
DEFAULT_255_1_388
10
22.3145274
20
84.3830539
40
0.31246
50
344.598526
51
357.9270698
0
ARC
8
DEFAULT_255_1_388
10
22.2135579
20
84.3899705
40
0.4136265
50
357.4755098
51
0.0224936
0
ARC
8
DEFAULT_255_1_388
10
22.3288457
20
84.3927099
40
0.2983498
50
359.5051035
51
13.4236939
0
ARC
8
DEFAULT_255_1_388
10
22.4263546
20
84.4176637
40
0.1977186
50
12.9497905
51
48.7550905
0
ARC
8
DEFAULT_255_1_388
10
22.4058468
20
84.3896373
40
0.2323321
50
49.509109
51
72.1832965
0
ARC
8
DEFAULT_255_1_388
10
22.3655937
20
84.2701632
40
0.358397
50
71.9008458
51
84.3555134
0
ARC
8
DEFAULT_255_1_388
10
22.3474331
20
84.1169712
40
0.512641
50
84.019632
51
89.3326067
0
LINE
8
DEFAULT_255_1_388
10
23.3888892
20
84.6539737
11
23.3888892
21
84.5175355
0
LINE
8
DEFAULT_255_1_388
10
23.3888892
20
84.5175355
11
22.9479498
21
84.5175355
0
LINE
8
DEFAULT_255_1_388
10
22.9479498
20
84.5175355
11
22.9479498
21
84.6539737
0
LINE
8
DEFAULT_255_1_388
10
22.9479498
20
84.6539737
11
23.3888892
21
84.6539737
0
LINE
8
DEFAULT_255_1_388
10
24.3963636
20
84.1633382
11
24.3963636
21
84.0269
0
LINE
8
DEFAULT_255_1_388
10
24.3963636
20
84.0269
11
23.5343631
21
84.0269
0
LINE
8
DEFAULT_255_1_388
10
23.5343631
20
84.0269
11
23.5343631
21
84.1470741
0
LINE
8
DEFAULT_255_1_388
10
23.5343631
20
84.1470741
11
23.9897596
21
84.6530702
0
LINE
8
DEFAULT_255_1_388
10
23.6762227
20
84.9548607
11
23.5090633
21
84.9548607
0
LINE
8
DEFAULT_255_1_388
10
24.0882481
20
84.545546
11
23.735858
21
84.1633382
0
LINE
8
DEFAULT_255_1_388
10
23.735858
20
84.1633382
11
24.3963636
21
84.1633382
0
ARC
8
DEFAULT_255_1_388
10
22.4721655
20
85.9950983
40
2.0258655
50
318.5132526
51
320.7829045
0
ARC
8
DEFAULT_255_1_388
10
23.0669612
20
85.5109929
40
1.2589638
50
320.7372878
51
323.9739031
0
ARC
8
DEFAULT_255_1_388
10
23.5078544
20
85.1915554
40
0.7145141
50
323.8962701
51
328.64194
0
ARC
8
DEFAULT_255_1_388
10
23.7380801
20
85.0495545
40
0.4440242
50
328.8294576
51
331.7891185
0
ARC
8
DEFAULT_255_1_388
10
23.8503122
20
84.9916374
40
0.3177517
50
331.4254512
51
352.9365785
0
ARC
8
DEFAULT_255_1_388
10
23.8656121
20
84.988205
40
0.3021496
50
353.2257659
51
0.0166158
0
ARC
8
DEFAULT_255_1_388
10
23.8892882
20
84.9907894
40
0.2784847
50
359.486299
51
15.9343185
0
ARC
8
DEFAULT_255_1_388
10
23.9463149
20
85.0061269
40
0.2194403
50
16.1712913
51
43.5286088
0
ARC
8
DEFAULT_255_1_388
10
23.9550093
20
85.0148191
40
0.2071504
50
43.4417391
51
83.1661095
0
ARC
8
DEFAULT_255_1_388
10
23.9399255
20
84.9319316
40
0.2912888
50
82.160179
51
90.1505708
0
ARC
8
DEFAULT_255_1_388
10
23.9363736
20
84.8715279
40
0.3517025
50
89.5460741
51
102.5418361
0
ARC
8
DEFAULT_255_1_388
10
23.9090456
20
84.9874933
40
0.2325748
50
102.1738499
51
129.206123
0
ARC
8
DEFAULT_255_1_388
10
23.900191
20
85.0014664
40
0.2161591
50
129.72865
51
135.753947
0
ARC
8
DEFAULT_255_1_388
10
23.9138392
20
84.9905728
40
0.2335433
50
136.1757367
51
166.3673339
0
ARC
8
DEFAULT_255_1_388
10
24.027108
20
84.9602148
40
0.3507873
50
165.9090694
51
178.8684636
0
ARC
8
DEFAULT_255_1_388
10
24.1246852
20
84.9549263
40
0.4484624
50
178.4391136
51
180.0083808
0
ARC
8
DEFAULT_255_1_388
10
23.9667553
20
84.9593197
40
0.4577138
50
163.2878482
51
180.5581842
0
ARC
8
DEFAULT_255_1_388
10
23.8765594
20
84.9841393
40
0.3641968
50
133.4540601
51
162.947111
0
ARC
8
DEFAULT_255_1_388
10
23.8966476
20
84.9627789
40
0.3935189
50
100.7869829
51
133.4382499
0
ARC
8
DEFAULT_255_1_388
10
23.9357721
20
84.7885399
40
0.5720313
50
89.660664
51
101.3702276
0
ARC
8
DEFAULT_255_1_388
10
23.943233
20
84.7954263
40
0.5651495
50
78.2172678
51
90.412935
0
ARC
8
DEFAULT_255_1_388
10
23.9831796
20
84.9781511
40
0.378122
50
55.9269121
51
78.4888449
0
ARC
8
DEFAULT_255_1_388
10
24.0052511
20
85.0162187
40
0.3342379
50
47.929771
51
55.4049217
0
ARC
8
DEFAULT_255_1_388
10
24.0167041
20
85.0278618
40
0.3179217
50
4.334829
51
48.0560205
0
ARC
8
DEFAULT_255_1_388
10
23.8934843
20
85.0087487
40
0.442341
50
359.9251713
51
5.5971671
0
ARC
8
DEFAULT_255_1_388
10
23.9416998
20
85.0150728
40
0.3941854
50
337.8914027
51
358.9967534
0
ARC
8
DEFAULT_255_1_388
10
23.6364568
20
85.1328295
40
0.7213271
50
326.9132501
51
338.3508308
0
ARC
8
DEFAULT_255_1_388
10
23.188068
20
85.4202105
40
1.2538973
50
319.6471833
51
327.0959558
0
ARC
8
DEFAULT_255_1_388
10
22.7567338
20
85.776005
40
1.8129975
50
317.2588228
51
319.9045804
0
LINE
8
DEFAULT_255_1_388
10
21.7691661
20
92.6637589
11
21.7691661
21
92.5797274
0
LINE
8
DEFAULT_255_1_388
10
21.5387571
20
92.0357816
11
21.7736839
21
91.8514544
0
LINE
8
DEFAULT_255_1_388
10
21.7736839
20
91.8514544
11
21.6553169
21
91.7421231
0
LINE
8
DEFAULT_255_1_388
10
21.6553169
20
91.7421231
11
21.3779227
21
91.9625929
0
LINE
8
DEFAULT_255_1_388
10
20.7101885
20
92.5679811
11
20.7101885
21
92.6628553
0
LINE
8
DEFAULT_255_1_388
10
21.5956817
20
92.5670775
11
21.5956817
21
92.6646625
0
LINE
8
DEFAULT_255_1_388
10
20.8836729
20
92.6764088
11
20.8836729
21
92.5797274
0
ARC
8
DEFAULT_255_1_388
10
20.761854
20
92.5753529
40
1.0073215
50
351.4530536
51
0.2488167
0
ARC
8
DEFAULT_255_1_388
10
21.0526709
20
92.5303749
40
0.7130509
50
338.6860608
51
351.554089
0
ARC
8
DEFAULT_255_1_388
10
21.1579166
20
92.4931573
40
0.6014866
50
336.2886209
51
338.3448103
0
ARC
8
DEFAULT_255_1_388
10
21.195941
20
92.4722952
40
0.5582958
50
321.1168943
51
336.6796496
0
ARC
8
DEFAULT_255_1_388
10
21.2670183
20
92.4175644
40
0.4686152
50
305.4418419
51
320.8706891
0
ARC
8
DEFAULT_255_1_388
10
21.2449048
20
92.5016492
40
0.5552257
50
271.6372169
51
283.8614231
0
ARC
8
DEFAULT_255_1_388
10
21.2406501
20
92.5757271
40
0.6293984
50
269.993693
51
271.8317035
0
ARC
8
DEFAULT_255_1_388
10
21.2364326
20
92.484568
40
0.5382553
50
252.5221437
51
270.441579
0
ARC
8
DEFAULT_255_1_388
10
21.2202576
20
92.4239046
40
0.4755426
50
237.5349961
51
252.1858334
0
ARC
8
DEFAULT_255_1_388
10
21.2302952
20
92.436712
40
0.4917393
50
209.0632754
51
237.3492577
0
ARC
8
DEFAULT_255_1_388
10
21.3282278
20
92.4982104
40
0.6072464
50
205.118533
51
209.6465345
0
ARC
8
DEFAULT_255_1_388
10
21.417828
20
92.5362174
40
0.7045164
50
188.7216633
51
204.8239753
0
ARC
8
DEFAULT_255_1_388
10
21.6425056
20
92.5740387
40
0.9323368
50
180.3722704
51
188.9253909
0
ARC
8
DEFAULT_255_1_388
10
21.6394617
20
92.6673416
40
0.929284
50
169.5253055
51
180.2766048
0
ARC
8
DEFAULT_255_1_388
10
21.4254416
20
92.7067024
40
0.7116745
50
155.8314601
51
169.5088611
0
ARC
8
DEFAULT_255_1_388
10
21.2813879
20
92.7735312
40
0.5528904
50
139.6259579
51
156.0379072
0
ARC
8
DEFAULT_255_1_388
10
21.2150413
20
92.8269143
40
0.4677708
50
122.6414784
51
139.3431662
0
ARC
8
DEFAULT_255_1_388
10
21.2263668
20
92.8062787
40
0.4912586
50
93.0224537
51
122.4556091
0
ARC
8
DEFAULT_255_1_388
10
21.2385189
20
92.6976776
40
0.6003837
50
89.9756766
51
93.6340839
0
ARC
8
DEFAULT_255_1_388
10
21.2428886
20
92.7404547
40
0.5576216
50
73.9666049
51
90.4228101
0
ARC
8
DEFAULT_255_1_388
10
21.2635535
20
92.8209139
40
0.4745905
50
57.5177173
51
73.6814962
0
ARC
8
DEFAULT_255_1_388
10
21.2585759
20
92.8168592
40
0.4806881
50
28.7260666
51
57.2767723
0
ARC
8
DEFAULT_255_1_388
10
21.1561166
20
92.7535397
40
0.6010032
50
24.2451459
51
29.3250018
0
ARC
8
DEFAULT_255_1_388
10
21.0519631
20
92.7104744
40
0.713663
50
9.0643887
51
23.9639114
0
ARC
8
DEFAULT_255_1_388
10
20.7982068
20
92.6678505
40
0.9709678
50
359.7585581
51
9.1891216
0
ARC
8
DEFAULT_255_1_388
10
20.6570656
20
92.6693562
40
0.9386278
50
359.7134836
51
7.9655743
0
ARC
8
DEFAULT_255_1_388
10
20.9903355
20
92.7174391
40
0.6019121
50
7.8289718
51
20.0423308
0
ARC
8
DEFAULT_255_1_388
10
21.1730823
20
92.7839145
40
0.4074504
50
20.0676743
51
35.9162425
0
ARC
8
DEFAULT_255_1_388
10
21.2602702
20
92.8487196
40
0.2988273
50
35.659429
51
85.1578517
0
ARC
8
DEFAULT_255_1_388
10
21.2394864
20
92.7232214
40
0.4257521
50
83.7963246
51
90.0959039
0
ARC
8
DEFAULT_255_1_388
10
21.2346408
20
92.8057384
40
0.3432594
50
89.3101324
51
109.9889786
0
ARC
8
DEFAULT_255_1_388
10
21.2253598
20
92.8457665
40
0.3025108
50
110.9286914
51
143.9411475
0
ARC
8
DEFAULT_255_1_388
10
21.33009
20
92.7656455
40
0.434348
50
143.5289166
51
163.2980252
0
ARC
8
DEFAULT_255_1_388
10
21.5447187
20
92.6981685
40
0.659321
50
163.0418884
51
174.3139873
0
ARC
8
DEFAULT_255_1_388
10
21.8152152
20
92.6669378
40
0.9315905
50
174.050934
51
179.4174954
0
ARC
8
DEFAULT_255_1_388
10
21.7573866
20
92.5748922
40
0.8737271
50
179.6829249
51
188.9631837
0
ARC
8
DEFAULT_255_1_388
10
21.4569597
20
92.5259648
40
0.569348
50
188.8098723
51
202.9300437
0
ARC
8
DEFAULT_255_1_388
10
21.3201329
20
92.4702968
40
0.4216493
50
203.2071737
51
215.7877161
0
ARC
8
DEFAULT_255_1_388
10
21.2246612
20
92.394785
40
0.3000949
50
214.7520738
51
264.283405
0
ARC
8
DEFAULT_255_1_388
10
21.2399203
20
92.4909645
40
0.3973553
50
263.4754673
51
270.0952411
0
ARC
8
DEFAULT_255_1_388
10
21.2446596
20
92.4615808
40
0.3679937
50
269.3649295
51
287.5149684
0
ARC
8
DEFAULT_255_1_388
10
21.2647037
20
92.3887714
40
0.2925408
50
288.0629019
51
323.8115617
0
ARC
8
DEFAULT_255_1_388
10
21.1667013
20
92.4618754
40
0.4148018
50
323.6546541
51
342.6591359
0
ARC
8
DEFAULT_255_1_388
10
20.9381671
20
92.536228
40
0.6551163
50
342.4092446
51
353.6451501
0
ARC
8
DEFAULT_255_1_388
10
20.6196465
20
92.5758565
40
0.9760748
50
353.4027553
51
359.4846611
0
LINE
8
DEFAULT_255_1_388
10
22.2363089
20
92.5670775
11
22.2363089
21
92.7035157
0
LINE
8
DEFAULT_255_1_388
10
22.2363089
20
92.7035157
11
22.3619043
21
92.7035157
0
LINE
8
DEFAULT_255_1_388
10
22.1477596
20
92.9348282
11
21.9806001
21
92.9348282
0
LINE
8
DEFAULT_255_1_388
10
21.9688538
20
92.3113688
11
22.1369168
21
92.3113688
0
LINE
8
DEFAULT_255_1_388
10
22.3619043
20
92.5670775
11
22.2363089
21
92.5670775
0
ARC
8
DEFAULT_255_1_388
10
22.358627
20
93.0851922
40
0.3816905
50
270.491971
51
281.8953028
0
ARC
8
DEFAULT_255_1_388
10
22.3857697
20
92.9612199
40
0.2547877
50
281.6690378
51
301.2943765
0
ARC
8
DEFAULT_255_1_388
10
22.4049148
20
92.9261926
40
0.2149197
50
301.7834992
51
311.754567
0
ARC
8
DEFAULT_255_1_388
10
22.415219
20
92.914765
40
0.1995326
50
311.7325027
51
354.2803031
0
ARC
8
DEFAULT_255_1_388
10
22.3334606
20
92.928828
40
0.2823461
50
353.0941646
51
0.1174696
0
ARC
8
DEFAULT_255_1_388
10
22.2816163
20
92.9341874
40
0.3342238
50
359.1804452
51
15.0452323
0
ARC
8
DEFAULT_255_1_388
10
22.4330222
20
92.9783546
40
0.1765747
50
13.957816
51
77.6713812
0
ARC
8
DEFAULT_255_1_388
10
22.3895458
20
92.8225464
40
0.3381982
50
76.111571
51
90.7028736
0
ARC
8
DEFAULT_255_1_388
10
22.382887
20
92.853325
40
0.3074046
50
89.5321574
51
103.5319393
0
ARC
8
DEFAULT_255_1_388
10
22.3603253
20
92.9432443
40
0.2147041
50
103.2930114
51
133.5619756
0
ARC
8
DEFAULT_255_1_388
10
22.3553195
20
92.9499351
40
0.2064084
50
133.8349761
51
173.5343225
0
ARC
8
DEFAULT_255_1_388
10
22.4366852
20
92.9355144
40
0.2889266
50
172.5097183
51
180.1360699
0
ARC
8
DEFAULT_255_1_388
10
22.3296616
20
92.939388
40
0.3490913
50
155.3483706
51
180.7484035
0
ARC
8
DEFAULT_255_1_388
10
22.3241592
20
92.9361519
40
0.3454798
50
131.5745177
51
154.4799474
0
ARC
8
DEFAULT_255_1_388
10
22.3593874
20
92.9005422
40
0.3955058
50
96.9874487
51
131.9690874
0
ARC
8
DEFAULT_255_1_388
10
22.3840767
20
92.7604407
40
0.537622
50
89.8592909
51
97.7827481
0
ARC
8
DEFAULT_255_1_388
10
22.3894876
20
92.730936
40
0.5671399
50
78.3654493
51
90.4132586
0
ARC
8
DEFAULT_255_1_388
10
22.4297517
20
92.9175918
40
0.3762034
50
56.6229818
51
78.6387103
0
ARC
8
DEFAULT_255_1_388
10
22.4539347
20
92.9598846
40
0.3275964
50
47.0254604
51
56.085558
0
ARC
8
DEFAULT_255_1_388
10
22.4561598
20
92.9643189
40
0.3228382
50
10.9207523
51
46.777927
0
ARC
8
DEFAULT_255_1_388
10
22.3027191
20
92.9288401
40
0.4802559
50
359.6364235
51
11.6087615
0
ARC
8
DEFAULT_255_1_388
10
22.5091357
20
92.9271404
40
0.273833
50
332.3549969
51
359.7179765
0
ARC
8
DEFAULT_255_1_388
10
22.4359758
20
92.9618285
40
0.3547505
50
325.2332381
51
332.8746682
0
ARC
8
DEFAULT_255_1_388
10
22.4531341
20
92.9498763
40
0.3338396
50
292.9803892
51
325.2391113
0
ARC
8
DEFAULT_255_1_388
10
22.4220536
20
93.0103679
40
0.4016959
50
292.542178
51
293.6931461
0
ARC
8
DEFAULT_255_1_388
10
22.4664108
20
92.2838036
40
0.372079
50
57.643292
51
72.8626085
0
ARC
8
DEFAULT_255_1_388
10
22.5062943
20
92.3484273
40
0.2961455
50
36.7246661
51
57.4701329
0
ARC
8
DEFAULT_255_1_388
10
22.50501
20
92.349847
40
0.2963321
50
8.054535
51
36.3561529
0
ARC
8
DEFAULT_255_1_388
10
22.4079772
20
92.3324073
40
0.3948682
50
359.8316595
51
8.5873361
0
ARC
8
DEFAULT_255_1_388
10
22.3657246
20
92.326997
40
0.4371398
50
343.9831631
51
0.557075
0
ARC
8
DEFAULT_255_1_388
10
22.4654296
20
92.2996963
40
0.3337749
50
311.6358204
51
343.7652116
0
ARC
8
DEFAULT_255_1_388
10
22.422855
20
92.3476955
40
0.3979351
50
279.7829743
51
311.625622
0
ARC
8
DEFAULT_255_1_388
10
22.3889685
20
92.5093642
40
0.5630417
50
269.7285092
51
280.3857694
0
ARC
8
DEFAULT_255_1_388
10
22.3819998
20
92.5047241
40
0.5584119
50
256.6827433
51
270.4412869
0
ARC
8
DEFAULT_255_1_388
10
22.3438984
20
92.3489698
40
0.3980715
50
229.4223821
51
256.8554507
0
ARC
8
DEFAULT_255_1_388
10
22.2972538
20
92.2964683
40
0.3278564
50
181.8183354
51
229.6455015
0
ARC
8
DEFAULT_255_1_388
10
22.4142147
20
92.3111825
40
0.4453611
50
179.9760419
51
183.2330638
0
ARC
8
DEFAULT_255_1_388
10
22.39487
20
92.3088781
40
0.2579652
50
179.4467996
51
196.2871626
0
ARC
8
DEFAULT_255_1_388
10
22.3400153
20
92.2938709
40
0.2011057
50
196.5661293
51
227.7059371
0
ARC
8
DEFAULT_255_1_388
10
22.3584761
20
92.3145155
40
0.2287994
50
227.7653015
51
257.8763321
0
ARC
8
DEFAULT_255_1_388
10
22.3837844
20
92.4205961
40
0.3378385
50
257.4583525
51
270.4267406
0
ARC
8
DEFAULT_255_1_388
10
22.3889093
20
92.453223
40
0.3704652
50
269.5965319
51
280.8788143
0
ARC
8
DEFAULT_255_1_388
10
22.4147321
20
92.3242529
40
0.2389415
50
280.6347277
51
299.8594068
0
ARC
8
DEFAULT_255_1_388
10
22.4362091
20
92.2834736
40
0.19289
50
300.3575552
51
314.5515667
0
ARC
8
DEFAULT_255_1_388
10
22.4268767
20
92.2903025
40
0.204312
50
315.0730962
51
345.0429362
0
ARC
8
DEFAULT_255_1_388
10
22.3230274
20
92.3205539
40
0.31246
50
344.598526
51
357.9270698
0
ARC
8
DEFAULT_255_1_388
10
22.2220579
20
92.3274705
40
0.4136265
50
357.4755098
51
0.0224936
0
ARC
8
DEFAULT_255_1_388
10
22.3373457
20
92.3302099
40
0.2983498
50
359.5051035
51
13.4236939
0
ARC
8
DEFAULT_255_1_388
10
22.4348546
20
92.3551637
40
0.1977186
50
12.9497905
51
48.7550905
0
ARC
8
DEFAULT_255_1_388
10
22.4143468
20
92.3271373
40
0.2323321
50
49.509109
51
72.1832965
0
ARC
8
DEFAULT_255_1_388
10
22.3740937
20
92.2076632
40
0.358397
50
71.9008458
51
84.3555134
0
ARC
8
DEFAULT_255_1_388
10
22.3559331
20
92.0544712
40
0.512641
50
84.019632
51
89.3326067
0
LINE
8
DEFAULT_255_1_388
10
23.3973892
20
92.5914737
11
23.3973892
21
92.4550355
0
LINE
8
DEFAULT_255_1_388
10
23.3973892
20
92.4550355
11
22.9564498
21
92.4550355
0
LINE
8
DEFAULT_255_1_388
10
22.9564498
20
92.4550355
11
22.9564498
21
92.5914737
0
LINE
8
DEFAULT_255_1_388
10
22.9564498
20
92.5914737
11
23.3973892
21
92.5914737
0
LINE
8
DEFAULT_255_1_388
10
24.0922303
20
93.2863148
11
24.0922303
21
91.9644
0
LINE
8
DEFAULT_255_1_388
10
24.0922303
20
91.9644
11
23.9241673
21
91.9644
0
LINE
8
DEFAULT_255_1_388
10
23.9241673
20
91.9644
11
23.9241673
21
93.078495
0
LINE
8
DEFAULT_255_1_388
10
23.9241673
20
93.078495
11
23.5871377
21
92.9547066
0
LINE
8
DEFAULT_255_1_388
10
23.5871377
20
92.9547066
11
23.5871377
21
93.1065055
0
LINE
8
DEFAULT_255_1_388
10
23.5871377
20
93.1065055
11
24.0660269
21
93.2863148
0
LINE
8
DEFAULT_255_1_388
10
24.0660269
20
93.2863148
11
24.0922303
21
93.2863148
0
LINE
8
DEFAULT_255_1_388
10
21.7606661
20
100.6012589
11
21.7606661
21
100.5172274
0
LINE
8
DEFAULT_255_1_388
10
21.5302571
20
99.9732816
11
21.7651839
21
99.7889544
0
LINE
8
DEFAULT_255_1_388
10
21.7651839
20
99.7889544
11
21.6468169
21
99.6796231
0
LINE
8
DEFAULT_255_1_388
10
21.6468169
20
99.6796231
11
21.3694227
21
99.9000929
0
LINE
8
DEFAULT_255_1_388
10
20.7016885
20
100.5054811
11
20.7016885
21
100.6003553
0
LINE
8
DEFAULT_255_1_388
10
21.5871817
20
100.5045775
11
21.5871817
21
100.6021625
0
LINE
8
DEFAULT_255_1_388
10
20.8751729
20
100.6139088
11
20.8751729
21
100.5172274
0
ARC
8
DEFAULT_255_1_388
10
20.753354
20
100.5128529
40
1.0073215
50
351.4530536
51
0.2488167
0
ARC
8
DEFAULT_255_1_388
10
21.0441709
20
100.4678749
40
0.7130509
50
338.6860608
51
351.554089
0
ARC
8
DEFAULT_255_1_388
10
21.1494166
20
100.4306573
40
0.6014866
50
336.2886209
51
338.3448103
0
ARC
8
DEFAULT_255_1_388
10
21.187441
20
100.4097952
40
0.5582958
50
321.1168943
51
336.6796496
0
ARC
8
DEFAULT_255_1_388
10
21.2585183
20
100.3550644
40
0.4686152
50
305.4418419
51
320.8706891
0
ARC
8
DEFAULT_255_1_388
10
21.2364048
20
100.4391492
40
0.5552257
50
271.6372169
51
283.8614231
0
ARC
8
DEFAULT_255_1_388
10
21.2321501
20
100.5132271
40
0.6293984
50
269.993693
51
271.8317035
0
ARC
8
DEFAULT_255_1_388
10
21.2279326
20
100.422068
40
0.5382553
50
252.5221437
51
270.441579
0
ARC
8
DEFAULT_255_1_388
10
21.2117576
20
100.3614046
40
0.4755426
50
237.5349961
51
252.1858334
0
ARC
8
DEFAULT_255_1_388
10
21.2217952
20
100.374212
40
0.4917393
50
209.0632754
51
237.3492577
0
ARC
8
DEFAULT_255_1_388
10
21.3197278
20
100.4357104
40
0.6072464
50
205.118533
51
209.6465345
0
ARC
8
DEFAULT_255_1_388
10
21.409328
20
100.4737174
40
0.7045164
50
188.7216633
51
204.8239753
0
ARC
8
DEFAULT_255_1_388
10
21.6340056
20
100.5115387
40
0.9323368
50
180.3722704
51
188.9253909
0
ARC
8
DEFAULT_255_1_388
10
21.6309617
20
100.6048416
40
0.929284
50
169.5253055
51
180.2766048
0
ARC
8
DEFAULT_255_1_388
10
21.4169416
20
100.6442024
40
0.7116745
50
155.8314601
51
169.5088611
0
ARC
8
DEFAULT_255_1_388
10
21.2728879
20
100.7110312
40
0.5528904
50
139.6259579
51
156.0379072
0
ARC
8
DEFAULT_255_1_388
10
21.2065413
20
100.7644143
40
0.4677708
50
122.6414784
51
139.3431662
0
ARC
8
DEFAULT_255_1_388
10
21.2178668
20
100.7437787
40
0.4912586
50
93.0224537
51
122.4556091
0
ARC
8
DEFAULT_255_1_388
10
21.2300189
20
100.6351776
40
0.6003837
50
89.9756766
51
93.6340839
0
ARC
8
DEFAULT_255_1_388
10
21.2343886
20
100.6779547
40
0.5576216
50
73.9666049
51
90.4228101
0
ARC
8
DEFAULT_255_1_388
10
21.2550535
20
100.7584139
40
0.4745905
50
57.5177173
51
73.6814962
0
ARC
8
DEFAULT_255_1_388
10
21.2500759
20
100.7543592
40
0.4806881
50
28.7260666
51
57.2767723
0
ARC
8
DEFAULT_255_1_388
10
21.1476166
20
100.6910397
40
0.6010032
50
24.2451459
51
29.3250018
0
ARC
8
DEFAULT_255_1_388
10
21.0434631
20
100.6479744
40
0.713663
50
9.0643887
51
23.9639114
0
ARC
8
DEFAULT_255_1_388
10
20.7897068
20
100.6053505
40
0.9709678
50
359.7585581
51
9.1891216
0
ARC
8
DEFAULT_255_1_388
10
20.6485656
20
100.6068562
40
0.9386278
50
359.7134836
51
7.9655743
0
ARC
8
DEFAULT_255_1_388
10
20.9818355
20
100.6549391
40
0.6019121
50
7.8289718
51
20.0423308
0
ARC
8
DEFAULT_255_1_388
10
21.1645823
20
100.7214145
40
0.4074504
50
20.0676743
51
35.9162425
0
ARC
8
DEFAULT_255_1_388
10
21.2517702
20
100.7862196
40
0.2988273
50
35.659429
51
85.1578517
0
ARC
8
DEFAULT_255_1_388
10
21.2309864
20
100.6607214
40
0.4257521
50
83.7963246
51
90.0959039
0
ARC
8
DEFAULT_255_1_388
10
21.2261408
20
100.7432384
40
0.3432594
50
89.3101324
51
109.9889786
0
ARC
8
DEFAULT_255_1_388
10
21.2168598
20
100.7832665
40
0.3025108
50
110.9286914
51
143.9411475
0
ARC
8
DEFAULT_255_1_388
10
21.32159
20
100.7031455
40
0.434348
50
143.5289166
51
163.2980252
0
ARC
8
DEFAULT_255_1_388
10
21.5362187
20
100.6356685
40
0.659321
50
163.0418884
51
174.3139873
0
ARC
8
DEFAULT_255_1_388
10
21.8067152
20
100.6044378
40
0.9315905
50
174.050934
51
179.4174954
0
ARC
8
DEFAULT_255_1_388
10
21.7488866
20
100.5123922
40
0.8737271
50
179.6829249
51
188.9631837
0
ARC
8
DEFAULT_255_1_388
10
21.4484597
20
100.4634648
40
0.569348
50
188.8098723
51
202.9300437
0
ARC
8
DEFAULT_255_1_388
10
21.3116329
20
100.4077968
40
0.4216493
50
203.2071737
51
215.7877161
0
ARC
8
DEFAULT_255_1_388
10
21.2161612
20
100.332285
40
0.3000949
50
214.7520738
51
264.283405
0
ARC
8
DEFAULT_255_1_388
10
21.2314203
20
100.4284645
40
0.3973553
50
263.4754673
51
270.0952411
0
ARC
8
DEFAULT_255_1_388
10
21.2361596
20
100.3990808
40
0.3679937
50
269.3649295
51
287.5149684
0
ARC
8
DEFAULT_255_1_388
10
21.2562037
20
100.3262714
40
0.2925408
50
288.0629019
51
323.8115617
0
ARC
8
DEFAULT_255_1_388
10
21.1582013
20
100.3993754
40
0.4148018
50
323.6546541
51
342.6591359
0
ARC
8
DEFAULT_255_1_388
10
20.9296671
20
100.473728
40
0.6551163
50
342.4092446
51
353.6451501
0
ARC
8
DEFAULT_255_1_388
10
20.6111465
20
100.5133565
40
0.9760748
50
353.4027553
51
359.4846611
0
LINE
8
DEFAULT_255_1_388
10
22.8467505
20
100.0383382
11
22.8467505
21
99.9019
0
LINE
8
DEFAULT_255_1_388
10
22.8467505
20
99.9019
11
21.98475
21
99.9019
0
LINE
8
DEFAULT_255_1_388
10
21.98475
20
99.9019
11
21.98475
21
100.0220741
0
LINE
8
DEFAULT_255_1_388
10
21.98475
20
100.0220741
11
22.4401465
21
100.5280702
0
LINE
8
DEFAULT_255_1_388
10
22.1266097
20
100.8298607
11
21.9594502
21
100.8298607
0
LINE
8
DEFAULT_255_1_388
10
22.5386351
20
100.420546
11
22.1862449
21
100.0383382
0
LINE
8
DEFAULT_255_1_388
10
22.1862449
20
100.0383382
11
22.8467505
21
100.0383382
0
ARC
8
DEFAULT_255_1_388
10
20.9225525
20
101.8700983
40
2.0258655
50
318.5132526
51
320.7829045
0
ARC
8
DEFAULT_255_1_388
10
21.5173482
20
101.3859929
40
1.2589638
50
320.7372878
51
323.9739031
0
ARC
8
DEFAULT_255_1_388
10
21.9582413
20
101.0665554
40
0.7145141
50
323.8962701
51
328.64194
0
ARC
8
DEFAULT_255_1_388
10
22.1884671
20
100.9245545
40
0.4440242
50
328.8294576
51
331.7891185
0
ARC
8
DEFAULT_255_1_388
10
22.3006991
20
100.8666374
40
0.3177517
50
331.4254512
51
352.9365785
0
ARC
8
DEFAULT_255_1_388
10
22.3159991
20
100.863205
40
0.3021496
50
353.2257659
51
0.0166158
0
ARC
8
DEFAULT_255_1_388
10
22.3396752
20
100.8657894
40
0.2784847
50
359.486299
51
15.9343185
0
ARC
8
DEFAULT_255_1_388
10
22.3967018
20
100.8811269
40
0.2194403
50
16.1712913
51
43.5286088
0
ARC
8
DEFAULT_255_1_388
10
22.4053963
20
100.8898191
40
0.2071504
50
43.4417391
51
83.1661095
0
ARC
8
DEFAULT_255_1_388
10
22.3903124
20
100.8069316
40
0.2912888
50
82.160179
51
90.1505708
0
ARC
8
DEFAULT_255_1_388
10
22.3867606
20
100.7465279
40
0.3517025
50
89.5460741
51
102.5418361
0
ARC
8
DEFAULT_255_1_388
10
22.3594326
20
100.8624933
40
0.2325748
50
102.1738499
51
129.206123
0
ARC
8
DEFAULT_255_1_388
10
22.3505779
20
100.8764664
40
0.2161591
50
129.72865
51
135.753947
0
ARC
8
DEFAULT_255_1_388
10
22.3642261
20
100.8655728
40
0.2335433
50
136.1757367
51
166.3673339
0
ARC
8
DEFAULT_255_1_388
10
22.477495
20
100.8352148
40
0.3507873
50
165.9090694
51
178.8684636
0
ARC
8
DEFAULT_255_1_388
10
22.5750721
20
100.8299263
40
0.4484624
50
178.4391136
51
180.0083808
0
ARC
8
DEFAULT_255_1_388
10
22.4171423
20
100.8343197
40
0.4577138
50
163.2878482
51
180.5581842
0
ARC
8
DEFAULT_255_1_388
10
22.3269464
20
100.8591393
40
0.3641968
50
133.4540601
51
162.947111
0
ARC
8
DEFAULT_255_1_388
10
22.3470346
20
100.8377789
40
0.3935189
50
100.7869829
51
133.4382499
0
ARC
8
DEFAULT_255_1_388
10
22.3861591
20
100.6635399
40
0.5720313
50
89.660664
51
101.3702276
0
ARC
8
DEFAULT_255_1_388
10
22.39362
20
100.6704263
40
0.5651495
50
78.2172678
51
90.412935
0
ARC
8
DEFAULT_255_1_388
10
22.4335665
20
100.8531511
40
0.378122
50
55.9269121
51
78.4888449
0
ARC
8
DEFAULT_255_1_388
10
22.455638
20
100.8912187
40
0.3342379
50
47.929771
51
55.4049217
0
ARC
8
DEFAULT_255_1_388
10
22.4670911
20
100.9028618
40
0.3179217
50
4.334829
51
48.0560205
0
ARC
8
DEFAULT_255_1_388
10
22.3438713
20
100.8837487
40
0.442341
50
359.9251713
51
5.5971671
0
ARC
8
DEFAULT_255_1_388
10
22.3920867
20
100.8900728
40
0.3941854
50
337.8914027
51
358.9967534
0
ARC
8
DEFAULT_255_1_388
10
22.0868437
20
101.0078295
40
0.7213271
50
326.9132501
51
338.3508308
0
ARC
8
DEFAULT_255_1_388
10
21.6384549
20
101.2952105
40
1.2538973
50
319.6471833
51
327.0959558
0
ARC
8
DEFAULT_255_1_388
10
21.2071207
20
101.651005
40
1.8129975
50
317.2588228
51
319.9045804
0
LINE
8
DEFAULT_255_1_388
10
23.3888892
20
100.5289737
11
23.3888892
21
100.3925355
0
LINE
8
DEFAULT_255_1_388
10
23.3888892
20
100.3925355
11
22.9479498
21
100.3925355
0
LINE
8
DEFAULT_255_1_388
10
22.9479498
20
100.3925355
11
22.9479498
21
100.5289737
0
LINE
8
DEFAULT_255_1_388
10
22.9479498
20
100.5289737
11
23.3888892
21
100.5289737
0
LINE
8
DEFAULT_255_1_388
10
24.3963636
20
100.0383382
11
24.3963636
21
99.9019
0
LINE
8
DEFAULT_255_1_388
10
24.3963636
20
99.9019
11
23.5343631
21
99.9019
0
LINE
8
DEFAULT_255_1_388
10
23.5343631
20
99.9019
11
23.5343631
21
100.0220741
0
LINE
8
DEFAULT_255_1_388
10
23.5343631
20
100.0220741
11
23.9897596
21
100.5280702
0
LINE
8
DEFAULT_255_1_388
10
23.6762227
20
100.8298607
11
23.5090633
21
100.8298607
0
LINE
8
DEFAULT_255_1_388
10
24.0882481
20
100.420546
11
23.735858
21
100.0383382
0
LINE
8
DEFAULT_255_1_388
10
23.735858
20
100.0383382
11
24.3963636
21
100.0383382
0
ARC
8
DEFAULT_255_1_388
10
22.4721655
20
101.8700983
40
2.0258655
50
318.5132526
51
320.7829045
0
ARC
8
DEFAULT_255_1_388
10
23.0669612
20
101.3859929
40
1.2589638
50
320.7372878
51
323.9739031
0
ARC
8
DEFAULT_255_1_388
10
23.5078544
20
101.0665554
40
0.7145141
50
323.8962701
51
328.64194
0
ARC
8
DEFAULT_255_1_388
10
23.7380801
20
100.9245545
40
0.4440242
50
328.8294576
51
331.7891185
0
ARC
8
DEFAULT_255_1_388
10
23.8503122
20
100.8666374
40
0.3177517
50
331.4254512
51
352.9365785
0
ARC
8
DEFAULT_255_1_388
10
23.8656121
20
100.863205
40
0.3021496
50
353.2257659
51
0.0166158
0
ARC
8
DEFAULT_255_1_388
10
23.8892882
20
100.8657894
40
0.2784847
50
359.486299
51
15.9343185
0
ARC
8
DEFAULT_255_1_388
10
23.9463149
20
100.8811269
40
0.2194403
50
16.1712913
51
43.5286088
0
ARC
8
DEFAULT_255_1_388
10
23.9550093
20
100.8898191
40
0.2071504
50
43.4417391
51
83.1661095
0
ARC
8
DEFAULT_255_1_388
10
23.9399255
20
100.8069316
40
0.2912888
50
82.160179
51
90.1505708
0
ARC
8
DEFAULT_255_1_388
10
23.9363736
20
100.7465279
40
0.3517025
50
89.5460741
51
102.5418361
0
ARC
8
DEFAULT_255_1_388
10
23.9090456
20
100.8624933
40
0.2325748
50
102.1738499
51
129.206123
0
ARC
8
DEFAULT_255_1_388
10
23.900191
20
100.8764664
40
0.2161591
50
129.72865
51
135.753947
0
ARC
8
DEFAULT_255_1_388
10
23.9138392
20
100.8655728
40
0.2335433
50
136.1757367
51
166.3673339
0
ARC
8
DEFAULT_255_1_388
10
24.027108
20
100.8352148
40
0.3507873
50
165.9090694
51
178.8684636
0
ARC
8
DEFAULT_255_1_388
10
24.1246852
20
100.8299263
40
0.4484624
50
178.4391136
51
180.0083808
0
ARC
8
DEFAULT_255_1_388
10
23.9667553
20
100.8343197
40
0.4577138
50
163.2878482
51
180.5581842
0
ARC
8
DEFAULT_255_1_388
10
23.8765594
20
100.8591393
40
0.3641968
50
133.4540601
51
162.947111
0
ARC
8
DEFAULT_255_1_388
10
23.8966476
20
100.8377789
40
0.3935189
50
100.7869829
51
133.4382499
0
ARC
8
DEFAULT_255_1_388
10
23.9357721
20
100.6635399
40
0.5720313
50
89.660664
51
101.3702276
0
ARC
8
DEFAULT_255_1_388
10
23.943233
20
100.6704263
40
0.5651495
50
78.2172678
51
90.412935
0
ARC
8
DEFAULT_255_1_388
10
23.9831796
20
100.8531511
40
0.378122
50
55.9269121
51
78.4888449
0
ARC
8
DEFAULT_255_1_388
10
24.0052511
20
100.8912187
40
0.3342379
50
47.929771
51
55.4049217
0
ARC
8
DEFAULT_255_1_388
10
24.0167041
20
100.9028618
40
0.3179217
50
4.334829
51
48.0560205
0
ARC
8
DEFAULT_255_1_388
10
23.8934843
20
100.8837487
40
0.442341
50
359.9251713
51
5.5971671
0
ARC
8
DEFAULT_255_1_388
10
23.9416998
20
100.8900728
40
0.3941854
50
337.8914027
51
358.9967534
0
ARC
8
DEFAULT_255_1_388
10
23.6364568
20
101.0078295
40
0.7213271
50
326.9132501
51
338.3508308
0
ARC
8
DEFAULT_255_1_388
10
23.188068
20
101.2952105
40
1.2538973
50
319.6471833
51
327.0959558
0
ARC
8
DEFAULT_255_1_388
10
22.7567338
20
101.651005
40
1.8129975
50
317.2588228
51
319.9045804
0
LINE
8
DEFAULT_255_1_388
10
21.7691661
20
108.5387589
11
21.7691661
21
108.4547274
0
LINE
8
DEFAULT_255_1_388
10
21.5387571
20
107.9107816
11
21.7736839
21
107.7264544
0
LINE
8
DEFAULT_255_1_388
10
21.7736839
20
107.7264544
11
21.6553169
21
107.6171231
0
LINE
8
DEFAULT_255_1_388
10
21.6553169
20
107.6171231
11
21.3779227
21
107.8375929
0
LINE
8
DEFAULT_255_1_388
10
20.7101885
20
108.4429811
11
20.7101885
21
108.5378553
0
LINE
8
DEFAULT_255_1_388
10
21.5956817
20
108.4420775
11
21.5956817
21
108.5396625
0
LINE
8
DEFAULT_255_1_388
10
20.8836729
20
108.5514088
11
20.8836729
21
108.4547274
0
ARC
8
DEFAULT_255_1_388
10
20.761854
20
108.4503529
40
1.0073215
50
351.4530536
51
0.2488167
0
ARC
8
DEFAULT_255_1_388
10
21.0526709
20
108.4053749
40
0.7130509
50
338.6860608
51
351.554089
0
ARC
8
DEFAULT_255_1_388
10
21.1579166
20
108.3681573
40
0.6014866
50
336.2886209
51
338.3448103
0
ARC
8
DEFAULT_255_1_388
10
21.195941
20
108.3472952
40
0.5582958
50
321.1168943
51
336.6796496
0
ARC
8
DEFAULT_255_1_388
10
21.2670183
20
108.2925644
40
0.4686152
50
305.4418419
51
320.8706891
0
ARC
8
DEFAULT_255_1_388
10
21.2449048
20
108.3766492
40
0.5552257
50
271.6372169
51
283.8614231
0
ARC
8
DEFAULT_255_1_388
10
21.2406501
20
108.4507271
40
0.6293984
50
269.993693
51
271.8317035
0
ARC
8
DEFAULT_255_1_388
10
21.2364326
20
108.359568
40
0.5382553
50
252.5221437
51
270.441579
0
ARC
8
DEFAULT_255_1_388
10
21.2202576
20
108.2989046
40
0.4755426
50
237.5349961
51
252.1858334
0
ARC
8
DEFAULT_255_1_388
10
21.2302952
20
108.311712
40
0.4917393
50
209.0632754
51
237.3492577
0
ARC
8
DEFAULT_255_1_388
10
21.3282278
20
108.3732104
40
0.6072464
50
205.118533
51
209.6465345
0
ARC
8
DEFAULT_255_1_388
10
21.417828
20
108.4112174
40
0.7045164
50
188.7216633
51
204.8239753
0
ARC
8
DEFAULT_255_1_388
10
21.6425056
20
108.4490387
40
0.9323368
50
180.3722704
51
188.9253909
0
ARC
8
DEFAULT_255_1_388
10
21.6394617
20
108.5423416
40
0.929284
50
169.5253055
51
180.2766048
0
ARC
8
DEFAULT_255_1_388
10
21.4254416
20
108.5817024
40
0.7116745
50
155.8314601
51
169.5088611
0
ARC
8
DEFAULT_255_1_388
10
21.2813879
20
108.6485312
40
0.5528904
50
139.6259579
51
156.0379072
0
ARC
8
DEFAULT_255_1_388
10
21.2150413
20
108.7019143
40
0.4677708
50
122.6414784
51
139.3431662
0
ARC
8
DEFAULT_255_1_388
10
21.2263668
20
108.6812787
40
0.4912586
50
93.0224537
51
122.4556091
0
ARC
8
DEFAULT_255_1_388
10
21.2385189
20
108.5726776
40
0.6003837
50
89.9756766
51
93.6340839
0
ARC
8
DEFAULT_255_1_388
10
21.2428886
20
108.6154547
40
0.5576216
50
73.9666049
51
90.4228101
0
ARC
8
DEFAULT_255_1_388
10
21.2635535
20
108.6959139
40
0.4745905
50
57.5177173
51
73.6814962
0
ARC
8
DEFAULT_255_1_388
10
21.2585759
20
108.6918592
40
0.4806881
50
28.7260666
51
57.2767723
0
ARC
8
DEFAULT_255_1_388
10
21.1561166
20
108.6285397
40
0.6010032
50
24.2451459
51
29.3250018
0
ARC
8
DEFAULT_255_1_388
10
21.0519631
20
108.5854744
40
0.713663
50
9.0643887
51
23.9639114
0
ARC
8
DEFAULT_255_1_388
10
20.7982068
20
108.5428505
40
0.9709678
50
359.7585581
51
9.1891216
0
ARC
8
DEFAULT_255_1_388
10
20.6570656
20
108.5443562
40
0.9386278
50
359.7134836
51
7.9655743
0
ARC
8
DEFAULT_255_1_388
10
20.9903355
20
108.5924391
40
0.6019121
50
7.8289718
51
20.0423308
0
ARC
8
DEFAULT_255_1_388
10
21.1730823
20
108.6589145
40
0.4074504
50
20.0676743
51
35.9162425
0
ARC
8
DEFAULT_255_1_388
10
21.2602702
20
108.7237196
40
0.2988273
50
35.659429
51
85.1578517
0
ARC
8
DEFAULT_255_1_388
10
21.2394864
20
108.5982214
40
0.4257521
50
83.7963246
51
90.0959039
0
ARC
8
DEFAULT_255_1_388
10
21.2346408
20
108.6807384
40
0.3432594
50
89.3101324
51
109.9889786
0
ARC
8
DEFAULT_255_1_388
10
21.2253598
20
108.7207665
40
0.3025108
50
110.9286914
51
143.9411475
0
ARC
8
DEFAULT_255_1_388
10
21.33009
20
108.6406455
40
0.434348
50
143.5289166
51
163.2980252
0
ARC
8
DEFAULT_255_1_388
10
21.5447187
20
108.5731685
40
0.659321
50
163.0418884
51
174.3139873
0
ARC
8
DEFAULT_255_1_388
10
21.8152152
20
108.5419378
40
0.9315905
50
174.050934
51
179.4174954
0
ARC
8
DEFAULT_255_1_388
10
21.7573866
20
108.4498922
40
0.8737271
50
179.6829249
51
188.9631837
0
ARC
8
DEFAULT_255_1_388
10
21.4569597
20
108.4009648
40
0.569348
50
188.8098723
51
202.9300437
0
ARC
8
DEFAULT_255_1_388
10
21.3201329
20
108.3452968
40
0.4216493
50
203.2071737
51
215.7877161
0
ARC
8
DEFAULT_255_1_388
10
21.2246612
20
108.269785
40
0.3000949
50
214.7520738
51
264.283405
0
ARC
8
DEFAULT_255_1_388
10
21.2399203
20
108.3659645
40
0.3973553
50
263.4754673
51
270.0952411
0
ARC
8
DEFAULT_255_1_388
10
21.2446596
20
108.3365808
40
0.3679937
50
269.3649295
51
287.5149684
0
ARC
8
DEFAULT_255_1_388
10
21.2647037
20
108.2637714
40
0.2925408
50
288.0629019
51
323.8115617
0
ARC
8
DEFAULT_255_1_388
10
21.1667013
20
108.3368754
40
0.4148018
50
323.6546541
51
342.6591359
0
ARC
8
DEFAULT_255_1_388
10
20.9381671
20
108.411228
40
0.6551163
50
342.4092446
51
353.6451501
0
ARC
8
DEFAULT_255_1_388
10
20.6196465
20
108.4508565
40
0.9760748
50
353.4027553
51
359.4846611
0
LINE
8
DEFAULT_255_1_388
10
22.8552505
20
107.9758382
11
22.8552505
21
107.8394
0
LINE
8
DEFAULT_255_1_388
10
22.8552505
20
107.8394
11
21.99325
21
107.8394
0
LINE
8
DEFAULT_255_1_388
10
21.99325
20
107.8394
11
21.99325
21
107.9595741
0
LINE
8
DEFAULT_255_1_388
10
21.99325
20
107.9595741
11
22.4486465
21
108.4655702
0
LINE
8
DEFAULT_255_1_388
10
22.1351097
20
108.7673607
11
21.9679502
21
108.7673607
0
LINE
8
DEFAULT_255_1_388
10
22.5471351
20
108.358046
11
22.1947449
21
107.9758382
0
LINE
8
DEFAULT_255_1_388
10
22.1947449
20
107.9758382
11
22.8552505
21
107.9758382
0
ARC
8
DEFAULT_255_1_388
10
20.9310525
20
109.8075983
40
2.0258655
50
318.5132526
51
320.7829045
0
ARC
8
DEFAULT_255_1_388
10
21.5258482
20
109.3234929
40
1.2589638
50
320.7372878
51
323.9739031
0
ARC
8
DEFAULT_255_1_388
10
21.9667413
20
109.0040554
40
0.7145141
50
323.8962701
51
328.64194
0
ARC
8
DEFAULT_255_1_388
10
22.1969671
20
108.8620545
40
0.4440242
50
328.8294576
51
331.7891185
0
ARC
8
DEFAULT_255_1_388
10
22.3091991
20
108.8041374
40
0.3177517
50
331.4254512
51
352.9365785
0
ARC
8
DEFAULT_255_1_388
10
22.3244991
20
108.800705
40
0.3021496
50
353.2257659
51
0.0166158
0
ARC
8
DEFAULT_255_1_388
10
22.3481752
20
108.8032894
40
0.2784847
50
359.486299
51
15.9343185
0
ARC
8
DEFAULT_255_1_388
10
22.4052018
20
108.8186269
40
0.2194403
50
16.1712913
51
43.5286088
0
ARC
8
DEFAULT_255_1_388
10
22.4138963
20
108.8273191
40
0.2071504
50
43.4417391
51
83.1661095
0
ARC
8
DEFAULT_255_1_388
10
22.3988124
20
108.7444316
40
0.2912888
50
82.160179
51
90.1505708
0
ARC
8
DEFAULT_255_1_388
10
22.3952606
20
108.6840279
40
0.3517025
50
89.5460741
51
102.5418361
0
ARC
8
DEFAULT_255_1_388
10
22.3679326
20
108.7999933
40
0.2325748
50
102.1738499
51
129.206123
0
ARC
8
DEFAULT_255_1_388
10
22.3590779
20
108.8139664
40
0.2161591
50
129.72865
51
135.753947
0
ARC
8
DEFAULT_255_1_388
10
22.3727261
20
108.8030728
40
0.2335433
50
136.1757367
51
166.3673339
0
ARC
8
DEFAULT_255_1_388
10
22.485995
20
108.7727148
40
0.3507873
50
165.9090694
51
178.8684636
0
ARC
8
DEFAULT_255_1_388
10
22.5835721
20
108.7674263
40
0.4484624
50
178.4391136
51
180.0083808
0
ARC
8
DEFAULT_255_1_388
10
22.4256423
20
108.7718197
40
0.4577138
50
163.2878482
51
180.5581842
0
ARC
8
DEFAULT_255_1_388
10
22.3354464
20
108.7966393
40
0.3641968
50
133.4540601
51
162.947111
0
ARC
8
DEFAULT_255_1_388
10
22.3555346
20
108.7752789
40
0.3935189
50
100.7869829
51
133.4382499
0
ARC
8
DEFAULT_255_1_388
10
22.3946591
20
108.6010399
40
0.5720313
50
89.660664
51
101.3702276
0
ARC
8
DEFAULT_255_1_388
10
22.40212
20
108.6079263
40
0.5651495
50
78.2172678
51
90.412935
0
ARC
8
DEFAULT_255_1_388
10
22.4420665
20
108.7906511
40
0.378122
50
55.9269121
51
78.4888449
0
ARC
8
DEFAULT_255_1_388
10
22.464138
20
108.8287187
40
0.3342379
50
47.929771
51
55.4049217
0
ARC
8
DEFAULT_255_1_388
10
22.4755911
20
108.8403618
40
0.3179217
50
4.334829
51
48.0560205
0
ARC
8
DEFAULT_255_1_388
10
22.3523713
20
108.8212487
40
0.442341
50
359.9251713
51
5.5971671
0
ARC
8
DEFAULT_255_1_388
10
22.4005867
20
108.8275728
40
0.3941854
50
337.8914027
51
358.9967534
0
ARC
8
DEFAULT_255_1_388
10
22.0953437
20
108.9453295
40
0.7213271
50
326.9132501
51
338.3508308
0
ARC
8
DEFAULT_255_1_388
10
21.6469549
20
109.2327105
40
1.2538973
50
319.6471833
51
327.0959558
0
ARC
8
DEFAULT_255_1_388
10
21.2156207
20
109.588505
40
1.8129975
50
317.2588228
51
319.9045804
0
LINE
8
DEFAULT_255_1_388
10
23.3973892
20
108.4664737
11
23.3973892
21
108.3300355
0
LINE
8
DEFAULT_255_1_388
10
23.3973892
20
108.3300355
11
22.9564498
21
108.3300355
0
LINE
8
DEFAULT_255_1_388
10
22.9564498
20
108.3300355
11
22.9564498
21
108.4664737
0
LINE
8
DEFAULT_255_1_388
10
22.9564498
20
108.4664737
11
23.3973892
21
108.4664737
0
LINE
8
DEFAULT_255_1_388
10
24.0922303
20
109.1613148
11
24.0922303
21
107.8394
0
LINE
8
DEFAULT_255_1_388
10
24.0922303
20
107.8394
11
23.9241673
21
107.8394
0
LINE
8
DEFAULT_255_1_388
10
23.9241673
20
107.8394
11
23.9241673
21
108.953495
0
LINE
8
DEFAULT_255_1_388
10
23.9241673
20
108.953495
11
23.5871377
21
108.8297066
0
LINE
8
DEFAULT_255_1_388
10
23.5871377
20
108.8297066
11
23.5871377
21
108.9815055
0
LINE
8
DEFAULT_255_1_388
10
23.5871377
20
108.9815055
11
24.0660269
21
109.1613148
0
LINE
8
DEFAULT_255_1_388
10
24.0660269
20
109.1613148
11
24.0922303
21
109.1613148
0
LINE
8
DEFAULT_255_1_388
10
21.7606661
20
116.4762589
11
21.7606661
21
116.3922274
0
LINE
8
DEFAULT_255_1_388
10
21.5302571
20
115.8482816
11
21.7651839
21
115.6639544
0
LINE
8
DEFAULT_255_1_388
10
21.7651839
20
115.6639544
11
21.6468169
21
115.5546231
0
LINE
8
DEFAULT_255_1_388
10
21.6468169
20
115.5546231
11
21.3694227
21
115.7750929
0
LINE
8
DEFAULT_255_1_388
10
20.7016885
20
116.3804811
11
20.7016885
21
116.4753553
0
LINE
8
DEFAULT_255_1_388
10
21.5871817
20
116.3795775
11
21.5871817
21
116.4771625
0
LINE
8
DEFAULT_255_1_388
10
20.8751729
20
116.4889088
11
20.8751729
21
116.3922274
0
ARC
8
DEFAULT_255_1_388
10
20.753354
20
116.3878529
40
1.0073215
50
351.4530536
51
0.2488167
0
ARC
8
DEFAULT_255_1_388
10
21.0441709
20
116.3428749
40
0.7130509
50
338.6860608
51
351.554089
0
ARC
8
DEFAULT_255_1_388
10
21.1494166
20
116.3056573
40
0.6014866
50
336.2886209
51
338.3448103
0
ARC
8
DEFAULT_255_1_388
10
21.187441
20
116.2847952
40
0.5582958
50
321.1168943
51
336.6796496
0
ARC
8
DEFAULT_255_1_388
10
21.2585183
20
116.2300644
40
0.4686152
50
305.4418419
51
320.8706891
0
ARC
8
DEFAULT_255_1_388
10
21.2364048
20
116.3141492
40
0.5552257
50
271.6372169
51
283.8614231
0
ARC
8
DEFAULT_255_1_388
10
21.2321501
20
116.3882271
40
0.6293984
50
269.993693
51
271.8317035
0
ARC
8
DEFAULT_255_1_388
10
21.2279326
20
116.297068
40
0.5382553
50
252.5221437
51
270.441579
0
ARC
8
DEFAULT_255_1_388
10
21.2117576
20
116.2364046
40
0.4755426
50
237.5349961
51
252.1858334
0
ARC
8
DEFAULT_255_1_388
10
21.2217952
20
116.249212
40
0.4917393
50
209.0632754
51
237.3492577
0
ARC
8
DEFAULT_255_1_388
10
21.3197278
20
116.3107104
40
0.6072464
50
205.118533
51
209.6465345
0
ARC
8
DEFAULT_255_1_388
10
21.409328
20
116.3487174
40
0.7045164
50
188.7216633
51
204.8239753
0
ARC
8
DEFAULT_255_1_388
10
21.6340056
20
116.3865387
40
0.9323368
50
180.3722704
51
188.9253909
0
ARC
8
DEFAULT_255_1_388
10
21.6309617
20
116.4798416
40
0.929284
50
169.5253055
51
180.2766048
0
ARC
8
DEFAULT_255_1_388
10
21.4169416
20
116.5192024
40
0.7116745
50
155.8314601
51
169.5088611
0
ARC
8
DEFAULT_255_1_388
10
21.2728879
20
116.5860312
40
0.5528904
50
139.6259579
51
156.0379072
0
ARC
8
DEFAULT_255_1_388
10
21.2065413
20
116.6394143
40
0.4677708
50
122.6414784
51
139.3431662
0
ARC
8
DEFAULT_255_1_388
10
21.2178668
20
116.6187787
40
0.4912586
50
93.0224537
51
122.4556091
0
ARC
8
DEFAULT_255_1_388
10
21.2300189
20
116.5101776
40
0.6003837
50
89.9756766
51
93.6340839
0
ARC
8
DEFAULT_255_1_388
10
21.2343886
20
116.5529547
40
0.5576216
50
73.9666049
51
90.4228101
0
ARC
8
DEFAULT_255_1_388
10
21.2550535
20
116.6334139
40
0.4745905
50
57.5177173
51
73.6814962
0
ARC
8
DEFAULT_255_1_388
10
21.2500759
20
116.6293592
40
0.4806881
50
28.7260666
51
57.2767723
0
ARC
8
DEFAULT_255_1_388
10
21.1476166
20
116.5660397
40
0.6010032
50
24.2451459
51
29.3250018
0
ARC
8
DEFAULT_255_1_388
10
21.0434631
20
116.5229744
40
0.713663
50
9.0643887
51
23.9639114
0
ARC
8
DEFAULT_255_1_388
10
20.7897068
20
116.4803505
40
0.9709678
50
359.7585581
51
9.1891216
0
ARC
8
DEFAULT_255_1_388
10
20.6485656
20
116.4818562
40
0.9386278
50
359.7134836
51
7.9655743
0
ARC
8
DEFAULT_255_1_388
10
20.9818355
20
116.5299391
40
0.6019121
50
7.8289718
51
20.0423308
0
ARC
8
DEFAULT_255_1_388
10
21.1645823
20
116.5964145
40
0.4074504
50
20.0676743
51
35.9162425
0
ARC
8
DEFAULT_255_1_388
10
21.2517702
20
116.6612196
40
0.2988273
50
35.659429
51
85.1578517
0
ARC
8
DEFAULT_255_1_388
10
21.2309864
20
116.5357214
40
0.4257521
50
83.7963246
51
90.0959039
0
ARC
8
DEFAULT_255_1_388
10
21.2261408
20
116.6182384
40
0.3432594
50
89.3101324
51
109.9889786
0
ARC
8
DEFAULT_255_1_388
10
21.2168598
20
116.6582665
40
0.3025108
50
110.9286914
51
143.9411475
0
ARC
8
DEFAULT_255_1_388
10
21.32159
20
116.5781455
40
0.434348
50
143.5289166
51
163.2980252
0
ARC
8
DEFAULT_255_1_388
10
21.5362187
20
116.5106685
40
0.659321
50
163.0418884
51
174.3139873
0
ARC
8
DEFAULT_255_1_388
10
21.8067152
20
116.4794378
40
0.9315905
50
174.050934
51
179.4174954
0
ARC
8
DEFAULT_255_1_388
10
21.7488866
20
116.3873922
40
0.8737271
50
179.6829249
51
188.9631837
0
ARC
8
DEFAULT_255_1_388
10
21.4484597
20
116.3384648
40
0.569348
50
188.8098723
51
202.9300437
0
ARC
8
DEFAULT_255_1_388
10
21.3116329
20
116.2827968
40
0.4216493
50
203.2071737
51
215.7877161
0
ARC
8
DEFAULT_255_1_388
10
21.2161612
20
116.207285
40
0.3000949
50
214.7520738
51
264.283405
0
ARC
8
DEFAULT_255_1_388
10
21.2314203
20
116.3034645
40
0.3973553
50
263.4754673
51
270.0952411
0
ARC
8
DEFAULT_255_1_388
10
21.2361596
20
116.2740808
40
0.3679937
50
269.3649295
51
287.5149684
0
ARC
8
DEFAULT_255_1_388
10
21.2562037
20
116.2012714
40
0.2925408
50
288.0629019
51
323.8115617
0
ARC
8
DEFAULT_255_1_388
10
21.1582013
20
116.2743754
40
0.4148018
50
323.6546541
51
342.6591359
0
ARC
8
DEFAULT_255_1_388
10
20.9296671
20
116.348728
40
0.6551163
50
342.4092446
51
353.6451501
0
ARC
8
DEFAULT_255_1_388
10
20.6111465
20
116.3883565
40
0.9760748
50
353.4027553
51
359.4846611
0
LINE
8
DEFAULT_255_1_388
10
22.5341172
20
117.0988148
11
22.5341172
21
115.7769
0
LINE
8
DEFAULT_255_1_388
10
22.5341172
20
115.7769
11
22.3660542
21
115.7769
0
LINE
8
DEFAULT_255_1_388
10
22.3660542
20
115.7769
11
22.3660542
21
116.890995
0
LINE
8
DEFAULT_255_1_388
10
22.3660542
20
116.890995
11
22.0290247
21
116.7672066
0
LINE
8
DEFAULT_255_1_388
10
22.0290247
20
116.7672066
11
22.0290247
21
116.9190055
0
LINE
8
DEFAULT_255_1_388
10
22.0290247
20
116.9190055
11
22.5079139
21
117.0988148
0
LINE
8
DEFAULT_255_1_388
10
22.5079139
20
117.0988148
11
22.5341172
21
117.0988148
0
LINE
8
DEFAULT_255_1_388
10
23.3888892
20
116.4039737
11
23.3888892
21
116.2675355
0
LINE
8
DEFAULT_255_1_388
10
23.3888892
20
116.2675355
11
22.9479498
21
116.2675355
0
LINE
8
DEFAULT_255_1_388
10
22.9479498
20
116.2675355
11
22.9479498
21
116.4039737
0
LINE
8
DEFAULT_255_1_388
10
22.9479498
20
116.4039737
11
23.3888892
21
116.4039737
0
LINE
8
DEFAULT_255_1_388
10
24.3963636
20
115.9133382
11
24.3963636
21
115.7769
0
LINE
8
DEFAULT_255_1_388
10
24.3963636
20
115.7769
11
23.5343631
21
115.7769
0
LINE
8
DEFAULT_255_1_388
10
23.5343631
20
115.7769
11
23.5343631
21
115.8970741
0
LINE
8
DEFAULT_255_1_388
10
23.5343631
20
115.8970741
11
23.9897596
21
116.4030702
0
LINE
8
DEFAULT_255_1_388
10
23.6762227
20
116.7048607
11
23.5090633
21
116.7048607
0
LINE
8
DEFAULT_255_1_388
10
24.0882481
20
116.295546
11
23.735858
21
115.9133382
0
LINE
8
DEFAULT_255_1_388
10
23.735858
20
115.9133382
11
24.3963636
21
115.9133382
0
ARC
8
DEFAULT_255_1_388
10
22.4721655
20
117.7450983
40
2.0258655
50
318.5132526
51
320.7829045
0
ARC
8
DEFAULT_255_1_388
10
23.0669612
20
117.2609929
40
1.2589638
50
320.7372878
51
323.9739031
0
ARC
8
DEFAULT_255_1_388
10
23.5078544
20
116.9415554
40
0.7145141
50
323.8962701
51
328.64194
0
ARC
8
DEFAULT_255_1_388
10
23.7380801
20
116.7995545
40
0.4440242
50
328.8294576
51
331.7891185
0
ARC
8
DEFAULT_255_1_388
10
23.8503122
20
116.7416374
40
0.3177517
50
331.4254512
51
352.9365785
0
ARC
8
DEFAULT_255_1_388
10
23.8656121
20
116.738205
40
0.3021496
50
353.2257659
51
0.0166158
0
ARC
8
DEFAULT_255_1_388
10
23.8892882
20
116.7407894
40
0.2784847
50
359.486299
51
15.9343185
0
ARC
8
DEFAULT_255_1_388
10
23.9463149
20
116.7561269
40
0.2194403
50
16.1712913
51
43.5286088
0
ARC
8
DEFAULT_255_1_388
10
23.9550093
20
116.7648191
40
0.2071504
50
43.4417391
51
83.1661095
0
ARC
8
DEFAULT_255_1_388
10
23.9399255
20
116.6819316
40
0.2912888
50
82.160179
51
90.1505708
0
ARC
8
DEFAULT_255_1_388
10
23.9363736
20
116.6215279
40
0.3517025
50
89.5460741
51
102.5418361
0
ARC
8
DEFAULT_255_1_388
10
23.9090456
20
116.7374933
40
0.2325748
50
102.1738499
51
129.206123
0
ARC
8
DEFAULT_255_1_388
10
23.900191
20
116.7514664
40
0.2161591
50
129.72865
51
135.753947
0
ARC
8
DEFAULT_255_1_388
10
23.9138392
20
116.7405728
40
0.2335433
50
136.1757367
51
166.3673339
0
ARC
8
DEFAULT_255_1_388
10
24.027108
20
116.7102148
40
0.3507873
50
165.9090694
51
178.8684636
0
ARC
8
DEFAULT_255_1_388
10
24.1246852
20
116.7049263
40
0.4484624
50
178.4391136
51
180.0083808
0
ARC
8
DEFAULT_255_1_388
10
23.9667553
20
116.7093197
40
0.4577138
50
163.2878482
51
180.5581842
0
ARC
8
DEFAULT_255_1_388
10
23.8765594
20
116.7341393
40
0.3641968
50
133.4540601
51
162.947111
0
ARC
8
DEFAULT_255_1_388
10
23.8966476
20
116.7127789
40
0.3935189
50
100.7869829
51
133.4382499
0
ARC
8
DEFAULT_255_1_388
10
23.9357721
20
116.5385399
40
0.5720313
50
89.660664
51
101.3702276
0
ARC
8
DEFAULT_255_1_388
10
23.943233
20
116.5454263
40
0.5651495
50
78.2172678
51
90.412935
0
ARC
8
DEFAULT_255_1_388
10
23.9831796
20
116.7281511
40
0.378122
50
55.9269121
51
78.4888449
0
ARC
8
DEFAULT_255_1_388
10
24.0052511
20
116.7662187
40
0.3342379
50
47.929771
51
55.4049217
0
ARC
8
DEFAULT_255_1_388
10
24.0167041
20
116.7778618
40
0.3179217
50
4.334829
51
48.0560205
0
ARC
8
DEFAULT_255_1_388
10
23.8934843
20
116.7587487
40
0.442341
50
359.9251713
51
5.5971671
0
ARC
8
DEFAULT_255_1_388
10
23.9416998
20
116.7650728
40
0.3941854
50
337.8914027
51
358.9967534
0
ARC
8
DEFAULT_255_1_388
10
23.6364568
20
116.8828295
40
0.7213271
50
326.9132501
51
338.3508308
0
ARC
8
DEFAULT_255_1_388
10
23.188068
20
117.1702105
40
1.2538973
50
319.6471833
51
327.0959558
0
ARC
8
DEFAULT_255_1_388
10
22.7567338
20
117.526005
40
1.8129975
50
317.2588228
51
319.9045804
0
LINE
8
DEFAULT_255_1_388
10
21.7691661
20
124.4137589
11
21.7691661
21
124.3297274
0
LINE
8
DEFAULT_255_1_388
10
21.5387571
20
123.7857816
11
21.7736839
21
123.6014544
0
LINE
8
DEFAULT_255_1_388
10
21.7736839
20
123.6014544
11
21.6553169
21
123.4921231
0
LINE
8
DEFAULT_255_1_388
10
21.6553169
20
123.4921231
11
21.3779227
21
123.7125929
0
LINE
8
DEFAULT_255_1_388
10
20.7101885
20
124.3179811
11
20.7101885
21
124.4128553
0
LINE
8
DEFAULT_255_1_388
10
21.5956817
20
124.3170775
11
21.5956817
21
124.4146625
0
LINE
8
DEFAULT_255_1_388
10
20.8836729
20
124.4264088
11
20.8836729
21
124.3297274
0
ARC
8
DEFAULT_255_1_388
10
20.761854
20
124.3253529
40
1.0073215
50
351.4530536
51
0.2488167
0
ARC
8
DEFAULT_255_1_388
10
21.0526709
20
124.2803749
40
0.7130509
50
338.6860608
51
351.554089
0
ARC
8
DEFAULT_255_1_388
10
21.1579166
20
124.2431573
40
0.6014866
50
336.2886209
51
338.3448103
0
ARC
8
DEFAULT_255_1_388
10
21.195941
20
124.2222952
40
0.5582958
50
321.1168943
51
336.6796496
0
ARC
8
DEFAULT_255_1_388
10
21.2670183
20
124.1675644
40
0.4686152
50
305.4418419
51
320.8706891
0
ARC
8
DEFAULT_255_1_388
10
21.2449048
20
124.2516492
40
0.5552257
50
271.6372169
51
283.8614231
0
ARC
8
DEFAULT_255_1_388
10
21.2406501
20
124.3257271
40
0.6293984
50
269.993693
51
271.8317035
0
ARC
8
DEFAULT_255_1_388
10
21.2364326
20
124.234568
40
0.5382553
50
252.5221437
51
270.441579
0
ARC
8
DEFAULT_255_1_388
10
21.2202576
20
124.1739046
40
0.4755426
50
237.5349961
51
252.1858334
0
ARC
8
DEFAULT_255_1_388
10
21.2302952
20
124.186712
40
0.4917393
50
209.0632754
51
237.3492577
0
ARC
8
DEFAULT_255_1_388
10
21.3282278
20
124.2482104
40
0.6072464
50
205.118533
51
209.6465345
0
ARC
8
DEFAULT_255_1_388
10
21.417828
20
124.2862174
40
0.7045164
50
188.7216633
51
204.8239753
0
ARC
8
DEFAULT_255_1_388
10
21.6425056
20
124.3240387
40
0.9323368
50
180.3722704
51
188.9253909
0
ARC
8
DEFAULT_255_1_388
10
21.6394617
20
124.4173416
40
0.929284
50
169.5253055
51
180.2766048
0
ARC
8
DEFAULT_255_1_388
10
21.4254416
20
124.4567024
40
0.7116745
50
155.8314601
51
169.5088611
0
ARC
8
DEFAULT_255_1_388
10
21.2813879
20
124.5235312
40
0.5528904
50
139.6259579
51
156.0379072
0
ARC
8
DEFAULT_255_1_388
10
21.2150413
20
124.5769143
40
0.4677708
50
122.6414784
51
139.3431662
0
ARC
8
DEFAULT_255_1_388
10
21.2263668
20
124.5562787
40
0.4912586
50
93.0224537
51
122.4556091
0
ARC
8
DEFAULT_255_1_388
10
21.2385189
20
124.4476776
40
0.6003837
50
89.9756766
51
93.6340839
0
ARC
8
DEFAULT_255_1_388
10
21.2428886
20
124.4904547
40
0.5576216
50
73.9666049
51
90.4228101
0
ARC
8
DEFAULT_255_1_388
10
21.2635535
20
124.5709139
40
0.4745905
50
57.5177173
51
73.6814962
0
ARC
8
DEFAULT_255_1_388
10
21.2585759
20
124.5668592
40
0.4806881
50
28.7260666
51
57.2767723
0
ARC
8
DEFAULT_255_1_388
10
21.1561166
20
124.5035397
40
0.6010032
50
24.2451459
51
29.3250018
0
ARC
8
DEFAULT_255_1_388
10
21.0519631
20
124.4604744
40
0.713663
50
9.0643887
51
23.9639114
0
ARC
8
DEFAULT_255_1_388
10
20.7982068
20
124.4178505
40
0.9709678
50
359.7585581
51
9.1891216
0
ARC
8
DEFAULT_255_1_388
10
20.6570656
20
124.4193562
40
0.9386278
50
359.7134836
51
7.9655743
0
ARC
8
DEFAULT_255_1_388
10
20.9903355
20
124.4674391
40
0.6019121
50
7.8289718
51
20.0423308
0
ARC
8
DEFAULT_255_1_388
10
21.1730823
20
124.5339145
40
0.4074504
50
20.0676743
51
35.9162425
0
ARC
8
DEFAULT_255_1_388
10
21.2602702
20
124.5987196
40
0.2988273
50
35.659429
51
85.1578517
0
ARC
8
DEFAULT_255_1_388
10
21.2394864
20
124.4732214
40
0.4257521
50
83.7963246
51
90.0959039
0
ARC
8
DEFAULT_255_1_388
10
21.2346408
20
124.5557384
40
0.3432594
50
89.3101324
51
109.9889786
0
ARC
8
DEFAULT_255_1_388
10
21.2253598
20
124.5957665
40
0.3025108
50
110.9286914
51
143.9411475
0
ARC
8
DEFAULT_255_1_388
10
21.33009
20
124.5156455
40
0.434348
50
143.5289166
51
163.2980252
0
ARC
8
DEFAULT_255_1_388
10
21.5447187
20
124.4481685
40
0.659321
50
163.0418884
51
174.3139873
0
ARC
8
DEFAULT_255_1_388
10
21.8152152
20
124.4169378
40
0.9315905
50
174.050934
51
179.4174954
0
ARC
8
DEFAULT_255_1_388
10
21.7573866
20
124.3248922
40
0.8737271
50
179.6829249
51
188.9631837
0
ARC
8
DEFAULT_255_1_388
10
21.4569597
20
124.2759648
40
0.569348
50
188.8098723
51
202.9300437
0
ARC
8
DEFAULT_255_1_388
10
21.3201329
20
124.2202968
40
0.4216493
50
203.2071737
51
215.7877161
0
ARC
8
DEFAULT_255_1_388
10
21.2246612
20
124.144785
40
0.3000949
50
214.7520738
51
264.283405
0
ARC
8
DEFAULT_255_1_388
10
21.2399203
20
124.2409645
40
0.3973553
50
263.4754673
51
270.0952411
0
ARC
8
DEFAULT_255_1_388
10
21.2446596
20
124.2115808
40
0.3679937
50
269.3649295
51
287.5149684
0
ARC
8
DEFAULT_255_1_388
10
21.2647037
20
124.1387714
40
0.2925408
50
288.0629019
51
323.8115617
0
ARC
8
DEFAULT_255_1_388
10
21.1667013
20
124.2118754
40
0.4148018
50
323.6546541
51
342.6591359
0
ARC
8
DEFAULT_255_1_388
10
20.9381671
20
124.286228
40
0.6551163
50
342.4092446
51
353.6451501
0
ARC
8
DEFAULT_255_1_388
10
20.6196465
20
124.3258565
40
0.9760748
50
353.4027553
51
359.4846611
0
LINE
8
DEFAULT_255_1_388
10
22.5426172
20
125.0363148
11
22.5426172
21
123.7144
0
LINE
8
DEFAULT_255_1_388
10
22.5426172
20
123.7144
11
22.3745542
21
123.7144
0
LINE
8
DEFAULT_255_1_388
10
22.3745542
20
123.7144
11
22.3745542
21
124.828495
0
LINE
8
DEFAULT_255_1_388
10
22.3745542
20
124.828495
11
22.0375247
21
124.7047066
0
LINE
8
DEFAULT_255_1_388
10
22.0375247
20
124.7047066
11
22.0375247
21
124.8565055
0
LINE
8
DEFAULT_255_1_388
10
22.0375247
20
124.8565055
11
22.5164139
21
125.0363148
0
LINE
8
DEFAULT_255_1_388
10
22.5164139
20
125.0363148
11
22.5426172
21
125.0363148
0
LINE
8
DEFAULT_255_1_388
10
23.3973892
20
124.3414737
11
23.3973892
21
124.2050355
0
LINE
8
DEFAULT_255_1_388
10
23.3973892
20
124.2050355
11
22.9564498
21
124.2050355
0
LINE
8
DEFAULT_255_1_388
10
22.9564498
20
124.2050355
11
22.9564498
21
124.3414737
0
LINE
8
DEFAULT_255_1_388
10
22.9564498
20
124.3414737
11
23.3973892
21
124.3414737
0
LINE
8
DEFAULT_255_1_388
10
24.0922303
20
125.0363148
11
24.0922303
21
123.7144
0
LINE
8
DEFAULT_255_1_388
10
24.0922303
20
123.7144
11
23.9241673
21
123.7144
0
LINE
8
DEFAULT_255_1_388
10
23.9241673
20
123.7144
11
23.9241673
21
124.828495
0
LINE
8
DEFAULT_255_1_388
10
23.9241673
20
124.828495
11
23.5871377
21
124.7047066
0
LINE
8
DEFAULT_255_1_388
10
23.5871377
20
124.7047066
11
23.5871377
21
124.8565055
0
LINE
8
DEFAULT_255_1_388
10
23.5871377
20
124.8565055
11
24.0660269
21
125.0363148
0
LINE
8
DEFAULT_255_1_388
10
24.0660269
20
125.0363148
11
24.0922303
21
125.0363148
0
ENDSEC
0
EOF