0
SECTION
2
HEADER
9
$MEASUREMENT
70
1
0
ENDSEC
0
SECTION
2
TABLES
0
TABLE
2
LTYPE
0
LTYPE
72
65
70
64
2
CONTINUOUS
3
______
73
0
40
0
0
ENDTAB
0
TABLE
2
LAYER
0
LAYER
2
DEFAULT_255_2_778
70
0
62
255
6
CONTINUOUS
0
ENDTAB
0
ENDSEC
0
SECTION
2
ENTITIES
0
LINE
8
DEFAULT_255_2_778
10
0.1823698
20
75.2901822
11
0.8266698
21
79.8751822
0
ARC
8
DEFAULT_255_2_778
10
2.1855221
20
25.8836695
40
2.0029491
50
120.003664
51
163.9924656
0
ARC
8
DEFAULT_255_2_778
10
1.1834903
20
78.9398075
40
1.0010538
50
110.8656773
51
179.9941218
0
ARC
8
DEFAULT_255_2_778
10
29.998203
20
89.4554933
40
0.500617
50
7.8433691
51
90.0190394
0
ARC
8
DEFAULT_255_2_778
10
-293.4450053
20
44.8217306
40
327.0089351
50
6.0676804
51
7.8569268
0
ARC
8
DEFAULT_255_2_778
10
32.2297016
20
79.4404745
40
0.5005643
50
186.0622808
51
270.0154546
0
ARC
8
DEFAULT_255_2_778
10
47.6971061
20
78.4392722
40
0.500638
50
5.6211933
51
89.9965042
0
ARC
8
DEFAULT_255_2_778
10
49.5744294
20
67.9035532
40
0.5007175
50
183.8411163
51
267.5055244
0
ARC
8
DEFAULT_255_2_778
10
57.1691767
20
66.5695755
40
0.5008164
50
3.5413322
51
87.4868682
0
ARC
8
DEFAULT_255_2_778
10
-292.9471778
20
44.8895985
40
351.2877646
50
0.0000019
51
3.543354
0
ARC
8
DEFAULT_255_2_778
10
-292.947181
20
44.889622
40
351.2877677
50
356.4566461
51
359.9999981
0
ARC
8
DEFAULT_255_2_778
10
57.1689572
20
23.2098683
40
0.5010492
50
272.537088
51
356.4347244
0
ARC
8
DEFAULT_255_2_778
10
49.5747376
20
21.8754589
40
0.501039
50
92.5281461
51
176.1374794
0
ARC
8
DEFAULT_255_2_778
10
-293.3105238
20
44.923291
40
343.1579563
50
354.3755169
51
356.15454
0
ARC
8
DEFAULT_255_2_778
10
47.6970895
20
11.3399557
40
0.5006455
50
270.0053993
51
354.3895294
0
ARC
8
DEFAULT_255_2_778
10
32.2296619
20
10.3388137
40
0.5004965
50
89.979992
51
173.9677249
0
ARC
8
DEFAULT_255_2_778
10
29.9981084
20
0.3236357
40
0.5007255
50
269.9917882
51
352.1457976
0
LINE
8
DEFAULT_255_2_778
10
10.7480367
20
89.9561102
11
10.7480367
21
-0.1768898
0
LINE
8
DEFAULT_255_2_778
10
0.1824367
20
75.2902102
11
0.1324367
21
74.9339102
0
LINE
8
DEFAULT_255_2_778
10
0.1324367
20
74.9339102
11
0.1324367
21
59.4110102
0
LINE
8
DEFAULT_255_2_778
10
0.1324367
20
59.4110102
11
3.1981367
21
59.4110102
0
LINE
8
DEFAULT_255_2_778
10
3.1981367
20
59.4110102
11
4.0596367
21
62.4154102
0
LINE
8
DEFAULT_255_2_778
10
4.0596367
20
62.4154102
11
5.1425367
21
62.4154102
0
LINE
8
DEFAULT_255_2_778
10
5.1425367
20
62.4154102
11
5.1425367
21
60.0815102
0
LINE
8
DEFAULT_255_2_778
10
5.1425367
20
60.0815102
11
5.1425367
21
27.7642102
0
LINE
8
DEFAULT_255_2_778
10
5.1425367
20
27.7642102
11
4.1408367
21
27.7642102
0
LINE
8
DEFAULT_255_2_778
10
4.1408367
20
27.7642102
11
3.8456367
21
28.8659102
0
LINE
8
DEFAULT_255_2_778
10
3.8456367
20
28.8659102
11
3.3450367
21
28.8659102
0
LINE
8
DEFAULT_255_2_778
10
3.3450367
20
28.8659102
11
1.1839367
21
27.6182102
0
LINE
8
DEFAULT_255_2_778
10
0.2602367
20
26.4360102
11
0.1324367
21
26.4249102
0
LINE
8
DEFAULT_255_2_778
10
0.1324367
20
26.4249102
11
0.1324367
21
-0.1768898
0
LINE
8
DEFAULT_255_2_778
10
0.1324367
20
-0.1768898
11
9.8468367
21
-0.1768898
0
LINE
8
DEFAULT_255_2_778
10
9.8468367
20
-0.1768898
11
9.8468367
21
89.9561102
0
LINE
8
DEFAULT_255_2_778
10
9.8468367
20
89.9561102
11
2.2435367
21
89.9561102
0
LINE
8
DEFAULT_255_2_778
10
2.2435367
20
89.9561102
11
0.8269367
21
79.8752102
0
LINE
8
DEFAULT_255_2_778
10
0.1824367
20
78.9399102
11
0.1824367
21
75.2902102
0
LINE
8
DEFAULT_255_2_778
10
10.7480367
20
1.0249102
11
9.8466367
21
1.0249102
0
LINE
8
DEFAULT_255_2_778
10
10.7483367
20
89.9561102
11
29.9980367
21
89.9561102
0
LINE
8
DEFAULT_255_2_778
10
32.2298367
20
78.9399102
11
47.6971367
21
78.9399102
0
LINE
8
DEFAULT_255_2_778
10
48.1953367
20
78.4883102
11
49.0748367
21
67.8700102
0
LINE
8
DEFAULT_255_2_778
10
49.5526367
20
67.4033102
11
57.1911367
21
67.0699102
0
LINE
8
DEFAULT_255_2_778
10
57.1911367
20
22.7093102
11
49.5526367
21
22.3760102
0
LINE
8
DEFAULT_255_2_778
10
47.6971367
20
10.8393102
11
32.2298367
21
10.8393102
0
LINE
8
DEFAULT_255_2_778
10
31.7319367
20
10.3914102
11
30.4941367
21
0.2552102
0
LINE
8
DEFAULT_255_2_778
10
29.9980367
20
-0.1770898
11
10.7480367
21
-0.1770898
0
LINE
8
DEFAULT_255_2_778
10
10.7480367
20
88.7541102
11
9.8466367
21
88.7541102
0
LINE
8
DEFAULT_255_2_778
10
9.8505921
20
88.7471654
11
10.7448921
21
88.7471654
0
LINE
8
DEFAULT_255_2_778
10
10.7448921
20
88.7471654
11
10.7448921
21
1.0240654
0
LINE
8
DEFAULT_255_2_778
10
10.7448921
20
1.0240654
11
9.8505921
21
1.0240654
0
LINE
8
DEFAULT_255_2_778
10
9.8505921
20
1.0240654
11
9.8505921
21
88.7471654
0
LINE
8
DEFAULT_255_2_778
10
34.9838921
20
60.8129654
11
34.9838921
21
77.2372654
0
LINE
8
DEFAULT_255_2_778
10
34.9838921
20
77.2372654
11
40.2916921
21
77.2372654
0
LINE
8
DEFAULT_255_2_778
10
40.2916921
20
77.2372654
11
40.2916921
21
74.7334654
0
LINE
8
DEFAULT_255_2_778
10
40.2916921
20
74.7334654
11
43.5965921
21
74.7334654
0
LINE
8
DEFAULT_255_2_778
10
43.5965921
20
74.7334654
11
43.5965921
21
66.3210654
0
LINE
8
DEFAULT_255_2_778
10
43.5965921
20
66.3210654
11
40.2916921
21
66.3210654
0
LINE
8
DEFAULT_255_2_778
10
40.2916921
20
66.3210654
11
40.2916921
21
60.8129654
0
LINE
8
DEFAULT_255_2_778
10
40.2916921
20
60.8129654
11
34.9838921
21
60.8129654
0
LINE
8
DEFAULT_255_2_778
10
34.9837969
20
62.8158415
11
40.2915969
21
62.8158415
0
LINE
8
DEFAULT_255_2_778
10
40.2915969
20
75.2343415
11
34.9837969
21
75.2343415
0
LINE
8
DEFAULT_255_2_778
10
37.7381719
20
74.2829281
11
37.2372719
21
74.2829281
0
LINE
8
DEFAULT_255_2_778
10
37.2372719
20
74.2829281
11
37.2372719
21
73.7820281
0
LINE
8
DEFAULT_255_2_778
10
37.2372719
20
73.7820281
11
37.7381719
21
73.7820281
0
LINE
8
DEFAULT_255_2_778
10
37.7381719
20
73.7820281
11
37.7381719
21
74.2829281
0
LINE
8
DEFAULT_255_2_778
10
37.7381719
20
72.2800281
11
37.2372719
21
72.2800281
0
LINE
8
DEFAULT_255_2_778
10
37.2372719
20
72.2800281
11
37.2372719
21
71.7791281
0
LINE
8
DEFAULT_255_2_778
10
37.2372719
20
71.7791281
11
37.7381719
21
71.7791281
0
LINE
8
DEFAULT_255_2_778
10
37.7381719
20
71.7791281
11
37.7381719
21
72.2800281
0
LINE
8
DEFAULT_255_2_778
10
37.7381719
20
70.2771281
11
37.2372719
21
70.2771281
0
LINE
8
DEFAULT_255_2_778
10
37.2372719
20
70.2771281
11
37.2372719
21
69.7762281
0
LINE
8
DEFAULT_255_2_778
10
37.2372719
20
69.7762281
11
37.7381719
21
69.7762281
0
LINE
8
DEFAULT_255_2_778
10
37.7381719
20
69.7762281
11
37.7381719
21
70.2771281
0
LINE
8
DEFAULT_255_2_778
10
37.7381719
20
68.2740281
11
37.2372719
21
68.2740281
0
LINE
8
DEFAULT_255_2_778
10
37.2372719
20
68.2740281
11
37.2372719
21
67.7731281
0
LINE
8
DEFAULT_255_2_778
10
37.2372719
20
67.7731281
11
37.7381719
21
67.7731281
0
LINE
8
DEFAULT_255_2_778
10
37.7381719
20
67.7731281
11
37.7381719
21
68.2740281
0
LINE
8
DEFAULT_255_2_778
10
37.7381719
20
66.2711281
11
37.2372719
21
66.2711281
0
LINE
8
DEFAULT_255_2_778
10
37.2372719
20
66.2711281
11
37.2372719
21
65.7702281
0
LINE
8
DEFAULT_255_2_778
10
37.2372719
20
65.7702281
11
37.7381719
21
65.7702281
0
LINE
8
DEFAULT_255_2_778
10
37.7381719
20
65.7702281
11
37.7381719
21
66.2711281
0
LINE
8
DEFAULT_255_2_778
10
37.7381719
20
64.2682281
11
37.2372719
21
64.2682281
0
LINE
8
DEFAULT_255_2_778
10
37.2372719
20
64.2682281
11
37.2372719
21
63.7673281
0
LINE
8
DEFAULT_255_2_778
10
37.2372719
20
63.7673281
11
37.7381719
21
63.7673281
0
LINE
8
DEFAULT_255_2_778
10
37.7381719
20
63.7673281
11
37.7381719
21
64.2682281
0
LINE
8
DEFAULT_255_2_778
10
7.8437198
20
23.858352
11
7.8437198
21
18.850852
0
LINE
8
DEFAULT_255_2_778
10
7.8440198
20
18.851152
11
9.8469198
21
18.851152
0
LINE
8
DEFAULT_255_2_778
10
7.8438793
20
23.8586134
11
9.8467793
21
23.8586134
0
LINE
8
DEFAULT_255_2_778
10
0.1323793
20
15.8468134
11
5.7407793
21
15.8468134
0
LINE
8
DEFAULT_255_2_778
10
5.7407793
20
15.8468134
11
5.7407793
21
24.8601134
0
LINE
8
DEFAULT_255_2_778
10
5.7407793
20
24.8601134
11
0.1323793
21
24.8601134
0
LINE
8
DEFAULT_255_2_778
10
5.1424793
20
27.7641134
11
5.1424793
21
26.8630134
0
LINE
8
DEFAULT_255_2_778
10
5.1424793
20
26.8630134
11
0.2604793
21
26.4359134
0
LINE
8
DEFAULT_255_2_778
10
2.8893793
20
26.6659134
11
2.8893793
21
28.6026134
0
ARC
8
DEFAULT_255_2_778
10
6.1417735
20
60.0118481
40
1.0015192
50
90.0206322
51
169.7169244
0
ARC
8
DEFAULT_255_2_778
10
6.1603692
20
60.0079909
40
1.020505
50
169.6902182
51
175.8711346
0
ARC
8
DEFAULT_255_2_778
10
18.3376307
20
64.4182837
40
0.1786181
50
179.9090538
51
180.0303146
0
ARC
8
DEFAULT_255_2_778
10
18.6590668
20
64.4179966
40
0.5000541
50
179.9779353
51
225.006114
0
ARC
8
DEFAULT_255_2_778
10
18.6589075
20
64.4176947
40
0.499728
50
224.9945468
51
269.9945055
0
LINE
8
DEFAULT_255_2_778
10
18.6588596
20
63.9179667
11
18.6596128
21
63.9179672
0
LINE
8
DEFAULT_255_2_778
10
18.6596128
20
68.9251672
11
18.6592348
21
68.9251674
0
ARC
8
DEFAULT_255_2_778
10
18.6590461
20
68.4253454
40
0.4998221
50
89.9783708
51
135.0171355
0
ARC
8
DEFAULT_255_2_778
10
18.6588347
20
68.425134
40
0.4998221
50
134.9828645
51
180.0216292
0
ARC
8
DEFAULT_255_2_778
10
18.3376306
20
68.4248508
40
0.1786179
50
179.9696854
51
180.0909462
0
LINE
8
DEFAULT_255_2_778
10
5.1425128
20
27.3636672
11
5.6434128
21
27.3636672
0
LINE
8
DEFAULT_255_2_778
10
5.1425128
20
26.8630672
11
5.6434128
21
26.8630672
0
LINE
8
DEFAULT_255_2_778
10
5.6434128
20
26.8630672
11
5.6434128
21
28.3650672
0
LINE
8
DEFAULT_255_2_778
10
5.6434128
20
28.3650672
11
5.1425128
21
28.3650672
0
LINE
8
DEFAULT_255_2_778
10
5.1425128
20
62.4153672
11
6.3416128
21
62.4153672
0
LINE
8
DEFAULT_255_2_778
10
6.3416128
20
62.4153672
11
6.3416128
21
61.0133672
0
LINE
8
DEFAULT_255_2_778
10
6.3416128
20
61.0133672
11
6.1414128
21
61.0133672
0
LINE
8
DEFAULT_255_2_778
10
9.8466128
20
63.9176672
11
7.8437128
21
63.9176672
0
LINE
8
DEFAULT_255_2_778
10
7.8437128
20
63.9176672
11
7.8437128
21
68.9251672
0
LINE
8
DEFAULT_255_2_778
10
7.8437128
20
68.9251672
11
9.8466128
21
68.9251672
0
LINE
8
DEFAULT_255_2_778
10
0.1324128
20
68.9251672
11
5.7408128
21
68.9251672
0
LINE
8
DEFAULT_255_2_778
10
5.7408128
20
68.9251672
11
5.7408128
21
65.9208672
0
LINE
8
DEFAULT_255_2_778
10
5.7408128
20
65.9208672
11
0.1324128
21
65.9208672
0
LINE
8
DEFAULT_255_2_778
10
18.1590128
20
68.4242672
11
18.1590128
21
64.4185672
0
LINE
8
DEFAULT_255_2_778
10
18.6596128
20
63.9179672
11
22.6654128
21
63.9179672
0
LINE
8
DEFAULT_255_2_778
10
22.6654128
20
63.9179672
11
22.6654128
21
68.9251672
0
LINE
8
DEFAULT_255_2_778
10
22.6654128
20
68.9251672
11
18.6596128
21
68.9251672
0
LINE
8
DEFAULT_255_2_778
10
18.1590128
20
68.4245672
11
18.1590128
21
68.4242672
0
LINE
8
DEFAULT_255_2_778
10
21.8141938
20
64.4184958
11
21.8141938
21
68.4242958
0
LINE
8
DEFAULT_255_2_778
10
21.8141938
20
68.4242958
11
18.2089938
21
68.4242958
0
LINE
8
DEFAULT_255_2_778
10
18.2089938
20
68.4242958
11
18.2089938
21
64.4184958
0
LINE
8
DEFAULT_255_2_778
10
18.2089938
20
64.4184958
11
21.8141938
21
64.4184958
0
LINE
8
DEFAULT_255_2_778
10
18.6598083
20
23.8583307
11
18.6594302
21
23.8583308
0
ARC
8
DEFAULT_255_2_778
10
18.6592416
20
23.3585088
40
0.4998221
50
89.9783708
51
135.0171355
0
ARC
8
DEFAULT_255_2_778
10
18.6590302
20
23.3582974
40
0.4998221
50
134.9828645
51
180.0216292
0
ARC
8
DEFAULT_255_2_778
10
18.337826
20
23.3580142
40
0.1786179
50
179.9696854
51
180.0909462
0
ARC
8
DEFAULT_255_2_778
10
18.337826
20
19.3516472
40
0.178618
50
179.9090538
51
180.0303146
0
ARC
8
DEFAULT_255_2_778
10
18.6590302
20
19.351364
40
0.4998221
50
179.9783708
51
225.0171355
0
ARC
8
DEFAULT_255_2_778
10
18.6594158
20
19.3515734
40
0.5002428
50
225.0028496
51
270.0017379
0
LINE
8
DEFAULT_255_2_778
10
18.659431
20
18.8513305
11
18.6598083
21
18.8513307
0
LINE
8
DEFAULT_255_2_778
10
19.0101083
20
64.4184307
11
19.0101083
21
68.4242307
0
LINE
8
DEFAULT_255_2_778
10
18.1592083
20
23.3577307
11
18.1592083
21
19.3519307
0
LINE
8
DEFAULT_255_2_778
10
18.6598083
20
18.8513307
11
22.6656083
21
18.8513307
0
LINE
8
DEFAULT_255_2_778
10
22.6656083
20
18.8513307
11
22.6656083
21
23.8588307
0
LINE
8
DEFAULT_255_2_778
10
22.6656083
20
23.8588307
11
18.6598083
21
23.8583307
0
LINE
8
DEFAULT_255_2_778
10
21.8141938
20
23.3577958
11
21.8141938
21
19.3519958
0
LINE
8
DEFAULT_255_2_778
10
21.8141938
20
19.3519958
11
18.2089938
21
19.3519958
0
LINE
8
DEFAULT_255_2_778
10
18.2089938
20
19.3519958
11
18.2089938
21
23.3577958
0
LINE
8
DEFAULT_255_2_778
10
18.2089938
20
23.3577958
11
21.8141938
21
23.3577958
0
LINE
8
DEFAULT_255_2_778
10
19.0102
20
19.3519958
11
19.0102
21
23.3577958
0
ENDSEC
0
EOF