0
SECTION
2
HEADER
9
$MEASUREMENT
70
1
0
ENDSEC
0
SECTION
2
TABLES
0
TABLE
2
LTYPE
0
LTYPE
72
65
70
64
2
CONTINUOUS
3
______
73
0
40
0
0
ENDTAB
0
TABLE
2
LAYER
0
LAYER
2
DEFAULT_255_2_778
70
0
62
255
6
CONTINUOUS
0
ENDTAB
0
ENDSEC
0
SECTION
2
ENTITIES
0
LINE
8
DEFAULT_255_2_778
10
0.2252667
20
75.1122749
11
0.8687667
21
79.6905749
0
ARC
8
DEFAULT_255_2_778
10
2.2258073
20
25.7781133
40
2.0003967
50
120.0080309
51
163.9830125
0
ARC
8
DEFAULT_255_2_778
10
1.2253912
20
78.7562861
40
1.000125
50
110.8903418
51
179.9953357
0
ARC
8
DEFAULT_255_2_778
10
29.9969744
20
89.2564605
40
0.500007
50
7.8749818
51
90.0009545
0
ARC
8
DEFAULT_255_2_778
10
-293.2354633
20
44.6581634
40
326.794685
50
6.0681162
51
7.855867
0
ARC
8
DEFAULT_255_2_778
10
32.2253991
20
79.2566993
40
0.5000319
50
186.0650177
51
269.9847602
0
ARC
8
DEFAULT_255_2_778
10
47.6698466
20
78.2566167
40
0.5000508
50
5.6523204
51
89.9977622
0
ARC
8
DEFAULT_255_2_778
10
49.5445446
20
67.7367996
40
0.5000109
50
183.8567808
51
267.4921634
0
ARC
8
DEFAULT_255_2_778
10
57.127989
20
66.4045036
40
0.5001426
50
3.560937
51
87.4929866
0
ARC
8
DEFAULT_255_2_778
10
-292.4647746
20
44.7566497
40
350.7625157
50
0.0000029
51
3.5434306
0
ARC
8
DEFAULT_255_2_778
10
-292.4647746
20
44.7566853
40
350.7625157
50
356.4565694
51
359.9999971
0
ARC
8
DEFAULT_255_2_778
10
57.1279892
20
23.1088314
40
0.5001425
50
272.5069928
51
356.4390617
0
ARC
8
DEFAULT_255_2_778
10
49.5445446
20
21.7765354
40
0.500011
50
92.5078426
51
176.1432168
0
ARC
8
DEFAULT_255_2_778
10
-292.5798281
20
44.7695398
40
342.3961318
50
354.374818
51
356.1551466
0
ARC
8
DEFAULT_255_2_778
10
47.6699203
20
11.2566042
40
0.4999368
50
269.9937884
51
354.3940739
0
ARC
8
DEFAULT_255_2_778
10
32.225472
20
10.2565548
40
0.5001127
50
90.0235858
51
173.9266529
0
ARC
8
DEFAULT_255_2_778
10
29.9969743
20
0.2568746
40
0.5000072
50
269.9990599
51
352.1250073
0
LINE
8
DEFAULT_255_2_778
10
10.7752661
20
89.7564675
11
10.7752661
21
-0.2434325
0
LINE
8
DEFAULT_255_2_778
10
0.2252661
20
75.1122675
11
0.1752661
21
74.7564675
0
LINE
8
DEFAULT_255_2_778
10
0.1752661
20
74.7564675
11
0.1752661
21
59.2563675
0
LINE
8
DEFAULT_255_2_778
10
0.1752661
20
59.2563675
11
3.2364661
21
59.2563675
0
LINE
8
DEFAULT_255_2_778
10
3.2364661
20
59.2563675
11
4.0966661
21
62.2564675
0
LINE
8
DEFAULT_255_2_778
10
4.0966661
20
62.2564675
11
5.1779661
21
62.2564675
0
LINE
8
DEFAULT_255_2_778
10
5.1779661
20
62.2564675
11
5.1779661
21
59.9260675
0
LINE
8
DEFAULT_255_2_778
10
5.1779661
20
59.9260675
11
5.1779661
21
27.6563675
0
LINE
8
DEFAULT_255_2_778
10
5.1779661
20
27.6563675
11
4.1781661
21
27.6563675
0
LINE
8
DEFAULT_255_2_778
10
4.1781661
20
27.6563675
11
3.8833661
21
28.7562675
0
LINE
8
DEFAULT_255_2_778
10
3.8833661
20
28.7562675
11
3.3833661
21
28.7562675
0
LINE
8
DEFAULT_255_2_778
10
3.3833661
20
28.7562675
11
1.2253661
21
27.5103675
0
LINE
8
DEFAULT_255_2_778
10
0.3030661
20
26.3300675
11
0.1752661
21
26.3188675
0
LINE
8
DEFAULT_255_2_778
10
0.1752661
20
26.3188675
11
0.1752661
21
-0.2436325
0
LINE
8
DEFAULT_255_2_778
10
0.1752661
20
-0.2436325
11
9.8751661
21
-0.2436325
0
LINE
8
DEFAULT_255_2_778
10
9.8751661
20
-0.2436325
11
9.8751661
21
89.7564675
0
LINE
8
DEFAULT_255_2_778
10
9.8751661
20
89.7564675
11
2.2834661
21
89.7564675
0
LINE
8
DEFAULT_255_2_778
10
2.2834661
20
89.7564675
11
0.8687661
21
79.6906675
0
LINE
8
DEFAULT_255_2_778
10
0.2252661
20
78.7563675
11
0.2252661
21
75.1122675
0
LINE
8
DEFAULT_255_2_778
10
10.7752661
20
0.9564675
11
9.8751661
21
0.9564675
0
LINE
8
DEFAULT_255_2_778
10
10.7755661
20
89.7564675
11
29.9969661
21
89.7564675
0
LINE
8
DEFAULT_255_2_778
10
32.2252661
20
78.7566675
11
47.6698661
21
78.7566675
0
LINE
8
DEFAULT_255_2_778
10
48.1674661
20
78.3058675
11
49.0456661
21
67.7031675
0
LINE
8
DEFAULT_255_2_778
10
49.5226661
20
67.2372675
11
57.1498661
21
66.9041675
0
LINE
8
DEFAULT_255_2_778
10
57.1498661
20
22.6091675
11
49.5226661
21
22.2760675
0
LINE
8
DEFAULT_255_2_778
10
47.6698661
20
10.7566675
11
32.2252661
21
10.7566675
0
LINE
8
DEFAULT_255_2_778
10
31.7281661
20
10.3094675
11
30.4922661
21
0.1883675
0
LINE
8
DEFAULT_255_2_778
10
29.9969661
20
-0.2431325
11
10.7752661
21
-0.2431325
0
LINE
8
DEFAULT_255_2_778
10
10.7752661
20
88.5568675
11
9.8751661
21
88.5568675
0
LINE
8
DEFAULT_255_2_778
10
9.878863
20
88.5491748
11
10.771863
21
88.5491748
0
LINE
8
DEFAULT_255_2_778
10
10.771863
20
88.5491748
11
10.771863
21
0.9554748
0
LINE
8
DEFAULT_255_2_778
10
10.771863
20
0.9554748
11
9.878863
21
0.9554748
0
LINE
8
DEFAULT_255_2_778
10
9.878863
20
0.9554748
11
9.878863
21
88.5491748
0
LINE
8
DEFAULT_255_2_778
10
34.975363
20
60.6565748
11
34.975363
21
77.0564748
0
LINE
8
DEFAULT_255_2_778
10
34.975363
20
77.0564748
11
40.275263
21
77.0564748
0
LINE
8
DEFAULT_255_2_778
10
40.275263
20
77.0564748
11
40.275263
21
74.5563748
0
LINE
8
DEFAULT_255_2_778
10
40.275263
20
74.5563748
11
43.575163
21
74.5563748
0
LINE
8
DEFAULT_255_2_778
10
43.575163
20
74.5563748
11
43.575163
21
66.1564748
0
LINE
8
DEFAULT_255_2_778
10
43.575163
20
66.1564748
11
40.275563
21
66.1564748
0
LINE
8
DEFAULT_255_2_778
10
40.275563
20
66.1564748
11
40.275563
21
60.6565748
0
LINE
8
DEFAULT_255_2_778
10
40.275563
20
60.6565748
11
34.975363
21
60.6565748
0
LINE
8
DEFAULT_255_2_778
10
34.9753334
20
62.6564811
11
40.2752334
21
62.6564811
0
LINE
8
DEFAULT_255_2_778
10
40.2754334
20
75.0564811
11
34.9756334
21
75.0564811
0
LINE
8
DEFAULT_255_2_778
10
37.7254688
20
74.1063312
11
37.2253688
21
74.1063312
0
LINE
8
DEFAULT_255_2_778
10
37.2253688
20
74.1063312
11
37.2253688
21
73.6062312
0
LINE
8
DEFAULT_255_2_778
10
37.2253688
20
73.6062312
11
37.7254688
21
73.6062312
0
LINE
8
DEFAULT_255_2_778
10
37.7254688
20
73.6062312
11
37.7254688
21
74.1063312
0
LINE
8
DEFAULT_255_2_778
10
37.7254688
20
72.1063312
11
37.2253688
21
72.1063312
0
LINE
8
DEFAULT_255_2_778
10
37.2253688
20
72.1063312
11
37.2253688
21
71.6062312
0
LINE
8
DEFAULT_255_2_778
10
37.2253688
20
71.6062312
11
37.7254688
21
71.6062312
0
LINE
8
DEFAULT_255_2_778
10
37.7254688
20
71.6062312
11
37.7254688
21
72.1063312
0
LINE
8
DEFAULT_255_2_778
10
37.7254688
20
70.1063312
11
37.2253688
21
70.1063312
0
LINE
8
DEFAULT_255_2_778
10
37.2253688
20
70.1063312
11
37.2253688
21
69.6062312
0
LINE
8
DEFAULT_255_2_778
10
37.2253688
20
69.6062312
11
37.7254688
21
69.6062312
0
LINE
8
DEFAULT_255_2_778
10
37.7254688
20
69.6062312
11
37.7254688
21
70.1063312
0
LINE
8
DEFAULT_255_2_778
10
37.7254688
20
68.1063312
11
37.2253688
21
68.1063312
0
LINE
8
DEFAULT_255_2_778
10
37.2253688
20
68.1063312
11
37.2253688
21
67.6062312
0
LINE
8
DEFAULT_255_2_778
10
37.2253688
20
67.6062312
11
37.7254688
21
67.6062312
0
LINE
8
DEFAULT_255_2_778
10
37.7254688
20
67.6062312
11
37.7254688
21
68.1063312
0
LINE
8
DEFAULT_255_2_778
10
37.7254688
20
66.1063312
11
37.2253688
21
66.1063312
0
LINE
8
DEFAULT_255_2_778
10
37.2253688
20
66.1063312
11
37.2253688
21
65.6062312
0
LINE
8
DEFAULT_255_2_778
10
37.2253688
20
65.6062312
11
37.7254688
21
65.6062312
0
LINE
8
DEFAULT_255_2_778
10
37.7254688
20
65.6062312
11
37.7254688
21
66.1063312
0
LINE
8
DEFAULT_255_2_778
10
37.7254688
20
64.1064312
11
37.2253688
21
64.1064312
0
LINE
8
DEFAULT_255_2_778
10
37.2253688
20
64.1064312
11
37.2253688
21
63.6063312
0
LINE
8
DEFAULT_255_2_778
10
37.2253688
20
63.6063312
11
37.7254688
21
63.6063312
0
LINE
8
DEFAULT_255_2_778
10
37.7254688
20
63.6063312
11
37.7254688
21
64.1064312
0
LINE
8
DEFAULT_255_2_778
10
7.8751073
20
23.7563478
11
7.8751073
21
18.7562478
0
LINE
8
DEFAULT_255_2_778
10
7.8751073
20
18.7565478
11
9.8751073
21
18.7565478
0
LINE
8
DEFAULT_255_2_778
10
7.8751553
20
23.7563884
11
9.8751553
21
23.7563884
0
LINE
8
DEFAULT_255_2_778
10
0.1752553
20
15.7563884
11
5.7751553
21
15.7563884
0
LINE
8
DEFAULT_255_2_778
10
5.7751553
20
15.7563884
11
5.7751553
21
24.7564884
0
LINE
8
DEFAULT_255_2_778
10
5.7751553
20
24.7564884
11
0.1752553
21
24.7564884
0
LINE
8
DEFAULT_255_2_778
10
5.1779553
20
27.6562884
11
5.1779553
21
26.7564884
0
LINE
8
DEFAULT_255_2_778
10
5.1779553
20
26.7564884
11
0.3030553
21
26.3299884
0
LINE
8
DEFAULT_255_2_778
10
2.9279553
20
26.5593884
11
2.9279553
21
28.4931884
0
ARC
8
DEFAULT_255_2_778
10
6.1746844
20
59.8582271
40
0.9983516
50
89.9694336
51
136.2667722
0
ARC
8
DEFAULT_255_2_778
10
6.1722061
20
59.8578558
40
0.9968196
50
136.1528751
51
176.0813427
0
ARC
8
DEFAULT_255_2_778
10
18.6750644
20
64.2563807
40
0.4997474
50
179.9887792
51
225.0206486
0
ARC
8
DEFAULT_255_2_778
10
18.6754634
20
64.2564742
40
0.5000956
50
224.9958871
51
269.9946851
0
ARC
8
DEFAULT_255_2_778
10
18.6754634
20
68.256383
40
0.5000956
50
90.0053149
51
135.0041129
0
ARC
8
DEFAULT_255_2_778
10
18.6750644
20
68.2564765
40
0.4997474
50
134.9793514
51
180.0112208
0
LINE
8
DEFAULT_255_2_778
10
5.177917
20
27.2562786
11
5.678017
21
27.2562786
0
LINE
8
DEFAULT_255_2_778
10
5.177917
20
26.7564786
11
5.678017
21
26.7564786
0
LINE
8
DEFAULT_255_2_778
10
5.678017
20
26.7564786
11
5.678017
21
28.2561786
0
LINE
8
DEFAULT_255_2_778
10
5.678017
20
28.2561786
11
5.177917
21
28.2561786
0
LINE
8
DEFAULT_255_2_778
10
5.177917
20
62.2564786
11
6.375217
21
62.2564786
0
LINE
8
DEFAULT_255_2_778
10
6.375217
20
62.2564786
11
6.375217
21
60.8565786
0
LINE
8
DEFAULT_255_2_778
10
6.375217
20
60.8565786
11
6.175217
21
60.8565786
0
LINE
8
DEFAULT_255_2_778
10
9.875117
20
63.7563786
11
7.875117
21
63.7563786
0
LINE
8
DEFAULT_255_2_778
10
7.875117
20
63.7563786
11
7.875117
21
68.7564786
0
LINE
8
DEFAULT_255_2_778
10
7.875117
20
68.7564786
11
9.875117
21
68.7564786
0
LINE
8
DEFAULT_255_2_778
10
0.175217
20
68.7564786
11
5.775117
21
68.7564786
0
LINE
8
DEFAULT_255_2_778
10
5.775117
20
68.7564786
11
5.775117
21
65.7563786
0
LINE
8
DEFAULT_255_2_778
10
5.775117
20
65.7563786
11
0.175217
21
65.7563786
0
LINE
8
DEFAULT_255_2_778
10
18.175317
20
68.2563786
11
18.175317
21
64.2564786
0
LINE
8
DEFAULT_255_2_778
10
18.675417
20
63.7563786
11
22.675417
21
63.7563786
0
LINE
8
DEFAULT_255_2_778
10
22.675417
20
63.7563786
11
22.675417
21
68.7564786
0
LINE
8
DEFAULT_255_2_778
10
22.675417
20
68.7564786
11
18.675417
21
68.7564786
0
LINE
8
DEFAULT_255_2_778
10
18.175317
20
68.2563786
11
18.175317
21
68.2563786
0
LINE
8
DEFAULT_255_2_778
10
21.8252396
20
64.2563854
11
21.8252396
21
68.2563854
0
LINE
8
DEFAULT_255_2_778
10
21.8252396
20
68.2563854
11
18.2253396
21
68.2563854
0
LINE
8
DEFAULT_255_2_778
10
18.2253396
20
68.2563854
11
18.2253396
21
64.2563854
0
LINE
8
DEFAULT_255_2_778
10
18.2253396
20
64.2563854
11
21.8252396
21
64.2563854
0
ARC
8
DEFAULT_255_2_778
10
18.6754803
20
23.2562534
40
0.5000969
50
89.9996485
51
180.0003515
0
ARC
8
DEFAULT_255_2_778
10
18.6754803
20
19.2563473
40
0.5000969
50
179.9996485
51
270.0003515
0
LINE
8
DEFAULT_255_2_778
10
19.0251834
20
64.2563504
11
19.0251834
21
68.2563504
0
LINE
8
DEFAULT_255_2_778
10
18.1753834
20
23.2562504
11
18.1753834
21
19.2563504
0
LINE
8
DEFAULT_255_2_778
10
18.6754834
20
18.7562504
11
22.6753834
21
18.7562504
0
LINE
8
DEFAULT_255_2_778
10
22.6753834
20
18.7562504
11
22.6753834
21
23.7563504
0
LINE
8
DEFAULT_255_2_778
10
22.6753834
20
23.7563504
11
18.6754834
21
23.7563504
0
LINE
8
DEFAULT_255_2_778
10
21.8252396
20
23.2562854
11
21.8252396
21
19.2562854
0
LINE
8
DEFAULT_255_2_778
10
21.8252396
20
19.2562854
11
18.2253396
21
19.2562854
0
LINE
8
DEFAULT_255_2_778
10
18.2253396
20
19.2562854
11
18.2253396
21
23.2562854
0
LINE
8
DEFAULT_255_2_778
10
18.2253396
20
23.2562854
11
21.8252396
21
23.2562854
0
LINE
8
DEFAULT_255_2_778
10
19.0252
20
19.2562854
11
19.0252
21
23.2562854
0
ENDSEC
0
EOF