0
SECTION
2
HEADER
9
$MEASUREMENT
70
1
0
ENDSEC
0
SECTION
2
TABLES
0
TABLE
2
LTYPE
0
LTYPE
72
65
70
64
2
CONTINUOUS
3
______
73
0
40
0
0
ENDTAB
0
TABLE
2
LAYER
0
LAYER
2
DEFAULT_255_2_778
70
0
62
255
6
CONTINUOUS
0
LAYER
2
DEFAULT_255_1_234
70
0
62
255
6
CONTINUOUS
0
ENDTAB
0
ENDSEC
0
SECTION
2
ENTITIES
0
ARC
8
DEFAULT_255_2_778
10
3.5695693
20
139.3052021
40
0.7914215
50
129.1312896
51
180.1450914
0
ARC
8
DEFAULT_255_2_778
10
3.5698345
20
139.3056893
40
0.7912112
50
89.854026
51
129.1684493
0
ARC
8
DEFAULT_255_2_778
10
25.7988937
20
139.3053758
40
0.7915249
50
39.4792447
51
90.147911
0
ARC
8
DEFAULT_255_2_778
10
25.7994935
20
139.3052224
40
0.7911595
50
359.8533901
51
39.5154338
0
ARC
8
DEFAULT_255_2_778
10
25.7991693
20
-1.9863501
40
0.7914836
50
309.4761667
51
0.1482649
0
ARC
8
DEFAULT_255_2_778
10
25.798898
20
-1.9867812
40
0.7913235
50
269.8517415
51
309.511178
0
ARC
8
DEFAULT_255_2_778
10
3.569842
20
-1.986723
40
0.7913815
50
219.1282118
51
270.1454017
0
ARC
8
DEFAULT_255_2_778
10
3.5695247
20
-1.9863406
40
0.7913769
50
179.8524075
51
219.1641908
0
LINE
8
DEFAULT_255_2_778
10
3.5718503
20
140.096898
11
25.7968503
21
140.096898
0
LINE
8
DEFAULT_255_2_778
10
26.5906503
20
139.303198
11
26.5906503
21
-1.984302
0
LINE
8
DEFAULT_255_2_778
10
25.7968503
20
-2.778102
11
3.5718503
21
-2.778102
0
LINE
8
DEFAULT_255_2_778
10
2.7781503
20
-1.984302
11
2.7781503
21
139.303198
0
LINE
8
DEFAULT_255_1_234
10
6.7060835
20
1.1804243
11
6.7325882
21
1.1804243
0
LINE
8
DEFAULT_255_1_234
10
6.7325882
20
1.1804243
11
6.7325882
21
1.054326
0
LINE
8
DEFAULT_255_1_234
10
6.7325882
20
1.054326
11
6.7052803
21
1.054326
0
LINE
8
DEFAULT_255_1_234
10
6.1583189
20
0.4551583
11
6.1583189
21
0.5121836
0
LINE
8
DEFAULT_255_1_234
10
6.3077093
20
0.4929075
11
6.3077093
21
0.4382917
0
ARC
8
DEFAULT_255_1_234
10
6.7105151
20
0.5545455
40
0.4998079
50
90.6001036
51
104.514704
0
ARC
8
DEFAULT_255_1_234
10
6.6716667
20
0.6990131
40
0.3502176
50
104.2855254
51
133.862935
0
ARC
8
DEFAULT_255_1_234
10
6.6880424
20
0.688183
40
0.3693984
50
134.5302688
51
161.6210873
0
ARC
8
DEFAULT_255_1_234
10
6.8533613
20
0.6298895
40
0.5446739
50
161.2849839
51
174.2076652
0
ARC
8
DEFAULT_255_1_234
10
6.994055
20
0.6104787
40
0.6866274
50
173.7810589
51
174.9254635
0
ARC
8
DEFAULT_255_1_234
10
6.5390382
20
0.4721839
40
0.3033419
50
95.8330959
51
138.9954921
0
ARC
8
DEFAULT_255_1_234
10
6.5613738
20
0.3443375
40
0.4328947
50
89.8753725
51
97.0544009
0
ARC
8
DEFAULT_255_1_234
10
6.5661204
20
0.4278748
40
0.3493769
50
71.6407809
51
90.6240094
0
ARC
8
DEFAULT_255_1_234
10
6.5811777
20
0.4833082
40
0.2920396
50
39.6367836
51
71.019018
0
ARC
8
DEFAULT_255_1_234
10
6.517525
20
0.4282998
40
0.3761538
50
10.658731
51
39.9043955
0
ARC
8
DEFAULT_255_1_234
10
6.3627333
20
0.3946686
40
0.5345136
50
359.682601
51
11.132623
0
ARC
8
DEFAULT_255_1_234
10
6.3587464
20
0.387601
40
0.5385081
50
347.2486944
51
0.4369317
0
ARC
8
DEFAULT_255_1_234
10
6.5254941
20
0.3474807
40
0.3670249
50
318.1409698
51
347.6118597
0
ARC
8
DEFAULT_255_1_234
10
6.5579934
20
0.3207702
40
0.3250007
50
275.6342139
51
317.8248465
0
ARC
8
DEFAULT_255_1_234
10
6.5359045
20
0.4507219
40
0.4565864
50
269.8874292
51
276.7917694
0
ARC
8
DEFAULT_255_1_234
10
6.5304116
20
0.3481743
40
0.3540676
50
246.9140195
51
270.7437342
0
ARC
8
DEFAULT_255_1_234
10
6.5310506
20
0.3339384
40
0.3412781
50
218.1665114
51
245.878116
0
ARC
8
DEFAULT_255_1_234
10
6.6189967
20
0.4075279
40
0.455911
50
191.4115814
51
218.6077802
0
ARC
8
DEFAULT_255_1_234
10
6.8128056
20
0.4509833
40
0.6545001
50
179.6345085
51
191.7836486
0
ARC
8
DEFAULT_255_1_234
10
7.3710393
20
0.5188697
40
1.2127388
50
171.4525249
51
180.3158839
0
ARC
8
DEFAULT_255_1_234
10
6.9315269
20
0.5872608
40
0.7679464
50
157.9802646
51
171.6246686
0
ARC
8
DEFAULT_255_1_234
10
6.710129
20
0.6755421
40
0.5296008
50
141.4298019
51
157.854097
0
ARC
8
DEFAULT_255_1_234
10
6.645961
20
0.7209381
40
0.4511509
50
102.8715806
51
140.8564722
0
ARC
8
DEFAULT_255_1_234
10
6.7107226
20
0.4769552
40
0.7034845
50
90.3778349
51
103.5869322
0
ARC
8
DEFAULT_255_1_234
10
6.5369002
20
0.416473
40
0.2370698
50
89.8751008
51
126.2071704
0
ARC
8
DEFAULT_255_1_234
10
6.5414792
20
0.4010303
40
0.2522934
50
124.9745049
51
144.895901
0
ARC
8
DEFAULT_255_1_234
10
6.5238982
20
0.415356
40
0.2296779
50
145.2974905
51
160.2660252
0
ARC
8
DEFAULT_255_1_234
10
6.8311521
20
0.4351071
40
0.5234525
50
179.6514266
51
190.2855912
0
ARC
8
DEFAULT_255_1_234
10
6.6617658
20
0.4031786
40
0.3510893
50
190.0945431
51
207.5098196
0
ARC
8
DEFAULT_255_1_234
10
6.6051928
20
0.3762623
40
0.288489
50
207.9583163
51
216.3251085
0
ARC
8
DEFAULT_255_1_234
10
6.5712036
20
0.3483105
40
0.2445587
50
215.7661442
51
232.5456785
0
ARC
8
DEFAULT_255_1_234
10
6.5329019
20
0.2996482
40
0.1826382
50
232.8005391
51
270.6605633
0
ARC
8
DEFAULT_255_1_234
10
6.537472
20
0.3360612
40
0.2190529
50
269.35537
51
288.4744281
0
ARC
8
DEFAULT_255_1_234
10
6.5467617
20
0.3011118
40
0.1829749
50
289.1833337
51
322.9683818
0
ARC
8
DEFAULT_255_1_234
10
6.4856139
20
0.3493391
40
0.2608399
50
322.6007884
51
346.5182367
0
ARC
8
DEFAULT_255_1_234
10
6.3698735
20
0.3788616
40
0.3802777
50
346.2582162
51
358.7741648
0
ARC
8
DEFAULT_255_1_234
10
6.2680404
20
0.3843965
40
0.4822176
50
358.3755224
51
0.0098023
0
ARC
8
DEFAULT_255_1_234
10
6.3436591
20
0.3871657
40
0.4066078
50
359.6214041
51
11.2839074
0
ARC
8
DEFAULT_255_1_234
10
6.4713738
20
0.4138066
40
0.2761514
50
11.0482309
51
31.8146458
0
ARC
8
DEFAULT_255_1_234
10
6.5022781
20
0.4305584
40
0.2410679
50
32.3035391
51
38.082671
0
ARC
8
DEFAULT_255_1_234
10
6.5443441
20
0.4686662
40
0.1844966
50
36.825067
51
85.7415724
0
ARC
8
DEFAULT_255_1_234
10
6.5376274
20
0.4186301
40
0.2349122
50
85.0140713
51
90.0513278
0
LINE
8
DEFAULT_255_1_234
10
7.7726983
20
0.6768343
11
7.7726983
21
0.550736
0
LINE
8
DEFAULT_255_1_234
10
7.7726983
20
0.550736
11
7.2658957
21
0.550736
0
LINE
8
DEFAULT_255_1_234
10
7.2658957
20
0.550736
11
7.2658957
21
0.1362983
0
LINE
8
DEFAULT_255_1_234
10
7.2658957
20
0.1362983
11
7.8546221
21
0.1362983
0
LINE
8
DEFAULT_255_1_234
10
7.8546221
20
0.1362983
11
7.8546221
21
0.0102
0
LINE
8
DEFAULT_255_1_234
10
7.8546221
20
0.0102
11
7.1116863
21
0.0102
0
LINE
8
DEFAULT_255_1_234
10
7.1116863
20
0.0102
11
7.1116863
21
1.1796211
0
LINE
8
DEFAULT_255_1_234
10
7.1116863
20
1.1796211
11
7.8465903
21
1.1796211
0
LINE
8
DEFAULT_255_1_234
10
7.8465903
20
1.1796211
11
7.8465903
21
1.0527196
0
LINE
8
DEFAULT_255_1_234
10
7.8465903
20
1.0527196
11
7.2658957
21
1.0527196
0
LINE
8
DEFAULT_255_1_234
10
7.2658957
20
1.0527196
11
7.2658957
21
0.6768343
0
LINE
8
DEFAULT_255_1_234
10
7.2658957
20
0.6768343
11
7.7726983
21
0.6768343
0
LINE
8
DEFAULT_255_1_234
10
8.8224465
20
0.8414849
11
8.667434
21
0.8414849
0
LINE
8
DEFAULT_255_1_234
10
7.9750981
20
0.3491394
11
8.1301107
21
0.3491394
0
ARC
8
DEFAULT_255_1_234
10
8.7333153
20
1.7361768
40
1.252368
50
248.9199003
51
254.1439814
0
ARC
8
DEFAULT_255_1_234
10
8.5652648
20
1.3035234
40
0.788226
50
241.633709
51
249.0064503
0
ARC
8
DEFAULT_255_1_234
10
8.4124042
20
1.0234317
40
0.4691427
50
230.498225
51
241.8087113
0
ARC
8
DEFAULT_255_1_234
10
8.3339616
20
0.9234906
40
0.3421437
50
227.4064532
51
229.9881192
0
ARC
8
DEFAULT_255_1_234
10
8.2852137
20
0.8759088
40
0.2741476
50
200.6781896
51
228.1763934
0
ARC
8
DEFAULT_255_1_234
10
8.2924447
20
0.8744077
40
0.2804109
50
179.5061581
51
199.8694617
0
ARC
8
DEFAULT_255_1_234
10
8.2915199
20
0.881821
40
0.2795204
50
132.4834203
51
181.0242172
0
ARC
8
DEFAULT_255_1_234
10
8.3510782
20
0.8255704
40
0.3612768
50
129.2532479
51
133.4242687
0
ARC
8
DEFAULT_255_1_234
10
8.3657231
20
0.8035965
40
0.3875675
50
101.98776
51
128.8742646
0
ARC
8
DEFAULT_255_1_234
10
8.4055842
20
0.6314741
40
0.5642249
50
89.5906553
51
102.3169264
0
ARC
8
DEFAULT_255_1_234
10
8.4126334
20
0.6633148
40
0.5323783
50
77.2360837
51
90.3248275
0
ARC
8
DEFAULT_255_1_234
10
8.4333413
20
0.76004
40
0.4334697
50
63.837784
51
77.0809408
0
ARC
8
DEFAULT_255_1_234
10
8.4611175
20
0.8117911
40
0.3747796
50
45.9864267
51
64.1607727
0
ARC
8
DEFAULT_255_1_234
10
8.4872056
20
0.8415866
40
0.3352302
50
32.2747395
51
45.6547121
0
ARC
8
DEFAULT_255_1_234
10
8.4938497
20
0.843488
40
0.328603
50
359.6507365
51
32.6130309
0
ARC
8
DEFAULT_255_1_234
10
8.3995592
20
0.843966
40
0.2678863
50
359.469343
51
14.9832209
0
ARC
8
DEFAULT_255_1_234
10
8.4700654
20
0.8628539
40
0.1948938
50
14.9781179
51
48.2004265
0
ARC
8
DEFAULT_255_1_234
10
8.4536299
20
0.8421983
40
0.2212521
50
48.5927837
51
74.1241538
0
ARC
8
DEFAULT_255_1_234
10
8.4202788
20
0.7321248
40
0.3362561
50
73.7888341
51
86.6652678
0
ARC
8
DEFAULT_255_1_234
10
8.4100354
20
0.6113881
40
0.4573953
50
86.2640471
51
90.0526343
0
ARC
8
DEFAULT_255_1_234
10
8.4072066
20
0.6509192
40
0.4178709
50
89.6697524
51
99.2309573
0
ARC
8
DEFAULT_255_1_234
10
8.3829517
20
0.7953964
40
0.2713749
50
99.069534
51
113.7658566
0
ARC
8
DEFAULT_255_1_234
10
8.3555708
20
0.8599677
40
0.2012469
50
114.0401004
51
127.9850673
0
ARC
8
DEFAULT_255_1_234
10
8.3315272
20
0.889573
40
0.1631167
50
127.7287463
51
176.7105154
0
ARC
8
DEFAULT_255_1_234
10
8.399399
20
0.8794693
40
0.2315392
50
175.1779447
51
180.0581938
0
ARC
8
DEFAULT_255_1_234
10
8.3150836
20
0.8782428
40
0.1472271
50
179.6142195
51
228.1246017
0
ARC
8
DEFAULT_255_1_234
10
8.3592505
20
0.9191308
40
0.2072299
50
226.5779593
51
230.8800004
0
ARC
8
DEFAULT_255_1_234
10
8.4063584
20
0.9816636
40
0.2854818
50
231.4635071
51
241.9260842
0
ARC
8
DEFAULT_255_1_234
10
8.5260762
20
1.20198
40
0.53622
50
241.7178533
51
248.3259551
0
ARC
8
DEFAULT_255_1_234
10
8.6646134
20
1.5452064
40
0.9063478
50
248.2007737
51
252.4528373
0
ARC
8
DEFAULT_255_1_234
10
8.7849858
20
1.9173441
40
1.2974635
50
252.3391078
51
254.3469452
0
ARC
8
DEFAULT_255_1_234
10
8.0307561
20
-0.7803852
40
1.5037162
50
71.0197183
51
74.4087047
0
ARC
8
DEFAULT_255_1_234
10
8.2002246
20
-0.2911889
40
0.9859993
50
66.1847285
51
71.086374
0
ARC
8
DEFAULT_255_1_234
10
8.3558559
20
0.05922
40
0.6025855
50
59.3536294
51
66.2691831
0
ARC
8
DEFAULT_255_1_234
10
8.4447211
20
0.2095609
40
0.4279449
50
49.1020879
51
59.3293958
0
ARC
8
DEFAULT_255_1_234
10
8.5265951
20
0.3028834
40
0.3038015
50
32.7919921
51
49.2505539
0
ARC
8
DEFAULT_255_1_234
10
8.5587041
20
0.3257191
40
0.264448
50
31.1181161
51
32.4005348
0
ARC
8
DEFAULT_255_1_234
10
8.5498579
20
0.3221779
40
0.2738556
50
8.1116974
51
30.7958831
0
ARC
8
DEFAULT_255_1_234
10
8.4688247
20
0.3083753
40
0.3560327
50
359.8389159
51
8.4706516
0
ARC
8
DEFAULT_255_1_234
10
8.5314038
20
0.3035137
40
0.2934776
50
337.4731098
51
0.7537279
0
ARC
8
DEFAULT_255_1_234
10
8.5492733
20
0.3015387
40
0.2762607
50
307.5917067
51
336.4315538
0
ARC
8
DEFAULT_255_1_234
10
8.5032561
20
0.3528102
40
0.3449979
50
307.6551545
51
308.4529766
0
ARC
8
DEFAULT_255_1_234
10
8.480228
20
0.388325
40
0.3871988
50
284.3734338
51
307.1424381
0
ARC
8
DEFAULT_255_1_234
10
8.430711
20
0.5704932
40
0.5759636
50
272.4382747
51
284.646547
0
ARC
8
DEFAULT_255_1_234
10
8.4180319
20
0.7504893
40
0.7563528
50
269.9708387
51
272.8178037
0
ARC
8
DEFAULT_255_1_234
10
8.4137358
20
0.5466716
40
0.5525489
50
248.2707594
51
270.4055579
0
ARC
8
DEFAULT_255_1_234
10
8.40831
20
0.5276192
40
0.5328452
50
246.1383403
51
248.0542782
0
ARC
8
DEFAULT_255_1_234
10
8.3664478
20
0.4396843
40
0.4355005
50
233.1670131
51
246.4950969
0
ARC
8
DEFAULT_255_1_234
10
8.3110383
20
0.3648812
40
0.3424126
50
215.3403242
51
233.0843104
0
ARC
8
DEFAULT_255_1_234
10
8.2837815
20
0.3450549
40
0.3087104
50
179.2419209
51
215.2648451
0
ARC
8
DEFAULT_255_1_234
10
8.3605409
20
0.3464666
40
0.2304457
50
179.335461
51
199.1045811
0
ARC
8
DEFAULT_255_1_234
10
8.3273085
20
0.3377766
40
0.1962176
50
199.8828939
51
232.7063202
0
ARC
8
DEFAULT_255_1_234
10
8.3745353
20
0.3971788
40
0.2720938
50
232.3738199
51
255.5136649
0
ARC
8
DEFAULT_255_1_234
10
8.408622
20
0.5215835
40
0.4010747
50
255.2446292
51
267.5320849
0
ARC
8
DEFAULT_255_1_234
10
8.4173843
20
0.6448702
40
0.5246356
50
267.1557994
51
270.0286766
0
ARC
8
DEFAULT_255_1_234
10
8.4201616
20
0.600495
40
0.4802668
50
269.7000017
51
278.1660162
0
ARC
8
DEFAULT_255_1_234
10
8.445762
20
0.4274515
40
0.3053425
50
278.0231263
51
290.625471
0
ARC
8
DEFAULT_255_1_234
10
8.4805308
20
0.3347025
40
0.206291
50
290.6619762
51
307.0370976
0
ARC
8
DEFAULT_255_1_234
10
8.5105697
20
0.2978504
40
0.1587906
50
306.3943566
51
355.3030547
0
ARC
8
DEFAULT_255_1_234
10
8.4593628
20
0.3055113
40
0.2104809
50
354.3660432
51
0.0698737
0
ARC
8
DEFAULT_255_1_234
10
8.4735973
20
0.3077617
40
0.1962563
50
359.417946
51
16.1971788
0
ARC
8
DEFAULT_255_1_234
10
8.5191284
20
0.3202418
40
0.149053
50
16.4723299
51
52.6262157
0
ARC
8
DEFAULT_255_1_234
10
8.4370338
20
0.2118433
40
0.2850296
50
52.7386432
51
62.4979148
0
ARC
8
DEFAULT_255_1_234
10
8.2985415
20
-0.0487717
40
0.5801521
50
62.2515216
51
68.1220564
0
ARC
8
DEFAULT_255_1_234
10
8.1265325
20
-0.4715128
40
1.0365451
50
68.0062803
51
71.8053402
0
ARC
8
DEFAULT_255_1_234
10
7.9469697
20
-1.0100242
40
1.6042013
50
71.7183119
51
73.9258742
0
LINE
8
DEFAULT_255_1_234
10
9.7388679
20
1.1796211
11
9.7388679
21
1.096091
0
LINE
8
DEFAULT_255_1_234
10
9.7388679
20
1.096091
11
9.2545541
21
0.0102
0
LINE
8
DEFAULT_255_1_234
10
9.2545541
20
0.0102
11
9.0987383
21
0.0102
0
LINE
8
DEFAULT_255_1_234
10
9.0987383
20
0.0102
11
9.5814458
21
1.0575387
0
LINE
8
DEFAULT_255_1_234
10
9.5814458
20
1.0575387
11
8.9485448
21
1.0575387
0
LINE
8
DEFAULT_255_1_234
10
8.9485448
20
1.0575387
11
8.9485448
21
1.1796211
0
LINE
8
DEFAULT_255_1_234
10
8.9485448
20
1.1796211
11
9.7388679
21
1.1796211
0
LINE
8
DEFAULT_255_1_234
10
10.6737622
20
0.1314792
11
10.6737622
21
0.0102
0
LINE
8
DEFAULT_255_1_234
10
10.6737622
20
0.0102
11
9.9075344
21
0.0102
0
LINE
8
DEFAULT_255_1_234
10
9.9075344
20
0.0102
11
9.9075344
21
0.1170221
0
LINE
8
DEFAULT_255_1_234
10
9.9075344
20
0.1170221
11
10.312334
21
0.5667995
0
LINE
8
DEFAULT_255_1_234
10
10.0336327
20
0.8350595
11
9.8850455
21
0.8350595
0
LINE
8
DEFAULT_255_1_234
10
10.3998799
20
0.4712218
11
10.0866421
21
0.1314792
0
LINE
8
DEFAULT_255_1_234
10
10.0866421
20
0.1314792
11
10.6737622
21
0.1314792
0
ARC
8
DEFAULT_255_1_234
10
8.9633173
20
1.7597527
40
1.8008286
50
318.5132453
51
320.7828378
0
ARC
8
DEFAULT_255_1_234
10
9.4920148
20
1.3294426
40
1.1191493
50
320.7372736
51
323.9737074
0
ARC
8
DEFAULT_255_1_234
10
9.8840004
20
1.0454361
40
0.6350923
50
323.8961724
51
328.6421089
0
ARC
8
DEFAULT_255_1_234
10
10.0886599
20
0.9192031
40
0.3946393
50
328.8299013
51
331.789948
0
ARC
8
DEFAULT_255_1_234
10
10.1883778
20
0.8677509
40
0.2824501
50
331.4255242
51
352.9364833
0
ARC
8
DEFAULT_255_1_234
10
10.2020279
20
0.8646976
40
0.2685315
50
353.2248685
51
0.0169286
0
ARC
8
DEFAULT_255_1_234
10
10.2230155
20
0.866995
40
0.2475536
50
359.4866256
51
15.9339782
0
ARC
8
DEFAULT_255_1_234
10
10.2737141
20
0.8806286
40
0.1950618
50
16.1714718
51
43.5284424
0
ARC
8
DEFAULT_255_1_234
10
10.2814449
20
0.8883573
40
0.184134
50
43.4415429
51
83.1661404
0
ARC
8
DEFAULT_255_1_234
10
10.2680367
20
0.8146771
40
0.258926
50
82.160215
51
90.1505798
0
ARC
8
DEFAULT_255_1_234
10
10.2648795
20
0.7609865
40
0.3126255
50
89.5460705
51
102.5418777
0
ARC
8
DEFAULT_255_1_234
10
10.2405881
20
0.8640665
40
0.2067346
50
102.1739365
51
129.2061916
0
ARC
8
DEFAULT_255_1_234
10
10.2326953
20
0.8765094
40
0.1921118
50
129.7279328
51
135.7542026
0
ARC
8
DEFAULT_255_1_234
10
10.244848
20
0.8668045
40
0.2075944
50
136.175737
51
166.3674722
0
ARC
8
DEFAULT_255_1_234
10
10.34554
20
0.8398182
40
0.3118201
50
165.9092917
51
178.8683903
0
ARC
8
DEFAULT_255_1_234
10
10.4320261
20
0.8351179
40
0.3983935
50
178.438168
51
180.0083905
0
ARC
8
DEFAULT_255_1_234
10
10.2918863
20
0.8390231
40
0.4068601
50
163.2878735
51
180.5581814
0
ARC
8
DEFAULT_255_1_234
10
10.2117124
20
0.861084
40
0.3237344
50
133.454115
51
162.9470031
0
ARC
8
DEFAULT_255_1_234
10
10.2295666
20
0.8421
40
0.349795
50
100.7869394
51
133.4384016
0
ARC
8
DEFAULT_255_1_234
10
10.2643437
20
0.6872319
40
0.5084616
50
89.6605301
51
101.3704185
0
ARC
8
DEFAULT_255_1_234
10
10.2709776
20
0.6933496
40
0.502348
50
78.2171172
51
90.4130393
0
ARC
8
DEFAULT_255_1_234
10
10.3064854
20
0.8557637
40
0.3361092
50
55.9268222
51
78.4888551
0
ARC
8
DEFAULT_255_1_234
10
10.3261294
20
0.8896324
40
0.2970617
50
47.9292255
51
55.4054003
0
ARC
8
DEFAULT_255_1_234
10
10.3362855
20
0.8999502
40
0.2825983
50
4.3347696
51
48.0560701
0
ARC
8
DEFAULT_255_1_234
10
10.2267249
20
0.8829601
40
0.393225
50
359.925209
51
5.5967654
0
ARC
8
DEFAULT_255_1_234
10
10.269614
20
0.8885816
40
0.3503892
50
337.8914096
51
358.9967724
0
ARC
8
DEFAULT_255_1_234
10
9.9982553
20
0.9932706
40
0.6412172
50
326.9135351
51
338.3505194
0
ARC
8
DEFAULT_255_1_234
10
9.5996856
20
1.2487284
40
1.1146189
50
319.6472867
51
327.095818
0
ARC
8
DEFAULT_255_1_234
10
9.2163859
20
1.5649
40
1.6114559
50
317.2586784
51
319.9046139
0
LINE
8
DEFAULT_255_1_234
10
11.319514
20
1.1852433
11
11.319514
21
0.0102
0
LINE
8
DEFAULT_255_1_234
10
11.319514
20
0.0102
11
11.1701236
21
0.0102
0
LINE
8
DEFAULT_255_1_234
10
11.1701236
20
0.0102
11
11.1701236
21
1.0005133
0
LINE
8
DEFAULT_255_1_234
10
11.1701236
20
1.0005133
11
10.8705398
21
0.8904785
0
LINE
8
DEFAULT_255_1_234
10
10.8705398
20
0.8904785
11
10.8705398
21
1.0254117
0
LINE
8
DEFAULT_255_1_234
10
10.8705398
20
1.0254117
11
11.2962219
21
1.1852433
0
LINE
8
DEFAULT_255_1_234
10
11.2962219
20
1.1852433
11
11.319514
21
1.1852433
0
LINE
8
DEFAULT_255_1_234
10
12.3821129
20
1.1796211
11
12.3821129
21
0.402952
0
LINE
8
DEFAULT_255_1_234
10
12.3821129
20
0.402952
11
12.5443541
21
0.402952
0
LINE
8
DEFAULT_255_1_234
10
12.5443541
20
0.402952
11
12.5443541
21
0.2816728
0
LINE
8
DEFAULT_255_1_234
10
12.5443541
20
0.2816728
11
12.3821129
21
0.2816728
0
LINE
8
DEFAULT_255_1_234
10
12.3821129
20
0.2816728
11
12.3821129
21
0.0102
0
LINE
8
DEFAULT_255_1_234
10
12.3821129
20
0.0102
11
12.2327226
21
0.0102
0
LINE
8
DEFAULT_255_1_234
10
12.2327226
20
0.0102
11
12.2327226
21
0.2816728
0
LINE
8
DEFAULT_255_1_234
10
12.2327226
20
0.2816728
11
11.7002184
21
0.2816728
0
LINE
8
DEFAULT_255_1_234
10
11.7002184
20
0.2816728
11
11.7002184
21
0.3692187
0
LINE
8
DEFAULT_255_1_234
10
11.7002184
20
0.3692187
11
12.2238877
21
1.1796211
0
LINE
8
DEFAULT_255_1_234
10
12.2238877
20
1.1796211
11
12.3821129
21
1.1796211
0
LINE
8
DEFAULT_255_1_234
10
12.2150528
20
0.9442912
11
11.8688849
21
0.402952
0
LINE
8
DEFAULT_255_1_234
10
11.8688849
20
0.402952
11
12.2327226
21
0.402952
0
LINE
8
DEFAULT_255_1_234
10
12.2327226
20
0.402952
11
12.2327226
21
0.9764181
0
LINE
8
DEFAULT_255_1_234
10
12.2327226
20
0.9764181
11
12.2150528
21
0.9442912
0
LINE
8
DEFAULT_255_1_234
10
13.0029663
20
0.5676026
11
13.0029663
21
0.4463234
0
LINE
8
DEFAULT_255_1_234
10
13.0029663
20
0.4463234
11
12.6110175
21
0.4463234
0
LINE
8
DEFAULT_255_1_234
10
12.6110175
20
0.4463234
11
12.6110175
21
0.5676026
0
LINE
8
DEFAULT_255_1_234
10
12.6110175
20
0.5676026
11
13.0029663
21
0.5676026
0
LINE
8
DEFAULT_255_1_234
10
13.620607
20
1.1852433
11
13.620607
21
0.0102
0
LINE
8
DEFAULT_255_1_234
10
13.620607
20
0.0102
11
13.4712167
21
0.0102
0
LINE
8
DEFAULT_255_1_234
10
13.4712167
20
0.0102
11
13.4712167
21
1.0005133
0
LINE
8
DEFAULT_255_1_234
10
13.4712167
20
1.0005133
11
13.1716328
21
0.8904785
0
LINE
8
DEFAULT_255_1_234
10
13.1716328
20
0.8904785
11
13.1716328
21
1.0254117
0
LINE
8
DEFAULT_255_1_234
10
13.1716328
20
1.0254117
11
13.5973149
21
1.1852433
0
LINE
8
DEFAULT_255_1_234
10
13.5973149
20
1.1852433
11
13.620607
21
1.1852433
0
LINE
8
DEFAULT_255_1_234
10
14.5000823
20
0.0102
11
14.0944795
21
0.0102
0
LINE
8
DEFAULT_255_1_234
10
14.0944795
20
0.0102
11
14.0944795
21
1.1796211
0
LINE
8
DEFAULT_255_1_234
10
14.0944795
20
1.1796211
11
14.4767903
21
1.1796211
0
LINE
8
DEFAULT_255_1_234
10
14.5057045
20
0.5571614
11
14.2486889
21
0.5571614
0
LINE
8
DEFAULT_255_1_234
10
14.2486889
20
0.5571614
11
14.2486889
21
0.1362983
0
LINE
8
DEFAULT_255_1_234
10
14.2486889
20
0.1362983
11
14.503295
21
0.1362983
0
LINE
8
DEFAULT_255_1_234
10
14.2486889
20
1.0527196
11
14.2486889
21
0.6808501
0
LINE
8
DEFAULT_255_1_234
10
14.2486889
20
0.6808501
11
14.4816093
21
0.6808501
0
LINE
8
DEFAULT_255_1_234
10
14.4767903
20
1.0527196
11
14.2486889
21
1.0527196
0
ARC
8
DEFAULT_255_1_234
10
14.4805612
20
0.4428901
40
0.7367406
50
82.1257326
51
90.2932599
0
ARC
8
DEFAULT_255_1_234
10
14.5194566
20
0.7147013
40
0.4621653
50
69.9044149
51
82.2857423
0
ARC
8
DEFAULT_255_1_234
10
14.5765244
20
0.8689637
40
0.2976871
50
51.1838526
51
70.0181538
0
ARC
8
DEFAULT_255_1_234
10
14.602021
20
0.906024
40
0.2528517
50
12.1017251
51
50.4214761
0
ARC
8
DEFAULT_255_1_234
10
14.4636084
20
0.8712676
40
0.3955061
50
359.5251267
51
12.8211707
0
ARC
8
DEFAULT_255_1_234
10
14.6216011
20
0.8643344
40
0.2375281
50
323.4908128
51
0.8817314
0
ARC
8
DEFAULT_255_1_234
10
14.5797698
20
0.896655
40
0.2903817
50
298.6825083
51
323.2756573
0
ARC
8
DEFAULT_255_1_234
10
14.5436061
20
0.9567649
40
0.3604842
50
293.1999386
51
299.1396394
0
ARC
8
DEFAULT_255_1_234
10
14.6109033
20
0.3482126
40
0.2871098
50
54.0011765
51
74.9167975
0
ARC
8
DEFAULT_255_1_234
10
14.6225393
20
0.3679332
40
0.2643248
50
36.3580696
51
53.5291921
0
ARC
8
DEFAULT_255_1_234
10
14.6098635
20
0.3588998
40
0.2798884
50
4.8189881
51
36.3089977
0
ARC
8
DEFAULT_255_1_234
10
14.531947
20
0.347927
40
0.358478
50
359.9370252
51
5.5204067
0
ARC
8
DEFAULT_255_1_234
10
14.4994991
20
0.3438667
40
0.3909429
50
344.7478609
51
0.5373281
0
ARC
8
DEFAULT_255_1_234
10
14.5985963
20
0.3171544
40
0.2883093
50
311.1786488
51
344.6886812
0
ARC
8
DEFAULT_255_1_234
10
14.569401
20
0.3534987
40
0.3348923
50
286.0418249
51
310.8441291
0
ARC
8
DEFAULT_255_1_234
10
14.5186842
20
0.5181807
40
0.5071869
50
274.1042341
51
286.4071509
0
ARC
8
DEFAULT_255_1_234
10
14.5010098
20
0.7065229
40
0.6963234
50
269.9236873
51
274.445647
0
ARC
8
DEFAULT_255_1_234
10
14.5056098
20
0.4725537
40
0.3362634
50
269.6055768
51
281.3740047
0
ARC
8
DEFAULT_255_1_234
10
14.5286736
20
0.3632353
40
0.224546
50
281.1055983
51
302.5132223
0
ARC
8
DEFAULT_255_1_234
10
14.5433636
20
0.3368823
40
0.1944357
50
303.0368945
51
311.8811219
0
ARC
8
DEFAULT_255_1_234
10
14.5505042
20
0.328389
40
0.1833454
50
311.9916004
51
351.7143462
0
ARC
8
DEFAULT_255_1_234
10
14.4688272
20
0.344893
40
0.2665871
50
350.7339597
51
0.2221581
0
ARC
8
DEFAULT_255_1_234
10
14.4580718
20
0.3505467
40
0.2773789
50
359.0456241
51
17.2296242
0
ARC
8
DEFAULT_255_1_234
10
14.5619836
20
0.3814163
40
0.1689915
50
17.6685481
51
78.9940892
0
ARC
8
DEFAULT_255_1_234
10
14.5102999
20
0.1959224
40
0.3612658
50
76.5635957
51
90.6980921
0
LINE
8
DEFAULT_255_1_234
10
14.5058984
20
0.5571613
11
14.5057045
21
0.5571614
0
ARC
8
DEFAULT_255_1_234
10
14.483866
20
1.0094036
40
0.3285612
50
269.6064736
51
281.4533503
0
ARC
8
DEFAULT_255_1_234
10
14.5061479
20
0.9042688
40
0.2210975
50
281.2041486
51
302.5148063
0
ARC
8
DEFAULT_255_1_234
10
14.5198329
20
0.8796241
40
0.1929674
50
303.021671
51
309.8369575
0
ARC
8
DEFAULT_255_1_234
10
14.5381791
20
0.8590488
40
0.1654181
50
309.5228395
51
356.9509836
0
ARC
8
DEFAULT_255_1_234
10
14.4718373
20
0.8685932
40
0.2322512
50
355.4701227
51
0.0492546
0
ARC
8
DEFAULT_255_1_234
10
14.4439465
20
0.8708094
40
0.2601498
50
359.5558597
51
11.2096359
0
ARC
8
DEFAULT_255_1_234
10
14.5396754
20
0.890623
40
0.1623975
50
10.9182341
51
31.3230275
0
ARC
8
DEFAULT_255_1_234
10
14.5682488
20
0.9065214
40
0.1297302
50
31.8852677
51
52.1412565
0
ARC
8
DEFAULT_255_1_234
10
14.5408221
20
0.867775
40
0.1771663
50
52.8285564
51
71.9850297
0
ARC
8
DEFAULT_255_1_234
10
14.5032397
20
0.7571664
40
0.2939794
50
71.6863486
51
82.8455995
0
ARC
8
DEFAULT_255_1_234
10
14.4792933
20
0.5762149
40
0.476506
50
82.6984714
51
90.1729175
0
ARC
8
DEFAULT_255_1_234
10
14.4770568
20
0.6985623
40
0.3541573
50
89.8708275
51
90.0431131
0
LINE
8
DEFAULT_255_1_234
10
15.4422052
20
0.0102
11
15.1185262
21
0.0102
0
LINE
8
DEFAULT_255_1_234
10
15.1185262
20
0.0102
11
15.1185262
21
1.1796211
0
LINE
8
DEFAULT_255_1_234
10
15.1185262
20
1.1796211
11
15.4486306
21
1.1796211
0
LINE
8
DEFAULT_255_1_234
10
15.9642682
20
0.6342661
11
15.9642682
21
0.5595709
0
LINE
8
DEFAULT_255_1_234
10
15.4526465
20
1.0527196
11
15.2727355
21
1.0527196
0
LINE
8
DEFAULT_255_1_234
10
15.2727355
20
1.0527196
11
15.2727355
21
0.1362983
0
LINE
8
DEFAULT_255_1_234
10
15.2727355
20
0.1362983
11
15.4349767
21
0.1362983
0
LINE
8
DEFAULT_255_1_234
10
15.8116652
20
0.5627836
11
15.8116652
21
0.6310534
0
ARC
8
DEFAULT_255_1_234
10
15.4525249
20
0.5930894
40
0.5865446
50
75.4101064
51
90.3804066
0
ARC
8
DEFAULT_255_1_234
10
15.4754762
20
0.6887492
40
0.4881916
50
60.145586
51
75.1888407
0
ARC
8
DEFAULT_255_1_234
10
15.4913538
20
0.7164199
40
0.4562893
50
26.5253612
51
60.1450928
0
ARC
8
DEFAULT_255_1_234
10
15.3793287
20
0.6570158
40
0.5830602
50
7.4030428
51
26.8320788
0
ARC
8
DEFAULT_255_1_234
10
15.2199044
20
0.6321804
40
0.7443669
50
0.1605367
51
7.7176192
0
ARC
8
DEFAULT_255_1_234
10
15.2362948
20
0.5557434
40
0.7279835
50
348.7289388
51
0.3012466
0
ARC
8
DEFAULT_255_1_234
10
15.4019379
20
0.5228386
40
0.559104
50
333.0706509
51
348.7181832
0
ARC
8
DEFAULT_255_1_234
10
15.4986136
20
0.4703319
40
0.4491417
50
299.2531685
51
333.4571258
0
ARC
8
DEFAULT_255_1_234
10
15.4625276
20
0.5388828
40
0.5265881
50
278.107187
51
299.0339503
0
ARC
8
DEFAULT_255_1_234
10
15.4369355
20
0.6896216
40
0.679442
50
270.4443897
51
278.4511052
0
ARC
8
DEFAULT_255_1_234
10
15.4390185
20
0.5967213
40
0.4604407
50
269.4970433
51
284.0205042
0
ARC
8
DEFAULT_255_1_234
10
15.4745486
20
0.4601978
40
0.3193797
50
283.7700273
51
318.1555492
0
ARC
8
DEFAULT_255_1_234
10
15.4408244
20
0.4854367
40
0.3613588
50
318.7415601
51
343.6873628
0
ARC
8
DEFAULT_255_1_234
10
15.2604267
20
0.5417832
40
0.5503313
50
343.3325091
51
355.8548958
0
ARC
8
DEFAULT_255_1_234
10
15.0505952
20
0.5617319
40
0.7610708
50
355.4988528
51
0.0791727
0
ARC
8
DEFAULT_255_1_234
10
15.1288574
20
0.635278
40
0.6828208
50
359.6455037
51
9.8607896
0
ARC
8
DEFAULT_255_1_234
10
15.3649272
20
0.6779099
40
0.4429406
50
9.6571907
51
26.1932807
0
ARC
8
DEFAULT_255_1_234
10
15.4577261
20
0.7210118
40
0.3406537
50
26.5777228
51
40.1532208
0
ARC
8
DEFAULT_255_1_234
10
15.4832987
20
0.7409619
40
0.308246
50
40.3840491
51
80.1431104
0
ARC
8
DEFAULT_255_1_234
10
15.4506105
20
0.5960333
40
0.4566909
50
79.2152159
51
89.7445637
0
LINE
8
DEFAULT_255_1_234
10
16.9248641
20
0.1314792
11
16.9248641
21
0.0102
0
LINE
8
DEFAULT_255_1_234
10
16.9248641
20
0.0102
11
16.1586363
21
0.0102
0
LINE
8
DEFAULT_255_1_234
10
16.1586363
20
0.0102
11
16.1586363
21
0.1170221
0
LINE
8
DEFAULT_255_1_234
10
16.1586363
20
0.1170221
11
16.5634359
21
0.5667995
0
LINE
8
DEFAULT_255_1_234
10
16.2847346
20
0.8350595
11
16.1361474
21
0.8350595
0
LINE
8
DEFAULT_255_1_234
10
16.6509818
20
0.4712218
11
16.337744
21
0.1314792
0
LINE
8
DEFAULT_255_1_234
10
16.337744
20
0.1314792
11
16.9248641
21
0.1314792
0
ARC
8
DEFAULT_255_1_234
10
15.2144192
20
1.7597527
40
1.8008286
50
318.5132453
51
320.7828378
0
ARC
8
DEFAULT_255_1_234
10
15.7431167
20
1.3294426
40
1.1191493
50
320.7372736
51
323.9737074
0
ARC
8
DEFAULT_255_1_234
10
16.1351023
20
1.0454361
40
0.6350923
50
323.8961724
51
328.6421089
0
ARC
8
DEFAULT_255_1_234
10
16.3397618
20
0.9192031
40
0.3946393
50
328.8299013
51
331.789948
0
ARC
8
DEFAULT_255_1_234
10
16.4394797
20
0.8677509
40
0.2824501
50
331.4255242
51
352.9364833
0
ARC
8
DEFAULT_255_1_234
10
16.4531298
20
0.8646976
40
0.2685315
50
353.2248685
51
0.0169286
0
ARC
8
DEFAULT_255_1_234
10
16.4741174
20
0.866995
40
0.2475536
50
359.4866256
51
15.9339782
0
ARC
8
DEFAULT_255_1_234
10
16.524816
20
0.8806286
40
0.1950618
50
16.1714718
51
43.5284424
0
ARC
8
DEFAULT_255_1_234
10
16.5325468
20
0.8883573
40
0.184134
50
43.4415429
51
83.1661404
0
ARC
8
DEFAULT_255_1_234
10
16.5191386
20
0.8146771
40
0.258926
50
82.160215
51
90.1505798
0
ARC
8
DEFAULT_255_1_234
10
16.5159814
20
0.7609865
40
0.3126255
50
89.5460705
51
102.5418777
0
ARC
8
DEFAULT_255_1_234
10
16.49169
20
0.8640665
40
0.2067346
50
102.1739365
51
129.2061916
0
ARC
8
DEFAULT_255_1_234
10
16.4837972
20
0.8765094
40
0.1921118
50
129.7279328
51
135.7542026
0
ARC
8
DEFAULT_255_1_234
10
16.4959499
20
0.8668045
40
0.2075944
50
136.175737
51
166.3674722
0
ARC
8
DEFAULT_255_1_234
10
16.5966419
20
0.8398182
40
0.3118201
50
165.9092917
51
178.8683903
0
ARC
8
DEFAULT_255_1_234
10
16.683128
20
0.8351179
40
0.3983935
50
178.438168
51
180.0083905
0
ARC
8
DEFAULT_255_1_234
10
16.5429882
20
0.8390231
40
0.4068601
50
163.2878735
51
180.5581814
0
ARC
8
DEFAULT_255_1_234
10
16.4628143
20
0.861084
40
0.3237344
50
133.454115
51
162.9470031
0
ARC
8
DEFAULT_255_1_234
10
16.4806685
20
0.8421
40
0.349795
50
100.7869394
51
133.4384016
0
ARC
8
DEFAULT_255_1_234
10
16.5154456
20
0.6872319
40
0.5084616
50
89.6605301
51
101.3704185
0
ARC
8
DEFAULT_255_1_234
10
16.5220795
20
0.6933496
40
0.502348
50
78.2171172
51
90.4130393
0
ARC
8
DEFAULT_255_1_234
10
16.5575873
20
0.8557637
40
0.3361092
50
55.9268222
51
78.4888551
0
ARC
8
DEFAULT_255_1_234
10
16.5772313
20
0.8896324
40
0.2970617
50
47.9292255
51
55.4054003
0
ARC
8
DEFAULT_255_1_234
10
16.5873874
20
0.8999502
40
0.2825983
50
4.3347696
51
48.0560701
0
ARC
8
DEFAULT_255_1_234
10
16.4778268
20
0.8829601
40
0.393225
50
359.925209
51
5.5967654
0
ARC
8
DEFAULT_255_1_234
10
16.5207159
20
0.8885816
40
0.3503892
50
337.8914096
51
358.9967724
0
ARC
8
DEFAULT_255_1_234
10
16.2493572
20
0.9932706
40
0.6412172
50
326.9135351
51
338.3505194
0
ARC
8
DEFAULT_255_1_234
10
15.8507875
20
1.2487284
40
1.1146189
50
319.6472867
51
327.095818
0
ARC
8
DEFAULT_255_1_234
10
15.4674878
20
1.5649
40
1.6114559
50
317.2586784
51
319.9046139
0
LINE
8
DEFAULT_255_1_234
10
17.2983399
20
0.5459169
11
17.2983399
21
0.6671962
0
LINE
8
DEFAULT_255_1_234
10
17.2983399
20
0.6671962
11
17.4099811
21
0.6671962
0
LINE
8
DEFAULT_255_1_234
10
17.2196289
20
0.8728087
11
17.0710417
21
0.8728087
0
LINE
8
DEFAULT_255_1_234
10
17.0606005
20
0.3186187
11
17.2099908
21
0.3186187
0
LINE
8
DEFAULT_255_1_234
10
17.4099811
20
0.5459169
11
17.2983399
21
0.5459169
0
ARC
8
DEFAULT_255_1_234
10
17.4070677
20
1.0064713
40
0.3392876
50
270.4919872
51
281.8951556
0
ARC
8
DEFAULT_255_1_234
10
17.4311939
20
0.8962702
40
0.2264817
50
281.6691735
51
301.2943132
0
ARC
8
DEFAULT_255_1_234
10
17.4482149
20
0.8651304
40
0.1910381
50
301.7833094
51
311.7545298
0
ARC
8
DEFAULT_255_1_234
10
17.4573725
20
0.8549748
40
0.1773635
50
311.7323931
51
354.2802411
0
ARC
8
DEFAULT_255_1_234
10
17.384735
20
0.8674722
40
0.2509385
50
353.0937916
51
0.1181479
0
ARC
8
DEFAULT_255_1_234
10
17.3386135
20
0.8722386
40
0.2970898
50
359.1805295
51
15.0453146
0
ARC
8
DEFAULT_255_1_234
10
17.4731972
20
0.9114992
40
0.1569564
50
13.9577229
51
77.6713066
0
ARC
8
DEFAULT_255_1_234
10
17.4345501
20
0.7729949
40
0.3006298
50
76.1116566
51
90.7026153
0
ARC
8
DEFAULT_255_1_234
10
17.428634
20
0.8003545
40
0.2732568
50
89.5324876
51
103.531937
0
ARC
8
DEFAULT_255_1_234
10
17.4085784
20
0.8802884
40
0.1908508
50
103.2931773
51
133.5619022
0
ARC
8
DEFAULT_255_1_234
10
17.4041272
20
0.8862375
40
0.1834746
50
133.8349307
51
173.5344437
0
ARC
8
DEFAULT_255_1_234
10
17.4764315
20
0.8734213
40
0.2568033
50
172.5096846
51
180.1366907
0
ARC
8
DEFAULT_255_1_234
10
17.3813209
20
0.8768622
40
0.3103056
50
155.3484492
51
180.7484736
0
ARC
8
DEFAULT_255_1_234
10
17.3764298
20
0.8739846
40
0.3070957
50
131.5744599
51
154.4798489
0
ARC
8
DEFAULT_255_1_234
10
17.4077446
20
0.842331
40
0.3515643
50
96.9875458
51
131.9690667
0
ARC
8
DEFAULT_255_1_234
10
17.4296925
20
0.7177636
40
0.4779224
50
89.8596053
51
97.7825159
0
ARC
8
DEFAULT_255_1_234
10
17.4344989
20
0.6915616
40
0.5041361
50
78.3655447
51
90.4131539
0
ARC
8
DEFAULT_255_1_234
10
17.4702907
20
0.8574887
40
0.3344039
50
56.6229102
51
78.638727
0
ARC
8
DEFAULT_255_1_234
10
17.491785
20
0.8950805
40
0.2912001
50
47.0253525
51
56.0854072
0
ARC
8
DEFAULT_255_1_234
10
17.493763
20
0.8990223
40
0.2869704
50
10.9208013
51
46.7778124
0
ARC
8
DEFAULT_255_1_234
10
17.3573697
20
0.8674857
40
0.426899
50
359.6364486
51
11.6087304
0
ARC
8
DEFAULT_255_1_234
10
17.5408541
20
0.8659752
40
0.243409
50
332.3549906
51
359.7179418
0
ARC
8
DEFAULT_255_1_234
10
17.4758142
20
0.8968142
40
0.3153459
50
325.2333722
51
332.8745602
0
ARC
8
DEFAULT_255_1_234
10
17.4910766
20
0.8861828
40
0.2967456
50
292.9802137
51
325.2392345
0
ARC
8
DEFAULT_255_1_234
10
17.463614
20
0.9395863
40
0.3566604
50
292.5402179
51
293.6924929
0
ARC
8
DEFAULT_255_1_234
10
17.5028736
20
0.2941091
40
0.3307468
50
57.6435486
51
72.8625112
0
ARC
8
DEFAULT_255_1_234
10
17.5383235
20
0.3515549
40
0.2632492
50
36.7248896
51
57.4697979
0
ARC
8
DEFAULT_255_1_234
10
17.5371868
20
0.352822
40
0.2634081
50
8.0545065
51
36.356114
0
ARC
8
DEFAULT_255_1_234
10
17.4509053
20
0.3373174
40
0.3510261
50
359.8320645
51
8.5869982
0
ARC
8
DEFAULT_255_1_234
10
17.413383
20
0.3325101
40
0.3885653
50
343.9829931
51
0.5571613
0
ARC
8
DEFAULT_255_1_234
10
17.5020027
20
0.3082438
40
0.2966924
50
311.6359546
51
343.7651759
0
ARC
8
DEFAULT_255_1_234
10
17.4641596
20
0.3509102
40
0.3537231
50
279.7829875
51
311.6255694
0
ARC
8
DEFAULT_255_1_234
10
17.4340372
20
0.494628
40
0.5004971
50
269.7286406
51
280.3856417
0
ARC
8
DEFAULT_255_1_234
10
17.4278445
20
0.4904996
40
0.4963778
50
256.6828919
51
270.4412052
0
ARC
8
DEFAULT_255_1_234
10
17.3939741
20
0.3520394
40
0.3538406
50
229.4223008
51
256.8556159
0
ARC
8
DEFAULT_255_1_234
10
17.3525133
20
0.3053736
40
0.2914296
50
181.818294
51
229.6455059
0
ARC
8
DEFAULT_255_1_234
10
17.456509
20
0.3184496
40
0.3959084
50
179.9755256
51
183.2323064
0
ARC
8
DEFAULT_255_1_234
10
17.4392835
20
0.3164037
40
0.2293034
50
179.4465117
51
196.2869258
0
ARC
8
DEFAULT_255_1_234
10
17.3905243
20
0.3030651
40
0.1787621
50
196.5661473
51
227.705904
0
ARC
8
DEFAULT_255_1_234
10
17.4069338
20
0.3214155
40
0.2033784
50
227.7652068
51
257.8762805
0
ARC
8
DEFAULT_255_1_234
10
17.4294308
20
0.4157156
40
0.3003081
50
257.4584385
51
270.426602
0
ARC
8
DEFAULT_255_1_234
10
17.4339875
20
0.4446996
40
0.329292
50
269.5962073
51
280.8789248
0
ARC
8
DEFAULT_255_1_234
10
17.4569403
20
0.3300685
40
0.2123908
50
280.6346389
51
299.8595945
0
ARC
8
DEFAULT_255_1_234
10
17.476031
20
0.2938212
40
0.171457
50
300.3576302
51
314.5517981
0
ARC
8
DEFAULT_255_1_234
10
17.467737
20
0.2998919
40
0.1816095
50
315.0728369
51
345.0431014
0
ARC
8
DEFAULT_255_1_234
10
17.3754185
20
0.3267841
40
0.2777492
50
344.5986631
51
357.9269593
0
ARC
8
DEFAULT_255_1_234
10
17.2858511
20
0.3329276
40
0.3674917
50
357.4748886
51
0.0231117
0
ARC
8
DEFAULT_255_1_234
10
17.388162
20
0.3353679
40
0.2651907
50
359.5047933
51
13.4239635
0
ARC
8
DEFAULT_255_1_234
10
17.4748264
20
0.3575478
40
0.1757509
50
12.9498199
51
48.7551375
0
ARC
8
DEFAULT_255_1_234
10
17.4565998
20
0.33264
40
0.2065134
50
49.5088623
51
72.1836453
0
ARC
8
DEFAULT_255_1_234
10
17.420815
20
0.2264291
40
0.3185836
50
71.9010081
51
84.3554254
0
ARC
8
DEFAULT_255_1_234
10
17.4046782
20
0.0903326
40
0.4556151
50
84.0193428
51
89.333121
0
LINE
8
DEFAULT_255_1_234
10
18.3304183
20
0.5676026
11
18.3304183
21
0.4463234
0
LINE
8
DEFAULT_255_1_234
10
18.3304183
20
0.4463234
11
17.9384695
21
0.4463234
0
LINE
8
DEFAULT_255_1_234
10
17.9384695
20
0.4463234
11
17.9384695
21
0.5676026
0
LINE
8
DEFAULT_255_1_234
10
17.9384695
20
0.5676026
11
18.3304183
21
0.5676026
0
LINE
8
DEFAULT_255_1_234
10
19.193027
20
0.7017327
11
19.193027
21
0.5089709
0
LINE
8
DEFAULT_255_1_234
10
18.4549103
20
0.4888916
11
18.4549103
21
0.6872755
0
LINE
8
DEFAULT_255_1_234
10
19.0444398
20
0.4688123
11
19.0444398
21
0.7121739
0
LINE
8
DEFAULT_255_1_234
10
18.6034974
20
0.7234184
11
18.6034974
21
0.4856789
0
ARC
8
DEFAULT_255_1_234
10
17.968316
20
0.5040805
40
1.2247208
50
353.8441951
51
0.2287902
0
ARC
8
DEFAULT_255_1_234
10
18.4322663
20
0.4522806
40
0.7578929
50
344.4934747
51
353.9765454
0
ARC
8
DEFAULT_255_1_234
10
18.7315253
20
0.3671981
40
0.4467846
50
329.2803592
51
344.7472793
0
ARC
8
DEFAULT_255_1_234
10
18.8308078
20
0.3127018
40
0.3336173
50
324.9352394
51
328.6160465
0
ARC
8
DEFAULT_255_1_234
10
18.8685187
20
0.2863427
40
0.2876076
50
280.580143
51
324.9173126
0
ARC
8
DEFAULT_255_1_234
10
18.828398
20
0.4534099
40
0.4592847
50
269.5977311
51
281.6734359
0
ARC
8
DEFAULT_255_1_234
10
18.8211885
20
0.4414173
40
0.4472986
50
256.6228859
51
270.51044
0
ARC
8
DEFAULT_255_1_234
10
18.7809863
20
0.2865877
40
0.2873874
50
215.8618325
51
257.2788573
0
ARC
8
DEFAULT_255_1_234
10
18.8830895
20
0.3550977
40
0.4102928
50
197.9693508
51
215.2623606
0
ARC
8
DEFAULT_255_1_234
10
19.131601
20
0.4389709
40
0.6725652
50
187.8816417
51
198.2346507
0
ARC
8
DEFAULT_255_1_234
10
19.5274219
20
0.4961079
40
1.0724845
50
180.8976217
51
188.0055519
0
ARC
8
DEFAULT_255_1_234
10
19.8074407
20
0.5064777
40
1.3526448
50
180.7449369
51
181.1510016
0
ARC
8
DEFAULT_255_1_234
10
19.6497136
20
0.6921042
40
1.1948131
50
173.7675579
51
180.231553
0
ARC
8
DEFAULT_255_1_234
10
19.1979282
20
0.7431666
40
0.7401564
50
164.3058563
51
173.9002247
0
ARC
8
DEFAULT_255_1_234
10
18.9067351
20
0.8270656
40
0.4371288
50
148.7922025
51
164.568378
0
ARC
8
DEFAULT_255_1_234
10
18.8115803
20
0.8801929
40
0.3282386
50
144.5883898
51
148.1176286
0
ARC
8
DEFAULT_255_1_234
10
18.7772701
20
0.9041315
40
0.2864044
50
101.6440918
51
144.514236
0
ARC
8
DEFAULT_255_1_234
10
18.8197768
20
0.7352069
40
0.4604934
50
89.5284041
51
102.5819763
0
ARC
8
DEFAULT_255_1_234
10
18.8276856
20
0.7313018
40
0.464401
50
77.0437873
51
90.5081339
0
ARC
8
DEFAULT_255_1_234
10
18.8678857
20
0.8955615
40
0.2953195
50
48.2778575
51
77.4994676
0
ARC
8
DEFAULT_255_1_234
10
18.8751489
20
0.9084746
40
0.2808655
50
36.3142134
51
47.6305865
0
ARC
8
DEFAULT_255_1_234
10
18.7882796
20
0.8499515
40
0.3855453
50
18.2931786
51
35.6769206
0
ARC
8
DEFAULT_255_1_234
10
18.5339555
20
0.7626593
40
0.654423
50
8.024666
51
18.5605216
0
ARC
8
DEFAULT_255_1_234
10
18.1176475
20
0.7011792
40
1.0752407
50
1.1274072
51
8.1718305
0
ARC
8
DEFAULT_255_1_234
10
17.7940665
20
0.6884885
40
1.3990231
50
0.5424119
51
1.3863029
0
ARC
8
DEFAULT_255_1_234
10
17.9762043
20
0.7157342
40
1.0682415
50
359.8090433
51
4.9407866
0
ARC
8
DEFAULT_255_1_234
10
18.3972057
20
0.7533113
40
0.6455691
50
4.8362157
51
12.2904523
0
ARC
8
DEFAULT_255_1_234
10
18.6727172
20
0.8146965
40
0.3633074
50
12.0805627
51
23.8173984
0
ARC
8
DEFAULT_255_1_234
10
18.7900877
20
0.8643919
40
0.2358723
50
24.2871213
51
31.3935614
0
ARC
8
DEFAULT_255_1_234
10
18.8425574
20
0.8987233
40
0.1732111
50
30.7407893
51
82.4657128
0
ARC
8
DEFAULT_255_1_234
10
18.8245709
20
0.8103691
40
0.263235
50
81.1060089
51
90.2184952
0
ARC
8
DEFAULT_255_1_234
10
18.8210008
20
0.8361924
40
0.2374236
50
89.3806855
51
105.6762551
0
ARC
8
DEFAULT_255_1_234
10
18.8026638
20
0.9028567
40
0.1682847
50
105.7981136
51
149.7388061
0
ARC
8
DEFAULT_255_1_234
10
18.9090717
20
0.838895
40
0.2924306
50
149.4208916
51
163.6286378
0
ARC
8
DEFAULT_255_1_234
10
19.1181605
20
0.775125
40
0.5110213
50
163.3763315
51
172.1410975
0
ARC
8
DEFAULT_255_1_234
10
19.4482324
20
0.7278518
40
0.8444586
50
172.0259487
51
178.0703232
0
ARC
8
DEFAULT_255_1_234
10
19.7512413
20
0.7134906
40
1.1477868
50
177.8631668
51
179.5044149
0
ARC
8
DEFAULT_255_1_234
10
19.6439817
20
0.4820389
40
1.0404907
50
179.7995573
51
185.2460446
0
ARC
8
DEFAULT_255_1_234
10
19.2396857
20
0.4437513
40
0.6343885
50
185.1411642
51
193.0079639
0
ARC
8
DEFAULT_255_1_234
10
18.9753329
20
0.3812641
40
0.3627568
50
192.7897626
51
205.2507664
0
ARC
8
DEFAULT_255_1_234
10
18.8706876
20
0.3345415
40
0.2481908
50
205.8005384
51
211.2537509
0
ARC
8
DEFAULT_255_1_234
10
18.8183317
20
0.299458
40
0.1852521
50
210.3789793
51
238.4008143
0
ARC
8
DEFAULT_255_1_234
10
18.8163839
20
0.3041376
40
0.1882621
50
239.6520629
51
265.9793761
0
ARC
8
DEFAULT_255_1_234
10
18.8249039
20
0.3713427
40
0.2559272
50
265.1315437
51
270.060332
0
ARC
8
DEFAULT_255_1_234
10
18.8277818
20
0.3389534
40
0.2235528
50
269.3314664
51
287.2178029
0
ARC
8
DEFAULT_255_1_234
10
18.841567
20
0.2886279
40
0.1714108
50
287.7958004
51
329.080874
0
ARC
8
DEFAULT_255_1_234
10
18.7458126
20
0.348393
40
0.2842745
50
328.6634704
51
343.3325132
0
ARC
8
DEFAULT_255_1_234
10
18.5285146
20
0.4160863
40
0.5118644
50
343.0499468
51
351.9393422
0
ARC
8
DEFAULT_255_1_234
10
18.1818446
20
0.4671949
40
0.8622784
50
351.8069023
51
357.7959224
0
ARC
8
DEFAULT_255_1_234
10
17.8583002
20
0.4839721
40
1.1862365
50
357.5871873
51
359.2677531
0
LINE
8
DEFAULT_255_1_234
10
19.5215251
20
1.1796211
11
19.8034391
21
0.7314501
0
LINE
8
DEFAULT_255_1_234
10
19.8034391
20
0.7314501
11
20.0837468
21
1.1796211
0
LINE
8
DEFAULT_255_1_234
10
20.0837468
20
1.1796211
11
20.2652641
21
1.1796211
0
LINE
8
DEFAULT_255_1_234
10
20.2652641
20
1.1796211
11
19.8958041
21
0.5997296
0
LINE
8
DEFAULT_255_1_234
10
19.8958041
20
0.5997296
11
20.274099
21
0.0102
0
LINE
8
DEFAULT_255_1_234
10
20.274099
20
0.0102
11
20.0909753
21
0.0102
0
LINE
8
DEFAULT_255_1_234
10
20.0909753
20
0.0102
11
19.8034391
21
0.4664027
0
LINE
8
DEFAULT_255_1_234
10
19.8034391
20
0.4664027
11
19.5142965
21
0.0102
0
LINE
8
DEFAULT_255_1_234
10
19.5142965
20
0.0102
11
19.3319761
21
0.0102
0
LINE
8
DEFAULT_255_1_234
10
19.3319761
20
0.0102
11
19.7110741
21
0.5997296
0
LINE
8
DEFAULT_255_1_234
10
19.7110741
20
0.5997296
11
19.340811
21
1.1796211
0
LINE
8
DEFAULT_255_1_234
10
19.340811
20
1.1796211
11
19.5215251
21
1.1796211
0
LINE
8
DEFAULT_255_1_234
10
20.8588095
20
0.0102
11
20.4532067
21
0.0102
0
LINE
8
DEFAULT_255_1_234
10
20.4532067
20
0.0102
11
20.4532067
21
1.1796211
0
LINE
8
DEFAULT_255_1_234
10
20.4532067
20
1.1796211
11
20.8355175
21
1.1796211
0
LINE
8
DEFAULT_255_1_234
10
20.8644317
20
0.5571614
11
20.6074161
21
0.5571614
0
LINE
8
DEFAULT_255_1_234
10
20.6074161
20
0.5571614
11
20.6074161
21
0.1362983
0
LINE
8
DEFAULT_255_1_234
10
20.6074161
20
0.1362983
11
20.8620222
21
0.1362983
0
LINE
8
DEFAULT_255_1_234
10
20.6074161
20
1.0527196
11
20.6074161
21
0.6808501
0
LINE
8
DEFAULT_255_1_234
10
20.6074161
20
0.6808501
11
20.8403365
21
0.6808501
0
LINE
8
DEFAULT_255_1_234
10
20.8355175
20
1.0527196
11
20.6074161
21
1.0527196
0
ARC
8
DEFAULT_255_1_234
10
20.8392884
20
0.4428901
40
0.7367406
50
82.1257326
51
90.2932599
0
ARC
8
DEFAULT_255_1_234
10
20.8781838
20
0.7147013
40
0.4621653
50
69.9044149
51
82.2857423
0
ARC
8
DEFAULT_255_1_234
10
20.9352516
20
0.8689637
40
0.2976871
50
51.1838526
51
70.0181538
0
ARC
8
DEFAULT_255_1_234
10
20.9607482
20
0.906024
40
0.2528517
50
12.1017251
51
50.4214761
0
ARC
8
DEFAULT_255_1_234
10
20.8223356
20
0.8712676
40
0.3955061
50
359.5251267
51
12.8211707
0
ARC
8
DEFAULT_255_1_234
10
20.9803283
20
0.8643344
40
0.2375281
50
323.4908128
51
0.8817314
0
ARC
8
DEFAULT_255_1_234
10
20.938497
20
0.896655
40
0.2903817
50
298.6825083
51
323.2756573
0
ARC
8
DEFAULT_255_1_234
10
20.9023333
20
0.9567649
40
0.3604842
50
293.1999386
51
299.1396394
0
ARC
8
DEFAULT_255_1_234
10
20.9696305
20
0.3482126
40
0.2871098
50
54.0011765
51
74.9167975
0
ARC
8
DEFAULT_255_1_234
10
20.9812665
20
0.3679332
40
0.2643248
50
36.3580696
51
53.5291921
0
ARC
8
DEFAULT_255_1_234
10
20.9685907
20
0.3588998
40
0.2798884
50
4.8189881
51
36.3089977
0
ARC
8
DEFAULT_255_1_234
10
20.8906742
20
0.347927
40
0.358478
50
359.9370252
51
5.5204067
0
ARC
8
DEFAULT_255_1_234
10
20.8582263
20
0.3438667
40
0.3909429
50
344.7478609
51
0.5373281
0
ARC
8
DEFAULT_255_1_234
10
20.9573235
20
0.3171544
40
0.2883093
50
311.1786488
51
344.6886812
0
ARC
8
DEFAULT_255_1_234
10
20.9281282
20
0.3534987
40
0.3348923
50
286.0418249
51
310.8441291
0
ARC
8
DEFAULT_255_1_234
10
20.8774114
20
0.5181807
40
0.5071869
50
274.1042341
51
286.4071509
0
ARC
8
DEFAULT_255_1_234
10
20.859737
20
0.7065229
40
0.6963234
50
269.9236873
51
274.445647
0
ARC
8
DEFAULT_255_1_234
10
20.864337
20
0.4725537
40
0.3362634
50
269.6055768
51
281.3740047
0
ARC
8
DEFAULT_255_1_234
10
20.8874008
20
0.3632353
40
0.224546
50
281.1055983
51
302.5132223
0
ARC
8
DEFAULT_255_1_234
10
20.9020908
20
0.3368823
40
0.1944357
50
303.0368945
51
311.8811219
0
ARC
8
DEFAULT_255_1_234
10
20.9092314
20
0.328389
40
0.1833454
50
311.9916004
51
351.7143462
0
ARC
8
DEFAULT_255_1_234
10
20.8275544
20
0.344893
40
0.2665871
50
350.7339597
51
0.2221581
0
ARC
8
DEFAULT_255_1_234
10
20.816799
20
0.3505467
40
0.2773789
50
359.0456241
51
17.2296242
0
ARC
8
DEFAULT_255_1_234
10
20.9207108
20
0.3814163
40
0.1689915
50
17.6685481
51
78.9940892
0
ARC
8
DEFAULT_255_1_234
10
20.8690271
20
0.1959224
40
0.3612658
50
76.5635957
51
90.6980921
0
LINE
8
DEFAULT_255_1_234
10
20.8646256
20
0.5571613
11
20.8644317
21
0.5571614
0
ARC
8
DEFAULT_255_1_234
10
20.8425932
20
1.0094036
40
0.3285612
50
269.6064736
51
281.4533503
0
ARC
8
DEFAULT_255_1_234
10
20.8648751
20
0.9042688
40
0.2210975
50
281.2041486
51
302.5148063
0
ARC
8
DEFAULT_255_1_234
10
20.8785601
20
0.8796241
40
0.1929674
50
303.021671
51
309.8369575
0
ARC
8
DEFAULT_255_1_234
10
20.8969063
20
0.8590488
40
0.1654181
50
309.5228395
51
356.9509836
0
ARC
8
DEFAULT_255_1_234
10
20.8305645
20
0.8685932
40
0.2322512
50
355.4701227
51
0.0492546
0
ARC
8
DEFAULT_255_1_234
10
20.8026737
20
0.8708094
40
0.2601498
50
359.5558597
51
11.2096359
0
ARC
8
DEFAULT_255_1_234
10
20.8984026
20
0.890623
40
0.1623975
50
10.9182341
51
31.3230275
0
ARC
8
DEFAULT_255_1_234
10
20.926976
20
0.9065214
40
0.1297302
50
31.8852677
51
52.1412565
0
ARC
8
DEFAULT_255_1_234
10
20.8995493
20
0.867775
40
0.1771663
50
52.8285564
51
71.9850297
0
ARC
8
DEFAULT_255_1_234
10
20.8619669
20
0.7571664
40
0.2939794
50
71.6863486
51
82.8455995
0
ARC
8
DEFAULT_255_1_234
10
20.8380205
20
0.5762149
40
0.476506
50
82.6984714
51
90.1729175
0
ARC
8
DEFAULT_255_1_234
10
20.835784
20
0.6985623
40
0.3541573
50
89.8708275
51
90.0431131
0
LINE
8
DEFAULT_255_1_234
10
22.1719987
20
0.7017327
11
22.1719987
21
0.5089709
0
LINE
8
DEFAULT_255_1_234
10
21.433882
20
0.4888916
11
21.433882
21
0.6872755
0
LINE
8
DEFAULT_255_1_234
10
22.0234116
20
0.4688123
11
22.0234116
21
0.7121739
0
LINE
8
DEFAULT_255_1_234
10
21.5824691
20
0.7234184
11
21.5824691
21
0.4856789
0
ARC
8
DEFAULT_255_1_234
10
20.9472877
20
0.5040805
40
1.2247208
50
353.8441951
51
0.2287902
0
ARC
8
DEFAULT_255_1_234
10
21.411238
20
0.4522806
40
0.7578929
50
344.4934747
51
353.9765454
0
ARC
8
DEFAULT_255_1_234
10
21.7104971
20
0.3671981
40
0.4467846
50
329.2803592
51
344.7472793
0
ARC
8
DEFAULT_255_1_234
10
21.8097796
20
0.3127018
40
0.3336173
50
324.9352394
51
328.6160465
0
ARC
8
DEFAULT_255_1_234
10
21.8474904
20
0.2863427
40
0.2876076
50
280.580143
51
324.9173126
0
ARC
8
DEFAULT_255_1_234
10
21.8073697
20
0.4534099
40
0.4592847
50
269.5977311
51
281.6734359
0
ARC
8
DEFAULT_255_1_234
10
21.8001603
20
0.4414173
40
0.4472986
50
256.6228859
51
270.51044
0
ARC
8
DEFAULT_255_1_234
10
21.759958
20
0.2865877
40
0.2873874
50
215.8618325
51
257.2788573
0
ARC
8
DEFAULT_255_1_234
10
21.8620612
20
0.3550977
40
0.4102928
50
197.9693508
51
215.2623606
0
ARC
8
DEFAULT_255_1_234
10
22.1105728
20
0.4389709
40
0.6725652
50
187.8816417
51
198.2346507
0
ARC
8
DEFAULT_255_1_234
10
22.5063936
20
0.4961079
40
1.0724845
50
180.8976217
51
188.0055519
0
ARC
8
DEFAULT_255_1_234
10
22.7864124
20
0.5064777
40
1.3526448
50
180.7449369
51
181.1510016
0
ARC
8
DEFAULT_255_1_234
10
22.6286853
20
0.6921042
40
1.1948131
50
173.7675579
51
180.231553
0
ARC
8
DEFAULT_255_1_234
10
22.1769
20
0.7431666
40
0.7401564
50
164.3058563
51
173.9002247
0
ARC
8
DEFAULT_255_1_234
10
21.8857068
20
0.8270656
40
0.4371288
50
148.7922025
51
164.568378
0
ARC
8
DEFAULT_255_1_234
10
21.7905521
20
0.8801929
40
0.3282386
50
144.5883898
51
148.1176286
0
ARC
8
DEFAULT_255_1_234
10
21.7562419
20
0.9041315
40
0.2864044
50
101.6440918
51
144.514236
0
ARC
8
DEFAULT_255_1_234
10
21.7987485
20
0.7352069
40
0.4604934
50
89.5284041
51
102.5819763
0
ARC
8
DEFAULT_255_1_234
10
21.8066573
20
0.7313018
40
0.464401
50
77.0437873
51
90.5081339
0
ARC
8
DEFAULT_255_1_234
10
21.8468575
20
0.8955615
40
0.2953195
50
48.2778575
51
77.4994676
0
ARC
8
DEFAULT_255_1_234
10
21.8541206
20
0.9084746
40
0.2808655
50
36.3142134
51
47.6305865
0
ARC
8
DEFAULT_255_1_234
10
21.7672513
20
0.8499515
40
0.3855453
50
18.2931786
51
35.6769206
0
ARC
8
DEFAULT_255_1_234
10
21.5129272
20
0.7626593
40
0.654423
50
8.024666
51
18.5605216
0
ARC
8
DEFAULT_255_1_234
10
21.0966192
20
0.7011792
40
1.0752407
50
1.1274072
51
8.1718305
0
ARC
8
DEFAULT_255_1_234
10
20.7730382
20
0.6884885
40
1.3990231
50
0.5424119
51
1.3863029
0
ARC
8
DEFAULT_255_1_234
10
20.955176
20
0.7157342
40
1.0682415
50
359.8090433
51
4.9407866
0
ARC
8
DEFAULT_255_1_234
10
21.3761774
20
0.7533113
40
0.6455691
50
4.8362157
51
12.2904523
0
ARC
8
DEFAULT_255_1_234
10
21.6516889
20
0.8146965
40
0.3633074
50
12.0805627
51
23.8173984
0
ARC
8
DEFAULT_255_1_234
10
21.7690594
20
0.8643919
40
0.2358723
50
24.2871213
51
31.3935614
0
ARC
8
DEFAULT_255_1_234
10
21.8215292
20
0.8987233
40
0.1732111
50
30.7407893
51
82.4657128
0
ARC
8
DEFAULT_255_1_234
10
21.8035426
20
0.8103691
40
0.263235
50
81.1060089
51
90.2184952
0
ARC
8
DEFAULT_255_1_234
10
21.7999725
20
0.8361924
40
0.2374236
50
89.3806855
51
105.6762551
0
ARC
8
DEFAULT_255_1_234
10
21.7816356
20
0.9028567
40
0.1682847
50
105.7981136
51
149.7388061
0
ARC
8
DEFAULT_255_1_234
10
21.8880434
20
0.838895
40
0.2924306
50
149.4208916
51
163.6286378
0
ARC
8
DEFAULT_255_1_234
10
22.0971322
20
0.775125
40
0.5110213
50
163.3763315
51
172.1410975
0
ARC
8
DEFAULT_255_1_234
10
22.4272041
20
0.7278518
40
0.8444586
50
172.0259487
51
178.0703232
0
ARC
8
DEFAULT_255_1_234
10
22.730213
20
0.7134906
40
1.1477868
50
177.8631668
51
179.5044149
0
ARC
8
DEFAULT_255_1_234
10
22.6229535
20
0.4820389
40
1.0404907
50
179.7995573
51
185.2460446
0
ARC
8
DEFAULT_255_1_234
10
22.2186574
20
0.4437513
40
0.6343885
50
185.1411642
51
193.0079639
0
ARC
8
DEFAULT_255_1_234
10
21.9543047
20
0.3812641
40
0.3627568
50
192.7897626
51
205.2507664
0
ARC
8
DEFAULT_255_1_234
10
21.8496594
20
0.3345415
40
0.2481908
50
205.8005384
51
211.2537509
0
ARC
8
DEFAULT_255_1_234
10
21.7973034
20
0.299458
40
0.1852521
50
210.3789793
51
238.4008143
0
ARC
8
DEFAULT_255_1_234
10
21.7953556
20
0.3041376
40
0.1882621
50
239.6520629
51
265.9793761
0
ARC
8
DEFAULT_255_1_234
10
21.8038756
20
0.3713427
40
0.2559272
50
265.1315437
51
270.060332
0
ARC
8
DEFAULT_255_1_234
10
21.8067535
20
0.3389534
40
0.2235528
50
269.3314664
51
287.2178029
0
ARC
8
DEFAULT_255_1_234
10
21.8205387
20
0.2886279
40
0.1714108
50
287.7958004
51
329.080874
0
ARC
8
DEFAULT_255_1_234
10
21.7247844
20
0.348393
40
0.2842745
50
328.6634704
51
343.3325132
0
ARC
8
DEFAULT_255_1_234
10
21.5074864
20
0.4160863
40
0.5118644
50
343.0499468
51
351.9393422
0
ARC
8
DEFAULT_255_1_234
10
21.1608164
20
0.4671949
40
0.8622784
50
351.8069023
51
357.7959224
0
ARC
8
DEFAULT_255_1_234
10
20.837272
20
0.4839721
40
1.1862365
50
357.5871873
51
359.2677531
0
ARC
8
DEFAULT_255_2_778
10
7.7537338
20
139.6512992
40
3.0484709
50
251.6854144
51
258.6071955
0
ARC
8
DEFAULT_255_2_778
10
7.539521
20
138.5696738
40
1.9458471
50
258.4992492
51
268.3986479
0
ARC
8
DEFAULT_255_2_778
10
7.5172314
20
138.1394206
40
1.5151737
50
268.7865272
51
269.9950384
0
ARC
8
DEFAULT_255_2_778
10
7.5277432
20
137.6882355
40
1.0640417
50
269.426895
51
279.6711067
0
ARC
8
DEFAULT_255_2_778
10
7.6417753
20
137.0586746
40
0.4243233
50
278.7731084
51
300.3324923
0
ARC
8
DEFAULT_255_2_778
10
7.760746
20
136.8560552
40
0.1893587
50
300.2240287
51
1.9041213
0
ARC
8
DEFAULT_255_2_778
10
7.7452705
20
136.8652089
40
0.2047497
50
359.1991369
51
359.99965
0
ARC
8
DEFAULT_255_2_778
10
7.7523233
20
136.8660378
40
0.1976988
50
359.7594145
51
47.1793976
0
ARC
8
DEFAULT_255_2_778
10
7.6187277
20
136.717431
40
0.3975169
50
47.6144502
51
60.8366176
0
ARC
8
DEFAULT_255_2_778
10
7.0190958
20
135.7014865
40
1.5771337
50
59.799464
51
64.8885807
0
ARC
8
DEFAULT_255_2_778
10
6.0948833
20
133.7724682
40
3.7160912
50
64.6076081
51
66.8386974
0
ARC
8
DEFAULT_255_2_778
10
9.6419609
20
142.1355052
40
5.368109
50
244.3032309
51
247.1393781
0
ARC
8
DEFAULT_255_2_778
10
8.5507088
20
139.875518
40
2.8584574
50
240.2323579
51
244.3709759
0
ARC
8
DEFAULT_255_2_778
10
7.7800475
20
138.5386591
40
1.315392
50
233.2209971
51
240.4606284
0
ARC
8
DEFAULT_255_2_778
10
7.3561477
20
137.9675187
40
0.6041399
50
225.6990744
51
232.9899679
0
ARC
8
DEFAULT_255_2_778
10
7.3965073
20
137.9919214
40
0.6499005
50
178.2783416
51
224.6550883
0
ARC
8
DEFAULT_255_2_778
10
7.5059624
20
138.0252974
40
0.7591885
50
157.033673
51
181.0453383
0
ARC
8
DEFAULT_255_2_778
10
7.378439
20
138.0661396
40
0.6259551
50
124.9113017
51
155.9211516
0
ARC
8
DEFAULT_255_2_778
10
7.5960466
20
137.7575681
40
1.0035357
50
100.4079723
51
125.0168617
0
ARC
8
DEFAULT_255_2_778
10
7.6991199
20
137.2635046
40
1.5081396
50
89.6483922
51
100.8684975
0
ARC
8
DEFAULT_255_2_778
10
7.7083242
20
136.9112988
40
1.8603169
50
89.5079487
51
89.9984402
0
ARC
8
DEFAULT_255_2_778
10
7.7099573
20
136.8460694
40
1.9255311
50
83.9170631
51
89.5732113
0
ARC
8
DEFAULT_255_2_778
10
7.5071517
20
134.8384957
40
3.9433074
50
80.7325723
51
84.0779772
0
ARC
8
DEFAULT_255_2_778
10
7.0208457
20
131.815582
40
7.0050837
50
78.5086351
51
80.7886813
0
ARC
8
DEFAULT_255_2_778
10
7.6620177
20
136.4150544
40
1.9415426
50
67.135818
51
78.0934208
0
ARC
8
DEFAULT_255_2_778
10
7.7851814
20
136.9854809
40
1.3579807
50
78.2126325
51
89.7333975
0
ARC
8
DEFAULT_255_2_778
10
7.7793853
20
137.4006211
40
0.9429038
50
89.2638155
51
100.5666868
0
ARC
8
DEFAULT_255_2_778
10
7.6660949
20
137.9704419
40
0.362036
50
99.4784875
51
124.329414
0
ARC
8
DEFAULT_255_2_778
10
7.5705593
20
138.118551
40
0.1859067
50
125.7571195
51
182.2824883
0
ARC
8
DEFAULT_255_2_778
10
7.5493239
20
138.1118629
40
0.1645253
50
180.2492993
51
239.8144161
0
ARC
8
DEFAULT_255_2_778
10
7.932718
20
138.7119128
40
0.876484
50
237.8725734
51
242.8068846
0
ARC
8
DEFAULT_255_2_778
10
9.4175857
20
141.5284958
40
4.0604642
50
242.3328458
51
244.031083
0
ARC
8
DEFAULT_255_2_778
10
12.3804066
20
147.5769314
40
10.7955807
50
243.950624
51
244.8024316
0
ARC
8
DEFAULT_255_2_778
10
15.4009918
20
153.9609175
40
17.8580926
50
244.7535425
51
244.9563234
0
ARC
8
DEFAULT_255_2_778
10
5.8652927
20
133.4593264
40
4.7527588
50
62.2505456
51
65.4301556
0
ARC
8
DEFAULT_255_2_778
10
6.9275435
20
135.4674172
40
2.4810291
50
57.2951304
51
62.3684211
0
ARC
8
DEFAULT_255_2_778
10
7.6807233
20
136.6307235
40
1.0952081
50
48.7345704
51
57.5685367
0
ARC
8
DEFAULT_255_2_778
10
8.0117486
20
137.0182722
40
0.5856147
50
44.3236031
51
48.0704418
0
ARC
8
DEFAULT_255_2_778
10
7.9783002
20
136.9982468
40
0.6236013
50
1.3523843
51
43.4925744
0
ARC
8
DEFAULT_255_2_778
10
7.7103531
20
136.9653151
40
0.8926473
50
359.9763756
51
3.0599076
0
ARC
8
DEFAULT_255_2_778
10
7.8645343
20
136.9502407
40
0.7386124
50
333.0361889
51
1.1408766
0
ARC
8
DEFAULT_255_2_778
10
7.8947908
20
136.9571919
40
0.7150741
50
300.8430083
51
331.4403095
0
ARC
8
DEFAULT_255_2_778
10
7.694568
20
137.2707162
40
1.0869673
50
281.4258583
51
301.4316118
0
ARC
8
DEFAULT_255_2_778
10
7.5632666
20
137.8789414
40
1.7091691
50
270.2273513
51
281.7010805
0
ARC
8
DEFAULT_255_2_778
10
7.5453797
20
138.3556043
40
2.1859577
50
269.9983113
51
270.6466065
0
LINE
8
DEFAULT_255_2_778
10
7.5453153
20
136.1696465
11
7.5438002
21
136.169647
0
ARC
8
DEFAULT_255_2_778
10
7.5509161
20
139.3525969
40
3.1829579
50
256.2431122
51
269.871909
0
ARC
8
DEFAULT_255_2_778
10
21.7538511
20
139.5771629
40
2.9720345
50
251.5709223
51
258.7508181
0
ARC
8
DEFAULT_255_2_778
10
21.5538128
20
138.5539385
40
1.9294488
50
258.6495077
51
268.8281511
0
ARC
8
DEFAULT_255_2_778
10
21.5355488
20
138.1591193
40
1.5343723
50
269.2085037
51
269.9981866
0
ARC
8
DEFAULT_255_2_778
10
21.5473849
20
137.6907184
40
1.0660376
50
269.3612297
51
279.5899087
0
ARC
8
DEFAULT_255_2_778
10
21.6608439
20
137.0592324
40
0.424527
50
278.6895227
51
300.2363944
0
ARC
8
DEFAULT_255_2_778
10
21.7799083
20
136.8557793
40
0.188796
50
300.1108484
51
1.9024905
0
ARC
8
DEFAULT_255_2_778
10
21.7439577
20
136.8664221
40
0.2246851
50
358.8842611
51
0.0019649
0
ARC
8
DEFAULT_255_2_778
10
21.7769791
20
136.8703385
40
0.1917038
50
358.831716
51
47.0900458
0
ARC
8
DEFAULT_255_2_778
10
21.6364654
20
136.710984
40
0.4041259
50
47.8812665
51
61.174665
0
ARC
8
DEFAULT_255_2_778
10
21.0418848
20
135.6910117
40
1.5846568
50
60.1210877
51
65.1917015
0
ARC
8
DEFAULT_255_2_778
10
20.1415278
20
133.7854122
40
3.6922188
50
64.9168629
51
67.1565628
0
ARC
8
DEFAULT_255_2_778
10
23.6275467
20
142.0569888
40
5.2839333
50
244.2656926
51
247.1407051
0
ARC
8
DEFAULT_255_2_778
10
22.5594997
20
139.848765
40
2.8309849
50
240.1545061
51
244.3326325
0
ARC
8
DEFAULT_255_2_778
10
21.7856548
20
138.5127346
40
1.2870531
50
232.697515
51
240.4357497
0
ARC
8
DEFAULT_255_2_778
10
21.3705506
20
137.9617218
40
0.5972006
50
225.5850892
51
232.3393736
0
ARC
8
DEFAULT_255_2_778
10
21.4133941
20
137.9912933
40
0.6483829
50
178.7795739
51
224.7095916
0
ARC
8
DEFAULT_255_2_778
10
21.6669319
20
138.0153135
40
0.9018316
50
179.997867
51
180.6487041
0
ARC
8
DEFAULT_255_2_778
10
21.5167738
20
138.0291249
40
0.7517998
50
156.9195758
51
181.050088
0
ARC
8
DEFAULT_255_2_778
10
21.3928482
20
138.0685712
40
0.6224513
50
124.7111133
51
155.7879672
0
ARC
8
DEFAULT_255_2_778
10
21.6055459
20
137.7766942
40
0.9835402
50
101.7934503
51
125.2143527
0
ARC
8
DEFAULT_255_2_778
10
21.729848
20
137.2241326
40
1.5498677
50
89.5248728
51
102.1166783
0
ARC
8
DEFAULT_255_2_778
10
21.7283109
20
136.6705834
40
2.1034129
50
83.2889725
51
89.6080411
0
ARC
8
DEFAULT_255_2_778
10
21.529975
20
134.9027668
40
3.8823067
50
79.4764054
51
83.4308492
0
ARC
8
DEFAULT_255_2_778
10
21.2186357
20
133.1495673
40
5.6628977
50
78.2224868
51
79.6190915
0
ARC
8
DEFAULT_255_2_778
10
21.6838473
20
136.4270715
40
1.9311543
50
67.1323814
51
78.3148813
0
ARC
8
DEFAULT_255_2_778
10
21.801359
20
136.9785614
40
1.3672981
50
78.4565774
51
89.7552271
0
ARC
8
DEFAULT_255_2_778
10
21.7951366
20
137.409447
40
0.9364778
50
89.2619009
51
100.5950934
0
ARC
8
DEFAULT_255_2_778
10
21.6824182
20
137.9749169
40
0.3599879
50
99.5087086
51
124.406715
0
ARC
8
DEFAULT_255_2_778
10
21.5878565
20
138.121343
40
0.1858061
50
125.8630185
51
182.2986975
0
ARC
8
DEFAULT_255_2_778
10
21.5497296
20
138.1138047
40
0.1475296
50
179.9666559
51
180.100057
0
ARC
8
DEFAULT_255_2_778
10
21.566185
20
138.113793
40
0.163985
50
180.0859454
51
239.8819968
0
ARC
8
DEFAULT_255_2_778
10
21.9379018
20
138.7005619
40
0.8584853
50
238.072871
51
243.0442008
0
ARC
8
DEFAULT_255_2_778
10
23.4872034
20
141.6655845
40
4.2038426
50
242.5409111
51
244.1884903
0
ARC
8
DEFAULT_255_2_778
10
26.6463384
20
148.160196
40
11.4260319
50
244.1076525
51
244.9219574
0
ARC
8
DEFAULT_255_2_778
10
29.9038827
20
155.083855
40
19.0777309
50
244.8743531
51
245.066969
0
ARC
8
DEFAULT_255_2_778
10
19.8865272
20
133.4916274
40
4.7250654
50
62.0340028
51
65.293009
0
ARC
8
DEFAULT_255_2_778
10
20.9507744
20
135.4865758
40
2.464003
50
57.1127289
51
62.13736
0
ARC
8
DEFAULT_255_2_778
10
21.7037139
20
136.6402906
40
1.0863604
50
48.3695509
51
57.4197129
0
ARC
8
DEFAULT_255_2_778
10
22.0286268
20
137.0170419
40
0.5889589
50
44.472493
51
47.6467012
0
ARC
8
DEFAULT_255_2_778
10
21.9979457
20
136.9999032
40
0.6229283
50
1.2061613
51
43.6203607
0
ARC
8
DEFAULT_255_2_778
10
21.7312413
20
136.9674903
40
0.890659
50
359.9779196
51
2.9299178
0
ARC
8
DEFAULT_255_2_778
10
21.8802547
20
136.9523837
40
0.7417924
50
333.172934
51
1.140392
0
ARC
8
DEFAULT_255_2_778
10
21.9146167
20
136.9570736
40
0.7135172
50
300.9808035
51
331.5913995
0
ARC
8
DEFAULT_255_2_778
10
21.7182603
20
137.2669862
40
1.0803281
50
281.9040909
51
301.4483918
0
ARC
8
DEFAULT_255_2_778
10
21.5848425
20
137.8655518
40
1.6935565
50
270.5796874
51
282.1436175
0
ARC
8
DEFAULT_255_2_778
10
21.5636722
20
138.3604735
40
2.1887267
50
269.9959074
51
271.0027751
0
LINE
8
DEFAULT_255_2_778
10
21.5635158
20
136.1717468
11
21.5625002
21
136.171747
0
ARC
8
DEFAULT_255_2_778
10
21.5700221
20
139.3605174
40
3.1887792
50
256.2556596
51
269.8648469
0
LINE
8
DEFAULT_255_2_778
10
6.7958002
20
136.262547
11
6.7958002
21
136.757247
0
LINE
8
DEFAULT_255_2_778
10
8.4164002
20
138.680247
11
8.4164002
21
138.204047
0
LINE
8
DEFAULT_255_2_778
10
6.7940002
20
136.260947
11
6.7958002
21
136.262547
0
LINE
8
DEFAULT_255_2_778
10
8.9866002
20
138.729747
11
9.6629002
21
138.729747
0
LINE
8
DEFAULT_255_2_778
10
9.6629002
20
138.729747
11
9.6629002
21
136.222347
0
LINE
8
DEFAULT_255_2_778
10
9.6629002
20
136.222347
11
8.9866002
21
136.222347
0
LINE
8
DEFAULT_255_2_778
10
8.9866002
20
136.222347
11
8.9866002
21
138.729747
0
LINE
8
DEFAULT_255_2_778
10
10.2809002
20
136.222347
11
10.2809002
21
138.729747
0
LINE
8
DEFAULT_255_2_778
10
10.2809002
20
138.729747
11
12.0132002
21
138.729747
0
LINE
8
DEFAULT_255_2_778
10
12.0132002
20
138.729747
11
12.0132002
21
138.276047
0
LINE
8
DEFAULT_255_2_778
10
12.0132002
20
138.276047
11
10.9321002
21
138.276047
0
LINE
8
DEFAULT_255_2_778
10
10.9321002
20
138.276047
11
10.9321002
21
137.709747
0
LINE
8
DEFAULT_255_2_778
10
10.9321002
20
137.709747
11
11.8735002
21
137.709747
0
LINE
8
DEFAULT_255_2_778
10
11.8735002
20
137.709747
11
11.8735002
21
137.296247
0
LINE
8
DEFAULT_255_2_778
10
11.8735002
20
137.296247
11
10.9321002
21
137.296247
0
LINE
8
DEFAULT_255_2_778
10
10.9321002
20
137.296247
11
10.9321002
21
136.700947
0
LINE
8
DEFAULT_255_2_778
10
10.9321002
20
136.700947
11
12.0412002
21
136.700947
0
LINE
8
DEFAULT_255_2_778
10
12.0412002
20
136.700947
11
12.0412002
21
136.220747
0
LINE
8
DEFAULT_255_2_778
10
12.0412002
20
136.220747
11
10.2809002
21
136.222347
0
LINE
8
DEFAULT_255_2_778
10
12.4817002
20
136.222347
11
12.4817002
21
138.729747
0
LINE
8
DEFAULT_255_2_778
10
12.4817002
20
138.729747
11
13.3575002
21
138.729747
0
LINE
8
DEFAULT_255_2_778
10
13.3575002
20
138.729747
11
13.9671002
21
137.127447
0
LINE
8
DEFAULT_255_2_778
10
13.9671002
20
137.127447
11
14.5897002
21
138.729747
0
LINE
8
DEFAULT_255_2_778
10
14.5897002
20
138.729747
11
15.4215002
21
138.729747
0
LINE
8
DEFAULT_255_2_778
10
15.4215002
20
138.729747
11
15.4215002
21
136.222347
0
LINE
8
DEFAULT_255_2_778
10
15.4215002
20
136.222347
11
14.7812002
21
136.222347
0
LINE
8
DEFAULT_255_2_778
10
14.7812002
20
136.222347
11
14.7812002
21
137.998147
0
LINE
8
DEFAULT_255_2_778
10
14.7812002
20
137.998147
11
14.0724002
21
136.197947
0
LINE
8
DEFAULT_255_2_778
10
14.0724002
20
136.197947
11
13.6515002
21
136.197947
0
LINE
8
DEFAULT_255_2_778
10
13.6515002
20
136.197947
11
12.9559002
21
137.998147
0
LINE
8
DEFAULT_255_2_778
10
12.9559002
20
137.998147
11
12.9559002
21
136.222047
0
LINE
8
DEFAULT_255_2_778
10
12.9559002
20
136.222047
11
12.4817002
21
136.222347
0
LINE
8
DEFAULT_255_2_778
10
16.0409002
20
136.222347
11
16.0409002
21
138.729747
0
LINE
8
DEFAULT_255_2_778
10
16.0409002
20
138.729747
11
17.7731002
21
138.729747
0
LINE
8
DEFAULT_255_2_778
10
17.7731002
20
138.729747
11
17.7731002
21
138.276047
0
LINE
8
DEFAULT_255_2_778
10
17.7731002
20
138.276047
11
16.6921002
21
138.276047
0
LINE
8
DEFAULT_255_2_778
10
16.6921002
20
138.276047
11
16.6921002
21
137.709747
0
LINE
8
DEFAULT_255_2_778
10
16.6921002
20
137.709747
11
17.6334002
21
137.709747
0
LINE
8
DEFAULT_255_2_778
10
17.6334002
20
137.709747
11
17.6334002
21
137.296247
0
LINE
8
DEFAULT_255_2_778
10
17.6334002
20
137.296247
11
16.6921002
21
137.296247
0
LINE
8
DEFAULT_255_2_778
10
16.6921002
20
137.296247
11
16.6921002
21
136.700947
0
LINE
8
DEFAULT_255_2_778
10
16.6921002
20
136.700947
11
17.8030002
21
136.700947
0
LINE
8
DEFAULT_255_2_778
10
17.8030002
20
136.700947
11
17.8030002
21
136.220747
0
LINE
8
DEFAULT_255_2_778
10
17.8030002
20
136.220747
11
16.0409002
21
136.222347
0
LINE
8
DEFAULT_255_2_778
10
18.2454002
20
136.222347
11
18.2454002
21
138.729747
0
LINE
8
DEFAULT_255_2_778
10
18.2454002
20
138.729747
11
19.0283002
21
138.729747
0
LINE
8
DEFAULT_255_2_778
10
19.0283002
20
138.729747
11
19.8586002
21
137.050947
0
LINE
8
DEFAULT_255_2_778
10
19.8586002
20
137.050947
11
19.8586002
21
138.729747
0
LINE
8
DEFAULT_255_2_778
10
19.8586002
20
138.729747
11
20.3343002
21
138.729747
0
LINE
8
DEFAULT_255_2_778
10
20.3343002
20
138.729747
11
20.3343002
21
136.222347
0
LINE
8
DEFAULT_255_2_778
10
20.3343002
20
136.222347
11
19.5739002
21
136.222347
0
LINE
8
DEFAULT_255_2_778
10
19.5739002
20
136.222347
11
18.7214002
21
137.923547
0
LINE
8
DEFAULT_255_2_778
10
18.7214002
20
137.923547
11
18.7214002
21
136.222347
0
LINE
8
DEFAULT_255_2_778
10
18.7214002
20
136.222347
11
18.2454002
21
136.222347
0
LINE
8
DEFAULT_255_2_778
10
20.8143002
20
136.262747
11
20.8143002
21
136.757547
0
LINE
8
DEFAULT_255_2_778
10
22.3745002
20
138.693247
11
22.4343002
21
138.682647
0
LINE
8
DEFAULT_255_2_778
10
22.4343002
20
138.682647
11
22.4343002
21
138.206447
0
LINE
8
DEFAULT_255_2_778
10
20.8124002
20
136.263047
11
20.8143002
21
136.262747
0
LINE
8
DEFAULT_255_2_778
10
9.3927417
20
124.2219075
11
10.7156417
21
124.2219075
0
LINE
8
DEFAULT_255_2_778
10
10.7156417
20
124.2219075
11
10.7156417
21
67.3365075
0
LINE
8
DEFAULT_255_2_778
10
9.3926834
20
67.3364333
11
12.0384834
21
67.3364333
0
LINE
8
DEFAULT_255_2_778
10
12.0384834
20
67.3364333
11
12.0384834
21
62.0447333
0
LINE
8
DEFAULT_255_2_778
10
12.0384834
20
62.0447333
11
9.3926834
21
62.0447333
0
LINE
8
DEFAULT_255_2_778
10
9.3926834
20
62.0447333
11
9.3926834
21
67.3364333
0
LINE
8
DEFAULT_255_2_778
10
10.1865
20
62.5739666
11
10.1865
21
66.8072666
0
LINE
8
DEFAULT_255_2_778
10
9.9219167
20
66.013575
11
10.1865167
21
66.807275
0
LINE
8
DEFAULT_255_2_778
10
10.1865167
20
66.807275
11
10.4511167
21
66.013575
0
LINE
8
DEFAULT_255_2_778
10
10.4511167
20
66.013575
11
9.9219167
21
66.013575
0
LINE
8
DEFAULT_255_2_778
10
11.2448
20
66.8072666
11
11.2448
21
62.5739666
0
LINE
8
DEFAULT_255_2_778
10
10.9802167
20
63.367675
11
11.2448167
21
62.573975
0
LINE
8
DEFAULT_255_2_778
10
11.2448167
20
62.573975
11
11.5094167
21
63.367675
0
LINE
8
DEFAULT_255_2_778
10
11.5094167
20
63.367675
11
10.9802167
21
63.367675
0
LINE
8
DEFAULT_255_2_778
10
10.7156335
20
62.0447483
11
10.7156335
21
5.1593483
0
LINE
8
DEFAULT_255_2_778
10
10.7156335
20
5.1593483
11
9.3927335
21
5.1593483
0
LINE
8
DEFAULT_255_2_778
10
19.9760335
20
124.2218483
11
18.6531335
21
124.2218483
0
LINE
8
DEFAULT_255_2_778
10
18.6531335
20
124.2218483
11
18.6531335
21
75.2739483
0
LINE
8
DEFAULT_255_2_778
10
18.6531335
20
69.9822483
11
18.6531335
21
21.0343483
0
LINE
8
DEFAULT_255_2_778
10
18.6531335
20
21.0343483
11
19.9760335
21
21.0343483
0
LINE
8
DEFAULT_255_2_778
10
17.3301834
20
75.2739333
11
19.9759834
21
75.2739333
0
LINE
8
DEFAULT_255_2_778
10
19.9759834
20
75.2739333
11
19.9759834
21
69.9822333
0
LINE
8
DEFAULT_255_2_778
10
19.9759834
20
69.9822333
11
17.3301834
21
69.9822333
0
LINE
8
DEFAULT_255_2_778
10
17.3301834
20
69.9822333
11
17.3301834
21
75.2739333
0
LINE
8
DEFAULT_255_2_778
10
18.124
20
74.4801833
11
18.124
21
70.7759833
0
ARC
8
DEFAULT_255_2_778
10
19.0491335
20
74.0841666
40
0.3960095
50
89.8710075
51
180.1289967
0
ARC
8
DEFAULT_255_2_778
10
19.050838
20
74.0841878
40
0.395988
50
359.8679252
51
90.1176342
0
ARC
8
DEFAULT_255_2_778
10
19.0508595
20
74.0824405
40
0.3959664
50
269.8792548
51
0.1207452
0
ARC
8
DEFAULT_255_2_778
10
19.0491123
20
74.0824621
40
0.3959881
50
179.8823802
51
270.1320647
0
LINE
8
DEFAULT_255_2_778
10
18.653125
20
74.083275
11
18.653125
21
74.083275
0
ARC
8
DEFAULT_255_2_778
10
19.0491335
20
71.1737666
40
0.3960095
50
89.8710075
51
180.1289967
0
ARC
8
DEFAULT_255_2_778
10
19.050838
20
71.1737878
40
0.395988
50
359.8679252
51
90.1176342
0
ARC
8
DEFAULT_255_2_778
10
19.0508595
20
71.1720405
40
0.3959664
50
269.8792548
51
0.1207452
0
ARC
8
DEFAULT_255_2_778
10
19.0491123
20
71.1720621
40
0.3959881
50
179.8823802
51
270.1320647
0
LINE
8
DEFAULT_255_2_778
10
18.653125
20
71.172875
11
18.653125
21
71.172875
0
LINE
8
DEFAULT_255_1_234
10
9.1578023
20
134.4559849
11
9.0027897
21
134.4559849
0
LINE
8
DEFAULT_255_1_234
10
8.3104539
20
133.9636394
11
8.4654665
21
133.9636394
0
ARC
8
DEFAULT_255_1_234
10
9.068671
20
135.3506768
40
1.252368
50
248.9199003
51
254.1439814
0
ARC
8
DEFAULT_255_1_234
10
8.9006205
20
134.9180234
40
0.788226
50
241.633709
51
249.0064503
0
ARC
8
DEFAULT_255_1_234
10
8.74776
20
134.6379317
40
0.4691427
50
230.498225
51
241.8087113
0
ARC
8
DEFAULT_255_1_234
10
8.6693174
20
134.5379906
40
0.3421437
50
227.4064532
51
229.9881192
0
ARC
8
DEFAULT_255_1_234
10
8.6205694
20
134.4904088
40
0.2741476
50
200.6781896
51
228.1763934
0
ARC
8
DEFAULT_255_1_234
10
8.6278005
20
134.4889077
40
0.2804109
50
179.5061581
51
199.8694617
0
ARC
8
DEFAULT_255_1_234
10
8.6268757
20
134.496321
40
0.2795204
50
132.4834203
51
181.0242172
0
ARC
8
DEFAULT_255_1_234
10
8.6864339
20
134.4400704
40
0.3612768
50
129.2532479
51
133.4242687
0
ARC
8
DEFAULT_255_1_234
10
8.7010789
20
134.4180965
40
0.3875675
50
101.98776
51
128.8742646
0
ARC
8
DEFAULT_255_1_234
10
8.7409399
20
134.2459741
40
0.5642249
50
89.5906553
51
102.3169264
0
ARC
8
DEFAULT_255_1_234
10
8.7479891
20
134.2778148
40
0.5323783
50
77.2360837
51
90.3248275
0
ARC
8
DEFAULT_255_1_234
10
8.7686971
20
134.37454
40
0.4334697
50
63.837784
51
77.0809408
0
ARC
8
DEFAULT_255_1_234
10
8.7964732
20
134.4262911
40
0.3747796
50
45.9864267
51
64.1607727
0
ARC
8
DEFAULT_255_1_234
10
8.8225614
20
134.4560866
40
0.3352302
50
32.2747395
51
45.6547121
0
ARC
8
DEFAULT_255_1_234
10
8.8292054
20
134.457988
40
0.328603
50
359.6507365
51
32.6130309
0
ARC
8
DEFAULT_255_1_234
10
8.734915
20
134.458466
40
0.2678863
50
359.469343
51
14.9832209
0
ARC
8
DEFAULT_255_1_234
10
8.8054212
20
134.4773539
40
0.1948938
50
14.9781179
51
48.2004265
0
ARC
8
DEFAULT_255_1_234
10
8.7889856
20
134.4566983
40
0.2212521
50
48.5927837
51
74.1241538
0
ARC
8
DEFAULT_255_1_234
10
8.7556346
20
134.3466248
40
0.3362561
50
73.7888341
51
86.6652678
0
ARC
8
DEFAULT_255_1_234
10
8.7453911
20
134.2258881
40
0.4573953
50
86.2640471
51
90.0526343
0
ARC
8
DEFAULT_255_1_234
10
8.7425624
20
134.2654192
40
0.4178709
50
89.6697524
51
99.2309573
0
ARC
8
DEFAULT_255_1_234
10
8.7183075
20
134.4098964
40
0.2713749
50
99.069534
51
113.7658566
0
ARC
8
DEFAULT_255_1_234
10
8.6909266
20
134.4744677
40
0.2012469
50
114.0401004
51
127.9850673
0
ARC
8
DEFAULT_255_1_234
10
8.666883
20
134.504073
40
0.1631167
50
127.7287463
51
176.7105154
0
ARC
8
DEFAULT_255_1_234
10
8.7347547
20
134.4939693
40
0.2315392
50
175.1779447
51
180.0581938
0
ARC
8
DEFAULT_255_1_234
10
8.6504394
20
134.4927428
40
0.1472271
50
179.6142195
51
228.1246017
0
ARC
8
DEFAULT_255_1_234
10
8.6946063
20
134.5336308
40
0.2072299
50
226.5779593
51
230.8800004
0
ARC
8
DEFAULT_255_1_234
10
8.7417141
20
134.5961636
40
0.2854818
50
231.4635071
51
241.9260842
0
ARC
8
DEFAULT_255_1_234
10
8.8614319
20
134.81648
40
0.53622
50
241.7178533
51
248.3259551
0
ARC
8
DEFAULT_255_1_234
10
8.9999691
20
135.1597064
40
0.9063478
50
248.2007737
51
252.4528373
0
ARC
8
DEFAULT_255_1_234
10
9.1203416
20
135.5318441
40
1.2974635
50
252.3391078
51
254.3469452
0
ARC
8
DEFAULT_255_1_234
10
8.3661119
20
132.8341148
40
1.5037162
50
71.0197183
51
74.4087047
0
ARC
8
DEFAULT_255_1_234
10
8.5355804
20
133.3233111
40
0.9859993
50
66.1847285
51
71.086374
0
ARC
8
DEFAULT_255_1_234
10
8.6912116
20
133.67372
40
0.6025855
50
59.3536294
51
66.2691831
0
ARC
8
DEFAULT_255_1_234
10
8.7800769
20
133.8240609
40
0.4279449
50
49.1020879
51
59.3293958
0
ARC
8
DEFAULT_255_1_234
10
8.8619509
20
133.9173834
40
0.3038015
50
32.7919921
51
49.2505539
0
ARC
8
DEFAULT_255_1_234
10
8.8940599
20
133.9402191
40
0.264448
50
31.1181161
51
32.4005348
0
ARC
8
DEFAULT_255_1_234
10
8.8852136
20
133.9366779
40
0.2738556
50
8.1116974
51
30.7958831
0
ARC
8
DEFAULT_255_1_234
10
8.8041804
20
133.9228753
40
0.3560327
50
359.8389159
51
8.4706516
0
ARC
8
DEFAULT_255_1_234
10
8.8667596
20
133.9180137
40
0.2934776
50
337.4731098
51
0.7537279
0
ARC
8
DEFAULT_255_1_234
10
8.8846291
20
133.9160387
40
0.2762607
50
307.5917067
51
336.4315538
0
ARC
8
DEFAULT_255_1_234
10
8.8386119
20
133.9673102
40
0.3449979
50
307.6551545
51
308.4529766
0
ARC
8
DEFAULT_255_1_234
10
8.8155838
20
134.002825
40
0.3871988
50
284.3734338
51
307.1424381
0
ARC
8
DEFAULT_255_1_234
10
8.7660668
20
134.1849932
40
0.5759636
50
272.4382747
51
284.646547
0
ARC
8
DEFAULT_255_1_234
10
8.7533876
20
134.3649893
40
0.7563528
50
269.9708387
51
272.8178037
0
ARC
8
DEFAULT_255_1_234
10
8.7490916
20
134.1611716
40
0.5525489
50
248.2707594
51
270.4055579
0
ARC
8
DEFAULT_255_1_234
10
8.7436657
20
134.1421192
40
0.5328452
50
246.1383403
51
248.0542782
0
ARC
8
DEFAULT_255_1_234
10
8.7018036
20
134.0541843
40
0.4355005
50
233.1670131
51
246.4950969
0
ARC
8
DEFAULT_255_1_234
10
8.6463941
20
133.9793812
40
0.3424126
50
215.3403242
51
233.0843104
0
ARC
8
DEFAULT_255_1_234
10
8.6191372
20
133.9595549
40
0.3087104
50
179.2419209
51
215.2648451
0
ARC
8
DEFAULT_255_1_234
10
8.6958966
20
133.9609666
40
0.2304457
50
179.335461
51
199.1045811
0
ARC
8
DEFAULT_255_1_234
10
8.6626643
20
133.9522766
40
0.1962176
50
199.8828939
51
232.7063202
0
ARC
8
DEFAULT_255_1_234
10
8.7098911
20
134.0116788
40
0.2720938
50
232.3738199
51
255.5136649
0
ARC
8
DEFAULT_255_1_234
10
8.7439778
20
134.1360835
40
0.4010747
50
255.2446292
51
267.5320849
0
ARC
8
DEFAULT_255_1_234
10
8.7527401
20
134.2593702
40
0.5246356
50
267.1557994
51
270.0286766
0
ARC
8
DEFAULT_255_1_234
10
8.7555173
20
134.214995
40
0.4802668
50
269.7000017
51
278.1660162
0
ARC
8
DEFAULT_255_1_234
10
8.7811178
20
134.0419515
40
0.3053425
50
278.0231263
51
290.625471
0
ARC
8
DEFAULT_255_1_234
10
8.8158865
20
133.9492025
40
0.206291
50
290.6619762
51
307.0370976
0
ARC
8
DEFAULT_255_1_234
10
8.8459254
20
133.9123504
40
0.1587906
50
306.3943566
51
355.3030547
0
ARC
8
DEFAULT_255_1_234
10
8.7947186
20
133.9200113
40
0.2104809
50
354.3660432
51
0.0698737
0
ARC
8
DEFAULT_255_1_234
10
8.8089531
20
133.9222617
40
0.1962563
50
359.417946
51
16.1971788
0
ARC
8
DEFAULT_255_1_234
10
8.8544841
20
133.9347418
40
0.149053
50
16.4723299
51
52.6262157
0
ARC
8
DEFAULT_255_1_234
10
8.7723895
20
133.8263433
40
0.2850296
50
52.7386432
51
62.4979148
0
ARC
8
DEFAULT_255_1_234
10
8.6338972
20
133.5657283
40
0.5801521
50
62.2515216
51
68.1220564
0
ARC
8
DEFAULT_255_1_234
10
8.4618883
20
133.1429872
40
1.0365451
50
68.0062803
51
71.8053402
0
ARC
8
DEFAULT_255_1_234
10
8.2823255
20
132.6044758
40
1.6042013
50
71.7183119
51
73.9258742
0
LINE
8
DEFAULT_255_1_234
10
9.5232464
20
134.7941211
11
9.5232464
21
133.6247
0
LINE
8
DEFAULT_255_1_234
10
9.5232464
20
133.6247
11
9.369037
21
133.6247
0
LINE
8
DEFAULT_255_1_234
10
9.369037
20
133.6247
11
9.369037
21
134.7941211
0
LINE
8
DEFAULT_255_1_234
10
9.369037
20
134.7941211
11
9.5232464
21
134.7941211
0
LINE
8
DEFAULT_255_1_234
10
9.8051604
20
134.7941211
11
10.0043475
21
134.7941211
0
LINE
8
DEFAULT_255_1_234
10
10.0043475
20
134.7941211
11
10.3866583
21
133.8399506
0
LINE
8
DEFAULT_255_1_234
10
10.3866583
20
133.8399506
11
10.768969
21
134.7941211
0
LINE
8
DEFAULT_255_1_234
10
10.768969
20
134.7941211
11
10.9689593
21
134.7941211
0
LINE
8
DEFAULT_255_1_234
10
10.9689593
20
134.7941211
11
10.9689593
21
133.6247
0
LINE
8
DEFAULT_255_1_234
10
10.9689593
20
133.6247
11
10.8147499
21
133.6247
0
LINE
8
DEFAULT_255_1_234
10
10.8147499
20
133.6247
11
10.8147499
21
134.0800996
0
LINE
8
DEFAULT_255_1_234
10
10.8147499
20
134.0800996
11
10.829207
21
134.5716419
0
LINE
8
DEFAULT_255_1_234
10
10.829207
20
134.5716419
11
10.4452899
21
133.6247
0
LINE
8
DEFAULT_255_1_234
10
10.4452899
20
133.6247
11
10.3272234
21
133.6247
0
LINE
8
DEFAULT_255_1_234
10
10.3272234
20
133.6247
11
9.9441095
21
134.5692324
0
LINE
8
DEFAULT_255_1_234
10
9.9441095
20
134.5692324
11
9.9593698
21
134.0800996
0
LINE
8
DEFAULT_255_1_234
10
9.9593698
20
134.0800996
11
9.9593698
21
133.6247
0
LINE
8
DEFAULT_255_1_234
10
9.9593698
20
133.6247
11
9.8051604
21
133.6247
0
LINE
8
DEFAULT_255_1_234
10
9.8051604
20
133.6247
11
9.8051604
21
134.7941211
0
LINE
8
DEFAULT_255_1_234
10
12.0130853
20
133.6247
11
11.9014441
21
133.9299061
0
LINE
8
DEFAULT_255_1_234
10
11.9014441
20
133.9299061
11
11.4115081
21
133.9299061
0
LINE
8
DEFAULT_255_1_234
10
11.4115081
20
133.9299061
11
11.3014732
21
133.6247
0
LINE
8
DEFAULT_255_1_234
10
11.3014732
20
133.6247
11
11.1424448
21
133.6247
0
LINE
8
DEFAULT_255_1_234
10
11.1424448
20
133.6247
11
11.5890095
21
134.7941211
0
LINE
8
DEFAULT_255_1_234
10
11.5890095
20
134.7941211
11
11.7239427
21
134.7941211
0
LINE
8
DEFAULT_255_1_234
10
11.7239427
20
134.7941211
11
12.1713105
21
133.6247
0
LINE
8
DEFAULT_255_1_234
10
12.1713105
20
133.6247
11
12.0130853
21
133.6247
0
LINE
8
DEFAULT_255_1_234
10
11.6564761
20
134.6037689
11
11.4580921
21
134.0568075
0
LINE
8
DEFAULT_255_1_234
10
11.4580921
20
134.0568075
11
11.8556632
21
134.0568075
0
LINE
8
DEFAULT_255_1_234
10
11.8556632
20
134.0568075
11
11.6564761
21
134.6037689
0
LINE
8
DEFAULT_255_1_234
10
13.033116
20
134.7941211
11
13.033116
21
134.6672196
0
LINE
8
DEFAULT_255_1_234
10
13.033116
20
134.6672196
11
12.6572307
21
134.6672196
0
LINE
8
DEFAULT_255_1_234
10
12.6572307
20
134.6672196
11
12.6572307
21
133.6247
0
LINE
8
DEFAULT_255_1_234
10
12.6572307
20
133.6247
11
12.5038245
21
133.6247
0
LINE
8
DEFAULT_255_1_234
10
12.5038245
20
133.6247
11
12.5038245
21
134.6672196
0
LINE
8
DEFAULT_255_1_234
10
12.5038245
20
134.6672196
11
12.1287423
21
134.6672196
0
LINE
8
DEFAULT_255_1_234
10
12.1287423
20
134.6672196
11
12.1287423
21
134.7941211
0
LINE
8
DEFAULT_255_1_234
10
12.1287423
20
134.7941211
11
13.033116
21
134.7941211
0
LINE
8
DEFAULT_255_1_234
10
13.3720554
20
134.7941211
11
13.3720554
21
133.6247
0
LINE
8
DEFAULT_255_1_234
10
13.3720554
20
133.6247
11
13.217846
21
133.6247
0
LINE
8
DEFAULT_255_1_234
10
13.217846
20
133.6247
11
13.217846
21
134.7941211
0
LINE
8
DEFAULT_255_1_234
10
13.217846
20
134.7941211
11
13.3720554
21
134.7941211
0
LINE
8
DEFAULT_255_1_234
10
14.359156
20
133.9957663
11
14.5141686
21
133.9957663
0
LINE
8
DEFAULT_255_1_234
10
13.6138107
20
134.1547947
11
13.6138107
21
134.2672391
0
LINE
8
DEFAULT_255_1_234
10
14.5141686
20
134.4182357
11
14.359156
21
134.4182357
0
LINE
8
DEFAULT_255_1_234
10
13.7688232
20
134.2632232
11
13.7688232
21
134.1499757
0
ARC
8
DEFAULT_255_1_234
10
13.9661072
20
134.0554846
40
0.5513052
50
340.1774281
51
353.7814284
0
ARC
8
DEFAULT_255_1_234
10
14.1232425
20
133.9969582
40
0.3836379
50
311.4558989
51
340.4421614
0
ARC
8
DEFAULT_255_1_234
10
14.1199093
20
134.0080528
40
0.3941894
50
282.4333181
51
310.7513653
0
ARC
8
DEFAULT_255_1_234
10
14.0759832
20
134.1895679
40
0.5809175
50
269.9358511
51
282.809604
0
ARC
8
DEFAULT_255_1_234
10
14.0707899
20
134.3353212
40
0.7266847
50
270.0021091
51
270.3581957
0
ARC
8
DEFAULT_255_1_234
10
14.0655315
20
134.0752585
40
0.4666519
50
250.7884749
51
270.6489167
0
ARC
8
DEFAULT_255_1_234
10
14.048715
20
134.0115319
40
0.4009729
50
219.3627325
51
250.0611886
0
ARC
8
DEFAULT_255_1_234
10
14.1316361
20
134.0820042
40
0.5097822
50
193.5479632
51
219.5756669
0
ARC
8
DEFAULT_255_1_234
10
14.3687982
20
134.1435919
40
0.7547848
50
181.1218675
51
193.87563
0
ARC
8
DEFAULT_255_1_234
10
14.5758163
20
134.154658
40
0.9620055
50
179.9918545
51
181.5394234
0
ARC
8
DEFAULT_255_1_234
10
14.3907265
20
134.2709788
40
0.7769248
50
169.5837241
51
180.2757934
0
ARC
8
DEFAULT_255_1_234
10
14.2070203
20
134.3049229
40
0.590109
50
155.0365899
51
169.6003176
0
ARC
8
DEFAULT_255_1_234
10
14.0934667
20
134.3596677
40
0.4640625
50
136.783148
51
155.2472683
0
ARC
8
DEFAULT_255_1_234
10
14.0545144
20
134.3927562
40
0.4130255
50
121.7633186
51
136.428115
0
ARC
8
DEFAULT_255_1_234
10
14.0680106
20
134.3678227
40
0.4413323
50
95.6459699
51
121.5490577
0
ARC
8
DEFAULT_255_1_234
10
14.0837388
20
134.2569949
40
0.55319
50
89.924208
51
96.1377933
0
ARC
8
DEFAULT_255_1_234
10
14.0887821
20
134.2688542
40
0.5413475
50
76.6779277
51
90.4563316
0
ARC
8
DEFAULT_255_1_234
10
14.1281444
20
134.4279114
40
0.3775041
50
47.485847
51
76.9287264
0
ARC
8
DEFAULT_255_1_234
10
14.1134417
20
134.4179159
40
0.3948286
50
16.5424086
51
46.8933463
0
ARC
8
DEFAULT_255_1_234
10
13.9526574
20
134.3650861
40
0.564021
50
5.4072051
51
17.0365086
0
ARC
8
DEFAULT_255_1_234
10
13.8087591
20
134.3419679
40
0.5556559
50
7.8891745
51
15.9239216
0
ARC
8
DEFAULT_255_1_234
10
14.0074605
20
134.3996631
40
0.3487515
50
15.7653144
51
27.9410532
0
ARC
8
DEFAULT_255_1_234
10
14.1178822
20
134.458779
40
0.2235026
50
27.8166557
51
46.4008329
0
ARC
8
DEFAULT_255_1_234
10
14.1228465
20
134.4582082
40
0.2205286
50
47.4371857
51
75.0698205
0
ARC
8
DEFAULT_255_1_234
10
14.091986
20
134.3507765
40
0.3322915
50
74.7008593
51
87.8124495
0
ARC
8
DEFAULT_255_1_234
10
14.0846547
20
134.2451844
40
0.4380987
50
87.3814673
51
90.0240855
0
ARC
8
DEFAULT_255_1_234
10
14.0808091
20
134.3629291
40
0.3203749
50
89.3451631
51
108.5745436
0
ARC
8
DEFAULT_255_1_234
10
14.0671196
20
134.4142908
40
0.2673494
50
109.2998449
51
143.3037509
0
ARC
8
DEFAULT_255_1_234
10
14.1433268
20
134.3556881
40
0.3634757
50
143.0753173
51
163.1916937
0
ARC
8
DEFAULT_255_1_234
10
14.3384996
20
134.2940967
40
0.5681262
50
162.9373603
51
174.6208611
0
ARC
8
DEFAULT_255_1_234
10
14.6011038
20
134.265301
40
0.8322832
50
174.3419979
51
180.1430411
0
ARC
8
DEFAULT_255_1_234
10
14.5080194
20
134.1458698
40
0.7392076
50
179.6817502
51
189.150529
0
ARC
8
DEFAULT_255_1_234
10
14.2579443
20
134.104219
40
0.4856932
50
188.9910863
51
203.5773039
0
ARC
8
DEFAULT_255_1_234
10
14.1499775
20
134.0594211
40
0.3688271
50
203.9077269
51
215.1312379
0
ARC
8
DEFAULT_255_1_234
10
14.0576869
20
133.9878941
40
0.2522457
50
213.9071664
51
263.8849284
0
ARC
8
DEFAULT_255_1_234
10
14.0702198
20
134.0663518
40
0.3316174
50
263.1758525
51
270.1031083
0
ARC
8
DEFAULT_255_1_234
10
14.073429
20
134.1910365
40
0.4563091
50
269.6719807
51
279.0609165
0
ARC
8
DEFAULT_255_1_234
10
14.1001058
20
134.0297907
40
0.2928759
50
278.8750225
51
293.6346586
0
ARC
8
DEFAULT_255_1_234
10
14.1321266
20
133.95459
40
0.2111472
50
293.8553404
51
310.0518804
0
ARC
8
DEFAULT_255_1_234
10
14.132612
20
133.9483516
40
0.2060917
50
311.0646779
51
332.0108348
0
ARC
8
DEFAULT_255_1_234
10
14.0133847
20
134.0140978
40
0.3422352
50
331.6588543
51
343.2878891
0
ARC
8
DEFAULT_255_1_234
10
13.8071362
20
134.0774798
40
0.5580003
50
343.1446044
51
351.010618
0
ARC
8
DEFAULT_255_1_234
10
13.6530008
20
134.1055871
40
0.7146438
50
350.7157277
51
351.1602153
0
LINE
8
DEFAULT_255_1_234
10
15.8594847
20
133.7459792
11
15.8594847
21
133.6247
0
LINE
8
DEFAULT_255_1_234
10
15.8594847
20
133.6247
11
15.0932569
21
133.6247
0
LINE
8
DEFAULT_255_1_234
10
15.0932569
20
133.6247
11
15.0932569
21
133.7315221
0
LINE
8
DEFAULT_255_1_234
10
15.0932569
20
133.7315221
11
15.4980565
21
134.1812995
0
LINE
8
DEFAULT_255_1_234
10
15.2193552
20
134.4495595
11
15.070768
21
134.4495595
0
LINE
8
DEFAULT_255_1_234
10
15.5856024
20
134.0857218
11
15.2723646
21
133.7459792
0
LINE
8
DEFAULT_255_1_234
10
15.2723646
20
133.7459792
11
15.8594847
21
133.7459792
0
ARC
8
DEFAULT_255_1_234
10
14.1490398
20
135.3742527
40
1.8008286
50
318.5132453
51
320.7828378
0
ARC
8
DEFAULT_255_1_234
10
14.6777373
20
134.9439426
40
1.1191493
50
320.7372736
51
323.9737074
0
ARC
8
DEFAULT_255_1_234
10
15.0697229
20
134.6599361
40
0.6350923
50
323.8961724
51
328.6421089
0
ARC
8
DEFAULT_255_1_234
10
15.2743825
20
134.5337031
40
0.3946393
50
328.8299013
51
331.789948
0
ARC
8
DEFAULT_255_1_234
10
15.3741003
20
134.4822509
40
0.2824501
50
331.4255242
51
352.9364833
0
ARC
8
DEFAULT_255_1_234
10
15.3877504
20
134.4791976
40
0.2685315
50
353.2248685
51
0.0169286
0
ARC
8
DEFAULT_255_1_234
10
15.408738
20
134.481495
40
0.2475536
50
359.4866256
51
15.9339782
0
ARC
8
DEFAULT_255_1_234
10
15.4594366
20
134.4951286
40
0.1950618
50
16.1714718
51
43.5284424
0
ARC
8
DEFAULT_255_1_234
10
15.4671674
20
134.5028573
40
0.184134
50
43.4415429
51
83.1661404
0
ARC
8
DEFAULT_255_1_234
10
15.4537592
20
134.4291771
40
0.258926
50
82.160215
51
90.1505798
0
ARC
8
DEFAULT_255_1_234
10
15.450602
20
134.3754865
40
0.3126255
50
89.5460705
51
102.5418777
0
ARC
8
DEFAULT_255_1_234
10
15.4263106
20
134.4785665
40
0.2067346
50
102.1739365
51
129.2061916
0
ARC
8
DEFAULT_255_1_234
10
15.4184178
20
134.4910094
40
0.1921118
50
129.7279328
51
135.7542026
0
ARC
8
DEFAULT_255_1_234
10
15.4305705
20
134.4813045
40
0.2075944
50
136.175737
51
166.3674722
0
ARC
8
DEFAULT_255_1_234
10
15.5312625
20
134.4543182
40
0.3118201
50
165.9092917
51
178.8683903
0
ARC
8
DEFAULT_255_1_234
10
15.6177486
20
134.4496179
40
0.3983935
50
178.438168
51
180.0083905
0
ARC
8
DEFAULT_255_1_234
10
15.4776088
20
134.4535231
40
0.4068601
50
163.2878735
51
180.5581814
0
ARC
8
DEFAULT_255_1_234
10
15.3974349
20
134.475584
40
0.3237344
50
133.454115
51
162.9470031
0
ARC
8
DEFAULT_255_1_234
10
15.4152891
20
134.4566
40
0.349795
50
100.7869394
51
133.4384016
0
ARC
8
DEFAULT_255_1_234
10
15.4500662
20
134.3017319
40
0.5084616
50
89.6605301
51
101.3704185
0
ARC
8
DEFAULT_255_1_234
10
15.4567001
20
134.3078496
40
0.502348
50
78.2171172
51
90.4130393
0
ARC
8
DEFAULT_255_1_234
10
15.4922079
20
134.4702637
40
0.3361092
50
55.9268222
51
78.4888551
0
ARC
8
DEFAULT_255_1_234
10
15.5118519
20
134.5041324
40
0.2970617
50
47.9292255
51
55.4054003
0
ARC
8
DEFAULT_255_1_234
10
15.522008
20
134.5144502
40
0.2825983
50
4.3347696
51
48.0560701
0
ARC
8
DEFAULT_255_1_234
10
15.4124474
20
134.4974601
40
0.393225
50
359.925209
51
5.5967654
0
ARC
8
DEFAULT_255_1_234
10
15.4553366
20
134.5030816
40
0.3503892
50
337.8914096
51
358.9967724
0
ARC
8
DEFAULT_255_1_234
10
15.1839778
20
134.6077706
40
0.6412172
50
326.9135351
51
338.3505194
0
ARC
8
DEFAULT_255_1_234
10
14.7854081
20
134.8632284
40
1.1146189
50
319.6472867
51
327.095818
0
ARC
8
DEFAULT_255_1_234
10
14.4021085
20
135.1794
40
1.6114559
50
317.2586784
51
319.9046139
0
LINE
8
DEFAULT_255_1_234
10
16.7718902
20
134.7941211
11
16.7718902
21
134.710591
0
LINE
8
DEFAULT_255_1_234
10
16.7718902
20
134.710591
11
16.2875764
21
133.6247
0
LINE
8
DEFAULT_255_1_234
10
16.2875764
20
133.6247
11
16.1317606
21
133.6247
0
LINE
8
DEFAULT_255_1_234
10
16.1317606
20
133.6247
11
16.6144681
21
134.6720387
0
LINE
8
DEFAULT_255_1_234
10
16.6144681
20
134.6720387
11
15.9815671
21
134.6720387
0
LINE
8
DEFAULT_255_1_234
10
15.9815671
20
134.6720387
11
15.9815671
21
134.7941211
0
LINE
8
DEFAULT_255_1_234
10
15.9815671
20
134.7941211
11
16.7718902
21
134.7941211
0
LINE
8
DEFAULT_255_1_234
10
17.2650389
20
134.1821026
11
17.2650389
21
134.0608234
0
LINE
8
DEFAULT_255_1_234
10
17.2650389
20
134.0608234
11
16.8730901
21
134.0608234
0
LINE
8
DEFAULT_255_1_234
10
16.8730901
20
134.0608234
11
16.8730901
21
134.1821026
0
LINE
8
DEFAULT_255_1_234
10
16.8730901
20
134.1821026
11
17.2650389
21
134.1821026
0
LINE
8
DEFAULT_255_1_234
10
18.1605777
20
133.7459792
11
18.1605777
21
133.6247
0
LINE
8
DEFAULT_255_1_234
10
18.1605777
20
133.6247
11
17.3943499
21
133.6247
0
LINE
8
DEFAULT_255_1_234
10
17.3943499
20
133.6247
11
17.3943499
21
133.7315221
0
LINE
8
DEFAULT_255_1_234
10
17.3943499
20
133.7315221
11
17.7991495
21
134.1812995
0
LINE
8
DEFAULT_255_1_234
10
17.5204482
20
134.4495595
11
17.371861
21
134.4495595
0
LINE
8
DEFAULT_255_1_234
10
17.8866955
20
134.0857218
11
17.5734577
21
133.7459792
0
LINE
8
DEFAULT_255_1_234
10
17.5734577
20
133.7459792
11
18.1605777
21
133.7459792
0
ARC
8
DEFAULT_255_1_234
10
16.4501328
20
135.3742527
40
1.8008286
50
318.5132453
51
320.7828378
0
ARC
8
DEFAULT_255_1_234
10
16.9788303
20
134.9439426
40
1.1191493
50
320.7372736
51
323.9737074
0
ARC
8
DEFAULT_255_1_234
10
17.3708159
20
134.6599361
40
0.6350923
50
323.8961724
51
328.6421089
0
ARC
8
DEFAULT_255_1_234
10
17.5754755
20
134.5337031
40
0.3946393
50
328.8299013
51
331.789948
0
ARC
8
DEFAULT_255_1_234
10
17.6751933
20
134.4822509
40
0.2824501
50
331.4255242
51
352.9364833
0
ARC
8
DEFAULT_255_1_234
10
17.6888434
20
134.4791976
40
0.2685315
50
353.2248685
51
0.0169286
0
ARC
8
DEFAULT_255_1_234
10
17.7098311
20
134.481495
40
0.2475536
50
359.4866256
51
15.9339782
0
ARC
8
DEFAULT_255_1_234
10
17.7605296
20
134.4951286
40
0.1950618
50
16.1714718
51
43.5284424
0
ARC
8
DEFAULT_255_1_234
10
17.7682604
20
134.5028573
40
0.184134
50
43.4415429
51
83.1661404
0
ARC
8
DEFAULT_255_1_234
10
17.7548523
20
134.4291771
40
0.258926
50
82.160215
51
90.1505798
0
ARC
8
DEFAULT_255_1_234
10
17.751695
20
134.3754865
40
0.3126255
50
89.5460705
51
102.5418777
0
ARC
8
DEFAULT_255_1_234
10
17.7274036
20
134.4785665
40
0.2067346
50
102.1739365
51
129.2061916
0
ARC
8
DEFAULT_255_1_234
10
17.7195108
20
134.4910094
40
0.1921118
50
129.7279328
51
135.7542026
0
ARC
8
DEFAULT_255_1_234
10
17.7316635
20
134.4813045
40
0.2075944
50
136.175737
51
166.3674722
0
ARC
8
DEFAULT_255_1_234
10
17.8323555
20
134.4543182
40
0.3118201
50
165.9092917
51
178.8683903
0
ARC
8
DEFAULT_255_1_234
10
17.9188416
20
134.4496179
40
0.3983935
50
178.438168
51
180.0083905
0
ARC
8
DEFAULT_255_1_234
10
17.7787018
20
134.4535231
40
0.4068601
50
163.2878735
51
180.5581814
0
ARC
8
DEFAULT_255_1_234
10
17.6985279
20
134.475584
40
0.3237344
50
133.454115
51
162.9470031
0
ARC
8
DEFAULT_255_1_234
10
17.7163821
20
134.4566
40
0.349795
50
100.7869394
51
133.4384016
0
ARC
8
DEFAULT_255_1_234
10
17.7511592
20
134.3017319
40
0.5084616
50
89.6605301
51
101.3704185
0
ARC
8
DEFAULT_255_1_234
10
17.7577931
20
134.3078496
40
0.502348
50
78.2171172
51
90.4130393
0
ARC
8
DEFAULT_255_1_234
10
17.7933009
20
134.4702637
40
0.3361092
50
55.9268222
51
78.4888551
0
ARC
8
DEFAULT_255_1_234
10
17.812945
20
134.5041324
40
0.2970617
50
47.9292255
51
55.4054003
0
ARC
8
DEFAULT_255_1_234
10
17.823101
20
134.5144502
40
0.2825983
50
4.3347696
51
48.0560701
0
ARC
8
DEFAULT_255_1_234
10
17.7135404
20
134.4974601
40
0.393225
50
359.925209
51
5.5967654
0
ARC
8
DEFAULT_255_1_234
10
17.7564296
20
134.5030816
40
0.3503892
50
337.8914096
51
358.9967724
0
ARC
8
DEFAULT_255_1_234
10
17.4850708
20
134.6077706
40
0.6412172
50
326.9135351
51
338.3505194
0
ARC
8
DEFAULT_255_1_234
10
17.0865012
20
134.8632284
40
1.1146189
50
319.6472867
51
327.095818
0
ARC
8
DEFAULT_255_1_234
10
16.7032015
20
135.1794
40
1.6114559
50
317.2586784
51
319.9046139
0
LINE
8
DEFAULT_255_1_234
10
19.0512975
20
134.3162327
11
19.0512975
21
134.1234709
0
LINE
8
DEFAULT_255_1_234
10
18.3131808
20
134.1033916
11
18.3131808
21
134.3017755
0
LINE
8
DEFAULT_255_1_234
10
18.9027104
20
134.0833123
11
18.9027104
21
134.3266739
0
LINE
8
DEFAULT_255_1_234
10
18.4617679
20
134.3379184
11
18.4617679
21
134.1001789
0
ARC
8
DEFAULT_255_1_234
10
17.8265865
20
134.1185805
40
1.2247208
50
353.8441951
51
0.2287902
0
ARC
8
DEFAULT_255_1_234
10
18.2905368
20
134.0667806
40
0.7578929
50
344.4934747
51
353.9765454
0
ARC
8
DEFAULT_255_1_234
10
18.5897959
20
133.9816981
40
0.4467846
50
329.2803592
51
344.7472793
0
ARC
8
DEFAULT_255_1_234
10
18.6890783
20
133.9272018
40
0.3336173
50
324.9352394
51
328.6160465
0
ARC
8
DEFAULT_255_1_234
10
18.7267892
20
133.9008427
40
0.2876076
50
280.580143
51
324.9173126
0
ARC
8
DEFAULT_255_1_234
10
18.6866685
20
134.0679099
40
0.4592847
50
269.5977311
51
281.6734359
0
ARC
8
DEFAULT_255_1_234
10
18.679459
20
134.0559173
40
0.4472986
50
256.6228859
51
270.51044
0
ARC
8
DEFAULT_255_1_234
10
18.6392568
20
133.9010877
40
0.2873874
50
215.8618325
51
257.2788573
0
ARC
8
DEFAULT_255_1_234
10
18.74136
20
133.9695977
40
0.4102928
50
197.9693508
51
215.2623606
0
ARC
8
DEFAULT_255_1_234
10
18.9898715
20
134.0534709
40
0.6725652
50
187.8816417
51
198.2346507
0
ARC
8
DEFAULT_255_1_234
10
19.3856924
20
134.1106079
40
1.0724845
50
180.8976217
51
188.0055519
0
ARC
8
DEFAULT_255_1_234
10
19.6657112
20
134.1209777
40
1.3526448
50
180.7449369
51
181.1510016
0
ARC
8
DEFAULT_255_1_234
10
19.5079841
20
134.3066042
40
1.1948131
50
173.7675579
51
180.231553
0
ARC
8
DEFAULT_255_1_234
10
19.0561987
20
134.3576666
40
0.7401564
50
164.3058563
51
173.9002247
0
ARC
8
DEFAULT_255_1_234
10
18.7650056
20
134.4415656
40
0.4371288
50
148.7922025
51
164.568378
0
ARC
8
DEFAULT_255_1_234
10
18.6698508
20
134.4946929
40
0.3282386
50
144.5883898
51
148.1176286
0
ARC
8
DEFAULT_255_1_234
10
18.6355406
20
134.5186315
40
0.2864044
50
101.6440918
51
144.514236
0
ARC
8
DEFAULT_255_1_234
10
18.6780473
20
134.3497069
40
0.4604934
50
89.5284041
51
102.5819763
0
ARC
8
DEFAULT_255_1_234
10
18.6859561
20
134.3458018
40
0.464401
50
77.0437873
51
90.5081339
0
ARC
8
DEFAULT_255_1_234
10
18.7261563
20
134.5100615
40
0.2953195
50
48.2778575
51
77.4994676
0
ARC
8
DEFAULT_255_1_234
10
18.7334194
20
134.5229746
40
0.2808655
50
36.3142134
51
47.6305865
0
ARC
8
DEFAULT_255_1_234
10
18.6465501
20
134.4644515
40
0.3855453
50
18.2931786
51
35.6769206
0
ARC
8
DEFAULT_255_1_234
10
18.392226
20
134.3771593
40
0.654423
50
8.024666
51
18.5605216
0
ARC
8
DEFAULT_255_1_234
10
17.975918
20
134.3156792
40
1.0752407
50
1.1274072
51
8.1718305
0
ARC
8
DEFAULT_255_1_234
10
17.652337
20
134.3029885
40
1.3990231
50
0.5424119
51
1.3863029
0
ARC
8
DEFAULT_255_1_234
10
17.8344748
20
134.3302342
40
1.0682415
50
359.8090433
51
4.9407866
0
ARC
8
DEFAULT_255_1_234
10
18.2554762
20
134.3678113
40
0.6455691
50
4.8362157
51
12.2904523
0
ARC
8
DEFAULT_255_1_234
10
18.5309877
20
134.4291965
40
0.3633074
50
12.0805627
51
23.8173984
0
ARC
8
DEFAULT_255_1_234
10
18.6483582
20
134.4788919
40
0.2358723
50
24.2871213
51
31.3935614
0
ARC
8
DEFAULT_255_1_234
10
18.7008279
20
134.5132233
40
0.1732111
50
30.7407893
51
82.4657128
0
ARC
8
DEFAULT_255_1_234
10
18.6828414
20
134.4248691
40
0.263235
50
81.1060089
51
90.2184952
0
ARC
8
DEFAULT_255_1_234
10
18.6792713
20
134.4506924
40
0.2374236
50
89.3806855
51
105.6762551
0
ARC
8
DEFAULT_255_1_234
10
18.6609343
20
134.5173567
40
0.1682847
50
105.7981136
51
149.7388061
0
ARC
8
DEFAULT_255_1_234
10
18.7673422
20
134.453395
40
0.2924306
50
149.4208916
51
163.6286378
0
ARC
8
DEFAULT_255_1_234
10
18.976431
20
134.389625
40
0.5110213
50
163.3763315
51
172.1410975
0
ARC
8
DEFAULT_255_1_234
10
19.3065029
20
134.3423518
40
0.8444586
50
172.0259487
51
178.0703232
0
ARC
8
DEFAULT_255_1_234
10
19.6095118
20
134.3279906
40
1.1477868
50
177.8631668
51
179.5044149
0
ARC
8
DEFAULT_255_1_234
10
19.5022523
20
134.0965389
40
1.0404907
50
179.7995573
51
185.2460446
0
ARC
8
DEFAULT_255_1_234
10
19.0979562
20
134.0582513
40
0.6343885
50
185.1411642
51
193.0079639
0
ARC
8
DEFAULT_255_1_234
10
18.8336034
20
133.9957641
40
0.3627568
50
192.7897626
51
205.2507664
0
ARC
8
DEFAULT_255_1_234
10
18.7289581
20
133.9490415
40
0.2481908
50
205.8005384
51
211.2537509
0
ARC
8
DEFAULT_255_1_234
10
18.6766022
20
133.913958
40
0.1852521
50
210.3789793
51
238.4008143
0
ARC
8
DEFAULT_255_1_234
10
18.6746544
20
133.9186376
40
0.1882621
50
239.6520629
51
265.9793761
0
ARC
8
DEFAULT_255_1_234
10
18.6831744
20
133.9858427
40
0.2559272
50
265.1315437
51
270.060332
0
ARC
8
DEFAULT_255_1_234
10
18.6860523
20
133.9534534
40
0.2235528
50
269.3314664
51
287.2178029
0
ARC
8
DEFAULT_255_1_234
10
18.6998375
20
133.9031279
40
0.1714108
50
287.7958004
51
329.080874
0
ARC
8
DEFAULT_255_1_234
10
18.6040832
20
133.962893
40
0.2842745
50
328.6634704
51
343.3325132
0
ARC
8
DEFAULT_255_1_234
10
18.3867852
20
134.0305863
40
0.5118644
50
343.0499468
51
351.9393422
0
ARC
8
DEFAULT_255_1_234
10
18.0401152
20
134.0816949
40
0.8622784
50
351.8069023
51
357.7959224
0
ARC
8
DEFAULT_255_1_234
10
17.7165708
20
134.0984721
40
1.1862365
50
357.5871873
51
359.2677531
0
LINE
8
DEFAULT_255_1_234
10
19.9749474
20
134.3162327
11
19.9749474
21
134.1234709
0
LINE
8
DEFAULT_255_1_234
10
19.2368307
20
134.1033916
11
19.2368307
21
134.3017755
0
LINE
8
DEFAULT_255_1_234
10
19.8263603
20
134.0833123
11
19.8263603
21
134.3266739
0
LINE
8
DEFAULT_255_1_234
10
19.3854178
20
134.3379184
11
19.3854178
21
134.1001789
0
ARC
8
DEFAULT_255_1_234
10
18.7502364
20
134.1185805
40
1.2247208
50
353.8441951
51
0.2287902
0
ARC
8
DEFAULT_255_1_234
10
19.2141867
20
134.0667806
40
0.7578929
50
344.4934747
51
353.9765454
0
ARC
8
DEFAULT_255_1_234
10
19.5134458
20
133.9816981
40
0.4467846
50
329.2803592
51
344.7472793
0
ARC
8
DEFAULT_255_1_234
10
19.6127282
20
133.9272018
40
0.3336173
50
324.9352394
51
328.6160465
0
ARC
8
DEFAULT_255_1_234
10
19.6504391
20
133.9008427
40
0.2876076
50
280.580143
51
324.9173126
0
ARC
8
DEFAULT_255_1_234
10
19.6103184
20
134.0679099
40
0.4592847
50
269.5977311
51
281.6734359
0
ARC
8
DEFAULT_255_1_234
10
19.6031089
20
134.0559173
40
0.4472986
50
256.6228859
51
270.51044
0
ARC
8
DEFAULT_255_1_234
10
19.5629067
20
133.9010877
40
0.2873874
50
215.8618325
51
257.2788573
0
ARC
8
DEFAULT_255_1_234
10
19.6650099
20
133.9695977
40
0.4102928
50
197.9693508
51
215.2623606
0
ARC
8
DEFAULT_255_1_234
10
19.9135214
20
134.0534709
40
0.6725652
50
187.8816417
51
198.2346507
0
ARC
8
DEFAULT_255_1_234
10
20.3093423
20
134.1106079
40
1.0724845
50
180.8976217
51
188.0055519
0
ARC
8
DEFAULT_255_1_234
10
20.5893611
20
134.1209777
40
1.3526448
50
180.7449369
51
181.1510016
0
ARC
8
DEFAULT_255_1_234
10
20.431634
20
134.3066042
40
1.1948131
50
173.7675579
51
180.231553
0
ARC
8
DEFAULT_255_1_234
10
19.9798486
20
134.3576666
40
0.7401564
50
164.3058563
51
173.9002247
0
ARC
8
DEFAULT_255_1_234
10
19.6886555
20
134.4415656
40
0.4371288
50
148.7922025
51
164.568378
0
ARC
8
DEFAULT_255_1_234
10
19.5935007
20
134.4946929
40
0.3282386
50
144.5883898
51
148.1176286
0
ARC
8
DEFAULT_255_1_234
10
19.5591905
20
134.5186315
40
0.2864044
50
101.6440918
51
144.514236
0
ARC
8
DEFAULT_255_1_234
10
19.6016972
20
134.3497069
40
0.4604934
50
89.5284041
51
102.5819763
0
ARC
8
DEFAULT_255_1_234
10
19.609606
20
134.3458018
40
0.464401
50
77.0437873
51
90.5081339
0
ARC
8
DEFAULT_255_1_234
10
19.6498062
20
134.5100615
40
0.2953195
50
48.2778575
51
77.4994676
0
ARC
8
DEFAULT_255_1_234
10
19.6570693
20
134.5229746
40
0.2808655
50
36.3142134
51
47.6305865
0
ARC
8
DEFAULT_255_1_234
10
19.5702
20
134.4644515
40
0.3855453
50
18.2931786
51
35.6769206
0
ARC
8
DEFAULT_255_1_234
10
19.3158759
20
134.3771593
40
0.654423
50
8.024666
51
18.5605216
0
ARC
8
DEFAULT_255_1_234
10
18.8995679
20
134.3156792
40
1.0752407
50
1.1274072
51
8.1718305
0
ARC
8
DEFAULT_255_1_234
10
18.5759869
20
134.3029885
40
1.3990231
50
0.5424119
51
1.3863029
0
ARC
8
DEFAULT_255_1_234
10
18.7581247
20
134.3302342
40
1.0682415
50
359.8090433
51
4.9407866
0
ARC
8
DEFAULT_255_1_234
10
19.1791261
20
134.3678113
40
0.6455691
50
4.8362157
51
12.2904523
0
ARC
8
DEFAULT_255_1_234
10
19.4546376
20
134.4291965
40
0.3633074
50
12.0805627
51
23.8173984
0
ARC
8
DEFAULT_255_1_234
10
19.5720081
20
134.4788919
40
0.2358723
50
24.2871213
51
31.3935614
0
ARC
8
DEFAULT_255_1_234
10
19.6244778
20
134.5132233
40
0.1732111
50
30.7407893
51
82.4657128
0
ARC
8
DEFAULT_255_1_234
10
19.6064913
20
134.4248691
40
0.263235
50
81.1060089
51
90.2184952
0
ARC
8
DEFAULT_255_1_234
10
19.6029212
20
134.4506924
40
0.2374236
50
89.3806855
51
105.6762551
0
ARC
8
DEFAULT_255_1_234
10
19.5845842
20
134.5173567
40
0.1682847
50
105.7981136
51
149.7388061
0
ARC
8
DEFAULT_255_1_234
10
19.6909921
20
134.453395
40
0.2924306
50
149.4208916
51
163.6286378
0
ARC
8
DEFAULT_255_1_234
10
19.9000809
20
134.389625
40
0.5110213
50
163.3763315
51
172.1410975
0
ARC
8
DEFAULT_255_1_234
10
20.2301528
20
134.3423518
40
0.8444586
50
172.0259487
51
178.0703232
0
ARC
8
DEFAULT_255_1_234
10
20.5331617
20
134.3279906
40
1.1477868
50
177.8631668
51
179.5044149
0
ARC
8
DEFAULT_255_1_234
10
20.4259022
20
134.0965389
40
1.0404907
50
179.7995573
51
185.2460446
0
ARC
8
DEFAULT_255_1_234
10
20.0216061
20
134.0582513
40
0.6343885
50
185.1411642
51
193.0079639
0
ARC
8
DEFAULT_255_1_234
10
19.7572533
20
133.9957641
40
0.3627568
50
192.7897626
51
205.2507664
0
ARC
8
DEFAULT_255_1_234
10
19.652608
20
133.9490415
40
0.2481908
50
205.8005384
51
211.2537509
0
ARC
8
DEFAULT_255_1_234
10
19.6002521
20
133.913958
40
0.1852521
50
210.3789793
51
238.4008143
0
ARC
8
DEFAULT_255_1_234
10
19.5983043
20
133.9186376
40
0.1882621
50
239.6520629
51
265.9793761
0
ARC
8
DEFAULT_255_1_234
10
19.6068243
20
133.9858427
40
0.2559272
50
265.1315437
51
270.060332
0
ARC
8
DEFAULT_255_1_234
10
19.6097022
20
133.9534534
40
0.2235528
50
269.3314664
51
287.2178029
0
ARC
8
DEFAULT_255_1_234
10
19.6234874
20
133.9031279
40
0.1714108
50
287.7958004
51
329.080874
0
ARC
8
DEFAULT_255_1_234
10
19.5277331
20
133.962893
40
0.2842745
50
328.6634704
51
343.3325132
0
ARC
8
DEFAULT_255_1_234
10
19.3104351
20
134.0305863
40
0.5118644
50
343.0499468
51
351.9393422
0
ARC
8
DEFAULT_255_1_234
10
18.9637651
20
134.0816949
40
0.8622784
50
351.8069023
51
357.7959224
0
ARC
8
DEFAULT_255_1_234
10
18.6402207
20
134.0984721
40
1.1862365
50
357.5871873
51
359.2677531
0
LINE
8
DEFAULT_255_1_234
10
4.2421489
20
132.8098211
11
4.2421489
21
131.7664983
0
LINE
8
DEFAULT_255_1_234
10
4.2421489
20
131.7664983
11
4.7963389
21
131.7664983
0
LINE
8
DEFAULT_255_1_234
10
4.7963389
20
131.7664983
11
4.7963389
21
131.6404
0
LINE
8
DEFAULT_255_1_234
10
4.7963389
20
131.6404
11
4.0871364
21
131.6404
0
LINE
8
DEFAULT_255_1_234
10
4.0871364
20
131.6404
11
4.0871364
21
132.8098211
0
LINE
8
DEFAULT_255_1_234
10
4.0871364
20
132.8098211
11
4.2421489
21
132.8098211
0
LINE
8
DEFAULT_255_1_234
10
5.4220113
20
132.8154433
11
5.4220113
21
131.6404
0
LINE
8
DEFAULT_255_1_234
10
5.4220113
20
131.6404
11
5.2726209
21
131.6404
0
LINE
8
DEFAULT_255_1_234
10
5.2726209
20
131.6404
11
5.2726209
21
132.6307133
0
LINE
8
DEFAULT_255_1_234
10
5.2726209
20
132.6307133
11
4.9730371
21
132.5206785
0
LINE
8
DEFAULT_255_1_234
10
4.9730371
20
132.5206785
11
4.9730371
21
132.6556117
0
LINE
8
DEFAULT_255_1_234
10
4.9730371
20
132.6556117
11
5.3987192
21
132.8154433
0
LINE
8
DEFAULT_255_1_234
10
5.3987192
20
132.8154433
11
5.4220113
21
132.8154433
0
LINE
8
DEFAULT_255_1_234
10
4.5741137
20
5.8154433
11
4.5741137
21
4.6404
0
LINE
8
DEFAULT_255_1_234
10
4.5741137
20
4.6404
11
4.4247234
21
4.6404
0
LINE
8
DEFAULT_255_1_234
10
4.4247234
20
4.6404
11
4.4247234
21
5.6307133
0
LINE
8
DEFAULT_255_1_234
10
4.4247234
20
5.6307133
11
4.1251396
21
5.5206785
0
LINE
8
DEFAULT_255_1_234
10
4.1251396
20
5.5206785
11
4.1251396
21
5.6556117
0
LINE
8
DEFAULT_255_1_234
10
4.1251396
20
5.6556117
11
4.5508217
21
5.8154433
0
LINE
8
DEFAULT_255_1_234
10
4.5508217
20
5.8154433
11
4.5741137
21
5.8154433
0
ARC
8
DEFAULT_255_1_234
10
5.1349384
20
4.7192565
40
0.1070357
50
163.5417914
51
180.5078233
0
ARC
8
DEFAULT_255_1_234
10
5.1157202
20
4.7244421
40
0.0871371
50
138.1647447
51
163.2316401
0
ARC
8
DEFAULT_255_1_234
10
5.1044981
20
4.7339534
40
0.0724329
50
105.6856465
51
137.8494928
0
ARC
8
DEFAULT_255_1_234
10
5.1163413
20
4.6955129
40
0.1126485
50
92.6088068
51
106.1990587
0
ARC
8
DEFAULT_255_1_234
10
5.1193786
20
4.6559774
40
0.1522861
50
89.9660831
51
93.0733434
0
ARC
8
DEFAULT_255_1_234
10
5.1204481
20
4.678132
40
0.130135
50
78.4379222
51
90.4311858
0
ARC
8
DEFAULT_255_1_234
10
5.1301061
20
4.7231588
40
0.0840873
50
56.8960528
51
78.7359558
0
ARC
8
DEFAULT_255_1_234
10
5.1364288
20
4.7341877
40
0.0713991
50
42.6499553
51
56.3125067
0
ARC
8
DEFAULT_255_1_234
10
5.1236175
20
4.7224146
40
0.0887984
50
3.8142714
51
42.6365749
0
ARC
8
DEFAULT_255_1_234
10
5.0949976
20
4.7184153
40
0.1176392
50
359.9476902
51
4.8305927
0
ARC
8
DEFAULT_255_1_234
10
5.1176135
20
4.7173541
40
0.0950282
50
340.9376387
51
0.5750546
0
ARC
8
DEFAULT_255_1_234
10
5.1288631
20
4.7143192
40
0.0834082
50
316.0805399
51
340.3842391
0
ARC
8
DEFAULT_255_1_234
10
5.134671
20
4.7089809
40
0.0755219
50
285.8514865
51
315.9414755
0
ARC
8
DEFAULT_255_1_234
10
5.1229281
20
4.7469349
40
0.115244
50
273.1292529
51
286.3135479
0
ARC
8
DEFAULT_255_1_234
10
5.119598
20
4.7871049
40
0.1555398
50
269.9524064
51
273.5463789
0
ARC
8
DEFAULT_255_1_234
10
5.1184932
20
4.7652792
40
0.1337177
50
259.0490813
51
270.4180302
0
ARC
8
DEFAULT_255_1_234
10
5.1088595
20
4.7175393
40
0.0850178
50
239.7587791
51
259.311372
0
ARC
8
DEFAULT_255_1_234
10
5.1007626
20
4.7024482
40
0.0679053
50
222.6244131
51
239.247817
0
ARC
8
DEFAULT_255_1_234
10
5.1142001
20
4.7147619
40
0.0861314
50
182.9227855
51
222.598345
0
ARC
8
DEFAULT_255_1_234
10
5.141062
20
4.7182373
40
0.113155
50
179.9642935
51
183.9868025
0
LINE
8
DEFAULT_255_1_234
10
5.6294841
20
5.1961963
11
5.5106144
21
5.2267169
0
LINE
8
DEFAULT_255_1_234
10
5.5106144
20
5.2267169
11
5.5700493
21
5.8098211
0
LINE
8
DEFAULT_255_1_234
10
5.5700493
20
5.8098211
11
6.1692169
21
5.8098211
0
LINE
8
DEFAULT_255_1_234
10
6.1692169
20
5.8098211
11
6.1692169
21
5.6724784
0
LINE
8
DEFAULT_255_1_234
10
6.1692169
20
5.6724784
11
5.6961476
21
5.6724784
0
LINE
8
DEFAULT_255_1_234
10
5.6961476
20
5.6724784
11
5.6608079
21
5.3536184
0
LINE
8
DEFAULT_255_1_234
10
5.4688494
20
4.9480156
11
5.6094048
21
4.9480156
0
LINE
8
DEFAULT_255_1_234
10
5.6688396
20
5.2283232
11
5.6294841
21
5.1961963
0
ARC
8
DEFAULT_255_1_234
10
5.8462863
20
5.035623
40
0.3681349
50
93.7182161
51
120.2538958
0
ARC
8
DEFAULT_255_1_234
10
5.8557126
20
4.9548394
40
0.449379
50
89.9660152
51
94.2496022
0
ARC
8
DEFAULT_255_1_234
10
5.859786
20
5.0137549
40
0.390482
50
73.8043271
51
90.5585896
0
ARC
8
DEFAULT_255_1_234
10
5.8832757
20
5.0995602
40
0.3015334
50
41.3071453
51
73.5430202
0
ARC
8
DEFAULT_255_1_234
10
5.8416584
20
5.0637324
40
0.3564457
50
13.5075983
51
41.2174222
0
ARC
8
DEFAULT_255_1_234
10
5.6774788
20
5.0207486
40
0.5261351
50
1.1331335
51
13.8829381
0
ARC
8
DEFAULT_255_1_234
10
5.5363157
20
5.0131665
40
0.6674378
50
359.9919444
51
1.544251
0
ARC
8
DEFAULT_255_1_234
10
5.6639983
20
5.009028
40
0.5397702
50
347.8572367
51
0.4293338
0
ARC
8
DEFAULT_255_1_234
10
5.8390301
20
4.9693736
40
0.3603188
50
323.673004
51
348.1672506
0
ARC
8
DEFAULT_255_1_234
10
5.8684809
20
4.9514168
40
0.3259678
50
316.8171152
51
323.1492751
0
ARC
8
DEFAULT_255_1_234
10
5.8745998
20
4.947746
40
0.3189975
50
281.8396411
51
316.5457803
0
ARC
8
DEFAULT_255_1_234
10
5.8370262
20
5.1032762
40
0.4789527
50
269.5770101
51
282.4214771
0
ARC
8
DEFAULT_255_1_234
10
5.8299073
20
5.0819125
40
0.45759
50
256.2427136
51
270.4486331
0
ARC
8
DEFAULT_255_1_234
10
5.7999975
20
4.9619229
40
0.3339303
50
228.9023911
51
256.3314342
0
ARC
8
DEFAULT_255_1_234
10
5.7926208
20
4.9502746
40
0.32031
50
193.753695
51
228.5271154
0
ARC
8
DEFAULT_255_1_234
10
5.9164162
20
4.98658
40
0.4492253
50
184.924711
51
194.497588
0
ARC
8
DEFAULT_255_1_234
10
5.9356729
20
4.9901591
40
0.3289787
50
187.3600538
51
198.6732863
0
ARC
8
DEFAULT_255_1_234
10
5.8307023
20
4.9537674
40
0.217884
50
198.4451669
51
217.794479
0
ARC
8
DEFAULT_255_1_234
10
5.8011198
20
4.9328085
40
0.1816698
50
218.2887171
51
228.5612368
0
ARC
8
DEFAULT_255_1_234
10
5.8108985
20
4.9459963
40
0.1980329
50
228.9654866
51
258.1234728
0
ARC
8
DEFAULT_255_1_234
10
5.8314695
20
5.0340833
40
0.2884748
50
257.7258293
51
270.401361
0
ARC
8
DEFAULT_255_1_234
10
5.8359581
20
4.9895821
40
0.2439788
50
269.4204404
51
286.4209037
0
ARC
8
DEFAULT_255_1_234
10
5.8508069
20
4.9356657
40
0.1880666
50
286.7251356
51
320.600362
0
ARC
8
DEFAULT_255_1_234
10
5.8124894
20
4.9667595
40
0.2374121
50
320.6712579
51
344.5441685
0
ARC
8
DEFAULT_255_1_234
10
5.696822
20
5.0007045
40
0.3579479
50
344.2412205
51
356.7357071
0
ARC
8
DEFAULT_255_1_234
10
5.5719369
20
5.0110444
40
0.4832297
50
356.3548756
51
0.0500261
0
ARC
8
DEFAULT_255_1_234
10
5.7055878
20
5.014165
40
0.3495889
50
359.5576869
51
12.953486
0
ARC
8
DEFAULT_255_1_234
10
5.8110775
20
5.0397434
40
0.2410532
50
12.6490276
51
41.6081334
0
ARC
8
DEFAULT_255_1_234
10
5.8341146
20
5.0593321
40
0.2108218
50
41.7850273
51
85.9892764
0
ARC
8
DEFAULT_255_1_234
10
5.8217883
20
4.9780462
40
0.2928454
50
84.6957577
51
90.0676183
0
ARC
8
DEFAULT_255_1_234
10
5.8194367
20
4.9111716
40
0.3597255
50
89.6804936
51
99.1614436
0
ARC
8
DEFAULT_255_1_234
10
5.7988998
20
5.0339131
40
0.235281
50
98.9830931
51
113.8908934
0
ARC
8
DEFAULT_255_1_234
10
5.7759408
20
5.0880587
40
0.176479
50
114.1950727
51
127.3641004
0
LINE
8
DEFAULT_255_1_234
10
4.6799137
20
13.7529433
11
4.6799137
21
12.5779
0
LINE
8
DEFAULT_255_1_234
10
4.6799137
20
12.5779
11
4.5305234
21
12.5779
0
LINE
8
DEFAULT_255_1_234
10
4.5305234
20
12.5779
11
4.5305234
21
13.5682133
0
LINE
8
DEFAULT_255_1_234
10
4.5305234
20
13.5682133
11
4.2309396
21
13.4581785
0
LINE
8
DEFAULT_255_1_234
10
4.2309396
20
13.4581785
11
4.2309396
21
13.5931117
0
LINE
8
DEFAULT_255_1_234
10
4.2309396
20
13.5931117
11
4.6566217
21
13.7529433
0
LINE
8
DEFAULT_255_1_234
10
4.6566217
20
13.7529433
11
4.6799137
21
13.7529433
0
ARC
8
DEFAULT_255_1_234
10
5.2407384
20
12.6567565
40
0.1070357
50
163.5417914
51
180.5078233
0
ARC
8
DEFAULT_255_1_234
10
5.2215202
20
12.6619421
40
0.0871371
50
138.1647447
51
163.2316401
0
ARC
8
DEFAULT_255_1_234
10
5.2102981
20
12.6714534
40
0.0724329
50
105.6856465
51
137.8494928
0
ARC
8
DEFAULT_255_1_234
10
5.2221413
20
12.6330129
40
0.1126485
50
92.6088068
51
106.1990587
0
ARC
8
DEFAULT_255_1_234
10
5.2251786
20
12.5934774
40
0.1522861
50
89.9660831
51
93.0733434
0
ARC
8
DEFAULT_255_1_234
10
5.2262481
20
12.615632
40
0.130135
50
78.4379222
51
90.4311858
0
ARC
8
DEFAULT_255_1_234
10
5.2359061
20
12.6606588
40
0.0840873
50
56.8960528
51
78.7359558
0
ARC
8
DEFAULT_255_1_234
10
5.2422288
20
12.6716877
40
0.0713991
50
42.6499553
51
56.3125067
0
ARC
8
DEFAULT_255_1_234
10
5.2294175
20
12.6599146
40
0.0887984
50
3.8142714
51
42.6365749
0
ARC
8
DEFAULT_255_1_234
10
5.2007976
20
12.6559153
40
0.1176392
50
359.9476902
51
4.8305927
0
ARC
8
DEFAULT_255_1_234
10
5.2234135
20
12.6548541
40
0.0950282
50
340.9376387
51
0.5750546
0
ARC
8
DEFAULT_255_1_234
10
5.2346631
20
12.6518192
40
0.0834082
50
316.0805399
51
340.3842391
0
ARC
8
DEFAULT_255_1_234
10
5.240471
20
12.6464809
40
0.0755219
50
285.8514865
51
315.9414755
0
ARC
8
DEFAULT_255_1_234
10
5.2287281
20
12.6844349
40
0.115244
50
273.1292529
51
286.3135479
0
ARC
8
DEFAULT_255_1_234
10
5.225398
20
12.7246049
40
0.1555398
50
269.9524064
51
273.5463789
0
ARC
8
DEFAULT_255_1_234
10
5.2242932
20
12.7027792
40
0.1337177
50
259.0490813
51
270.4180302
0
ARC
8
DEFAULT_255_1_234
10
5.2146595
20
12.6550393
40
0.0850178
50
239.7587791
51
259.311372
0
ARC
8
DEFAULT_255_1_234
10
5.2065626
20
12.6399482
40
0.0679053
50
222.6244131
51
239.247817
0
ARC
8
DEFAULT_255_1_234
10
5.2200001
20
12.6522619
40
0.0861314
50
182.9227855
51
222.598345
0
ARC
8
DEFAULT_255_1_234
10
5.246862
20
12.6557373
40
0.113155
50
179.9642935
51
183.9868025
0
LINE
8
DEFAULT_255_1_234
10
6.1754234
20
13.7473211
11
6.1754234
21
12.970652
0
LINE
8
DEFAULT_255_1_234
10
6.1754234
20
12.970652
11
6.3376645
21
12.970652
0
LINE
8
DEFAULT_255_1_234
10
6.3376645
20
12.970652
11
6.3376645
21
12.8493728
0
LINE
8
DEFAULT_255_1_234
10
6.3376645
20
12.8493728
11
6.1754234
21
12.8493728
0
LINE
8
DEFAULT_255_1_234
10
6.1754234
20
12.8493728
11
6.1754234
21
12.5779
0
LINE
8
DEFAULT_255_1_234
10
6.1754234
20
12.5779
11
6.0260331
21
12.5779
0
LINE
8
DEFAULT_255_1_234
10
6.0260331
20
12.5779
11
6.0260331
21
12.8493728
0
LINE
8
DEFAULT_255_1_234
10
6.0260331
20
12.8493728
11
5.4935288
21
12.8493728
0
LINE
8
DEFAULT_255_1_234
10
5.4935288
20
12.8493728
11
5.4935288
21
12.9369187
0
LINE
8
DEFAULT_255_1_234
10
5.4935288
20
12.9369187
11
6.0171981
21
13.7473211
0
LINE
8
DEFAULT_255_1_234
10
6.0171981
20
13.7473211
11
6.1754234
21
13.7473211
0
LINE
8
DEFAULT_255_1_234
10
6.0083632
20
13.5119912
11
5.6621953
21
12.970652
0
LINE
8
DEFAULT_255_1_234
10
5.6621953
20
12.970652
11
6.0260331
21
12.970652
0
LINE
8
DEFAULT_255_1_234
10
6.0260331
20
12.970652
11
6.0260331
21
13.5441181
0
LINE
8
DEFAULT_255_1_234
10
6.0260331
20
13.5441181
11
6.0083632
21
13.5119912
0
LINE
8
DEFAULT_255_1_234
10
4.5741137
20
21.6904433
11
4.5741137
21
20.5154
0
LINE
8
DEFAULT_255_1_234
10
4.5741137
20
20.5154
11
4.4247234
21
20.5154
0
LINE
8
DEFAULT_255_1_234
10
4.4247234
20
20.5154
11
4.4247234
21
21.5057133
0
LINE
8
DEFAULT_255_1_234
10
4.4247234
20
21.5057133
11
4.1251396
21
21.3956785
0
LINE
8
DEFAULT_255_1_234
10
4.1251396
20
21.3956785
11
4.1251396
21
21.5306117
0
LINE
8
DEFAULT_255_1_234
10
4.1251396
20
21.5306117
11
4.5508217
21
21.6904433
0
LINE
8
DEFAULT_255_1_234
10
4.5508217
20
21.6904433
11
4.5741137
21
21.6904433
0
ARC
8
DEFAULT_255_1_234
10
5.1349384
20
20.5942565
40
0.1070357
50
163.5417914
51
180.5078233
0
ARC
8
DEFAULT_255_1_234
10
5.1157202
20
20.5994421
40
0.0871371
50
138.1647447
51
163.2316401
0
ARC
8
DEFAULT_255_1_234
10
5.1044981
20
20.6089534
40
0.0724329
50
105.6856465
51
137.8494928
0
ARC
8
DEFAULT_255_1_234
10
5.1163413
20
20.5705129
40
0.1126485
50
92.6088068
51
106.1990587
0
ARC
8
DEFAULT_255_1_234
10
5.1193786
20
20.5309774
40
0.1522861
50
89.9660831
51
93.0733434
0
ARC
8
DEFAULT_255_1_234
10
5.1204481
20
20.553132
40
0.130135
50
78.4379222
51
90.4311858
0
ARC
8
DEFAULT_255_1_234
10
5.1301061
20
20.5981588
40
0.0840873
50
56.8960528
51
78.7359558
0
ARC
8
DEFAULT_255_1_234
10
5.1364288
20
20.6091877
40
0.0713991
50
42.6499553
51
56.3125067
0
ARC
8
DEFAULT_255_1_234
10
5.1236175
20
20.5974146
40
0.0887984
50
3.8142714
51
42.6365749
0
ARC
8
DEFAULT_255_1_234
10
5.0949976
20
20.5934153
40
0.1176392
50
359.9476902
51
4.8305927
0
ARC
8
DEFAULT_255_1_234
10
5.1176135
20
20.5923541
40
0.0950282
50
340.9376387
51
0.5750546
0
ARC
8
DEFAULT_255_1_234
10
5.1288631
20
20.5893192
40
0.0834082
50
316.0805399
51
340.3842391
0
ARC
8
DEFAULT_255_1_234
10
5.134671
20
20.5839809
40
0.0755219
50
285.8514865
51
315.9414755
0
ARC
8
DEFAULT_255_1_234
10
5.1229281
20
20.6219349
40
0.115244
50
273.1292529
51
286.3135479
0
ARC
8
DEFAULT_255_1_234
10
5.119598
20
20.6621049
40
0.1555398
50
269.9524064
51
273.5463789
0
ARC
8
DEFAULT_255_1_234
10
5.1184932
20
20.6402792
40
0.1337177
50
259.0490813
51
270.4180302
0
ARC
8
DEFAULT_255_1_234
10
5.1088595
20
20.5925393
40
0.0850178
50
239.7587791
51
259.311372
0
ARC
8
DEFAULT_255_1_234
10
5.1007626
20
20.5774482
40
0.0679053
50
222.6244131
51
239.247817
0
ARC
8
DEFAULT_255_1_234
10
5.1142001
20
20.5897619
40
0.0861314
50
182.9227855
51
222.598345
0
ARC
8
DEFAULT_255_1_234
10
5.141062
20
20.5932373
40
0.113155
50
179.9642935
51
183.9868025
0
LINE
8
DEFAULT_255_1_234
10
5.6583984
20
21.0511169
11
5.6583984
21
21.1723962
0
LINE
8
DEFAULT_255_1_234
10
5.6583984
20
21.1723962
11
5.7700396
21
21.1723962
0
LINE
8
DEFAULT_255_1_234
10
5.5796874
20
21.3780087
11
5.4311002
21
21.3780087
0
LINE
8
DEFAULT_255_1_234
10
5.4206589
20
20.8238188
11
5.5700493
21
20.8238188
0
LINE
8
DEFAULT_255_1_234
10
5.7700396
20
21.0511169
11
5.6583984
21
21.0511169
0
ARC
8
DEFAULT_255_1_234
10
5.7671262
20
21.5116713
40
0.3392876
50
270.4919872
51
281.8951556
0
ARC
8
DEFAULT_255_1_234
10
5.7912524
20
21.4014702
40
0.2264817
50
281.6691735
51
301.2943132
0
ARC
8
DEFAULT_255_1_234
10
5.8082734
20
21.3703304
40
0.1910381
50
301.7833094
51
311.7545298
0
ARC
8
DEFAULT_255_1_234
10
5.817431
20
21.3601748
40
0.1773635
50
311.7323931
51
354.2802411
0
ARC
8
DEFAULT_255_1_234
10
5.7447935
20
21.3726722
40
0.2509385
50
353.0937916
51
0.1181479
0
ARC
8
DEFAULT_255_1_234
10
5.698672
20
21.3774386
40
0.2970898
50
359.1805295
51
15.0453146
0
ARC
8
DEFAULT_255_1_234
10
5.8332557
20
21.4166992
40
0.1569564
50
13.9577229
51
77.6713066
0
ARC
8
DEFAULT_255_1_234
10
5.7946086
20
21.2781949
40
0.3006298
50
76.1116566
51
90.7026153
0
ARC
8
DEFAULT_255_1_234
10
5.7886924
20
21.3055545
40
0.2732568
50
89.5324876
51
103.531937
0
ARC
8
DEFAULT_255_1_234
10
5.7686368
20
21.3854884
40
0.1908508
50
103.2931773
51
133.5619022
0
ARC
8
DEFAULT_255_1_234
10
5.7641857
20
21.3914375
40
0.1834746
50
133.8349307
51
173.5344437
0
ARC
8
DEFAULT_255_1_234
10
5.83649
20
21.3786213
40
0.2568033
50
172.5096846
51
180.1366907
0
ARC
8
DEFAULT_255_1_234
10
5.7413794
20
21.3820622
40
0.3103056
50
155.3484492
51
180.7484736
0
ARC
8
DEFAULT_255_1_234
10
5.7364883
20
21.3791846
40
0.3070957
50
131.5744599
51
154.4798489
0
ARC
8
DEFAULT_255_1_234
10
5.767803
20
21.347531
40
0.3515643
50
96.9875458
51
131.9690667
0
ARC
8
DEFAULT_255_1_234
10
5.789751
20
21.2229636
40
0.4779224
50
89.8596053
51
97.7825159
0
ARC
8
DEFAULT_255_1_234
10
5.7945573
20
21.1967616
40
0.5041361
50
78.3655447
51
90.4131539
0
ARC
8
DEFAULT_255_1_234
10
5.8303491
20
21.3626887
40
0.3344039
50
56.6229102
51
78.638727
0
ARC
8
DEFAULT_255_1_234
10
5.8518435
20
21.4002805
40
0.2912001
50
47.0253525
51
56.0854072
0
ARC
8
DEFAULT_255_1_234
10
5.8538215
20
21.4042223
40
0.2869704
50
10.9208013
51
46.7778124
0
ARC
8
DEFAULT_255_1_234
10
5.7174281
20
21.3726857
40
0.426899
50
359.6364486
51
11.6087304
0
ARC
8
DEFAULT_255_1_234
10
5.9009125
20
21.3711752
40
0.243409
50
332.3549906
51
359.7179418
0
ARC
8
DEFAULT_255_1_234
10
5.8358727
20
21.4020142
40
0.3153459
50
325.2333722
51
332.8745602
0
ARC
8
DEFAULT_255_1_234
10
5.851135
20
21.3913828
40
0.2967456
50
292.9802137
51
325.2392345
0
ARC
8
DEFAULT_255_1_234
10
5.8236724
20
21.4447863
40
0.3566604
50
292.5402179
51
293.6924929
0
ARC
8
DEFAULT_255_1_234
10
5.862932
20
20.7993091
40
0.3307468
50
57.6435486
51
72.8625112
0
ARC
8
DEFAULT_255_1_234
10
5.898382
20
20.8567549
40
0.2632492
50
36.7248896
51
57.4697979
0
ARC
8
DEFAULT_255_1_234
10
5.8972452
20
20.858022
40
0.2634081
50
8.0545065
51
36.356114
0
ARC
8
DEFAULT_255_1_234
10
5.8109638
20
20.8425174
40
0.3510261
50
359.8320645
51
8.5869982
0
ARC
8
DEFAULT_255_1_234
10
5.7734414
20
20.8377101
40
0.3885653
50
343.9829931
51
0.5571613
0
ARC
8
DEFAULT_255_1_234
10
5.8620611
20
20.8134438
40
0.2966924
50
311.6359546
51
343.7651759
0
ARC
8
DEFAULT_255_1_234
10
5.824218
20
20.8561102
40
0.3537231
50
279.7829875
51
311.6255694
0
ARC
8
DEFAULT_255_1_234
10
5.7940956
20
20.999828
40
0.5004971
50
269.7286406
51
280.3856417
0
ARC
8
DEFAULT_255_1_234
10
5.7879029
20
20.9956996
40
0.4963778
50
256.6828919
51
270.4412052
0
ARC
8
DEFAULT_255_1_234
10
5.7540325
20
20.8572394
40
0.3538406
50
229.4223008
51
256.8556159
0
ARC
8
DEFAULT_255_1_234
10
5.7125718
20
20.8105736
40
0.2914296
50
181.818294
51
229.6455059
0
ARC
8
DEFAULT_255_1_234
10
5.8165674
20
20.8236496
40
0.3959084
50
179.9755256
51
183.2323064
0
ARC
8
DEFAULT_255_1_234
10
5.799342
20
20.8216037
40
0.2293034
50
179.4465117
51
196.2869258
0
ARC
8
DEFAULT_255_1_234
10
5.7505828
20
20.8082651
40
0.1787621
50
196.5661473
51
227.705904
0
ARC
8
DEFAULT_255_1_234
10
5.7669923
20
20.8266155
40
0.2033784
50
227.7652068
51
257.8762805
0
ARC
8
DEFAULT_255_1_234
10
5.7894893
20
20.9209156
40
0.3003081
50
257.4584385
51
270.426602
0
ARC
8
DEFAULT_255_1_234
10
5.7940459
20
20.9498996
40
0.329292
50
269.5962073
51
280.8789248
0
ARC
8
DEFAULT_255_1_234
10
5.8169988
20
20.8352685
40
0.2123908
50
280.6346389
51
299.8595945
0
ARC
8
DEFAULT_255_1_234
10
5.8360894
20
20.7990212
40
0.171457
50
300.3576302
51
314.5517981
0
ARC
8
DEFAULT_255_1_234
10
5.8277955
20
20.8050919
40
0.1816095
50
315.0728369
51
345.0431014
0
ARC
8
DEFAULT_255_1_234
10
5.7354769
20
20.8319841
40
0.2777492
50
344.5986631
51
357.9269593
0
ARC
8
DEFAULT_255_1_234
10
5.6459095
20
20.8381276
40
0.3674917
50
357.4748886
51
0.0231117
0
ARC
8
DEFAULT_255_1_234
10
5.7482205
20
20.8405679
40
0.2651907
50
359.5047933
51
13.4239635
0
ARC
8
DEFAULT_255_1_234
10
5.8348848
20
20.8627478
40
0.1757509
50
12.9498199
51
48.7551375
0
ARC
8
DEFAULT_255_1_234
10
5.8166582
20
20.83784
40
0.2065134
50
49.5088623
51
72.1836453
0
ARC
8
DEFAULT_255_1_234
10
5.7808735
20
20.7316291
40
0.3185836
50
71.9010081
51
84.3554254
0
ARC
8
DEFAULT_255_1_234
10
5.7647367
20
20.5955326
40
0.4556151
50
84.0193428
51
89.333121
0
LINE
8
DEFAULT_255_1_234
10
4.5741137
20
29.6279433
11
4.5741137
21
28.4529
0
LINE
8
DEFAULT_255_1_234
10
4.5741137
20
28.4529
11
4.4247234
21
28.4529
0
LINE
8
DEFAULT_255_1_234
10
4.4247234
20
28.4529
11
4.4247234
21
29.4432133
0
LINE
8
DEFAULT_255_1_234
10
4.4247234
20
29.4432133
11
4.1251396
21
29.3331785
0
LINE
8
DEFAULT_255_1_234
10
4.1251396
20
29.3331785
11
4.1251396
21
29.4681117
0
LINE
8
DEFAULT_255_1_234
10
4.1251396
20
29.4681117
11
4.5508217
21
29.6279433
0
LINE
8
DEFAULT_255_1_234
10
4.5508217
20
29.6279433
11
4.5741137
21
29.6279433
0
ARC
8
DEFAULT_255_1_234
10
5.1349384
20
28.5317565
40
0.1070357
50
163.5417914
51
180.5078233
0
ARC
8
DEFAULT_255_1_234
10
5.1157202
20
28.5369421
40
0.0871371
50
138.1647447
51
163.2316401
0
ARC
8
DEFAULT_255_1_234
10
5.1044981
20
28.5464534
40
0.0724329
50
105.6856465
51
137.8494928
0
ARC
8
DEFAULT_255_1_234
10
5.1163413
20
28.5080129
40
0.1126485
50
92.6088068
51
106.1990587
0
ARC
8
DEFAULT_255_1_234
10
5.1193786
20
28.4684774
40
0.1522861
50
89.9660831
51
93.0733434
0
ARC
8
DEFAULT_255_1_234
10
5.1204481
20
28.490632
40
0.130135
50
78.4379222
51
90.4311858
0
ARC
8
DEFAULT_255_1_234
10
5.1301061
20
28.5356588
40
0.0840873
50
56.8960528
51
78.7359558
0
ARC
8
DEFAULT_255_1_234
10
5.1364288
20
28.5466877
40
0.0713991
50
42.6499553
51
56.3125067
0
ARC
8
DEFAULT_255_1_234
10
5.1236175
20
28.5349146
40
0.0887984
50
3.8142714
51
42.6365749
0
ARC
8
DEFAULT_255_1_234
10
5.0949976
20
28.5309153
40
0.1176392
50
359.9476902
51
4.8305927
0
ARC
8
DEFAULT_255_1_234
10
5.1176135
20
28.5298541
40
0.0950282
50
340.9376387
51
0.5750546
0
ARC
8
DEFAULT_255_1_234
10
5.1288631
20
28.5268192
40
0.0834082
50
316.0805399
51
340.3842391
0
ARC
8
DEFAULT_255_1_234
10
5.134671
20
28.5214809
40
0.0755219
50
285.8514865
51
315.9414755
0
ARC
8
DEFAULT_255_1_234
10
5.1229281
20
28.5594349
40
0.115244
50
273.1292529
51
286.3135479
0
ARC
8
DEFAULT_255_1_234
10
5.119598
20
28.5996049
40
0.1555398
50
269.9524064
51
273.5463789
0
ARC
8
DEFAULT_255_1_234
10
5.1184932
20
28.5777792
40
0.1337177
50
259.0490813
51
270.4180302
0
ARC
8
DEFAULT_255_1_234
10
5.1088595
20
28.5300393
40
0.0850178
50
239.7587791
51
259.311372
0
ARC
8
DEFAULT_255_1_234
10
5.1007626
20
28.5149482
40
0.0679053
50
222.6244131
51
239.247817
0
ARC
8
DEFAULT_255_1_234
10
5.1142001
20
28.5272619
40
0.0861314
50
182.9227855
51
222.598345
0
ARC
8
DEFAULT_255_1_234
10
5.141062
20
28.5307373
40
0.113155
50
179.9642935
51
183.9868025
0
LINE
8
DEFAULT_255_1_234
10
6.2085725
20
28.5741792
11
6.2085725
21
28.4529
0
LINE
8
DEFAULT_255_1_234
10
6.2085725
20
28.4529
11
5.4423446
21
28.4529
0
LINE
8
DEFAULT_255_1_234
10
5.4423446
20
28.4529
11
5.4423446
21
28.5597221
0
LINE
8
DEFAULT_255_1_234
10
5.4423446
20
28.5597221
11
5.8471442
21
29.0094995
0
LINE
8
DEFAULT_255_1_234
10
5.5684429
20
29.2777595
11
5.4198558
21
29.2777595
0
LINE
8
DEFAULT_255_1_234
10
5.9346902
20
28.9139218
11
5.6214524
21
28.5741792
0
LINE
8
DEFAULT_255_1_234
10
5.6214524
20
28.5741792
11
6.2085725
21
28.5741792
0
ARC
8
DEFAULT_255_1_234
10
4.4981276
20
30.2024527
40
1.8008286
50
318.5132453
51
320.7828378
0
ARC
8
DEFAULT_255_1_234
10
5.026825
20
29.7721426
40
1.1191493
50
320.7372736
51
323.9737074
0
ARC
8
DEFAULT_255_1_234
10
5.4188106
20
29.4881361
40
0.6350923
50
323.8961724
51
328.6421089
0
ARC
8
DEFAULT_255_1_234
10
5.6234702
20
29.3619031
40
0.3946393
50
328.8299013
51
331.789948
0
ARC
8
DEFAULT_255_1_234
10
5.723188
20
29.3104509
40
0.2824501
50
331.4255242
51
352.9364833
0
ARC
8
DEFAULT_255_1_234
10
5.7368381
20
29.3073976
40
0.2685315
50
353.2248685
51
0.0169286
0
ARC
8
DEFAULT_255_1_234
10
5.7578258
20
29.309695
40
0.2475536
50
359.4866256
51
15.9339782
0
ARC
8
DEFAULT_255_1_234
10
5.8085243
20
29.3233286
40
0.1950618
50
16.1714718
51
43.5284424
0
ARC
8
DEFAULT_255_1_234
10
5.8162552
20
29.3310573
40
0.184134
50
43.4415429
51
83.1661404
0
ARC
8
DEFAULT_255_1_234
10
5.802847
20
29.2573771
40
0.258926
50
82.160215
51
90.1505798
0
ARC
8
DEFAULT_255_1_234
10
5.7996897
20
29.2036865
40
0.3126255
50
89.5460705
51
102.5418777
0
ARC
8
DEFAULT_255_1_234
10
5.7753983
20
29.3067665
40
0.2067346
50
102.1739365
51
129.2061916
0
ARC
8
DEFAULT_255_1_234
10
5.7675055
20
29.3192094
40
0.1921118
50
129.7279328
51
135.7542026
0
ARC
8
DEFAULT_255_1_234
10
5.7796583
20
29.3095045
40
0.2075944
50
136.175737
51
166.3674722
0
ARC
8
DEFAULT_255_1_234
10
5.8803502
20
29.2825182
40
0.3118201
50
165.9092917
51
178.8683903
0
ARC
8
DEFAULT_255_1_234
10
5.9668363
20
29.2778179
40
0.3983935
50
178.438168
51
180.0083905
0
ARC
8
DEFAULT_255_1_234
10
5.8266965
20
29.2817231
40
0.4068601
50
163.2878735
51
180.5581814
0
ARC
8
DEFAULT_255_1_234
10
5.7465227
20
29.303784
40
0.3237344
50
133.454115
51
162.9470031
0
ARC
8
DEFAULT_255_1_234
10
5.7643768
20
29.2848
40
0.349795
50
100.7869394
51
133.4384016
0
ARC
8
DEFAULT_255_1_234
10
5.799154
20
29.1299319
40
0.5084616
50
89.6605301
51
101.3704185
0
ARC
8
DEFAULT_255_1_234
10
5.8057878
20
29.1360496
40
0.502348
50
78.2171172
51
90.4130393
0
ARC
8
DEFAULT_255_1_234
10
5.8412957
20
29.2984637
40
0.3361092
50
55.9268222
51
78.4888551
0
ARC
8
DEFAULT_255_1_234
10
5.8609397
20
29.3323324
40
0.2970617
50
47.9292255
51
55.4054003
0
ARC
8
DEFAULT_255_1_234
10
5.8710957
20
29.3426502
40
0.2825983
50
4.3347696
51
48.0560701
0
ARC
8
DEFAULT_255_1_234
10
5.7615351
20
29.3256601
40
0.393225
50
359.925209
51
5.5967654
0
ARC
8
DEFAULT_255_1_234
10
5.8044243
20
29.3312816
40
0.3503892
50
337.8914096
51
358.9967724
0
ARC
8
DEFAULT_255_1_234
10
5.5330655
20
29.4359706
40
0.6412172
50
326.9135351
51
338.3505194
0
ARC
8
DEFAULT_255_1_234
10
5.1344959
20
29.6914284
40
1.1146189
50
319.6472867
51
327.095818
0
ARC
8
DEFAULT_255_1_234
10
4.7511962
20
30.0076
40
1.6114559
50
317.2586784
51
319.9046139
0
LINE
8
DEFAULT_255_1_234
10
4.5661137
20
37.5654433
11
4.5661137
21
36.3904
0
LINE
8
DEFAULT_255_1_234
10
4.5661137
20
36.3904
11
4.4167234
21
36.3904
0
LINE
8
DEFAULT_255_1_234
10
4.4167234
20
36.3904
11
4.4167234
21
37.3807133
0
LINE
8
DEFAULT_255_1_234
10
4.4167234
20
37.3807133
11
4.1171396
21
37.2706785
0
LINE
8
DEFAULT_255_1_234
10
4.1171396
20
37.2706785
11
4.1171396
21
37.4056117
0
LINE
8
DEFAULT_255_1_234
10
4.1171396
20
37.4056117
11
4.5428217
21
37.5654433
0
LINE
8
DEFAULT_255_1_234
10
4.5428217
20
37.5654433
11
4.5661137
21
37.5654433
0
ARC
8
DEFAULT_255_1_234
10
5.1269384
20
36.4692565
40
0.1070357
50
163.5417914
51
180.5078233
0
ARC
8
DEFAULT_255_1_234
10
5.1077202
20
36.4744421
40
0.0871371
50
138.1647447
51
163.2316401
0
ARC
8
DEFAULT_255_1_234
10
5.0964981
20
36.4839534
40
0.0724329
50
105.6856465
51
137.8494928
0
ARC
8
DEFAULT_255_1_234
10
5.1083413
20
36.4455129
40
0.1126485
50
92.6088068
51
106.1990587
0
ARC
8
DEFAULT_255_1_234
10
5.1113786
20
36.4059774
40
0.1522861
50
89.9660831
51
93.0733434
0
ARC
8
DEFAULT_255_1_234
10
5.1124481
20
36.428132
40
0.130135
50
78.4379222
51
90.4311858
0
ARC
8
DEFAULT_255_1_234
10
5.1221061
20
36.4731588
40
0.0840873
50
56.8960528
51
78.7359558
0
ARC
8
DEFAULT_255_1_234
10
5.1284288
20
36.4841877
40
0.0713991
50
42.6499553
51
56.3125067
0
ARC
8
DEFAULT_255_1_234
10
5.1156175
20
36.4724146
40
0.0887984
50
3.8142714
51
42.6365749
0
ARC
8
DEFAULT_255_1_234
10
5.0869976
20
36.4684153
40
0.1176392
50
359.9476902
51
4.8305927
0
ARC
8
DEFAULT_255_1_234
10
5.1096135
20
36.4673541
40
0.0950282
50
340.9376387
51
0.5750546
0
ARC
8
DEFAULT_255_1_234
10
5.1208631
20
36.4643192
40
0.0834082
50
316.0805399
51
340.3842391
0
ARC
8
DEFAULT_255_1_234
10
5.126671
20
36.4589809
40
0.0755219
50
285.8514865
51
315.9414755
0
ARC
8
DEFAULT_255_1_234
10
5.1149281
20
36.4969349
40
0.115244
50
273.1292529
51
286.3135479
0
ARC
8
DEFAULT_255_1_234
10
5.111598
20
36.5371049
40
0.1555398
50
269.9524064
51
273.5463789
0
ARC
8
DEFAULT_255_1_234
10
5.1104932
20
36.5152792
40
0.1337177
50
259.0490813
51
270.4180302
0
ARC
8
DEFAULT_255_1_234
10
5.1008595
20
36.4675393
40
0.0850178
50
239.7587791
51
259.311372
0
ARC
8
DEFAULT_255_1_234
10
5.0927626
20
36.4524482
40
0.0679053
50
222.6244131
51
239.247817
0
ARC
8
DEFAULT_255_1_234
10
5.1062001
20
36.4647619
40
0.0861314
50
182.9227855
51
222.598345
0
ARC
8
DEFAULT_255_1_234
10
5.133062
20
36.4682373
40
0.113155
50
179.9642935
51
183.9868025
0
LINE
8
DEFAULT_255_1_234
10
5.9226743
20
37.5654433
11
5.9226743
21
36.3904
0
LINE
8
DEFAULT_255_1_234
10
5.9226743
20
36.3904
11
5.773284
21
36.3904
0
LINE
8
DEFAULT_255_1_234
10
5.773284
20
36.3904
11
5.773284
21
37.3807133
0
LINE
8
DEFAULT_255_1_234
10
5.773284
20
37.3807133
11
5.4737001
21
37.2706785
0
LINE
8
DEFAULT_255_1_234
10
5.4737001
20
37.2706785
11
5.4737001
21
37.4056117
0
LINE
8
DEFAULT_255_1_234
10
5.4737001
20
37.4056117
11
5.8993823
21
37.5654433
0
LINE
8
DEFAULT_255_1_234
10
5.8993823
20
37.5654433
11
5.9226743
21
37.5654433
0
LINE
8
DEFAULT_255_1_234
10
4.5741137
20
45.5029433
11
4.5741137
21
44.3279
0
LINE
8
DEFAULT_255_1_234
10
4.5741137
20
44.3279
11
4.4247234
21
44.3279
0
LINE
8
DEFAULT_255_1_234
10
4.4247234
20
44.3279
11
4.4247234
21
45.3182133
0
LINE
8
DEFAULT_255_1_234
10
4.4247234
20
45.3182133
11
4.1251396
21
45.2081785
0
LINE
8
DEFAULT_255_1_234
10
4.1251396
20
45.2081785
11
4.1251396
21
45.3431117
0
LINE
8
DEFAULT_255_1_234
10
4.1251396
20
45.3431117
11
4.5508217
21
45.5029433
0
LINE
8
DEFAULT_255_1_234
10
4.5508217
20
45.5029433
11
4.5741137
21
45.5029433
0
ARC
8
DEFAULT_255_1_234
10
5.1349384
20
44.4067565
40
0.1070357
50
163.5417914
51
180.5078233
0
ARC
8
DEFAULT_255_1_234
10
5.1157202
20
44.4119421
40
0.0871371
50
138.1647447
51
163.2316401
0
ARC
8
DEFAULT_255_1_234
10
5.1044981
20
44.4214534
40
0.0724329
50
105.6856465
51
137.8494928
0
ARC
8
DEFAULT_255_1_234
10
5.1163413
20
44.3830129
40
0.1126485
50
92.6088068
51
106.1990587
0
ARC
8
DEFAULT_255_1_234
10
5.1193786
20
44.3434774
40
0.1522861
50
89.9660831
51
93.0733434
0
ARC
8
DEFAULT_255_1_234
10
5.1204481
20
44.365632
40
0.130135
50
78.4379222
51
90.4311858
0
ARC
8
DEFAULT_255_1_234
10
5.1301061
20
44.4106588
40
0.0840873
50
56.8960528
51
78.7359558
0
ARC
8
DEFAULT_255_1_234
10
5.1364288
20
44.4216877
40
0.0713991
50
42.6499553
51
56.3125067
0
ARC
8
DEFAULT_255_1_234
10
5.1236175
20
44.4099146
40
0.0887984
50
3.8142714
51
42.6365749
0
ARC
8
DEFAULT_255_1_234
10
5.0949976
20
44.4059153
40
0.1176392
50
359.9476902
51
4.8305927
0
ARC
8
DEFAULT_255_1_234
10
5.1176135
20
44.4048541
40
0.0950282
50
340.9376387
51
0.5750546
0
ARC
8
DEFAULT_255_1_234
10
5.1288631
20
44.4018192
40
0.0834082
50
316.0805399
51
340.3842391
0
ARC
8
DEFAULT_255_1_234
10
5.134671
20
44.3964809
40
0.0755219
50
285.8514865
51
315.9414755
0
ARC
8
DEFAULT_255_1_234
10
5.1229281
20
44.4344349
40
0.115244
50
273.1292529
51
286.3135479
0
ARC
8
DEFAULT_255_1_234
10
5.119598
20
44.4746049
40
0.1555398
50
269.9524064
51
273.5463789
0
ARC
8
DEFAULT_255_1_234
10
5.1184932
20
44.4527792
40
0.1337177
50
259.0490813
51
270.4180302
0
ARC
8
DEFAULT_255_1_234
10
5.1088595
20
44.4050393
40
0.0850178
50
239.7587791
51
259.311372
0
ARC
8
DEFAULT_255_1_234
10
5.1007626
20
44.3899482
40
0.0679053
50
222.6244131
51
239.247817
0
ARC
8
DEFAULT_255_1_234
10
5.1142001
20
44.4022619
40
0.0861314
50
182.9227855
51
222.598345
0
ARC
8
DEFAULT_255_1_234
10
5.141062
20
44.4057373
40
0.113155
50
179.9642935
51
183.9868025
0
LINE
8
DEFAULT_255_1_234
10
6.1756423
20
45.0194327
11
6.1756423
21
44.8266709
0
LINE
8
DEFAULT_255_1_234
10
5.4375256
20
44.8065916
11
5.4375256
21
45.0049755
0
LINE
8
DEFAULT_255_1_234
10
6.0270552
20
44.7865123
11
6.0270552
21
45.0298739
0
LINE
8
DEFAULT_255_1_234
10
5.5861127
20
45.0411184
11
5.5861127
21
44.8033789
0
ARC
8
DEFAULT_255_1_234
10
4.9509313
20
44.8217805
40
1.2247208
50
353.8441951
51
0.2287902
0
ARC
8
DEFAULT_255_1_234
10
5.4148817
20
44.7699806
40
0.7578929
50
344.4934747
51
353.9765454
0
ARC
8
DEFAULT_255_1_234
10
5.7141407
20
44.6848981
40
0.4467846
50
329.2803592
51
344.7472793
0
ARC
8
DEFAULT_255_1_234
10
5.8134232
20
44.6304018
40
0.3336173
50
324.9352394
51
328.6160465
0
ARC
8
DEFAULT_255_1_234
10
5.851134
20
44.6040427
40
0.2876076
50
280.580143
51
324.9173126
0
ARC
8
DEFAULT_255_1_234
10
5.8110133
20
44.7711099
40
0.4592847
50
269.5977311
51
281.6734359
0
ARC
8
DEFAULT_255_1_234
10
5.8038039
20
44.7591173
40
0.4472986
50
256.6228859
51
270.51044
0
ARC
8
DEFAULT_255_1_234
10
5.7636016
20
44.6042877
40
0.2873874
50
215.8618325
51
257.2788573
0
ARC
8
DEFAULT_255_1_234
10
5.8657048
20
44.6727977
40
0.4102928
50
197.9693508
51
215.2623606
0
ARC
8
DEFAULT_255_1_234
10
6.1142164
20
44.7566709
40
0.6725652
50
187.8816417
51
198.2346507
0
ARC
8
DEFAULT_255_1_234
10
6.5100372
20
44.8138079
40
1.0724845
50
180.8976217
51
188.0055519
0
ARC
8
DEFAULT_255_1_234
10
6.790056
20
44.8241777
40
1.3526448
50
180.7449369
51
181.1510016
0
ARC
8
DEFAULT_255_1_234
10
6.6323289
20
45.0098042
40
1.1948131
50
173.7675579
51
180.231553
0
ARC
8
DEFAULT_255_1_234
10
6.1805436
20
45.0608666
40
0.7401564
50
164.3058563
51
173.9002247
0
ARC
8
DEFAULT_255_1_234
10
5.8893505
20
45.1447656
40
0.4371288
50
148.7922025
51
164.568378
0
ARC
8
DEFAULT_255_1_234
10
5.7941957
20
45.1978929
40
0.3282386
50
144.5883898
51
148.1176286
0
ARC
8
DEFAULT_255_1_234
10
5.7598855
20
45.2218315
40
0.2864044
50
101.6440918
51
144.514236
0
ARC
8
DEFAULT_255_1_234
10
5.8023921
20
45.0529069
40
0.4604934
50
89.5284041
51
102.5819763
0
ARC
8
DEFAULT_255_1_234
10
5.8103009
20
45.0490018
40
0.464401
50
77.0437873
51
90.5081339
0
ARC
8
DEFAULT_255_1_234
10
5.8505011
20
45.2132615
40
0.2953195
50
48.2778575
51
77.4994676
0
ARC
8
DEFAULT_255_1_234
10
5.8577642
20
45.2261746
40
0.2808655
50
36.3142134
51
47.6305865
0
ARC
8
DEFAULT_255_1_234
10
5.7708949
20
45.1676515
40
0.3855453
50
18.2931786
51
35.6769206
0
ARC
8
DEFAULT_255_1_234
10
5.5165708
20
45.0803593
40
0.654423
50
8.024666
51
18.5605216
0
ARC
8
DEFAULT_255_1_234
10
5.1002628
20
45.0188792
40
1.0752407
50
1.1274072
51
8.1718305
0
ARC
8
DEFAULT_255_1_234
10
4.7766818
20
45.0061885
40
1.3990231
50
0.5424119
51
1.3863029
0
ARC
8
DEFAULT_255_1_234
10
4.9588196
20
45.0334342
40
1.0682415
50
359.8090433
51
4.9407866
0
ARC
8
DEFAULT_255_1_234
10
5.379821
20
45.0710113
40
0.6455691
50
4.8362157
51
12.2904523
0
ARC
8
DEFAULT_255_1_234
10
5.6553325
20
45.1323965
40
0.3633074
50
12.0805627
51
23.8173984
0
ARC
8
DEFAULT_255_1_234
10
5.772703
20
45.1820919
40
0.2358723
50
24.2871213
51
31.3935614
0
ARC
8
DEFAULT_255_1_234
10
5.8251728
20
45.2164233
40
0.1732111
50
30.7407893
51
82.4657128
0
ARC
8
DEFAULT_255_1_234
10
5.8071862
20
45.1280691
40
0.263235
50
81.1060089
51
90.2184952
0
ARC
8
DEFAULT_255_1_234
10
5.8036161
20
45.1538924
40
0.2374236
50
89.3806855
51
105.6762551
0
ARC
8
DEFAULT_255_1_234
10
5.7852792
20
45.2205567
40
0.1682847
50
105.7981136
51
149.7388061
0
ARC
8
DEFAULT_255_1_234
10
5.891687
20
45.156595
40
0.2924306
50
149.4208916
51
163.6286378
0
ARC
8
DEFAULT_255_1_234
10
6.1007758
20
45.092825
40
0.5110213
50
163.3763315
51
172.1410975
0
ARC
8
DEFAULT_255_1_234
10
6.4308477
20
45.0455518
40
0.8444586
50
172.0259487
51
178.0703232
0
ARC
8
DEFAULT_255_1_234
10
6.7338566
20
45.0311906
40
1.1477868
50
177.8631668
51
179.5044149
0
ARC
8
DEFAULT_255_1_234
10
6.6265971
20
44.7997389
40
1.0404907
50
179.7995573
51
185.2460446
0
ARC
8
DEFAULT_255_1_234
10
6.222301
20
44.7614513
40
0.6343885
50
185.1411642
51
193.0079639
0
ARC
8
DEFAULT_255_1_234
10
5.9579483
20
44.6989641
40
0.3627568
50
192.7897626
51
205.2507664
0
ARC
8
DEFAULT_255_1_234
10
5.853303
20
44.6522415
40
0.2481908
50
205.8005384
51
211.2537509
0
ARC
8
DEFAULT_255_1_234
10
5.800947
20
44.617158
40
0.1852521
50
210.3789793
51
238.4008143
0
ARC
8
DEFAULT_255_1_234
10
5.7989992
20
44.6218376
40
0.1882621
50
239.6520629
51
265.9793761
0
ARC
8
DEFAULT_255_1_234
10
5.8075192
20
44.6890427
40
0.2559272
50
265.1315437
51
270.060332
0
ARC
8
DEFAULT_255_1_234
10
5.8103971
20
44.6566534
40
0.2235528
50
269.3314664
51
287.2178029
0
ARC
8
DEFAULT_255_1_234
10
5.8241823
20
44.6063279
40
0.1714108
50
287.7958004
51
329.080874
0
ARC
8
DEFAULT_255_1_234
10
5.728428
20
44.666093
40
0.2842745
50
328.6634704
51
343.3325132
0
ARC
8
DEFAULT_255_1_234
10
5.51113
20
44.7337863
40
0.5118644
50
343.0499468
51
351.9393422
0
ARC
8
DEFAULT_255_1_234
10
5.16446
20
44.7848949
40
0.8622784
50
351.8069023
51
357.7959224
0
ARC
8
DEFAULT_255_1_234
10
4.8409156
20
44.8016721
40
1.1862365
50
357.5871873
51
359.2677531
0
LINE
8
DEFAULT_255_1_234
10
4.8872119
20
52.3866792
11
4.8872119
21
52.2654
0
LINE
8
DEFAULT_255_1_234
10
4.8872119
20
52.2654
11
4.120984
21
52.2654
0
LINE
8
DEFAULT_255_1_234
10
4.120984
20
52.2654
11
4.120984
21
52.3722221
0
LINE
8
DEFAULT_255_1_234
10
4.120984
20
52.3722221
11
4.5257836
21
52.8219995
0
LINE
8
DEFAULT_255_1_234
10
4.2470823
20
53.0902595
11
4.0984952
21
53.0902595
0
LINE
8
DEFAULT_255_1_234
10
4.6133296
20
52.7264218
11
4.3000918
21
52.3866792
0
LINE
8
DEFAULT_255_1_234
10
4.3000918
20
52.3866792
11
4.8872119
21
52.3866792
0
ARC
8
DEFAULT_255_1_234
10
3.176767
20
54.0149527
40
1.8008286
50
318.5132453
51
320.7828378
0
ARC
8
DEFAULT_255_1_234
10
3.7054644
20
53.5846426
40
1.1191493
50
320.7372736
51
323.9737074
0
ARC
8
DEFAULT_255_1_234
10
4.0974501
20
53.3006361
40
0.6350923
50
323.8961724
51
328.6421089
0
ARC
8
DEFAULT_255_1_234
10
4.3021096
20
53.1744031
40
0.3946393
50
328.8299013
51
331.789948
0
ARC
8
DEFAULT_255_1_234
10
4.4018274
20
53.1229509
40
0.2824501
50
331.4255242
51
352.9364833
0
ARC
8
DEFAULT_255_1_234
10
4.4154775
20
53.1198976
40
0.2685315
50
353.2248685
51
0.0169286
0
ARC
8
DEFAULT_255_1_234
10
4.4364652
20
53.122195
40
0.2475536
50
359.4866256
51
15.9339782
0
ARC
8
DEFAULT_255_1_234
10
4.4871637
20
53.1358286
40
0.1950618
50
16.1714718
51
43.5284424
0
ARC
8
DEFAULT_255_1_234
10
4.4948946
20
53.1435573
40
0.184134
50
43.4415429
51
83.1661404
0
ARC
8
DEFAULT_255_1_234
10
4.4814864
20
53.0698771
40
0.258926
50
82.160215
51
90.1505798
0
ARC
8
DEFAULT_255_1_234
10
4.4783291
20
53.0161865
40
0.3126255
50
89.5460705
51
102.5418777
0
ARC
8
DEFAULT_255_1_234
10
4.4540377
20
53.1192665
40
0.2067346
50
102.1739365
51
129.2061916
0
ARC
8
DEFAULT_255_1_234
10
4.4461449
20
53.1317094
40
0.1921118
50
129.7279328
51
135.7542026
0
ARC
8
DEFAULT_255_1_234
10
4.4582977
20
53.1220045
40
0.2075944
50
136.175737
51
166.3674722
0
ARC
8
DEFAULT_255_1_234
10
4.5589896
20
53.0950182
40
0.3118201
50
165.9092917
51
178.8683903
0
ARC
8
DEFAULT_255_1_234
10
4.6454757
20
53.0903179
40
0.3983935
50
178.438168
51
180.0083905
0
ARC
8
DEFAULT_255_1_234
10
4.5053359
20
53.0942231
40
0.4068601
50
163.2878735
51
180.5581814
0
ARC
8
DEFAULT_255_1_234
10
4.4251621
20
53.116284
40
0.3237344
50
133.454115
51
162.9470031
0
ARC
8
DEFAULT_255_1_234
10
4.4430162
20
53.0973
40
0.349795
50
100.7869394
51
133.4384016
0
ARC
8
DEFAULT_255_1_234
10
4.4777934
20
52.9424319
40
0.5084616
50
89.6605301
51
101.3704185
0
ARC
8
DEFAULT_255_1_234
10
4.4844273
20
52.9485496
40
0.502348
50
78.2171172
51
90.4130393
0
ARC
8
DEFAULT_255_1_234
10
4.5199351
20
53.1109637
40
0.3361092
50
55.9268222
51
78.4888551
0
ARC
8
DEFAULT_255_1_234
10
4.5395791
20
53.1448324
40
0.2970617
50
47.9292255
51
55.4054003
0
ARC
8
DEFAULT_255_1_234
10
4.5497352
20
53.1551502
40
0.2825983
50
4.3347696
51
48.0560701
0
ARC
8
DEFAULT_255_1_234
10
4.4401745
20
53.1381601
40
0.393225
50
359.925209
51
5.5967654
0
ARC
8
DEFAULT_255_1_234
10
4.4830637
20
53.1437816
40
0.3503892
50
337.8914096
51
358.9967724
0
ARC
8
DEFAULT_255_1_234
10
4.2117049
20
53.2484706
40
0.6412172
50
326.9135351
51
338.3505194
0
ARC
8
DEFAULT_255_1_234
10
3.8131353
20
53.5039284
40
1.1146189
50
319.6472867
51
327.095818
0
ARC
8
DEFAULT_255_1_234
10
3.4298356
20
53.8201
40
1.6114559
50
317.2586784
51
319.9046139
0
LINE
8
DEFAULT_255_1_234
10
5.0831863
20
53.4348211
11
5.2823734
21
53.4348211
0
LINE
8
DEFAULT_255_1_234
10
5.2823734
20
53.4348211
11
5.6646841
21
52.4806506
0
LINE
8
DEFAULT_255_1_234
10
5.6646841
20
52.4806506
11
6.0469949
21
53.4348211
0
LINE
8
DEFAULT_255_1_234
10
6.0469949
20
53.4348211
11
6.2469852
21
53.4348211
0
LINE
8
DEFAULT_255_1_234
10
6.2469852
20
53.4348211
11
6.2469852
21
52.2654
0
LINE
8
DEFAULT_255_1_234
10
6.2469852
20
52.2654
11
6.0927758
21
52.2654
0
LINE
8
DEFAULT_255_1_234
10
6.0927758
20
52.2654
11
6.0927758
21
52.7207996
0
LINE
8
DEFAULT_255_1_234
10
6.0927758
20
52.7207996
11
6.1072329
21
53.2123419
0
LINE
8
DEFAULT_255_1_234
10
6.1072329
20
53.2123419
11
5.7233158
21
52.2654
0
LINE
8
DEFAULT_255_1_234
10
5.7233158
20
52.2654
11
5.6052493
21
52.2654
0
LINE
8
DEFAULT_255_1_234
10
5.6052493
20
52.2654
11
5.2221354
21
53.2099324
0
LINE
8
DEFAULT_255_1_234
10
5.2221354
20
53.2099324
11
5.2373957
21
52.7207996
0
LINE
8
DEFAULT_255_1_234
10
5.2373957
20
52.7207996
11
5.2373957
21
52.2654
0
LINE
8
DEFAULT_255_1_234
10
5.2373957
20
52.2654
11
5.0831863
21
52.2654
0
LINE
8
DEFAULT_255_1_234
10
5.0831863
20
52.2654
11
5.0831863
21
53.4348211
0
LINE
8
DEFAULT_255_1_234
10
4.8190817
20
60.8944327
11
4.8190817
21
60.7016709
0
LINE
8
DEFAULT_255_1_234
10
4.080965
20
60.6815916
11
4.080965
21
60.8799755
0
LINE
8
DEFAULT_255_1_234
10
4.6704946
20
60.6615123
11
4.6704946
21
60.9048739
0
LINE
8
DEFAULT_255_1_234
10
4.2295521
20
60.9161184
11
4.2295521
21
60.6783789
0
ARC
8
DEFAULT_255_1_234
10
3.5943707
20
60.6967805
40
1.2247208
50
353.8441951
51
0.2287902
0
ARC
8
DEFAULT_255_1_234
10
4.0583211
20
60.6449806
40
0.7578929
50
344.4934747
51
353.9765454
0
ARC
8
DEFAULT_255_1_234
10
4.3575801
20
60.5598981
40
0.4467846
50
329.2803592
51
344.7472793
0
ARC
8
DEFAULT_255_1_234
10
4.4568626
20
60.5054018
40
0.3336173
50
324.9352394
51
328.6160465
0
ARC
8
DEFAULT_255_1_234
10
4.4945734
20
60.4790427
40
0.2876076
50
280.580143
51
324.9173126
0
ARC
8
DEFAULT_255_1_234
10
4.4544527
20
60.6461099
40
0.4592847
50
269.5977311
51
281.6734359
0
ARC
8
DEFAULT_255_1_234
10
4.4472433
20
60.6341173
40
0.4472986
50
256.6228859
51
270.51044
0
ARC
8
DEFAULT_255_1_234
10
4.407041
20
60.4792877
40
0.2873874
50
215.8618325
51
257.2788573
0
ARC
8
DEFAULT_255_1_234
10
4.5091442
20
60.5477977
40
0.4102928
50
197.9693508
51
215.2623606
0
ARC
8
DEFAULT_255_1_234
10
4.7576558
20
60.6316709
40
0.6725652
50
187.8816417
51
198.2346507
0
ARC
8
DEFAULT_255_1_234
10
5.1534766
20
60.6888079
40
1.0724845
50
180.8976217
51
188.0055519
0
ARC
8
DEFAULT_255_1_234
10
5.4334954
20
60.6991777
40
1.3526448
50
180.7449369
51
181.1510016
0
ARC
8
DEFAULT_255_1_234
10
5.2757683
20
60.8848042
40
1.1948131
50
173.7675579
51
180.231553
0
ARC
8
DEFAULT_255_1_234
10
4.823983
20
60.9358666
40
0.7401564
50
164.3058563
51
173.9002247
0
ARC
8
DEFAULT_255_1_234
10
4.5327899
20
61.0197656
40
0.4371288
50
148.7922025
51
164.568378
0
ARC
8
DEFAULT_255_1_234
10
4.4376351
20
61.0728929
40
0.3282386
50
144.5883898
51
148.1176286
0
ARC
8
DEFAULT_255_1_234
10
4.4033249
20
61.0968315
40
0.2864044
50
101.6440918
51
144.514236
0
ARC
8
DEFAULT_255_1_234
10
4.4458315
20
60.9279069
40
0.4604934
50
89.5284041
51
102.5819763
0
ARC
8
DEFAULT_255_1_234
10
4.4537403
20
60.9240018
40
0.464401
50
77.0437873
51
90.5081339
0
ARC
8
DEFAULT_255_1_234
10
4.4939405
20
61.0882615
40
0.2953195
50
48.2778575
51
77.4994676
0
ARC
8
DEFAULT_255_1_234
10
4.5012036
20
61.1011746
40
0.2808655
50
36.3142134
51
47.6305865
0
ARC
8
DEFAULT_255_1_234
10
4.4143343
20
61.0426515
40
0.3855453
50
18.2931786
51
35.6769206
0
ARC
8
DEFAULT_255_1_234
10
4.1600102
20
60.9553593
40
0.654423
50
8.024666
51
18.5605216
0
ARC
8
DEFAULT_255_1_234
10
3.7437022
20
60.8938792
40
1.0752407
50
1.1274072
51
8.1718305
0
ARC
8
DEFAULT_255_1_234
10
3.4201213
20
60.8811885
40
1.3990231
50
0.5424119
51
1.3863029
0
ARC
8
DEFAULT_255_1_234
10
3.602259
20
60.9084342
40
1.0682415
50
359.8090433
51
4.9407866
0
ARC
8
DEFAULT_255_1_234
10
4.0232604
20
60.9460113
40
0.6455691
50
4.8362157
51
12.2904523
0
ARC
8
DEFAULT_255_1_234
10
4.2987719
20
61.0073965
40
0.3633074
50
12.0805627
51
23.8173984
0
ARC
8
DEFAULT_255_1_234
10
4.4161425
20
61.0570919
40
0.2358723
50
24.2871213
51
31.3935614
0
ARC
8
DEFAULT_255_1_234
10
4.4686122
20
61.0914233
40
0.1732111
50
30.7407893
51
82.4657128
0
ARC
8
DEFAULT_255_1_234
10
4.4506256
20
61.0030691
40
0.263235
50
81.1060089
51
90.2184952
0
ARC
8
DEFAULT_255_1_234
10
4.4470555
20
61.0288924
40
0.2374236
50
89.3806855
51
105.6762551
0
ARC
8
DEFAULT_255_1_234
10
4.4287186
20
61.0955567
40
0.1682847
50
105.7981136
51
149.7388061
0
ARC
8
DEFAULT_255_1_234
10
4.5351264
20
61.031595
40
0.2924306
50
149.4208916
51
163.6286378
0
ARC
8
DEFAULT_255_1_234
10
4.7442152
20
60.967825
40
0.5110213
50
163.3763315
51
172.1410975
0
ARC
8
DEFAULT_255_1_234
10
5.0742871
20
60.9205518
40
0.8444586
50
172.0259487
51
178.0703232
0
ARC
8
DEFAULT_255_1_234
10
5.377296
20
60.9061906
40
1.1477868
50
177.8631668
51
179.5044149
0
ARC
8
DEFAULT_255_1_234
10
5.2700365
20
60.6747389
40
1.0404907
50
179.7995573
51
185.2460446
0
ARC
8
DEFAULT_255_1_234
10
4.8657404
20
60.6364513
40
0.6343885
50
185.1411642
51
193.0079639
0
ARC
8
DEFAULT_255_1_234
10
4.6013877
20
60.5739641
40
0.3627568
50
192.7897626
51
205.2507664
0
ARC
8
DEFAULT_255_1_234
10
4.4967424
20
60.5272415
40
0.2481908
50
205.8005384
51
211.2537509
0
ARC
8
DEFAULT_255_1_234
10
4.4443864
20
60.492158
40
0.1852521
50
210.3789793
51
238.4008143
0
ARC
8
DEFAULT_255_1_234
10
4.4424386
20
60.4968376
40
0.1882621
50
239.6520629
51
265.9793761
0
ARC
8
DEFAULT_255_1_234
10
4.4509586
20
60.5640427
40
0.2559272
50
265.1315437
51
270.060332
0
ARC
8
DEFAULT_255_1_234
10
4.4538365
20
60.5316534
40
0.2235528
50
269.3314664
51
287.2178029
0
ARC
8
DEFAULT_255_1_234
10
4.4676217
20
60.4813279
40
0.1714108
50
287.7958004
51
329.080874
0
ARC
8
DEFAULT_255_1_234
10
4.3718674
20
60.541093
40
0.2842745
50
328.6634704
51
343.3325132
0
ARC
8
DEFAULT_255_1_234
10
4.1545694
20
60.6087863
40
0.5118644
50
343.0499468
51
351.9393422
0
ARC
8
DEFAULT_255_1_234
10
3.8078994
20
60.6598949
40
0.8622784
50
351.8069023
51
357.7959224
0
ARC
8
DEFAULT_255_1_234
10
3.484355
20
60.6766721
40
1.1862365
50
357.5871873
51
359.2677531
0
ARC
8
DEFAULT_255_1_234
10
5.1349384
20
60.2817565
40
0.1070357
50
163.5417914
51
180.5078233
0
ARC
8
DEFAULT_255_1_234
10
5.1157202
20
60.2869421
40
0.0871371
50
138.1647447
51
163.2316401
0
ARC
8
DEFAULT_255_1_234
10
5.1044981
20
60.2964534
40
0.0724329
50
105.6856465
51
137.8494928
0
ARC
8
DEFAULT_255_1_234
10
5.1163413
20
60.2580129
40
0.1126485
50
92.6088068
51
106.1990587
0
ARC
8
DEFAULT_255_1_234
10
5.1193786
20
60.2184774
40
0.1522861
50
89.9660831
51
93.0733434
0
ARC
8
DEFAULT_255_1_234
10
5.1204481
20
60.240632
40
0.130135
50
78.4379222
51
90.4311858
0
ARC
8
DEFAULT_255_1_234
10
5.1301061
20
60.2856588
40
0.0840873
50
56.8960528
51
78.7359558
0
ARC
8
DEFAULT_255_1_234
10
5.1364288
20
60.2966877
40
0.0713991
50
42.6499553
51
56.3125067
0
ARC
8
DEFAULT_255_1_234
10
5.1236175
20
60.2849146
40
0.0887984
50
3.8142714
51
42.6365749
0
ARC
8
DEFAULT_255_1_234
10
5.0949976
20
60.2809153
40
0.1176392
50
359.9476902
51
4.8305927
0
ARC
8
DEFAULT_255_1_234
10
5.1176135
20
60.2798541
40
0.0950282
50
340.9376387
51
0.5750546
0
ARC
8
DEFAULT_255_1_234
10
5.1288631
20
60.2768192
40
0.0834082
50
316.0805399
51
340.3842391
0
ARC
8
DEFAULT_255_1_234
10
5.134671
20
60.2714809
40
0.0755219
50
285.8514865
51
315.9414755
0
ARC
8
DEFAULT_255_1_234
10
5.1229281
20
60.3094349
40
0.115244
50
273.1292529
51
286.3135479
0
ARC
8
DEFAULT_255_1_234
10
5.119598
20
60.3496049
40
0.1555398
50
269.9524064
51
273.5463789
0
ARC
8
DEFAULT_255_1_234
10
5.1184932
20
60.3277792
40
0.1337177
50
259.0490813
51
270.4180302
0
ARC
8
DEFAULT_255_1_234
10
5.1088595
20
60.2800393
40
0.0850178
50
239.7587791
51
259.311372
0
ARC
8
DEFAULT_255_1_234
10
5.1007626
20
60.2649482
40
0.0679053
50
222.6244131
51
239.247817
0
ARC
8
DEFAULT_255_1_234
10
5.1142001
20
60.2772619
40
0.0861314
50
182.9227855
51
222.598345
0
ARC
8
DEFAULT_255_1_234
10
5.141062
20
60.2807373
40
0.113155
50
179.9642935
51
183.9868025
0
LINE
8
DEFAULT_255_1_234
10
6.197328
20
61.3723211
11
6.197328
21
61.288791
0
LINE
8
DEFAULT_255_1_234
10
6.197328
20
61.288791
11
5.7130142
21
60.2029
0
LINE
8
DEFAULT_255_1_234
10
5.7130142
20
60.2029
11
5.5571985
21
60.2029
0
LINE
8
DEFAULT_255_1_234
10
5.5571985
20
60.2029
11
6.039906
21
61.2502387
0
LINE
8
DEFAULT_255_1_234
10
6.039906
20
61.2502387
11
5.407005
21
61.2502387
0
LINE
8
DEFAULT_255_1_234
10
5.407005
20
61.2502387
11
5.407005
21
61.3723211
0
LINE
8
DEFAULT_255_1_234
10
5.407005
20
61.3723211
11
6.197328
21
61.3723211
0
LINE
8
DEFAULT_255_1_234
10
4.8190817
20
68.8319327
11
4.8190817
21
68.6391709
0
LINE
8
DEFAULT_255_1_234
10
4.080965
20
68.6190916
11
4.080965
21
68.8174755
0
LINE
8
DEFAULT_255_1_234
10
4.6704946
20
68.5990123
11
4.6704946
21
68.8423739
0
LINE
8
DEFAULT_255_1_234
10
4.2295521
20
68.8536184
11
4.2295521
21
68.6158789
0
ARC
8
DEFAULT_255_1_234
10
3.5943707
20
68.6342805
40
1.2247208
50
353.8441951
51
0.2287902
0
ARC
8
DEFAULT_255_1_234
10
4.0583211
20
68.5824806
40
0.7578929
50
344.4934747
51
353.9765454
0
ARC
8
DEFAULT_255_1_234
10
4.3575801
20
68.4973981
40
0.4467846
50
329.2803592
51
344.7472793
0
ARC
8
DEFAULT_255_1_234
10
4.4568626
20
68.4429018
40
0.3336173
50
324.9352394
51
328.6160465
0
ARC
8
DEFAULT_255_1_234
10
4.4945734
20
68.4165427
40
0.2876076
50
280.580143
51
324.9173126
0
ARC
8
DEFAULT_255_1_234
10
4.4544527
20
68.5836099
40
0.4592847
50
269.5977311
51
281.6734359
0
ARC
8
DEFAULT_255_1_234
10
4.4472433
20
68.5716173
40
0.4472986
50
256.6228859
51
270.51044
0
ARC
8
DEFAULT_255_1_234
10
4.407041
20
68.4167877
40
0.2873874
50
215.8618325
51
257.2788573
0
ARC
8
DEFAULT_255_1_234
10
4.5091442
20
68.4852977
40
0.4102928
50
197.9693508
51
215.2623606
0
ARC
8
DEFAULT_255_1_234
10
4.7576558
20
68.5691709
40
0.6725652
50
187.8816417
51
198.2346507
0
ARC
8
DEFAULT_255_1_234
10
5.1534766
20
68.6263079
40
1.0724845
50
180.8976217
51
188.0055519
0
ARC
8
DEFAULT_255_1_234
10
5.4334954
20
68.6366777
40
1.3526448
50
180.7449369
51
181.1510016
0
ARC
8
DEFAULT_255_1_234
10
5.2757683
20
68.8223042
40
1.1948131
50
173.7675579
51
180.231553
0
ARC
8
DEFAULT_255_1_234
10
4.823983
20
68.8733666
40
0.7401564
50
164.3058563
51
173.9002247
0
ARC
8
DEFAULT_255_1_234
10
4.5327899
20
68.9572656
40
0.4371288
50
148.7922025
51
164.568378
0
ARC
8
DEFAULT_255_1_234
10
4.4376351
20
69.0103929
40
0.3282386
50
144.5883898
51
148.1176286
0
ARC
8
DEFAULT_255_1_234
10
4.4033249
20
69.0343315
40
0.2864044
50
101.6440918
51
144.514236
0
ARC
8
DEFAULT_255_1_234
10
4.4458315
20
68.8654069
40
0.4604934
50
89.5284041
51
102.5819763
0
ARC
8
DEFAULT_255_1_234
10
4.4537403
20
68.8615018
40
0.464401
50
77.0437873
51
90.5081339
0
ARC
8
DEFAULT_255_1_234
10
4.4939405
20
69.0257615
40
0.2953195
50
48.2778575
51
77.4994676
0
ARC
8
DEFAULT_255_1_234
10
4.5012036
20
69.0386746
40
0.2808655
50
36.3142134
51
47.6305865
0
ARC
8
DEFAULT_255_1_234
10
4.4143343
20
68.9801515
40
0.3855453
50
18.2931786
51
35.6769206
0
ARC
8
DEFAULT_255_1_234
10
4.1600102
20
68.8928593
40
0.654423
50
8.024666
51
18.5605216
0
ARC
8
DEFAULT_255_1_234
10
3.7437022
20
68.8313792
40
1.0752407
50
1.1274072
51
8.1718305
0
ARC
8
DEFAULT_255_1_234
10
3.4201213
20
68.8186885
40
1.3990231
50
0.5424119
51
1.3863029
0
ARC
8
DEFAULT_255_1_234
10
3.602259
20
68.8459342
40
1.0682415
50
359.8090433
51
4.9407866
0
ARC
8
DEFAULT_255_1_234
10
4.0232604
20
68.8835113
40
0.6455691
50
4.8362157
51
12.2904523
0
ARC
8
DEFAULT_255_1_234
10
4.2987719
20
68.9448965
40
0.3633074
50
12.0805627
51
23.8173984
0
ARC
8
DEFAULT_255_1_234
10
4.4161425
20
68.9945919
40
0.2358723
50
24.2871213
51
31.3935614
0
ARC
8
DEFAULT_255_1_234
10
4.4686122
20
69.0289233
40
0.1732111
50
30.7407893
51
82.4657128
0
ARC
8
DEFAULT_255_1_234
10
4.4506256
20
68.9405691
40
0.263235
50
81.1060089
51
90.2184952
0
ARC
8
DEFAULT_255_1_234
10
4.4470555
20
68.9663924
40
0.2374236
50
89.3806855
51
105.6762551
0
ARC
8
DEFAULT_255_1_234
10
4.4287186
20
69.0330567
40
0.1682847
50
105.7981136
51
149.7388061
0
ARC
8
DEFAULT_255_1_234
10
4.5351264
20
68.969095
40
0.2924306
50
149.4208916
51
163.6286378
0
ARC
8
DEFAULT_255_1_234
10
4.7442152
20
68.905325
40
0.5110213
50
163.3763315
51
172.1410975
0
ARC
8
DEFAULT_255_1_234
10
5.0742871
20
68.8580518
40
0.8444586
50
172.0259487
51
178.0703232
0
ARC
8
DEFAULT_255_1_234
10
5.377296
20
68.8436906
40
1.1477868
50
177.8631668
51
179.5044149
0
ARC
8
DEFAULT_255_1_234
10
5.2700365
20
68.6122389
40
1.0404907
50
179.7995573
51
185.2460446
0
ARC
8
DEFAULT_255_1_234
10
4.8657404
20
68.5739513
40
0.6343885
50
185.1411642
51
193.0079639
0
ARC
8
DEFAULT_255_1_234
10
4.6013877
20
68.5114641
40
0.3627568
50
192.7897626
51
205.2507664
0
ARC
8
DEFAULT_255_1_234
10
4.4967424
20
68.4647415
40
0.2481908
50
205.8005384
51
211.2537509
0
ARC
8
DEFAULT_255_1_234
10
4.4443864
20
68.429658
40
0.1852521
50
210.3789793
51
238.4008143
0
ARC
8
DEFAULT_255_1_234
10
4.4424386
20
68.4343376
40
0.1882621
50
239.6520629
51
265.9793761
0
ARC
8
DEFAULT_255_1_234
10
4.4509586
20
68.5015427
40
0.2559272
50
265.1315437
51
270.060332
0
ARC
8
DEFAULT_255_1_234
10
4.4538365
20
68.4691534
40
0.2235528
50
269.3314664
51
287.2178029
0
ARC
8
DEFAULT_255_1_234
10
4.4676217
20
68.4188279
40
0.1714108
50
287.7958004
51
329.080874
0
ARC
8
DEFAULT_255_1_234
10
4.3718674
20
68.478593
40
0.2842745
50
328.6634704
51
343.3325132
0
ARC
8
DEFAULT_255_1_234
10
4.1545694
20
68.5462863
40
0.5118644
50
343.0499468
51
351.9393422
0
ARC
8
DEFAULT_255_1_234
10
3.8078994
20
68.5973949
40
0.8622784
50
351.8069023
51
357.7959224
0
ARC
8
DEFAULT_255_1_234
10
3.484355
20
68.6141721
40
1.1862365
50
357.5871873
51
359.2677531
0
ARC
8
DEFAULT_255_1_234
10
5.1349384
20
68.2192565
40
0.1070357
50
163.5417914
51
180.5078233
0
ARC
8
DEFAULT_255_1_234
10
5.1157202
20
68.2244421
40
0.0871371
50
138.1647447
51
163.2316401
0
ARC
8
DEFAULT_255_1_234
10
5.1044981
20
68.2339534
40
0.0724329
50
105.6856465
51
137.8494928
0
ARC
8
DEFAULT_255_1_234
10
5.1163413
20
68.1955129
40
0.1126485
50
92.6088068
51
106.1990587
0
ARC
8
DEFAULT_255_1_234
10
5.1193786
20
68.1559774
40
0.1522861
50
89.9660831
51
93.0733434
0
ARC
8
DEFAULT_255_1_234
10
5.1204481
20
68.178132
40
0.130135
50
78.4379222
51
90.4311858
0
ARC
8
DEFAULT_255_1_234
10
5.1301061
20
68.2231588
40
0.0840873
50
56.8960528
51
78.7359558
0
ARC
8
DEFAULT_255_1_234
10
5.1364288
20
68.2341877
40
0.0713991
50
42.6499553
51
56.3125067
0
ARC
8
DEFAULT_255_1_234
10
5.1236175
20
68.2224146
40
0.0887984
50
3.8142714
51
42.6365749
0
ARC
8
DEFAULT_255_1_234
10
5.0949976
20
68.2184153
40
0.1176392
50
359.9476902
51
4.8305927
0
ARC
8
DEFAULT_255_1_234
10
5.1176135
20
68.2173541
40
0.0950282
50
340.9376387
51
0.5750546
0
ARC
8
DEFAULT_255_1_234
10
5.1288631
20
68.2143192
40
0.0834082
50
316.0805399
51
340.3842391
0
ARC
8
DEFAULT_255_1_234
10
5.134671
20
68.2089809
40
0.0755219
50
285.8514865
51
315.9414755
0
ARC
8
DEFAULT_255_1_234
10
5.1229281
20
68.2469349
40
0.115244
50
273.1292529
51
286.3135479
0
ARC
8
DEFAULT_255_1_234
10
5.119598
20
68.2871049
40
0.1555398
50
269.9524064
51
273.5463789
0
ARC
8
DEFAULT_255_1_234
10
5.1184932
20
68.2652792
40
0.1337177
50
259.0490813
51
270.4180302
0
ARC
8
DEFAULT_255_1_234
10
5.1088595
20
68.2175393
40
0.0850178
50
239.7587791
51
259.311372
0
ARC
8
DEFAULT_255_1_234
10
5.1007626
20
68.2024482
40
0.0679053
50
222.6244131
51
239.247817
0
ARC
8
DEFAULT_255_1_234
10
5.1142001
20
68.2147619
40
0.0861314
50
182.9227855
51
222.598345
0
ARC
8
DEFAULT_255_1_234
10
5.141062
20
68.2182373
40
0.113155
50
179.9642935
51
183.9868025
0
LINE
8
DEFAULT_255_1_234
10
5.9989441
20
69.3106243
11
6.0254488
21
69.3106243
0
LINE
8
DEFAULT_255_1_234
10
6.0254488
20
69.3106243
11
6.0254488
21
69.184526
0
LINE
8
DEFAULT_255_1_234
10
6.0254488
20
69.184526
11
5.9981409
21
69.184526
0
LINE
8
DEFAULT_255_1_234
10
5.4511795
20
68.5853583
11
5.4511795
21
68.6423836
0
LINE
8
DEFAULT_255_1_234
10
5.6005699
20
68.6231075
11
5.6005699
21
68.5684917
0
ARC
8
DEFAULT_255_1_234
10
6.0033757
20
68.6847455
40
0.4998079
50
90.6001036
51
104.514704
0
ARC
8
DEFAULT_255_1_234
10
5.9645273
20
68.8292131
40
0.3502176
50
104.2855254
51
133.862935
0
ARC
8
DEFAULT_255_1_234
10
5.980903
20
68.818383
40
0.3693984
50
134.5302688
51
161.6210873
0
ARC
8
DEFAULT_255_1_234
10
6.1462219
20
68.7600895
40
0.5446739
50
161.2849839
51
174.2076652
0
ARC
8
DEFAULT_255_1_234
10
6.2869156
20
68.7406787
40
0.6866274
50
173.7810589
51
174.9254635
0
ARC
8
DEFAULT_255_1_234
10
5.8318988
20
68.6023839
40
0.3033419
50
95.8330959
51
138.9954921
0
ARC
8
DEFAULT_255_1_234
10
5.8542344
20
68.4745375
40
0.4328947
50
89.8753725
51
97.0544009
0
ARC
8
DEFAULT_255_1_234
10
5.858981
20
68.5580748
40
0.3493769
50
71.6407809
51
90.6240094
0
ARC
8
DEFAULT_255_1_234
10
5.8740383
20
68.6135082
40
0.2920396
50
39.6367836
51
71.019018
0
ARC
8
DEFAULT_255_1_234
10
5.8103856
20
68.5584998
40
0.3761538
50
10.658731
51
39.9043955
0
ARC
8
DEFAULT_255_1_234
10
5.6555939
20
68.5248686
40
0.5345136
50
359.682601
51
11.132623
0
ARC
8
DEFAULT_255_1_234
10
5.651607
20
68.517801
40
0.5385081
50
347.2486944
51
0.4369317
0
ARC
8
DEFAULT_255_1_234
10
5.8183547
20
68.4776807
40
0.3670249
50
318.1409698
51
347.6118597
0
ARC
8
DEFAULT_255_1_234
10
5.850854
20
68.4509702
40
0.3250007
50
275.6342139
51
317.8248465
0
ARC
8
DEFAULT_255_1_234
10
5.8287651
20
68.5809219
40
0.4565864
50
269.8874292
51
276.7917694
0
ARC
8
DEFAULT_255_1_234
10
5.8232722
20
68.4783743
40
0.3540676
50
246.9140195
51
270.7437342
0
ARC
8
DEFAULT_255_1_234
10
5.8239112
20
68.4641384
40
0.3412781
50
218.1665114
51
245.878116
0
ARC
8
DEFAULT_255_1_234
10
5.9118573
20
68.5377279
40
0.455911
50
191.4115814
51
218.6077802
0
ARC
8
DEFAULT_255_1_234
10
6.1056662
20
68.5811833
40
0.6545001
50
179.6345085
51
191.7836486
0
ARC
8
DEFAULT_255_1_234
10
6.6638999
20
68.6490697
40
1.2127388
50
171.4525249
51
180.3158839
0
ARC
8
DEFAULT_255_1_234
10
6.2243875
20
68.7174608
40
0.7679464
50
157.9802646
51
171.6246686
0
ARC
8
DEFAULT_255_1_234
10
6.0029896
20
68.8057421
40
0.5296008
50
141.4298019
51
157.854097
0
ARC
8
DEFAULT_255_1_234
10
5.9388216
20
68.8511381
40
0.4511509
50
102.8715806
51
140.8564722
0
ARC
8
DEFAULT_255_1_234
10
6.0035832
20
68.6071552
40
0.7034845
50
90.3778349
51
103.5869322
0
ARC
8
DEFAULT_255_1_234
10
5.8297608
20
68.546673
40
0.2370698
50
89.8751008
51
126.2071704
0
ARC
8
DEFAULT_255_1_234
10
5.8343398
20
68.5312303
40
0.2522934
50
124.9745049
51
144.895901
0
ARC
8
DEFAULT_255_1_234
10
5.8167588
20
68.545556
40
0.2296779
50
145.2974905
51
160.2660252
0
ARC
8
DEFAULT_255_1_234
10
6.1240127
20
68.5653071
40
0.5234525
50
179.6514266
51
190.2855912
0
ARC
8
DEFAULT_255_1_234
10
5.9546264
20
68.5333786
40
0.3510893
50
190.0945431
51
207.5098196
0
ARC
8
DEFAULT_255_1_234
10
5.8980534
20
68.5064623
40
0.288489
50
207.9583163
51
216.3251085
0
ARC
8
DEFAULT_255_1_234
10
5.8640642
20
68.4785105
40
0.2445587
50
215.7661442
51
232.5456785
0
ARC
8
DEFAULT_255_1_234
10
5.8257625
20
68.4298482
40
0.1826382
50
232.8005391
51
270.6605633
0
ARC
8
DEFAULT_255_1_234
10
5.8303326
20
68.4662612
40
0.2190529
50
269.35537
51
288.4744281
0
ARC
8
DEFAULT_255_1_234
10
5.8396223
20
68.4313118
40
0.1829749
50
289.1833337
51
322.9683818
0
ARC
8
DEFAULT_255_1_234
10
5.7784745
20
68.4795391
40
0.2608399
50
322.6007884
51
346.5182367
0
ARC
8
DEFAULT_255_1_234
10
5.6627341
20
68.5090616
40
0.3802777
50
346.2582162
51
358.7741648
0
ARC
8
DEFAULT_255_1_234
10
5.560901
20
68.5145965
40
0.4822176
50
358.3755224
51
0.0098023
0
ARC
8
DEFAULT_255_1_234
10
5.6365197
20
68.5173657
40
0.4066078
50
359.6214041
51
11.2839074
0
ARC
8
DEFAULT_255_1_234
10
5.7642344
20
68.5440066
40
0.2761514
50
11.0482309
51
31.8146458
0
ARC
8
DEFAULT_255_1_234
10
5.7951387
20
68.5607584
40
0.2410679
50
32.3035391
51
38.082671
0
ARC
8
DEFAULT_255_1_234
10
5.8372047
20
68.5988662
40
0.1844966
50
36.825067
51
85.7415724
0
ARC
8
DEFAULT_255_1_234
10
5.830488
20
68.5488301
40
0.2349122
50
85.0140713
51
90.0513278
0
LINE
8
DEFAULT_255_1_234
10
4.8190817
20
76.7694327
11
4.8190817
21
76.5766709
0
LINE
8
DEFAULT_255_1_234
10
4.080965
20
76.5565916
11
4.080965
21
76.7549755
0
LINE
8
DEFAULT_255_1_234
10
4.6704946
20
76.5365123
11
4.6704946
21
76.7798739
0
LINE
8
DEFAULT_255_1_234
10
4.2295521
20
76.7911184
11
4.2295521
21
76.5533789
0
ARC
8
DEFAULT_255_1_234
10
3.5943707
20
76.5717805
40
1.2247208
50
353.8441951
51
0.2287902
0
ARC
8
DEFAULT_255_1_234
10
4.0583211
20
76.5199806
40
0.7578929
50
344.4934747
51
353.9765454
0
ARC
8
DEFAULT_255_1_234
10
4.3575801
20
76.4348981
40
0.4467846
50
329.2803592
51
344.7472793
0
ARC
8
DEFAULT_255_1_234
10
4.4568626
20
76.3804018
40
0.3336173
50
324.9352394
51
328.6160465
0
ARC
8
DEFAULT_255_1_234
10
4.4945734
20
76.3540427
40
0.2876076
50
280.580143
51
324.9173126
0
ARC
8
DEFAULT_255_1_234
10
4.4544527
20
76.5211099
40
0.4592847
50
269.5977311
51
281.6734359
0
ARC
8
DEFAULT_255_1_234
10
4.4472433
20
76.5091173
40
0.4472986
50
256.6228859
51
270.51044
0
ARC
8
DEFAULT_255_1_234
10
4.407041
20
76.3542877
40
0.2873874
50
215.8618325
51
257.2788573
0
ARC
8
DEFAULT_255_1_234
10
4.5091442
20
76.4227977
40
0.4102928
50
197.9693508
51
215.2623606
0
ARC
8
DEFAULT_255_1_234
10
4.7576558
20
76.5066709
40
0.6725652
50
187.8816417
51
198.2346507
0
ARC
8
DEFAULT_255_1_234
10
5.1534766
20
76.5638079
40
1.0724845
50
180.8976217
51
188.0055519
0
ARC
8
DEFAULT_255_1_234
10
5.4334954
20
76.5741777
40
1.3526448
50
180.7449369
51
181.1510016
0
ARC
8
DEFAULT_255_1_234
10
5.2757683
20
76.7598042
40
1.1948131
50
173.7675579
51
180.231553
0
ARC
8
DEFAULT_255_1_234
10
4.823983
20
76.8108666
40
0.7401564
50
164.3058563
51
173.9002247
0
ARC
8
DEFAULT_255_1_234
10
4.5327899
20
76.8947656
40
0.4371288
50
148.7922025
51
164.568378
0
ARC
8
DEFAULT_255_1_234
10
4.4376351
20
76.9478929
40
0.3282386
50
144.5883898
51
148.1176286
0
ARC
8
DEFAULT_255_1_234
10
4.4033249
20
76.9718315
40
0.2864044
50
101.6440918
51
144.514236
0
ARC
8
DEFAULT_255_1_234
10
4.4458315
20
76.8029069
40
0.4604934
50
89.5284041
51
102.5819763
0
ARC
8
DEFAULT_255_1_234
10
4.4537403
20
76.7990018
40
0.464401
50
77.0437873
51
90.5081339
0
ARC
8
DEFAULT_255_1_234
10
4.4939405
20
76.9632615
40
0.2953195
50
48.2778575
51
77.4994676
0
ARC
8
DEFAULT_255_1_234
10
4.5012036
20
76.9761746
40
0.2808655
50
36.3142134
51
47.6305865
0
ARC
8
DEFAULT_255_1_234
10
4.4143343
20
76.9176515
40
0.3855453
50
18.2931786
51
35.6769206
0
ARC
8
DEFAULT_255_1_234
10
4.1600102
20
76.8303593
40
0.654423
50
8.024666
51
18.5605216
0
ARC
8
DEFAULT_255_1_234
10
3.7437022
20
76.7688792
40
1.0752407
50
1.1274072
51
8.1718305
0
ARC
8
DEFAULT_255_1_234
10
3.4201213
20
76.7561885
40
1.3990231
50
0.5424119
51
1.3863029
0
ARC
8
DEFAULT_255_1_234
10
3.602259
20
76.7834342
40
1.0682415
50
359.8090433
51
4.9407866
0
ARC
8
DEFAULT_255_1_234
10
4.0232604
20
76.8210113
40
0.6455691
50
4.8362157
51
12.2904523
0
ARC
8
DEFAULT_255_1_234
10
4.2987719
20
76.8823965
40
0.3633074
50
12.0805627
51
23.8173984
0
ARC
8
DEFAULT_255_1_234
10
4.4161425
20
76.9320919
40
0.2358723
50
24.2871213
51
31.3935614
0
ARC
8
DEFAULT_255_1_234
10
4.4686122
20
76.9664233
40
0.1732111
50
30.7407893
51
82.4657128
0
ARC
8
DEFAULT_255_1_234
10
4.4506256
20
76.8780691
40
0.263235
50
81.1060089
51
90.2184952
0
ARC
8
DEFAULT_255_1_234
10
4.4470555
20
76.9038924
40
0.2374236
50
89.3806855
51
105.6762551
0
ARC
8
DEFAULT_255_1_234
10
4.4287186
20
76.9705567
40
0.1682847
50
105.7981136
51
149.7388061
0
ARC
8
DEFAULT_255_1_234
10
4.5351264
20
76.906595
40
0.2924306
50
149.4208916
51
163.6286378
0
ARC
8
DEFAULT_255_1_234
10
4.7442152
20
76.842825
40
0.5110213
50
163.3763315
51
172.1410975
0
ARC
8
DEFAULT_255_1_234
10
5.0742871
20
76.7955518
40
0.8444586
50
172.0259487
51
178.0703232
0
ARC
8
DEFAULT_255_1_234
10
5.377296
20
76.7811906
40
1.1477868
50
177.8631668
51
179.5044149
0
ARC
8
DEFAULT_255_1_234
10
5.2700365
20
76.5497389
40
1.0404907
50
179.7995573
51
185.2460446
0
ARC
8
DEFAULT_255_1_234
10
4.8657404
20
76.5114513
40
0.6343885
50
185.1411642
51
193.0079639
0
ARC
8
DEFAULT_255_1_234
10
4.6013877
20
76.4489641
40
0.3627568
50
192.7897626
51
205.2507664
0
ARC
8
DEFAULT_255_1_234
10
4.4967424
20
76.4022415
40
0.2481908
50
205.8005384
51
211.2537509
0
ARC
8
DEFAULT_255_1_234
10
4.4443864
20
76.367158
40
0.1852521
50
210.3789793
51
238.4008143
0
ARC
8
DEFAULT_255_1_234
10
4.4424386
20
76.3718376
40
0.1882621
50
239.6520629
51
265.9793761
0
ARC
8
DEFAULT_255_1_234
10
4.4509586
20
76.4390427
40
0.2559272
50
265.1315437
51
270.060332
0
ARC
8
DEFAULT_255_1_234
10
4.4538365
20
76.4066534
40
0.2235528
50
269.3314664
51
287.2178029
0
ARC
8
DEFAULT_255_1_234
10
4.4676217
20
76.3563279
40
0.1714108
50
287.7958004
51
329.080874
0
ARC
8
DEFAULT_255_1_234
10
4.3718674
20
76.416093
40
0.2842745
50
328.6634704
51
343.3325132
0
ARC
8
DEFAULT_255_1_234
10
4.1545694
20
76.4837863
40
0.5118644
50
343.0499468
51
351.9393422
0
ARC
8
DEFAULT_255_1_234
10
3.8078994
20
76.5348949
40
0.8622784
50
351.8069023
51
357.7959224
0
ARC
8
DEFAULT_255_1_234
10
3.484355
20
76.5516721
40
1.1862365
50
357.5871873
51
359.2677531
0
ARC
8
DEFAULT_255_1_234
10
5.1349384
20
76.1567565
40
0.1070357
50
163.5417914
51
180.5078233
0
ARC
8
DEFAULT_255_1_234
10
5.1157202
20
76.1619421
40
0.0871371
50
138.1647447
51
163.2316401
0
ARC
8
DEFAULT_255_1_234
10
5.1044981
20
76.1714534
40
0.0724329
50
105.6856465
51
137.8494928
0
ARC
8
DEFAULT_255_1_234
10
5.1163413
20
76.1330129
40
0.1126485
50
92.6088068
51
106.1990587
0
ARC
8
DEFAULT_255_1_234
10
5.1193786
20
76.0934774
40
0.1522861
50
89.9660831
51
93.0733434
0
ARC
8
DEFAULT_255_1_234
10
5.1204481
20
76.115632
40
0.130135
50
78.4379222
51
90.4311858
0
ARC
8
DEFAULT_255_1_234
10
5.1301061
20
76.1606588
40
0.0840873
50
56.8960528
51
78.7359558
0
ARC
8
DEFAULT_255_1_234
10
5.1364288
20
76.1716877
40
0.0713991
50
42.6499553
51
56.3125067
0
ARC
8
DEFAULT_255_1_234
10
5.1236175
20
76.1599146
40
0.0887984
50
3.8142714
51
42.6365749
0
ARC
8
DEFAULT_255_1_234
10
5.0949976
20
76.1559153
40
0.1176392
50
359.9476902
51
4.8305927
0
ARC
8
DEFAULT_255_1_234
10
5.1176135
20
76.1548541
40
0.0950282
50
340.9376387
51
0.5750546
0
ARC
8
DEFAULT_255_1_234
10
5.1288631
20
76.1518192
40
0.0834082
50
316.0805399
51
340.3842391
0
ARC
8
DEFAULT_255_1_234
10
5.134671
20
76.1464809
40
0.0755219
50
285.8514865
51
315.9414755
0
ARC
8
DEFAULT_255_1_234
10
5.1229281
20
76.1844349
40
0.115244
50
273.1292529
51
286.3135479
0
ARC
8
DEFAULT_255_1_234
10
5.119598
20
76.2246049
40
0.1555398
50
269.9524064
51
273.5463789
0
ARC
8
DEFAULT_255_1_234
10
5.1184932
20
76.2027792
40
0.1337177
50
259.0490813
51
270.4180302
0
ARC
8
DEFAULT_255_1_234
10
5.1088595
20
76.1550393
40
0.0850178
50
239.7587791
51
259.311372
0
ARC
8
DEFAULT_255_1_234
10
5.1007626
20
76.1399482
40
0.0679053
50
222.6244131
51
239.247817
0
ARC
8
DEFAULT_255_1_234
10
5.1142001
20
76.1522619
40
0.0861314
50
182.9227855
51
222.598345
0
ARC
8
DEFAULT_255_1_234
10
5.141062
20
76.1557373
40
0.113155
50
179.9642935
51
183.9868025
0
LINE
8
DEFAULT_255_1_234
10
5.6294841
20
76.6336963
11
5.5106144
21
76.6642169
0
LINE
8
DEFAULT_255_1_234
10
5.5106144
20
76.6642169
11
5.5700493
21
77.2473211
0
LINE
8
DEFAULT_255_1_234
10
5.5700493
20
77.2473211
11
6.1692169
21
77.2473211
0
LINE
8
DEFAULT_255_1_234
10
6.1692169
20
77.2473211
11
6.1692169
21
77.1099784
0
LINE
8
DEFAULT_255_1_234
10
6.1692169
20
77.1099784
11
5.6961476
21
77.1099784
0
LINE
8
DEFAULT_255_1_234
10
5.6961476
20
77.1099784
11
5.6608079
21
76.7911184
0
LINE
8
DEFAULT_255_1_234
10
5.4688494
20
76.3855156
11
5.6094048
21
76.3855156
0
LINE
8
DEFAULT_255_1_234
10
5.6688396
20
76.6658232
11
5.6294841
21
76.6336963
0
ARC
8
DEFAULT_255_1_234
10
5.8462863
20
76.473123
40
0.3681349
50
93.7182161
51
120.2538958
0
ARC
8
DEFAULT_255_1_234
10
5.8557126
20
76.3923394
40
0.449379
50
89.9660152
51
94.2496022
0
ARC
8
DEFAULT_255_1_234
10
5.859786
20
76.4512549
40
0.390482
50
73.8043271
51
90.5585896
0
ARC
8
DEFAULT_255_1_234
10
5.8832757
20
76.5370602
40
0.3015334
50
41.3071453
51
73.5430202
0
ARC
8
DEFAULT_255_1_234
10
5.8416584
20
76.5012324
40
0.3564457
50
13.5075983
51
41.2174222
0
ARC
8
DEFAULT_255_1_234
10
5.6774788
20
76.4582486
40
0.5261351
50
1.1331335
51
13.8829381
0
ARC
8
DEFAULT_255_1_234
10
5.5363157
20
76.4506665
40
0.6674378
50
359.9919444
51
1.544251
0
ARC
8
DEFAULT_255_1_234
10
5.6639983
20
76.446528
40
0.5397702
50
347.8572367
51
0.4293338
0
ARC
8
DEFAULT_255_1_234
10
5.8390301
20
76.4068736
40
0.3603188
50
323.673004
51
348.1672506
0
ARC
8
DEFAULT_255_1_234
10
5.8684809
20
76.3889168
40
0.3259678
50
316.8171152
51
323.1492751
0
ARC
8
DEFAULT_255_1_234
10
5.8745998
20
76.385246
40
0.3189975
50
281.8396411
51
316.5457803
0
ARC
8
DEFAULT_255_1_234
10
5.8370262
20
76.5407762
40
0.4789527
50
269.5770101
51
282.4214771
0
ARC
8
DEFAULT_255_1_234
10
5.8299073
20
76.5194125
40
0.45759
50
256.2427136
51
270.4486331
0
ARC
8
DEFAULT_255_1_234
10
5.7999975
20
76.3994229
40
0.3339303
50
228.9023911
51
256.3314342
0
ARC
8
DEFAULT_255_1_234
10
5.7926208
20
76.3877746
40
0.32031
50
193.753695
51
228.5271154
0
ARC
8
DEFAULT_255_1_234
10
5.9164162
20
76.42408
40
0.4492253
50
184.924711
51
194.497588
0
ARC
8
DEFAULT_255_1_234
10
5.9356729
20
76.4276591
40
0.3289787
50
187.3600538
51
198.6732863
0
ARC
8
DEFAULT_255_1_234
10
5.8307023
20
76.3912674
40
0.217884
50
198.4451669
51
217.794479
0
ARC
8
DEFAULT_255_1_234
10
5.8011198
20
76.3703085
40
0.1816698
50
218.2887171
51
228.5612368
0
ARC
8
DEFAULT_255_1_234
10
5.8108985
20
76.3834963
40
0.1980329
50
228.9654866
51
258.1234728
0
ARC
8
DEFAULT_255_1_234
10
5.8314695
20
76.4715833
40
0.2884748
50
257.7258293
51
270.401361
0
ARC
8
DEFAULT_255_1_234
10
5.8359581
20
76.4270821
40
0.2439788
50
269.4204404
51
286.4209037
0
ARC
8
DEFAULT_255_1_234
10
5.8508069
20
76.3731657
40
0.1880666
50
286.7251356
51
320.600362
0
ARC
8
DEFAULT_255_1_234
10
5.8124894
20
76.4042595
40
0.2374121
50
320.6712579
51
344.5441685
0
ARC
8
DEFAULT_255_1_234
10
5.696822
20
76.4382045
40
0.3579479
50
344.2412205
51
356.7357071
0
ARC
8
DEFAULT_255_1_234
10
5.5719369
20
76.4485444
40
0.4832297
50
356.3548756
51
0.0500261
0
ARC
8
DEFAULT_255_1_234
10
5.7055878
20
76.451665
40
0.3495889
50
359.5576869
51
12.953486
0
ARC
8
DEFAULT_255_1_234
10
5.8110775
20
76.4772434
40
0.2410532
50
12.6490276
51
41.6081334
0
ARC
8
DEFAULT_255_1_234
10
5.8341146
20
76.4968321
40
0.2108218
50
41.7850273
51
85.9892764
0
ARC
8
DEFAULT_255_1_234
10
5.8217883
20
76.4155462
40
0.2928454
50
84.6957577
51
90.0676183
0
ARC
8
DEFAULT_255_1_234
10
5.8194367
20
76.3486716
40
0.3597255
50
89.6804936
51
99.1614436
0
ARC
8
DEFAULT_255_1_234
10
5.7988998
20
76.4714131
40
0.235281
50
98.9830931
51
113.8908934
0
ARC
8
DEFAULT_255_1_234
10
5.7759408
20
76.5255587
40
0.176479
50
114.1950727
51
127.3641004
0
LINE
8
DEFAULT_255_1_234
10
4.9248817
20
84.7069327
11
4.9248817
21
84.5141709
0
LINE
8
DEFAULT_255_1_234
10
4.186765
20
84.4940916
11
4.186765
21
84.6924755
0
LINE
8
DEFAULT_255_1_234
10
4.7762946
20
84.4740123
11
4.7762946
21
84.7173739
0
LINE
8
DEFAULT_255_1_234
10
4.3353521
20
84.7286184
11
4.3353521
21
84.4908789
0
ARC
8
DEFAULT_255_1_234
10
3.7001707
20
84.5092805
40
1.2247208
50
353.8441951
51
0.2287902
0
ARC
8
DEFAULT_255_1_234
10
4.1641211
20
84.4574806
40
0.7578929
50
344.4934747
51
353.9765454
0
ARC
8
DEFAULT_255_1_234
10
4.4633801
20
84.3723981
40
0.4467846
50
329.2803592
51
344.7472793
0
ARC
8
DEFAULT_255_1_234
10
4.5626626
20
84.3179018
40
0.3336173
50
324.9352394
51
328.6160465
0
ARC
8
DEFAULT_255_1_234
10
4.6003734
20
84.2915427
40
0.2876076
50
280.580143
51
324.9173126
0
ARC
8
DEFAULT_255_1_234
10
4.5602527
20
84.4586099
40
0.4592847
50
269.5977311
51
281.6734359
0
ARC
8
DEFAULT_255_1_234
10
4.5530433
20
84.4466173
40
0.4472986
50
256.6228859
51
270.51044
0
ARC
8
DEFAULT_255_1_234
10
4.512841
20
84.2917877
40
0.2873874
50
215.8618325
51
257.2788573
0
ARC
8
DEFAULT_255_1_234
10
4.6149442
20
84.3602977
40
0.4102928
50
197.9693508
51
215.2623606
0
ARC
8
DEFAULT_255_1_234
10
4.8634558
20
84.4441709
40
0.6725652
50
187.8816417
51
198.2346507
0
ARC
8
DEFAULT_255_1_234
10
5.2592766
20
84.5013079
40
1.0724845
50
180.8976217
51
188.0055519
0
ARC
8
DEFAULT_255_1_234
10
5.5392954
20
84.5116777
40
1.3526448
50
180.7449369
51
181.1510016
0
ARC
8
DEFAULT_255_1_234
10
5.3815683
20
84.6973042
40
1.1948131
50
173.7675579
51
180.231553
0
ARC
8
DEFAULT_255_1_234
10
4.929783
20
84.7483666
40
0.7401564
50
164.3058563
51
173.9002247
0
ARC
8
DEFAULT_255_1_234
10
4.6385899
20
84.8322656
40
0.4371288
50
148.7922025
51
164.568378
0
ARC
8
DEFAULT_255_1_234
10
4.5434351
20
84.8853929
40
0.3282386
50
144.5883898
51
148.1176286
0
ARC
8
DEFAULT_255_1_234
10
4.5091249
20
84.9093315
40
0.2864044
50
101.6440918
51
144.514236
0
ARC
8
DEFAULT_255_1_234
10
4.5516315
20
84.7404069
40
0.4604934
50
89.5284041
51
102.5819763
0
ARC
8
DEFAULT_255_1_234
10
4.5595403
20
84.7365018
40
0.464401
50
77.0437873
51
90.5081339
0
ARC
8
DEFAULT_255_1_234
10
4.5997405
20
84.9007615
40
0.2953195
50
48.2778575
51
77.4994676
0
ARC
8
DEFAULT_255_1_234
10
4.6070036
20
84.9136746
40
0.2808655
50
36.3142134
51
47.6305865
0
ARC
8
DEFAULT_255_1_234
10
4.5201343
20
84.8551515
40
0.3855453
50
18.2931786
51
35.6769206
0
ARC
8
DEFAULT_255_1_234
10
4.2658102
20
84.7678593
40
0.654423
50
8.024666
51
18.5605216
0
ARC
8
DEFAULT_255_1_234
10
3.8495022
20
84.7063792
40
1.0752407
50
1.1274072
51
8.1718305
0
ARC
8
DEFAULT_255_1_234
10
3.5259213
20
84.6936885
40
1.3990231
50
0.5424119
51
1.3863029
0
ARC
8
DEFAULT_255_1_234
10
3.708059
20
84.7209342
40
1.0682415
50
359.8090433
51
4.9407866
0
ARC
8
DEFAULT_255_1_234
10
4.1290604
20
84.7585113
40
0.6455691
50
4.8362157
51
12.2904523
0
ARC
8
DEFAULT_255_1_234
10
4.4045719
20
84.8198965
40
0.3633074
50
12.0805627
51
23.8173984
0
ARC
8
DEFAULT_255_1_234
10
4.5219425
20
84.8695919
40
0.2358723
50
24.2871213
51
31.3935614
0
ARC
8
DEFAULT_255_1_234
10
4.5744122
20
84.9039233
40
0.1732111
50
30.7407893
51
82.4657128
0
ARC
8
DEFAULT_255_1_234
10
4.5564256
20
84.8155691
40
0.263235
50
81.1060089
51
90.2184952
0
ARC
8
DEFAULT_255_1_234
10
4.5528555
20
84.8413924
40
0.2374236
50
89.3806855
51
105.6762551
0
ARC
8
DEFAULT_255_1_234
10
4.5345186
20
84.9080567
40
0.1682847
50
105.7981136
51
149.7388061
0
ARC
8
DEFAULT_255_1_234
10
4.6409264
20
84.844095
40
0.2924306
50
149.4208916
51
163.6286378
0
ARC
8
DEFAULT_255_1_234
10
4.8500152
20
84.780325
40
0.5110213
50
163.3763315
51
172.1410975
0
ARC
8
DEFAULT_255_1_234
10
5.1800871
20
84.7330518
40
0.8444586
50
172.0259487
51
178.0703232
0
ARC
8
DEFAULT_255_1_234
10
5.483096
20
84.7186906
40
1.1477868
50
177.8631668
51
179.5044149
0
ARC
8
DEFAULT_255_1_234
10
5.3758365
20
84.4872389
40
1.0404907
50
179.7995573
51
185.2460446
0
ARC
8
DEFAULT_255_1_234
10
4.9715404
20
84.4489513
40
0.6343885
50
185.1411642
51
193.0079639
0
ARC
8
DEFAULT_255_1_234
10
4.7071877
20
84.3864641
40
0.3627568
50
192.7897626
51
205.2507664
0
ARC
8
DEFAULT_255_1_234
10
4.6025424
20
84.3397415
40
0.2481908
50
205.8005384
51
211.2537509
0
ARC
8
DEFAULT_255_1_234
10
4.5501864
20
84.304658
40
0.1852521
50
210.3789793
51
238.4008143
0
ARC
8
DEFAULT_255_1_234
10
4.5482386
20
84.3093376
40
0.1882621
50
239.6520629
51
265.9793761
0
ARC
8
DEFAULT_255_1_234
10
4.5567586
20
84.3765427
40
0.2559272
50
265.1315437
51
270.060332
0
ARC
8
DEFAULT_255_1_234
10
4.5596365
20
84.3441534
40
0.2235528
50
269.3314664
51
287.2178029
0
ARC
8
DEFAULT_255_1_234
10
4.5734217
20
84.2938279
40
0.1714108
50
287.7958004
51
329.080874
0
ARC
8
DEFAULT_255_1_234
10
4.4776674
20
84.353593
40
0.2842745
50
328.6634704
51
343.3325132
0
ARC
8
DEFAULT_255_1_234
10
4.2603694
20
84.4212863
40
0.5118644
50
343.0499468
51
351.9393422
0
ARC
8
DEFAULT_255_1_234
10
3.9136994
20
84.4723949
40
0.8622784
50
351.8069023
51
357.7959224
0
ARC
8
DEFAULT_255_1_234
10
3.590155
20
84.4891721
40
1.1862365
50
357.5871873
51
359.2677531
0
ARC
8
DEFAULT_255_1_234
10
5.2407384
20
84.0942565
40
0.1070357
50
163.5417914
51
180.5078233
0
ARC
8
DEFAULT_255_1_234
10
5.2215202
20
84.0994421
40
0.0871371
50
138.1647447
51
163.2316401
0
ARC
8
DEFAULT_255_1_234
10
5.2102981
20
84.1089534
40
0.0724329
50
105.6856465
51
137.8494928
0
ARC
8
DEFAULT_255_1_234
10
5.2221413
20
84.0705129
40
0.1126485
50
92.6088068
51
106.1990587
0
ARC
8
DEFAULT_255_1_234
10
5.2251786
20
84.0309774
40
0.1522861
50
89.9660831
51
93.0733434
0
ARC
8
DEFAULT_255_1_234
10
5.2262481
20
84.053132
40
0.130135
50
78.4379222
51
90.4311858
0
ARC
8
DEFAULT_255_1_234
10
5.2359061
20
84.0981588
40
0.0840873
50
56.8960528
51
78.7359558
0
ARC
8
DEFAULT_255_1_234
10
5.2422288
20
84.1091877
40
0.0713991
50
42.6499553
51
56.3125067
0
ARC
8
DEFAULT_255_1_234
10
5.2294175
20
84.0974146
40
0.0887984
50
3.8142714
51
42.6365749
0
ARC
8
DEFAULT_255_1_234
10
5.2007976
20
84.0934153
40
0.1176392
50
359.9476902
51
4.8305927
0
ARC
8
DEFAULT_255_1_234
10
5.2234135
20
84.0923541
40
0.0950282
50
340.9376387
51
0.5750546
0
ARC
8
DEFAULT_255_1_234
10
5.2346631
20
84.0893192
40
0.0834082
50
316.0805399
51
340.3842391
0
ARC
8
DEFAULT_255_1_234
10
5.240471
20
84.0839809
40
0.0755219
50
285.8514865
51
315.9414755
0
ARC
8
DEFAULT_255_1_234
10
5.2287281
20
84.1219349
40
0.115244
50
273.1292529
51
286.3135479
0
ARC
8
DEFAULT_255_1_234
10
5.225398
20
84.1621049
40
0.1555398
50
269.9524064
51
273.5463789
0
ARC
8
DEFAULT_255_1_234
10
5.2242932
20
84.1402792
40
0.1337177
50
259.0490813
51
270.4180302
0
ARC
8
DEFAULT_255_1_234
10
5.2146595
20
84.0925393
40
0.0850178
50
239.7587791
51
259.311372
0
ARC
8
DEFAULT_255_1_234
10
5.2065626
20
84.0774482
40
0.0679053
50
222.6244131
51
239.247817
0
ARC
8
DEFAULT_255_1_234
10
5.2200001
20
84.0897619
40
0.0861314
50
182.9227855
51
222.598345
0
ARC
8
DEFAULT_255_1_234
10
5.246862
20
84.0932373
40
0.113155
50
179.9642935
51
183.9868025
0
LINE
8
DEFAULT_255_1_234
10
6.1754234
20
85.1848211
11
6.1754234
21
84.408152
0
LINE
8
DEFAULT_255_1_234
10
6.1754234
20
84.408152
11
6.3376645
21
84.408152
0
LINE
8
DEFAULT_255_1_234
10
6.3376645
20
84.408152
11
6.3376645
21
84.2868728
0
LINE
8
DEFAULT_255_1_234
10
6.3376645
20
84.2868728
11
6.1754234
21
84.2868728
0
LINE
8
DEFAULT_255_1_234
10
6.1754234
20
84.2868728
11
6.1754234
21
84.0154
0
LINE
8
DEFAULT_255_1_234
10
6.1754234
20
84.0154
11
6.0260331
21
84.0154
0
LINE
8
DEFAULT_255_1_234
10
6.0260331
20
84.0154
11
6.0260331
21
84.2868728
0
LINE
8
DEFAULT_255_1_234
10
6.0260331
20
84.2868728
11
5.4935288
21
84.2868728
0
LINE
8
DEFAULT_255_1_234
10
5.4935288
20
84.2868728
11
5.4935288
21
84.3744187
0
LINE
8
DEFAULT_255_1_234
10
5.4935288
20
84.3744187
11
6.0171981
21
85.1848211
0
LINE
8
DEFAULT_255_1_234
10
6.0171981
20
85.1848211
11
6.1754234
21
85.1848211
0
LINE
8
DEFAULT_255_1_234
10
6.0083632
20
84.9494912
11
5.6621953
21
84.408152
0
LINE
8
DEFAULT_255_1_234
10
5.6621953
20
84.408152
11
6.0260331
21
84.408152
0
LINE
8
DEFAULT_255_1_234
10
6.0260331
20
84.408152
11
6.0260331
21
84.9816181
0
LINE
8
DEFAULT_255_1_234
10
6.0260331
20
84.9816181
11
6.0083632
21
84.9494912
0
LINE
8
DEFAULT_255_1_234
10
4.8190817
20
92.6444327
11
4.8190817
21
92.4516709
0
LINE
8
DEFAULT_255_1_234
10
4.080965
20
92.4315916
11
4.080965
21
92.6299755
0
LINE
8
DEFAULT_255_1_234
10
4.6704946
20
92.4115123
11
4.6704946
21
92.6548739
0
LINE
8
DEFAULT_255_1_234
10
4.2295521
20
92.6661184
11
4.2295521
21
92.4283789
0
ARC
8
DEFAULT_255_1_234
10
3.5943707
20
92.4467805
40
1.2247208
50
353.8441951
51
0.2287902
0
ARC
8
DEFAULT_255_1_234
10
4.0583211
20
92.3949806
40
0.7578929
50
344.4934747
51
353.9765454
0
ARC
8
DEFAULT_255_1_234
10
4.3575801
20
92.3098981
40
0.4467846
50
329.2803592
51
344.7472793
0
ARC
8
DEFAULT_255_1_234
10
4.4568626
20
92.2554018
40
0.3336173
50
324.9352394
51
328.6160465
0
ARC
8
DEFAULT_255_1_234
10
4.4945734
20
92.2290427
40
0.2876076
50
280.580143
51
324.9173126
0
ARC
8
DEFAULT_255_1_234
10
4.4544527
20
92.3961099
40
0.4592847
50
269.5977311
51
281.6734359
0
ARC
8
DEFAULT_255_1_234
10
4.4472433
20
92.3841173
40
0.4472986
50
256.6228859
51
270.51044
0
ARC
8
DEFAULT_255_1_234
10
4.407041
20
92.2292877
40
0.2873874
50
215.8618325
51
257.2788573
0
ARC
8
DEFAULT_255_1_234
10
4.5091442
20
92.2977977
40
0.4102928
50
197.9693508
51
215.2623606
0
ARC
8
DEFAULT_255_1_234
10
4.7576558
20
92.3816709
40
0.6725652
50
187.8816417
51
198.2346507
0
ARC
8
DEFAULT_255_1_234
10
5.1534766
20
92.4388079
40
1.0724845
50
180.8976217
51
188.0055519
0
ARC
8
DEFAULT_255_1_234
10
5.4334954
20
92.4491777
40
1.3526448
50
180.7449369
51
181.1510016
0
ARC
8
DEFAULT_255_1_234
10
5.2757683
20
92.6348042
40
1.1948131
50
173.7675579
51
180.231553
0
ARC
8
DEFAULT_255_1_234
10
4.823983
20
92.6858666
40
0.7401564
50
164.3058563
51
173.9002247
0
ARC
8
DEFAULT_255_1_234
10
4.5327899
20
92.7697656
40
0.4371288
50
148.7922025
51
164.568378
0
ARC
8
DEFAULT_255_1_234
10
4.4376351
20
92.8228929
40
0.3282386
50
144.5883898
51
148.1176286
0
ARC
8
DEFAULT_255_1_234
10
4.4033249
20
92.8468315
40
0.2864044
50
101.6440918
51
144.514236
0
ARC
8
DEFAULT_255_1_234
10
4.4458315
20
92.6779069
40
0.4604934
50
89.5284041
51
102.5819763
0
ARC
8
DEFAULT_255_1_234
10
4.4537403
20
92.6740018
40
0.464401
50
77.0437873
51
90.5081339
0
ARC
8
DEFAULT_255_1_234
10
4.4939405
20
92.8382615
40
0.2953195
50
48.2778575
51
77.4994676
0
ARC
8
DEFAULT_255_1_234
10
4.5012036
20
92.8511746
40
0.2808655
50
36.3142134
51
47.6305865
0
ARC
8
DEFAULT_255_1_234
10
4.4143343
20
92.7926515
40
0.3855453
50
18.2931786
51
35.6769206
0
ARC
8
DEFAULT_255_1_234
10
4.1600102
20
92.7053593
40
0.654423
50
8.024666
51
18.5605216
0
ARC
8
DEFAULT_255_1_234
10
3.7437022
20
92.6438792
40
1.0752407
50
1.1274072
51
8.1718305
0
ARC
8
DEFAULT_255_1_234
10
3.4201213
20
92.6311885
40
1.3990231
50
0.5424119
51
1.3863029
0
ARC
8
DEFAULT_255_1_234
10
3.602259
20
92.6584342
40
1.0682415
50
359.8090433
51
4.9407866
0
ARC
8
DEFAULT_255_1_234
10
4.0232604
20
92.6960113
40
0.6455691
50
4.8362157
51
12.2904523
0
ARC
8
DEFAULT_255_1_234
10
4.2987719
20
92.7573965
40
0.3633074
50
12.0805627
51
23.8173984
0
ARC
8
DEFAULT_255_1_234
10
4.4161425
20
92.8070919
40
0.2358723
50
24.2871213
51
31.3935614
0
ARC
8
DEFAULT_255_1_234
10
4.4686122
20
92.8414233
40
0.1732111
50
30.7407893
51
82.4657128
0
ARC
8
DEFAULT_255_1_234
10
4.4506256
20
92.7530691
40
0.263235
50
81.1060089
51
90.2184952
0
ARC
8
DEFAULT_255_1_234
10
4.4470555
20
92.7788924
40
0.2374236
50
89.3806855
51
105.6762551
0
ARC
8
DEFAULT_255_1_234
10
4.4287186
20
92.8455567
40
0.1682847
50
105.7981136
51
149.7388061
0
ARC
8
DEFAULT_255_1_234
10
4.5351264
20
92.781595
40
0.2924306
50
149.4208916
51
163.6286378
0
ARC
8
DEFAULT_255_1_234
10
4.7442152
20
92.717825
40
0.5110213
50
163.3763315
51
172.1410975
0
ARC
8
DEFAULT_255_1_234
10
5.0742871
20
92.6705518
40
0.8444586
50
172.0259487
51
178.0703232
0
ARC
8
DEFAULT_255_1_234
10
5.377296
20
92.6561906
40
1.1477868
50
177.8631668
51
179.5044149
0
ARC
8
DEFAULT_255_1_234
10
5.2700365
20
92.4247389
40
1.0404907
50
179.7995573
51
185.2460446
0
ARC
8
DEFAULT_255_1_234
10
4.8657404
20
92.3864513
40
0.6343885
50
185.1411642
51
193.0079639
0
ARC
8
DEFAULT_255_1_234
10
4.6013877
20
92.3239641
40
0.3627568
50
192.7897626
51
205.2507664
0
ARC
8
DEFAULT_255_1_234
10
4.4967424
20
92.2772415
40
0.2481908
50
205.8005384
51
211.2537509
0
ARC
8
DEFAULT_255_1_234
10
4.4443864
20
92.242158
40
0.1852521
50
210.3789793
51
238.4008143
0
ARC
8
DEFAULT_255_1_234
10
4.4424386
20
92.2468376
40
0.1882621
50
239.6520629
51
265.9793761
0
ARC
8
DEFAULT_255_1_234
10
4.4509586
20
92.3140427
40
0.2559272
50
265.1315437
51
270.060332
0
ARC
8
DEFAULT_255_1_234
10
4.4538365
20
92.2816534
40
0.2235528
50
269.3314664
51
287.2178029
0
ARC
8
DEFAULT_255_1_234
10
4.4676217
20
92.2313279
40
0.1714108
50
287.7958004
51
329.080874
0
ARC
8
DEFAULT_255_1_234
10
4.3718674
20
92.291093
40
0.2842745
50
328.6634704
51
343.3325132
0
ARC
8
DEFAULT_255_1_234
10
4.1545694
20
92.3587863
40
0.5118644
50
343.0499468
51
351.9393422
0
ARC
8
DEFAULT_255_1_234
10
3.8078994
20
92.4098949
40
0.8622784
50
351.8069023
51
357.7959224
0
ARC
8
DEFAULT_255_1_234
10
3.484355
20
92.4266721
40
1.1862365
50
357.5871873
51
359.2677531
0
ARC
8
DEFAULT_255_1_234
10
5.1349384
20
92.0317565
40
0.1070357
50
163.5417914
51
180.5078233
0
ARC
8
DEFAULT_255_1_234
10
5.1157202
20
92.0369421
40
0.0871371
50
138.1647447
51
163.2316401
0
ARC
8
DEFAULT_255_1_234
10
5.1044981
20
92.0464534
40
0.0724329
50
105.6856465
51
137.8494928
0
ARC
8
DEFAULT_255_1_234
10
5.1163413
20
92.0080129
40
0.1126485
50
92.6088068
51
106.1990587
0
ARC
8
DEFAULT_255_1_234
10
5.1193786
20
91.9684774
40
0.1522861
50
89.9660831
51
93.0733434
0
ARC
8
DEFAULT_255_1_234
10
5.1204481
20
91.990632
40
0.130135
50
78.4379222
51
90.4311858
0
ARC
8
DEFAULT_255_1_234
10
5.1301061
20
92.0356588
40
0.0840873
50
56.8960528
51
78.7359558
0
ARC
8
DEFAULT_255_1_234
10
5.1364288
20
92.0466877
40
0.0713991
50
42.6499553
51
56.3125067
0
ARC
8
DEFAULT_255_1_234
10
5.1236175
20
92.0349146
40
0.0887984
50
3.8142714
51
42.6365749
0
ARC
8
DEFAULT_255_1_234
10
5.0949976
20
92.0309153
40
0.1176392
50
359.9476902
51
4.8305927
0
ARC
8
DEFAULT_255_1_234
10
5.1176135
20
92.0298541
40
0.0950282
50
340.9376387
51
0.5750546
0
ARC
8
DEFAULT_255_1_234
10
5.1288631
20
92.0268192
40
0.0834082
50
316.0805399
51
340.3842391
0
ARC
8
DEFAULT_255_1_234
10
5.134671
20
92.0214809
40
0.0755219
50
285.8514865
51
315.9414755
0
ARC
8
DEFAULT_255_1_234
10
5.1229281
20
92.0594349
40
0.115244
50
273.1292529
51
286.3135479
0
ARC
8
DEFAULT_255_1_234
10
5.119598
20
92.0996049
40
0.1555398
50
269.9524064
51
273.5463789
0
ARC
8
DEFAULT_255_1_234
10
5.1184932
20
92.0777792
40
0.1337177
50
259.0490813
51
270.4180302
0
ARC
8
DEFAULT_255_1_234
10
5.1088595
20
92.0300393
40
0.0850178
50
239.7587791
51
259.311372
0
ARC
8
DEFAULT_255_1_234
10
5.1007626
20
92.0149482
40
0.0679053
50
222.6244131
51
239.247817
0
ARC
8
DEFAULT_255_1_234
10
5.1142001
20
92.0272619
40
0.0861314
50
182.9227855
51
222.598345
0
ARC
8
DEFAULT_255_1_234
10
5.141062
20
92.0307373
40
0.113155
50
179.9642935
51
183.9868025
0
LINE
8
DEFAULT_255_1_234
10
5.6583984
20
92.4886169
11
5.6583984
21
92.6098962
0
LINE
8
DEFAULT_255_1_234
10
5.6583984
20
92.6098962
11
5.7700396
21
92.6098962
0
LINE
8
DEFAULT_255_1_234
10
5.5796874
20
92.8155087
11
5.4311002
21
92.8155087
0
LINE
8
DEFAULT_255_1_234
10
5.4206589
20
92.2613188
11
5.5700493
21
92.2613188
0
LINE
8
DEFAULT_255_1_234
10
5.7700396
20
92.4886169
11
5.6583984
21
92.4886169
0
ARC
8
DEFAULT_255_1_234
10
5.7671262
20
92.9491713
40
0.3392876
50
270.4919872
51
281.8951556
0
ARC
8
DEFAULT_255_1_234
10
5.7912524
20
92.8389702
40
0.2264817
50
281.6691735
51
301.2943132
0
ARC
8
DEFAULT_255_1_234
10
5.8082734
20
92.8078304
40
0.1910381
50
301.7833094
51
311.7545298
0
ARC
8
DEFAULT_255_1_234
10
5.817431
20
92.7976748
40
0.1773635
50
311.7323931
51
354.2802411
0
ARC
8
DEFAULT_255_1_234
10
5.7447935
20
92.8101722
40
0.2509385
50
353.0937916
51
0.1181479
0
ARC
8
DEFAULT_255_1_234
10
5.698672
20
92.8149386
40
0.2970898
50
359.1805295
51
15.0453146
0
ARC
8
DEFAULT_255_1_234
10
5.8332557
20
92.8541992
40
0.1569564
50
13.9577229
51
77.6713066
0
ARC
8
DEFAULT_255_1_234
10
5.7946086
20
92.7156949
40
0.3006298
50
76.1116566
51
90.7026153
0
ARC
8
DEFAULT_255_1_234
10
5.7886924
20
92.7430545
40
0.2732568
50
89.5324876
51
103.531937
0
ARC
8
DEFAULT_255_1_234
10
5.7686368
20
92.8229884
40
0.1908508
50
103.2931773
51
133.5619022
0
ARC
8
DEFAULT_255_1_234
10
5.7641857
20
92.8289375
40
0.1834746
50
133.8349307
51
173.5344437
0
ARC
8
DEFAULT_255_1_234
10
5.83649
20
92.8161213
40
0.2568033
50
172.5096846
51
180.1366907
0
ARC
8
DEFAULT_255_1_234
10
5.7413794
20
92.8195622
40
0.3103056
50
155.3484492
51
180.7484736
0
ARC
8
DEFAULT_255_1_234
10
5.7364883
20
92.8166846
40
0.3070957
50
131.5744599
51
154.4798489
0
ARC
8
DEFAULT_255_1_234
10
5.767803
20
92.785031
40
0.3515643
50
96.9875458
51
131.9690667
0
ARC
8
DEFAULT_255_1_234
10
5.789751
20
92.6604636
40
0.4779224
50
89.8596053
51
97.7825159
0
ARC
8
DEFAULT_255_1_234
10
5.7945573
20
92.6342616
40
0.5041361
50
78.3655447
51
90.4131539
0
ARC
8
DEFAULT_255_1_234
10
5.8303491
20
92.8001887
40
0.3344039
50
56.6229102
51
78.638727
0
ARC
8
DEFAULT_255_1_234
10
5.8518435
20
92.8377805
40
0.2912001
50
47.0253525
51
56.0854072
0
ARC
8
DEFAULT_255_1_234
10
5.8538215
20
92.8417223
40
0.2869704
50
10.9208013
51
46.7778124
0
ARC
8
DEFAULT_255_1_234
10
5.7174281
20
92.8101857
40
0.426899
50
359.6364486
51
11.6087304
0
ARC
8
DEFAULT_255_1_234
10
5.9009125
20
92.8086752
40
0.243409
50
332.3549906
51
359.7179418
0
ARC
8
DEFAULT_255_1_234
10
5.8358727
20
92.8395142
40
0.3153459
50
325.2333722
51
332.8745602
0
ARC
8
DEFAULT_255_1_234
10
5.851135
20
92.8288828
40
0.2967456
50
292.9802137
51
325.2392345
0
ARC
8
DEFAULT_255_1_234
10
5.8236724
20
92.8822863
40
0.3566604
50
292.5402179
51
293.6924929
0
ARC
8
DEFAULT_255_1_234
10
5.862932
20
92.2368091
40
0.3307468
50
57.6435486
51
72.8625112
0
ARC
8
DEFAULT_255_1_234
10
5.898382
20
92.2942549
40
0.2632492
50
36.7248896
51
57.4697979
0
ARC
8
DEFAULT_255_1_234
10
5.8972452
20
92.295522
40
0.2634081
50
8.0545065
51
36.356114
0
ARC
8
DEFAULT_255_1_234
10
5.8109638
20
92.2800174
40
0.3510261
50
359.8320645
51
8.5869982
0
ARC
8
DEFAULT_255_1_234
10
5.7734414
20
92.2752101
40
0.3885653
50
343.9829931
51
0.5571613
0
ARC
8
DEFAULT_255_1_234
10
5.8620611
20
92.2509438
40
0.2966924
50
311.6359546
51
343.7651759
0
ARC
8
DEFAULT_255_1_234
10
5.824218
20
92.2936102
40
0.3537231
50
279.7829875
51
311.6255694
0
ARC
8
DEFAULT_255_1_234
10
5.7940956
20
92.437328
40
0.5004971
50
269.7286406
51
280.3856417
0
ARC
8
DEFAULT_255_1_234
10
5.7879029
20
92.4331996
40
0.4963778
50
256.6828919
51
270.4412052
0
ARC
8
DEFAULT_255_1_234
10
5.7540325
20
92.2947394
40
0.3538406
50
229.4223008
51
256.8556159
0
ARC
8
DEFAULT_255_1_234
10
5.7125718
20
92.2480736
40
0.2914296
50
181.818294
51
229.6455059
0
ARC
8
DEFAULT_255_1_234
10
5.8165674
20
92.2611496
40
0.3959084
50
179.9755256
51
183.2323064
0
ARC
8
DEFAULT_255_1_234
10
5.799342
20
92.2591037
40
0.2293034
50
179.4465117
51
196.2869258
0
ARC
8
DEFAULT_255_1_234
10
5.7505828
20
92.2457651
40
0.1787621
50
196.5661473
51
227.705904
0
ARC
8
DEFAULT_255_1_234
10
5.7669923
20
92.2641155
40
0.2033784
50
227.7652068
51
257.8762805
0
ARC
8
DEFAULT_255_1_234
10
5.7894893
20
92.3584156
40
0.3003081
50
257.4584385
51
270.426602
0
ARC
8
DEFAULT_255_1_234
10
5.7940459
20
92.3873996
40
0.329292
50
269.5962073
51
280.8789248
0
ARC
8
DEFAULT_255_1_234
10
5.8169988
20
92.2727685
40
0.2123908
50
280.6346389
51
299.8595945
0
ARC
8
DEFAULT_255_1_234
10
5.8360894
20
92.2365212
40
0.171457
50
300.3576302
51
314.5517981
0
ARC
8
DEFAULT_255_1_234
10
5.8277955
20
92.2425919
40
0.1816095
50
315.0728369
51
345.0431014
0
ARC
8
DEFAULT_255_1_234
10
5.7354769
20
92.2694841
40
0.2777492
50
344.5986631
51
357.9269593
0
ARC
8
DEFAULT_255_1_234
10
5.6459095
20
92.2756276
40
0.3674917
50
357.4748886
51
0.0231117
0
ARC
8
DEFAULT_255_1_234
10
5.7482205
20
92.2780679
40
0.2651907
50
359.5047933
51
13.4239635
0
ARC
8
DEFAULT_255_1_234
10
5.8348848
20
92.3002478
40
0.1757509
50
12.9498199
51
48.7551375
0
ARC
8
DEFAULT_255_1_234
10
5.8166582
20
92.27534
40
0.2065134
50
49.5088623
51
72.1836453
0
ARC
8
DEFAULT_255_1_234
10
5.7808735
20
92.1691291
40
0.3185836
50
71.9010081
51
84.3554254
0
ARC
8
DEFAULT_255_1_234
10
5.7647367
20
92.0330326
40
0.4556151
50
84.0193428
51
89.333121
0
LINE
8
DEFAULT_255_1_234
10
4.8190817
20
100.5819327
11
4.8190817
21
100.3891709
0
LINE
8
DEFAULT_255_1_234
10
4.080965
20
100.3690916
11
4.080965
21
100.5674755
0
LINE
8
DEFAULT_255_1_234
10
4.6704946
20
100.3490123
11
4.6704946
21
100.5923739
0
LINE
8
DEFAULT_255_1_234
10
4.2295521
20
100.6036184
11
4.2295521
21
100.3658789
0
ARC
8
DEFAULT_255_1_234
10
3.5943707
20
100.3842805
40
1.2247208
50
353.8441951
51
0.2287902
0
ARC
8
DEFAULT_255_1_234
10
4.0583211
20
100.3324806
40
0.7578929
50
344.4934747
51
353.9765454
0
ARC
8
DEFAULT_255_1_234
10
4.3575801
20
100.2473981
40
0.4467846
50
329.2803592
51
344.7472793
0
ARC
8
DEFAULT_255_1_234
10
4.4568626
20
100.1929018
40
0.3336173
50
324.9352394
51
328.6160465
0
ARC
8
DEFAULT_255_1_234
10
4.4945734
20
100.1665427
40
0.2876076
50
280.580143
51
324.9173126
0
ARC
8
DEFAULT_255_1_234
10
4.4544527
20
100.3336099
40
0.4592847
50
269.5977311
51
281.6734359
0
ARC
8
DEFAULT_255_1_234
10
4.4472433
20
100.3216173
40
0.4472986
50
256.6228859
51
270.51044
0
ARC
8
DEFAULT_255_1_234
10
4.407041
20
100.1667877
40
0.2873874
50
215.8618325
51
257.2788573
0
ARC
8
DEFAULT_255_1_234
10
4.5091442
20
100.2352977
40
0.4102928
50
197.9693508
51
215.2623606
0
ARC
8
DEFAULT_255_1_234
10
4.7576558
20
100.3191709
40
0.6725652
50
187.8816417
51
198.2346507
0
ARC
8
DEFAULT_255_1_234
10
5.1534766
20
100.3763079
40
1.0724845
50
180.8976217
51
188.0055519
0
ARC
8
DEFAULT_255_1_234
10
5.4334954
20
100.3866777
40
1.3526448
50
180.7449369
51
181.1510016
0
ARC
8
DEFAULT_255_1_234
10
5.2757683
20
100.5723042
40
1.1948131
50
173.7675579
51
180.231553
0
ARC
8
DEFAULT_255_1_234
10
4.823983
20
100.6233666
40
0.7401564
50
164.3058563
51
173.9002247
0
ARC
8
DEFAULT_255_1_234
10
4.5327899
20
100.7072656
40
0.4371288
50
148.7922025
51
164.568378
0
ARC
8
DEFAULT_255_1_234
10
4.4376351
20
100.7603929
40
0.3282386
50
144.5883898
51
148.1176286
0
ARC
8
DEFAULT_255_1_234
10
4.4033249
20
100.7843315
40
0.2864044
50
101.6440918
51
144.514236
0
ARC
8
DEFAULT_255_1_234
10
4.4458315
20
100.6154069
40
0.4604934
50
89.5284041
51
102.5819763
0
ARC
8
DEFAULT_255_1_234
10
4.4537403
20
100.6115018
40
0.464401
50
77.0437873
51
90.5081339
0
ARC
8
DEFAULT_255_1_234
10
4.4939405
20
100.7757615
40
0.2953195
50
48.2778575
51
77.4994676
0
ARC
8
DEFAULT_255_1_234
10
4.5012036
20
100.7886746
40
0.2808655
50
36.3142134
51
47.6305865
0
ARC
8
DEFAULT_255_1_234
10
4.4143343
20
100.7301515
40
0.3855453
50
18.2931786
51
35.6769206
0
ARC
8
DEFAULT_255_1_234
10
4.1600102
20
100.6428593
40
0.654423
50
8.024666
51
18.5605216
0
ARC
8
DEFAULT_255_1_234
10
3.7437022
20
100.5813792
40
1.0752407
50
1.1274072
51
8.1718305
0
ARC
8
DEFAULT_255_1_234
10
3.4201213
20
100.5686885
40
1.3990231
50
0.5424119
51
1.3863029
0
ARC
8
DEFAULT_255_1_234
10
3.602259
20
100.5959342
40
1.0682415
50
359.8090433
51
4.9407866
0
ARC
8
DEFAULT_255_1_234
10
4.0232604
20
100.6335113
40
0.6455691
50
4.8362157
51
12.2904523
0
ARC
8
DEFAULT_255_1_234
10
4.2987719
20
100.6948965
40
0.3633074
50
12.0805627
51
23.8173984
0
ARC
8
DEFAULT_255_1_234
10
4.4161425
20
100.7445919
40
0.2358723
50
24.2871213
51
31.3935614
0
ARC
8
DEFAULT_255_1_234
10
4.4686122
20
100.7789233
40
0.1732111
50
30.7407893
51
82.4657128
0
ARC
8
DEFAULT_255_1_234
10
4.4506256
20
100.6905691
40
0.263235
50
81.1060089
51
90.2184952
0
ARC
8
DEFAULT_255_1_234
10
4.4470555
20
100.7163924
40
0.2374236
50
89.3806855
51
105.6762551
0
ARC
8
DEFAULT_255_1_234
10
4.4287186
20
100.7830567
40
0.1682847
50
105.7981136
51
149.7388061
0
ARC
8
DEFAULT_255_1_234
10
4.5351264
20
100.719095
40
0.2924306
50
149.4208916
51
163.6286378
0
ARC
8
DEFAULT_255_1_234
10
4.7442152
20
100.655325
40
0.5110213
50
163.3763315
51
172.1410975
0
ARC
8
DEFAULT_255_1_234
10
5.0742871
20
100.6080518
40
0.8444586
50
172.0259487
51
178.0703232
0
ARC
8
DEFAULT_255_1_234
10
5.377296
20
100.5936906
40
1.1477868
50
177.8631668
51
179.5044149
0
ARC
8
DEFAULT_255_1_234
10
5.2700365
20
100.3622389
40
1.0404907
50
179.7995573
51
185.2460446
0
ARC
8
DEFAULT_255_1_234
10
4.8657404
20
100.3239513
40
0.6343885
50
185.1411642
51
193.0079639
0
ARC
8
DEFAULT_255_1_234
10
4.6013877
20
100.2614641
40
0.3627568
50
192.7897626
51
205.2507664
0
ARC
8
DEFAULT_255_1_234
10
4.4967424
20
100.2147415
40
0.2481908
50
205.8005384
51
211.2537509
0
ARC
8
DEFAULT_255_1_234
10
4.4443864
20
100.179658
40
0.1852521
50
210.3789793
51
238.4008143
0
ARC
8
DEFAULT_255_1_234
10
4.4424386
20
100.1843376
40
0.1882621
50
239.6520629
51
265.9793761
0
ARC
8
DEFAULT_255_1_234
10
4.4509586
20
100.2515427
40
0.2559272
50
265.1315437
51
270.060332
0
ARC
8
DEFAULT_255_1_234
10
4.4538365
20
100.2191534
40
0.2235528
50
269.3314664
51
287.2178029
0
ARC
8
DEFAULT_255_1_234
10
4.4676217
20
100.1688279
40
0.1714108
50
287.7958004
51
329.080874
0
ARC
8
DEFAULT_255_1_234
10
4.3718674
20
100.228593
40
0.2842745
50
328.6634704
51
343.3325132
0
ARC
8
DEFAULT_255_1_234
10
4.1545694
20
100.2962863
40
0.5118644
50
343.0499468
51
351.9393422
0
ARC
8
DEFAULT_255_1_234
10
3.8078994
20
100.3473949
40
0.8622784
50
351.8069023
51
357.7959224
0
ARC
8
DEFAULT_255_1_234
10
3.484355
20
100.3641721
40
1.1862365
50
357.5871873
51
359.2677531
0
ARC
8
DEFAULT_255_1_234
10
5.1349384
20
99.9692565
40
0.1070357
50
163.5417914
51
180.5078233
0
ARC
8
DEFAULT_255_1_234
10
5.1157202
20
99.9744421
40
0.0871371
50
138.1647447
51
163.2316401
0
ARC
8
DEFAULT_255_1_234
10
5.1044981
20
99.9839534
40
0.0724329
50
105.6856465
51
137.8494928
0
ARC
8
DEFAULT_255_1_234
10
5.1163413
20
99.9455129
40
0.1126485
50
92.6088068
51
106.1990587
0
ARC
8
DEFAULT_255_1_234
10
5.1193786
20
99.9059774
40
0.1522861
50
89.9660831
51
93.0733434
0
ARC
8
DEFAULT_255_1_234
10
5.1204481
20
99.928132
40
0.130135
50
78.4379222
51
90.4311858
0
ARC
8
DEFAULT_255_1_234
10
5.1301061
20
99.9731588
40
0.0840873
50
56.8960528
51
78.7359558
0
ARC
8
DEFAULT_255_1_234
10
5.1364288
20
99.9841877
40
0.0713991
50
42.6499553
51
56.3125067
0
ARC
8
DEFAULT_255_1_234
10
5.1236175
20
99.9724146
40
0.0887984
50
3.8142714
51
42.6365749
0
ARC
8
DEFAULT_255_1_234
10
5.0949976
20
99.9684153
40
0.1176392
50
359.9476902
51
4.8305927
0
ARC
8
DEFAULT_255_1_234
10
5.1176135
20
99.9673541
40
0.0950282
50
340.9376387
51
0.5750546
0
ARC
8
DEFAULT_255_1_234
10
5.1288631
20
99.9643192
40
0.0834082
50
316.0805399
51
340.3842391
0
ARC
8
DEFAULT_255_1_234
10
5.134671
20
99.9589809
40
0.0755219
50
285.8514865
51
315.9414755
0
ARC
8
DEFAULT_255_1_234
10
5.1229281
20
99.9969349
40
0.115244
50
273.1292529
51
286.3135479
0
ARC
8
DEFAULT_255_1_234
10
5.119598
20
100.0371049
40
0.1555398
50
269.9524064
51
273.5463789
0
ARC
8
DEFAULT_255_1_234
10
5.1184932
20
100.0152792
40
0.1337177
50
259.0490813
51
270.4180302
0
ARC
8
DEFAULT_255_1_234
10
5.1088595
20
99.9675393
40
0.0850178
50
239.7587791
51
259.311372
0
ARC
8
DEFAULT_255_1_234
10
5.1007626
20
99.9524482
40
0.0679053
50
222.6244131
51
239.247817
0
ARC
8
DEFAULT_255_1_234
10
5.1142001
20
99.9647619
40
0.0861314
50
182.9227855
51
222.598345
0
ARC
8
DEFAULT_255_1_234
10
5.141062
20
99.9682373
40
0.113155
50
179.9642935
51
183.9868025
0
LINE
8
DEFAULT_255_1_234
10
6.2085725
20
100.0116792
11
6.2085725
21
99.8904
0
LINE
8
DEFAULT_255_1_234
10
6.2085725
20
99.8904
11
5.4423446
21
99.8904
0
LINE
8
DEFAULT_255_1_234
10
5.4423446
20
99.8904
11
5.4423446
21
99.9972221
0
LINE
8
DEFAULT_255_1_234
10
5.4423446
20
99.9972221
11
5.8471442
21
100.4469995
0
LINE
8
DEFAULT_255_1_234
10
5.5684429
20
100.7152595
11
5.4198558
21
100.7152595
0
LINE
8
DEFAULT_255_1_234
10
5.9346902
20
100.3514218
11
5.6214524
21
100.0116792
0
LINE
8
DEFAULT_255_1_234
10
5.6214524
20
100.0116792
11
6.2085725
21
100.0116792
0
ARC
8
DEFAULT_255_1_234
10
4.4981276
20
101.6399527
40
1.8008286
50
318.5132453
51
320.7828378
0
ARC
8
DEFAULT_255_1_234
10
5.026825
20
101.2096426
40
1.1191493
50
320.7372736
51
323.9737074
0
ARC
8
DEFAULT_255_1_234
10
5.4188106
20
100.9256361
40
0.6350923
50
323.8961724
51
328.6421089
0
ARC
8
DEFAULT_255_1_234
10
5.6234702
20
100.7994031
40
0.3946393
50
328.8299013
51
331.789948
0
ARC
8
DEFAULT_255_1_234
10
5.723188
20
100.7479509
40
0.2824501
50
331.4255242
51
352.9364833
0
ARC
8
DEFAULT_255_1_234
10
5.7368381
20
100.7448976
40
0.2685315
50
353.2248685
51
0.0169286
0
ARC
8
DEFAULT_255_1_234
10
5.7578258
20
100.747195
40
0.2475536
50
359.4866256
51
15.9339782
0
ARC
8
DEFAULT_255_1_234
10
5.8085243
20
100.7608286
40
0.1950618
50
16.1714718
51
43.5284424
0
ARC
8
DEFAULT_255_1_234
10
5.8162552
20
100.7685573
40
0.184134
50
43.4415429
51
83.1661404
0
ARC
8
DEFAULT_255_1_234
10
5.802847
20
100.6948771
40
0.258926
50
82.160215
51
90.1505798
0
ARC
8
DEFAULT_255_1_234
10
5.7996897
20
100.6411865
40
0.3126255
50
89.5460705
51
102.5418777
0
ARC
8
DEFAULT_255_1_234
10
5.7753983
20
100.7442665
40
0.2067346
50
102.1739365
51
129.2061916
0
ARC
8
DEFAULT_255_1_234
10
5.7675055
20
100.7567094
40
0.1921118
50
129.7279328
51
135.7542026
0
ARC
8
DEFAULT_255_1_234
10
5.7796583
20
100.7470045
40
0.2075944
50
136.175737
51
166.3674722
0
ARC
8
DEFAULT_255_1_234
10
5.8803502
20
100.7200182
40
0.3118201
50
165.9092917
51
178.8683903
0
ARC
8
DEFAULT_255_1_234
10
5.9668363
20
100.7153179
40
0.3983935
50
178.438168
51
180.0083905
0
ARC
8
DEFAULT_255_1_234
10
5.8266965
20
100.7192231
40
0.4068601
50
163.2878735
51
180.5581814
0
ARC
8
DEFAULT_255_1_234
10
5.7465227
20
100.741284
40
0.3237344
50
133.454115
51
162.9470031
0
ARC
8
DEFAULT_255_1_234
10
5.7643768
20
100.7223
40
0.349795
50
100.7869394
51
133.4384016
0
ARC
8
DEFAULT_255_1_234
10
5.799154
20
100.5674319
40
0.5084616
50
89.6605301
51
101.3704185
0
ARC
8
DEFAULT_255_1_234
10
5.8057878
20
100.5735496
40
0.502348
50
78.2171172
51
90.4130393
0
ARC
8
DEFAULT_255_1_234
10
5.8412957
20
100.7359637
40
0.3361092
50
55.9268222
51
78.4888551
0
ARC
8
DEFAULT_255_1_234
10
5.8609397
20
100.7698324
40
0.2970617
50
47.9292255
51
55.4054003
0
ARC
8
DEFAULT_255_1_234
10
5.8710957
20
100.7801502
40
0.2825983
50
4.3347696
51
48.0560701
0
ARC
8
DEFAULT_255_1_234
10
5.7615351
20
100.7631601
40
0.393225
50
359.925209
51
5.5967654
0
ARC
8
DEFAULT_255_1_234
10
5.8044243
20
100.7687816
40
0.3503892
50
337.8914096
51
358.9967724
0
ARC
8
DEFAULT_255_1_234
10
5.5330655
20
100.8734706
40
0.6412172
50
326.9135351
51
338.3505194
0
ARC
8
DEFAULT_255_1_234
10
5.1344959
20
101.1289284
40
1.1146189
50
319.6472867
51
327.095818
0
ARC
8
DEFAULT_255_1_234
10
4.7511962
20
101.4451
40
1.6114559
50
317.2586784
51
319.9046139
0
LINE
8
DEFAULT_255_1_234
10
4.8110817
20
108.5194327
11
4.8110817
21
108.3266709
0
LINE
8
DEFAULT_255_1_234
10
4.072965
20
108.3065916
11
4.072965
21
108.5049755
0
LINE
8
DEFAULT_255_1_234
10
4.6624946
20
108.2865123
11
4.6624946
21
108.5298739
0
LINE
8
DEFAULT_255_1_234
10
4.2215521
20
108.5411184
11
4.2215521
21
108.3033789
0
ARC
8
DEFAULT_255_1_234
10
3.5863707
20
108.3217805
40
1.2247208
50
353.8441951
51
0.2287902
0
ARC
8
DEFAULT_255_1_234
10
4.0503211
20
108.2699806
40
0.7578929
50
344.4934747
51
353.9765454
0
ARC
8
DEFAULT_255_1_234
10
4.3495801
20
108.1848981
40
0.4467846
50
329.2803592
51
344.7472793
0
ARC
8
DEFAULT_255_1_234
10
4.4488626
20
108.1304018
40
0.3336173
50
324.9352394
51
328.6160465
0
ARC
8
DEFAULT_255_1_234
10
4.4865734
20
108.1040427
40
0.2876076
50
280.580143
51
324.9173126
0
ARC
8
DEFAULT_255_1_234
10
4.4464527
20
108.2711099
40
0.4592847
50
269.5977311
51
281.6734359
0
ARC
8
DEFAULT_255_1_234
10
4.4392433
20
108.2591173
40
0.4472986
50
256.6228859
51
270.51044
0
ARC
8
DEFAULT_255_1_234
10
4.399041
20
108.1042877
40
0.2873874
50
215.8618325
51
257.2788573
0
ARC
8
DEFAULT_255_1_234
10
4.5011442
20
108.1727977
40
0.4102928
50
197.9693508
51
215.2623606
0
ARC
8
DEFAULT_255_1_234
10
4.7496558
20
108.2566709
40
0.6725652
50
187.8816417
51
198.2346507
0
ARC
8
DEFAULT_255_1_234
10
5.1454766
20
108.3138079
40
1.0724845
50
180.8976217
51
188.0055519
0
ARC
8
DEFAULT_255_1_234
10
5.4254954
20
108.3241777
40
1.3526448
50
180.7449369
51
181.1510016
0
ARC
8
DEFAULT_255_1_234
10
5.2677683
20
108.5098042
40
1.1948131
50
173.7675579
51
180.231553
0
ARC
8
DEFAULT_255_1_234
10
4.815983
20
108.5608666
40
0.7401564
50
164.3058563
51
173.9002247
0
ARC
8
DEFAULT_255_1_234
10
4.5247899
20
108.6447656
40
0.4371288
50
148.7922025
51
164.568378
0
ARC
8
DEFAULT_255_1_234
10
4.4296351
20
108.6978929
40
0.3282386
50
144.5883898
51
148.1176286
0
ARC
8
DEFAULT_255_1_234
10
4.3953249
20
108.7218315
40
0.2864044
50
101.6440918
51
144.514236
0
ARC
8
DEFAULT_255_1_234
10
4.4378315
20
108.5529069
40
0.4604934
50
89.5284041
51
102.5819763
0
ARC
8
DEFAULT_255_1_234
10
4.4457403
20
108.5490018
40
0.464401
50
77.0437873
51
90.5081339
0
ARC
8
DEFAULT_255_1_234
10
4.4859405
20
108.7132615
40
0.2953195
50
48.2778575
51
77.4994676
0
ARC
8
DEFAULT_255_1_234
10
4.4932036
20
108.7261746
40
0.2808655
50
36.3142134
51
47.6305865
0
ARC
8
DEFAULT_255_1_234
10
4.4063343
20
108.6676515
40
0.3855453
50
18.2931786
51
35.6769206
0
ARC
8
DEFAULT_255_1_234
10
4.1520102
20
108.5803593
40
0.654423
50
8.024666
51
18.5605216
0
ARC
8
DEFAULT_255_1_234
10
3.7357022
20
108.5188792
40
1.0752407
50
1.1274072
51
8.1718305
0
ARC
8
DEFAULT_255_1_234
10
3.4121213
20
108.5061885
40
1.3990231
50
0.5424119
51
1.3863029
0
ARC
8
DEFAULT_255_1_234
10
3.594259
20
108.5334342
40
1.0682415
50
359.8090433
51
4.9407866
0
ARC
8
DEFAULT_255_1_234
10
4.0152604
20
108.5710113
40
0.6455691
50
4.8362157
51
12.2904523
0
ARC
8
DEFAULT_255_1_234
10
4.2907719
20
108.6323965
40
0.3633074
50
12.0805627
51
23.8173984
0
ARC
8
DEFAULT_255_1_234
10
4.4081425
20
108.6820919
40
0.2358723
50
24.2871213
51
31.3935614
0
ARC
8
DEFAULT_255_1_234
10
4.4606122
20
108.7164233
40
0.1732111
50
30.7407893
51
82.4657128
0
ARC
8
DEFAULT_255_1_234
10
4.4426256
20
108.6280691
40
0.263235
50
81.1060089
51
90.2184952
0
ARC
8
DEFAULT_255_1_234
10
4.4390555
20
108.6538924
40
0.2374236
50
89.3806855
51
105.6762551
0
ARC
8
DEFAULT_255_1_234
10
4.4207186
20
108.7205567
40
0.1682847
50
105.7981136
51
149.7388061
0
ARC
8
DEFAULT_255_1_234
10
4.5271264
20
108.656595
40
0.2924306
50
149.4208916
51
163.6286378
0
ARC
8
DEFAULT_255_1_234
10
4.7362152
20
108.592825
40
0.5110213
50
163.3763315
51
172.1410975
0
ARC
8
DEFAULT_255_1_234
10
5.0662871
20
108.5455518
40
0.8444586
50
172.0259487
51
178.0703232
0
ARC
8
DEFAULT_255_1_234
10
5.369296
20
108.5311906
40
1.1477868
50
177.8631668
51
179.5044149
0
ARC
8
DEFAULT_255_1_234
10
5.2620365
20
108.2997389
40
1.0404907
50
179.7995573
51
185.2460446
0
ARC
8
DEFAULT_255_1_234
10
4.8577404
20
108.2614513
40
0.6343885
50
185.1411642
51
193.0079639
0
ARC
8
DEFAULT_255_1_234
10
4.5933877
20
108.1989641
40
0.3627568
50
192.7897626
51
205.2507664
0
ARC
8
DEFAULT_255_1_234
10
4.4887424
20
108.1522415
40
0.2481908
50
205.8005384
51
211.2537509
0
ARC
8
DEFAULT_255_1_234
10
4.4363864
20
108.117158
40
0.1852521
50
210.3789793
51
238.4008143
0
ARC
8
DEFAULT_255_1_234
10
4.4344386
20
108.1218376
40
0.1882621
50
239.6520629
51
265.9793761
0
ARC
8
DEFAULT_255_1_234
10
4.4429586
20
108.1890427
40
0.2559272
50
265.1315437
51
270.060332
0
ARC
8
DEFAULT_255_1_234
10
4.4458365
20
108.1566534
40
0.2235528
50
269.3314664
51
287.2178029
0
ARC
8
DEFAULT_255_1_234
10
4.4596217
20
108.1063279
40
0.1714108
50
287.7958004
51
329.080874
0
ARC
8
DEFAULT_255_1_234
10
4.3638674
20
108.166093
40
0.2842745
50
328.6634704
51
343.3325132
0
ARC
8
DEFAULT_255_1_234
10
4.1465694
20
108.2337863
40
0.5118644
50
343.0499468
51
351.9393422
0
ARC
8
DEFAULT_255_1_234
10
3.7998994
20
108.2848949
40
0.8622784
50
351.8069023
51
357.7959224
0
ARC
8
DEFAULT_255_1_234
10
3.476355
20
108.3016721
40
1.1862365
50
357.5871873
51
359.2677531
0
ARC
8
DEFAULT_255_1_234
10
5.1269384
20
107.9067565
40
0.1070357
50
163.5417914
51
180.5078233
0
ARC
8
DEFAULT_255_1_234
10
5.1077202
20
107.9119421
40
0.0871371
50
138.1647447
51
163.2316401
0
ARC
8
DEFAULT_255_1_234
10
5.0964981
20
107.9214534
40
0.0724329
50
105.6856465
51
137.8494928
0
ARC
8
DEFAULT_255_1_234
10
5.1083413
20
107.8830129
40
0.1126485
50
92.6088068
51
106.1990587
0
ARC
8
DEFAULT_255_1_234
10
5.1113786
20
107.8434774
40
0.1522861
50
89.9660831
51
93.0733434
0
ARC
8
DEFAULT_255_1_234
10
5.1124481
20
107.865632
40
0.130135
50
78.4379222
51
90.4311858
0
ARC
8
DEFAULT_255_1_234
10
5.1221061
20
107.9106588
40
0.0840873
50
56.8960528
51
78.7359558
0
ARC
8
DEFAULT_255_1_234
10
5.1284288
20
107.9216877
40
0.0713991
50
42.6499553
51
56.3125067
0
ARC
8
DEFAULT_255_1_234
10
5.1156175
20
107.9099146
40
0.0887984
50
3.8142714
51
42.6365749
0
ARC
8
DEFAULT_255_1_234
10
5.0869976
20
107.9059153
40
0.1176392
50
359.9476902
51
4.8305927
0
ARC
8
DEFAULT_255_1_234
10
5.1096135
20
107.9048541
40
0.0950282
50
340.9376387
51
0.5750546
0
ARC
8
DEFAULT_255_1_234
10
5.1208631
20
107.9018192
40
0.0834082
50
316.0805399
51
340.3842391
0
ARC
8
DEFAULT_255_1_234
10
5.126671
20
107.8964809
40
0.0755219
50
285.8514865
51
315.9414755
0
ARC
8
DEFAULT_255_1_234
10
5.1149281
20
107.9344349
40
0.115244
50
273.1292529
51
286.3135479
0
ARC
8
DEFAULT_255_1_234
10
5.111598
20
107.9746049
40
0.1555398
50
269.9524064
51
273.5463789
0
ARC
8
DEFAULT_255_1_234
10
5.1104932
20
107.9527792
40
0.1337177
50
259.0490813
51
270.4180302
0
ARC
8
DEFAULT_255_1_234
10
5.1008595
20
107.9050393
40
0.0850178
50
239.7587791
51
259.311372
0
ARC
8
DEFAULT_255_1_234
10
5.0927626
20
107.8899482
40
0.0679053
50
222.6244131
51
239.247817
0
ARC
8
DEFAULT_255_1_234
10
5.1062001
20
107.9022619
40
0.0861314
50
182.9227855
51
222.598345
0
ARC
8
DEFAULT_255_1_234
10
5.133062
20
107.9057373
40
0.113155
50
179.9642935
51
183.9868025
0
LINE
8
DEFAULT_255_1_234
10
5.9226743
20
109.0029433
11
5.9226743
21
107.8279
0
LINE
8
DEFAULT_255_1_234
10
5.9226743
20
107.8279
11
5.773284
21
107.8279
0
LINE
8
DEFAULT_255_1_234
10
5.773284
20
107.8279
11
5.773284
21
108.8182133
0
LINE
8
DEFAULT_255_1_234
10
5.773284
20
108.8182133
11
5.4737001
21
108.7081785
0
LINE
8
DEFAULT_255_1_234
10
5.4737001
20
108.7081785
11
5.4737001
21
108.8431117
0
LINE
8
DEFAULT_255_1_234
10
5.4737001
20
108.8431117
11
5.8993823
21
109.0029433
0
LINE
8
DEFAULT_255_1_234
10
5.8993823
20
109.0029433
11
5.9226743
21
109.0029433
0
LINE
8
DEFAULT_255_1_234
10
4.8190817
20
116.4569327
11
4.8190817
21
116.2641709
0
LINE
8
DEFAULT_255_1_234
10
4.080965
20
116.2440916
11
4.080965
21
116.4424755
0
LINE
8
DEFAULT_255_1_234
10
4.6704946
20
116.2240123
11
4.6704946
21
116.4673739
0
LINE
8
DEFAULT_255_1_234
10
4.2295521
20
116.4786184
11
4.2295521
21
116.2408789
0
ARC
8
DEFAULT_255_1_234
10
3.5943707
20
116.2592805
40
1.2247208
50
353.8441951
51
0.2287902
0
ARC
8
DEFAULT_255_1_234
10
4.0583211
20
116.2074806
40
0.7578929
50
344.4934747
51
353.9765454
0
ARC
8
DEFAULT_255_1_234
10
4.3575801
20
116.1223981
40
0.4467846
50
329.2803592
51
344.7472793
0
ARC
8
DEFAULT_255_1_234
10
4.4568626
20
116.0679018
40
0.3336173
50
324.9352394
51
328.6160465
0
ARC
8
DEFAULT_255_1_234
10
4.4945734
20
116.0415427
40
0.2876076
50
280.580143
51
324.9173126
0
ARC
8
DEFAULT_255_1_234
10
4.4544527
20
116.2086099
40
0.4592847
50
269.5977311
51
281.6734359
0
ARC
8
DEFAULT_255_1_234
10
4.4472433
20
116.1966173
40
0.4472986
50
256.6228859
51
270.51044
0
ARC
8
DEFAULT_255_1_234
10
4.407041
20
116.0417877
40
0.2873874
50
215.8618325
51
257.2788573
0
ARC
8
DEFAULT_255_1_234
10
4.5091442
20
116.1102977
40
0.4102928
50
197.9693508
51
215.2623606
0
ARC
8
DEFAULT_255_1_234
10
4.7576558
20
116.1941709
40
0.6725652
50
187.8816417
51
198.2346507
0
ARC
8
DEFAULT_255_1_234
10
5.1534766
20
116.2513079
40
1.0724845
50
180.8976217
51
188.0055519
0
ARC
8
DEFAULT_255_1_234
10
5.4334954
20
116.2616777
40
1.3526448
50
180.7449369
51
181.1510016
0
ARC
8
DEFAULT_255_1_234
10
5.2757683
20
116.4473042
40
1.1948131
50
173.7675579
51
180.231553
0
ARC
8
DEFAULT_255_1_234
10
4.823983
20
116.4983666
40
0.7401564
50
164.3058563
51
173.9002247
0
ARC
8
DEFAULT_255_1_234
10
4.5327899
20
116.5822656
40
0.4371288
50
148.7922025
51
164.568378
0
ARC
8
DEFAULT_255_1_234
10
4.4376351
20
116.6353929
40
0.3282386
50
144.5883898
51
148.1176286
0
ARC
8
DEFAULT_255_1_234
10
4.4033249
20
116.6593315
40
0.2864044
50
101.6440918
51
144.514236
0
ARC
8
DEFAULT_255_1_234
10
4.4458315
20
116.4904069
40
0.4604934
50
89.5284041
51
102.5819763
0
ARC
8
DEFAULT_255_1_234
10
4.4537403
20
116.4865018
40
0.464401
50
77.0437873
51
90.5081339
0
ARC
8
DEFAULT_255_1_234
10
4.4939405
20
116.6507615
40
0.2953195
50
48.2778575
51
77.4994676
0
ARC
8
DEFAULT_255_1_234
10
4.5012036
20
116.6636746
40
0.2808655
50
36.3142134
51
47.6305865
0
ARC
8
DEFAULT_255_1_234
10
4.4143343
20
116.6051515
40
0.3855453
50
18.2931786
51
35.6769206
0
ARC
8
DEFAULT_255_1_234
10
4.1600102
20
116.5178593
40
0.654423
50
8.024666
51
18.5605216
0
ARC
8
DEFAULT_255_1_234
10
3.7437022
20
116.4563792
40
1.0752407
50
1.1274072
51
8.1718305
0
ARC
8
DEFAULT_255_1_234
10
3.4201213
20
116.4436885
40
1.3990231
50
0.5424119
51
1.3863029
0
ARC
8
DEFAULT_255_1_234
10
3.602259
20
116.4709342
40
1.0682415
50
359.8090433
51
4.9407866
0
ARC
8
DEFAULT_255_1_234
10
4.0232604
20
116.5085113
40
0.6455691
50
4.8362157
51
12.2904523
0
ARC
8
DEFAULT_255_1_234
10
4.2987719
20
116.5698965
40
0.3633074
50
12.0805627
51
23.8173984
0
ARC
8
DEFAULT_255_1_234
10
4.4161425
20
116.6195919
40
0.2358723
50
24.2871213
51
31.3935614
0
ARC
8
DEFAULT_255_1_234
10
4.4686122
20
116.6539233
40
0.1732111
50
30.7407893
51
82.4657128
0
ARC
8
DEFAULT_255_1_234
10
4.4506256
20
116.5655691
40
0.263235
50
81.1060089
51
90.2184952
0
ARC
8
DEFAULT_255_1_234
10
4.4470555
20
116.5913924
40
0.2374236
50
89.3806855
51
105.6762551
0
ARC
8
DEFAULT_255_1_234
10
4.4287186
20
116.6580567
40
0.1682847
50
105.7981136
51
149.7388061
0
ARC
8
DEFAULT_255_1_234
10
4.5351264
20
116.594095
40
0.2924306
50
149.4208916
51
163.6286378
0
ARC
8
DEFAULT_255_1_234
10
4.7442152
20
116.530325
40
0.5110213
50
163.3763315
51
172.1410975
0
ARC
8
DEFAULT_255_1_234
10
5.0742871
20
116.4830518
40
0.8444586
50
172.0259487
51
178.0703232
0
ARC
8
DEFAULT_255_1_234
10
5.377296
20
116.4686906
40
1.1477868
50
177.8631668
51
179.5044149
0
ARC
8
DEFAULT_255_1_234
10
5.2700365
20
116.2372389
40
1.0404907
50
179.7995573
51
185.2460446
0
ARC
8
DEFAULT_255_1_234
10
4.8657404
20
116.1989513
40
0.6343885
50
185.1411642
51
193.0079639
0
ARC
8
DEFAULT_255_1_234
10
4.6013877
20
116.1364641
40
0.3627568
50
192.7897626
51
205.2507664
0
ARC
8
DEFAULT_255_1_234
10
4.4967424
20
116.0897415
40
0.2481908
50
205.8005384
51
211.2537509
0
ARC
8
DEFAULT_255_1_234
10
4.4443864
20
116.054658
40
0.1852521
50
210.3789793
51
238.4008143
0
ARC
8
DEFAULT_255_1_234
10
4.4424386
20
116.0593376
40
0.1882621
50
239.6520629
51
265.9793761
0
ARC
8
DEFAULT_255_1_234
10
4.4509586
20
116.1265427
40
0.2559272
50
265.1315437
51
270.060332
0
ARC
8
DEFAULT_255_1_234
10
4.4538365
20
116.0941534
40
0.2235528
50
269.3314664
51
287.2178029
0
ARC
8
DEFAULT_255_1_234
10
4.4676217
20
116.0438279
40
0.1714108
50
287.7958004
51
329.080874
0
ARC
8
DEFAULT_255_1_234
10
4.3718674
20
116.103593
40
0.2842745
50
328.6634704
51
343.3325132
0
ARC
8
DEFAULT_255_1_234
10
4.1545694
20
116.1712863
40
0.5118644
50
343.0499468
51
351.9393422
0
ARC
8
DEFAULT_255_1_234
10
3.8078994
20
116.2223949
40
0.8622784
50
351.8069023
51
357.7959224
0
ARC
8
DEFAULT_255_1_234
10
3.484355
20
116.2391721
40
1.1862365
50
357.5871873
51
359.2677531
0
ARC
8
DEFAULT_255_1_234
10
5.1349384
20
115.8442565
40
0.1070357
50
163.5417914
51
180.5078233
0
ARC
8
DEFAULT_255_1_234
10
5.1157202
20
115.8494421
40
0.0871371
50
138.1647447
51
163.2316401
0
ARC
8
DEFAULT_255_1_234
10
5.1044981
20
115.8589534
40
0.0724329
50
105.6856465
51
137.8494928
0
ARC
8
DEFAULT_255_1_234
10
5.1163413
20
115.8205129
40
0.1126485
50
92.6088068
51
106.1990587
0
ARC
8
DEFAULT_255_1_234
10
5.1193786
20
115.7809774
40
0.1522861
50
89.9660831
51
93.0733434
0
ARC
8
DEFAULT_255_1_234
10
5.1204481
20
115.803132
40
0.130135
50
78.4379222
51
90.4311858
0
ARC
8
DEFAULT_255_1_234
10
5.1301061
20
115.8481588
40
0.0840873
50
56.8960528
51
78.7359558
0
ARC
8
DEFAULT_255_1_234
10
5.1364288
20
115.8591877
40
0.0713991
50
42.6499553
51
56.3125067
0
ARC
8
DEFAULT_255_1_234
10
5.1236175
20
115.8474146
40
0.0887984
50
3.8142714
51
42.6365749
0
ARC
8
DEFAULT_255_1_234
10
5.0949976
20
115.8434153
40
0.1176392
50
359.9476902
51
4.8305927
0
ARC
8
DEFAULT_255_1_234
10
5.1176135
20
115.8423541
40
0.0950282
50
340.9376387
51
0.5750546
0
ARC
8
DEFAULT_255_1_234
10
5.1288631
20
115.8393192
40
0.0834082
50
316.0805399
51
340.3842391
0
ARC
8
DEFAULT_255_1_234
10
5.134671
20
115.8339809
40
0.0755219
50
285.8514865
51
315.9414755
0
ARC
8
DEFAULT_255_1_234
10
5.1229281
20
115.8719349
40
0.115244
50
273.1292529
51
286.3135479
0
ARC
8
DEFAULT_255_1_234
10
5.119598
20
115.9121049
40
0.1555398
50
269.9524064
51
273.5463789
0
ARC
8
DEFAULT_255_1_234
10
5.1184932
20
115.8902792
40
0.1337177
50
259.0490813
51
270.4180302
0
ARC
8
DEFAULT_255_1_234
10
5.1088595
20
115.8425393
40
0.0850178
50
239.7587791
51
259.311372
0
ARC
8
DEFAULT_255_1_234
10
5.1007626
20
115.8274482
40
0.0679053
50
222.6244131
51
239.247817
0
ARC
8
DEFAULT_255_1_234
10
5.1142001
20
115.8397619
40
0.0861314
50
182.9227855
51
222.598345
0
ARC
8
DEFAULT_255_1_234
10
5.141062
20
115.8432373
40
0.113155
50
179.9642935
51
183.9868025
0
LINE
8
DEFAULT_255_1_234
10
6.1756423
20
116.4569327
11
6.1756423
21
116.2641709
0
LINE
8
DEFAULT_255_1_234
10
5.4375256
20
116.2440916
11
5.4375256
21
116.4424755
0
LINE
8
DEFAULT_255_1_234
10
6.0270552
20
116.2240123
11
6.0270552
21
116.4673739
0
LINE
8
DEFAULT_255_1_234
10
5.5861127
20
116.4786184
11
5.5861127
21
116.2408789
0
ARC
8
DEFAULT_255_1_234
10
4.9509313
20
116.2592805
40
1.2247208
50
353.8441951
51
0.2287902
0
ARC
8
DEFAULT_255_1_234
10
5.4148817
20
116.2074806
40
0.7578929
50
344.4934747
51
353.9765454
0
ARC
8
DEFAULT_255_1_234
10
5.7141407
20
116.1223981
40
0.4467846
50
329.2803592
51
344.7472793
0
ARC
8
DEFAULT_255_1_234
10
5.8134232
20
116.0679018
40
0.3336173
50
324.9352394
51
328.6160465
0
ARC
8
DEFAULT_255_1_234
10
5.851134
20
116.0415427
40
0.2876076
50
280.580143
51
324.9173126
0
ARC
8
DEFAULT_255_1_234
10
5.8110133
20
116.2086099
40
0.4592847
50
269.5977311
51
281.6734359
0
ARC
8
DEFAULT_255_1_234
10
5.8038039
20
116.1966173
40
0.4472986
50
256.6228859
51
270.51044
0
ARC
8
DEFAULT_255_1_234
10
5.7636016
20
116.0417877
40
0.2873874
50
215.8618325
51
257.2788573
0
ARC
8
DEFAULT_255_1_234
10
5.8657048
20
116.1102977
40
0.4102928
50
197.9693508
51
215.2623606
0
ARC
8
DEFAULT_255_1_234
10
6.1142164
20
116.1941709
40
0.6725652
50
187.8816417
51
198.2346507
0
ARC
8
DEFAULT_255_1_234
10
6.5100372
20
116.2513079
40
1.0724845
50
180.8976217
51
188.0055519
0
ARC
8
DEFAULT_255_1_234
10
6.790056
20
116.2616777
40
1.3526448
50
180.7449369
51
181.1510016
0
ARC
8
DEFAULT_255_1_234
10
6.6323289
20
116.4473042
40
1.1948131
50
173.7675579
51
180.231553
0
ARC
8
DEFAULT_255_1_234
10
6.1805436
20
116.4983666
40
0.7401564
50
164.3058563
51
173.9002247
0
ARC
8
DEFAULT_255_1_234
10
5.8893505
20
116.5822656
40
0.4371288
50
148.7922025
51
164.568378
0
ARC
8
DEFAULT_255_1_234
10
5.7941957
20
116.6353929
40
0.3282386
50
144.5883898
51
148.1176286
0
ARC
8
DEFAULT_255_1_234
10
5.7598855
20
116.6593315
40
0.2864044
50
101.6440918
51
144.514236
0
ARC
8
DEFAULT_255_1_234
10
5.8023921
20
116.4904069
40
0.4604934
50
89.5284041
51
102.5819763
0
ARC
8
DEFAULT_255_1_234
10
5.8103009
20
116.4865018
40
0.464401
50
77.0437873
51
90.5081339
0
ARC
8
DEFAULT_255_1_234
10
5.8505011
20
116.6507615
40
0.2953195
50
48.2778575
51
77.4994676
0
ARC
8
DEFAULT_255_1_234
10
5.8577642
20
116.6636746
40
0.2808655
50
36.3142134
51
47.6305865
0
ARC
8
DEFAULT_255_1_234
10
5.7708949
20
116.6051515
40
0.3855453
50
18.2931786
51
35.6769206
0
ARC
8
DEFAULT_255_1_234
10
5.5165708
20
116.5178593
40
0.654423
50
8.024666
51
18.5605216
0
ARC
8
DEFAULT_255_1_234
10
5.1002628
20
116.4563792
40
1.0752407
50
1.1274072
51
8.1718305
0
ARC
8
DEFAULT_255_1_234
10
4.7766818
20
116.4436885
40
1.3990231
50
0.5424119
51
1.3863029
0
ARC
8
DEFAULT_255_1_234
10
4.9588196
20
116.4709342
40
1.0682415
50
359.8090433
51
4.9407866
0
ARC
8
DEFAULT_255_1_234
10
5.379821
20
116.5085113
40
0.6455691
50
4.8362157
51
12.2904523
0
ARC
8
DEFAULT_255_1_234
10
5.6553325
20
116.5698965
40
0.3633074
50
12.0805627
51
23.8173984
0
ARC
8
DEFAULT_255_1_234
10
5.772703
20
116.6195919
40
0.2358723
50
24.2871213
51
31.3935614
0
ARC
8
DEFAULT_255_1_234
10
5.8251728
20
116.6539233
40
0.1732111
50
30.7407893
51
82.4657128
0
ARC
8
DEFAULT_255_1_234
10
5.8071862
20
116.5655691
40
0.263235
50
81.1060089
51
90.2184952
0
ARC
8
DEFAULT_255_1_234
10
5.8036161
20
116.5913924
40
0.2374236
50
89.3806855
51
105.6762551
0
ARC
8
DEFAULT_255_1_234
10
5.7852792
20
116.6580567
40
0.1682847
50
105.7981136
51
149.7388061
0
ARC
8
DEFAULT_255_1_234
10
5.891687
20
116.594095
40
0.2924306
50
149.4208916
51
163.6286378
0
ARC
8
DEFAULT_255_1_234
10
6.1007758
20
116.530325
40
0.5110213
50
163.3763315
51
172.1410975
0
ARC
8
DEFAULT_255_1_234
10
6.4308477
20
116.4830518
40
0.8444586
50
172.0259487
51
178.0703232
0
ARC
8
DEFAULT_255_1_234
10
6.7338566
20
116.4686906
40
1.1477868
50
177.8631668
51
179.5044149
0
ARC
8
DEFAULT_255_1_234
10
6.6265971
20
116.2372389
40
1.0404907
50
179.7995573
51
185.2460446
0
ARC
8
DEFAULT_255_1_234
10
6.222301
20
116.1989513
40
0.6343885
50
185.1411642
51
193.0079639
0
ARC
8
DEFAULT_255_1_234
10
5.9579483
20
116.1364641
40
0.3627568
50
192.7897626
51
205.2507664
0
ARC
8
DEFAULT_255_1_234
10
5.853303
20
116.0897415
40
0.2481908
50
205.8005384
51
211.2537509
0
ARC
8
DEFAULT_255_1_234
10
5.800947
20
116.054658
40
0.1852521
50
210.3789793
51
238.4008143
0
ARC
8
DEFAULT_255_1_234
10
5.7989992
20
116.0593376
40
0.1882621
50
239.6520629
51
265.9793761
0
ARC
8
DEFAULT_255_1_234
10
5.8075192
20
116.1265427
40
0.2559272
50
265.1315437
51
270.060332
0
ARC
8
DEFAULT_255_1_234
10
5.8103971
20
116.0941534
40
0.2235528
50
269.3314664
51
287.2178029
0
ARC
8
DEFAULT_255_1_234
10
5.8241823
20
116.0438279
40
0.1714108
50
287.7958004
51
329.080874
0
ARC
8
DEFAULT_255_1_234
10
5.728428
20
116.103593
40
0.2842745
50
328.6634704
51
343.3325132
0
ARC
8
DEFAULT_255_1_234
10
5.51113
20
116.1712863
40
0.5118644
50
343.0499468
51
351.9393422
0
ARC
8
DEFAULT_255_1_234
10
5.16446
20
116.2223949
40
0.8622784
50
351.8069023
51
357.7959224
0
ARC
8
DEFAULT_255_1_234
10
4.8409156
20
116.2391721
40
1.1862365
50
357.5871873
51
359.2677531
0
LINE
8
DEFAULT_255_1_234
10
4.6093137
20
124.8779433
11
4.6093137
21
123.7029
0
LINE
8
DEFAULT_255_1_234
10
4.6093137
20
123.7029
11
4.4599234
21
123.7029
0
LINE
8
DEFAULT_255_1_234
10
4.4599234
20
123.7029
11
4.4599234
21
124.6932133
0
LINE
8
DEFAULT_255_1_234
10
4.4599234
20
124.6932133
11
4.1603396
21
124.5831785
0
LINE
8
DEFAULT_255_1_234
10
4.1603396
20
124.5831785
11
4.1603396
21
124.7181117
0
LINE
8
DEFAULT_255_1_234
10
4.1603396
20
124.7181117
11
4.5860217
21
124.8779433
0
LINE
8
DEFAULT_255_1_234
10
4.5860217
20
124.8779433
11
4.6093137
21
124.8779433
0
LINE
8
DEFAULT_255_1_234
10
5.0831863
20
124.8723211
11
5.2823734
21
124.8723211
0
LINE
8
DEFAULT_255_1_234
10
5.2823734
20
124.8723211
11
5.6646841
21
123.9181506
0
LINE
8
DEFAULT_255_1_234
10
5.6646841
20
123.9181506
11
6.0469949
21
124.8723211
0
LINE
8
DEFAULT_255_1_234
10
6.0469949
20
124.8723211
11
6.2469852
21
124.8723211
0
LINE
8
DEFAULT_255_1_234
10
6.2469852
20
124.8723211
11
6.2469852
21
123.7029
0
LINE
8
DEFAULT_255_1_234
10
6.2469852
20
123.7029
11
6.0927758
21
123.7029
0
LINE
8
DEFAULT_255_1_234
10
6.0927758
20
123.7029
11
6.0927758
21
124.1582996
0
LINE
8
DEFAULT_255_1_234
10
6.0927758
20
124.1582996
11
6.1072329
21
124.6498419
0
LINE
8
DEFAULT_255_1_234
10
6.1072329
20
124.6498419
11
5.7233158
21
123.7029
0
LINE
8
DEFAULT_255_1_234
10
5.7233158
20
123.7029
11
5.6052493
21
123.7029
0
LINE
8
DEFAULT_255_1_234
10
5.6052493
20
123.7029
11
5.2221354
21
124.6474324
0
LINE
8
DEFAULT_255_1_234
10
5.2221354
20
124.6474324
11
5.2373957
21
124.1582996
0
LINE
8
DEFAULT_255_1_234
10
5.2373957
20
124.1582996
11
5.2373957
21
123.7029
0
LINE
8
DEFAULT_255_1_234
10
5.2373957
20
123.7029
11
5.0831863
21
123.7029
0
LINE
8
DEFAULT_255_1_234
10
5.0831863
20
123.7029
11
5.0831863
21
124.8723211
0
LINE
8
DEFAULT_255_1_234
10
24.2596879
20
132.8098211
11
24.2596879
21
131.6404
0
LINE
8
DEFAULT_255_1_234
10
24.2596879
20
131.6404
11
24.1046753
21
131.6404
0
LINE
8
DEFAULT_255_1_234
10
24.1046753
20
131.6404
11
23.5159489
21
132.541561
0
LINE
8
DEFAULT_255_1_234
10
23.5159489
20
132.541561
11
23.5159489
21
131.6404
0
LINE
8
DEFAULT_255_1_234
10
23.5159489
20
131.6404
11
23.3609364
21
131.6404
0
LINE
8
DEFAULT_255_1_234
10
23.3609364
20
131.6404
11
23.3609364
21
132.8098211
0
LINE
8
DEFAULT_255_1_234
10
23.3609364
20
132.8098211
11
23.5159489
21
132.8098211
0
LINE
8
DEFAULT_255_1_234
10
23.5159489
20
132.8098211
11
24.1062817
21
131.9046442
0
LINE
8
DEFAULT_255_1_234
10
24.1062817
20
131.9046442
11
24.1062817
21
132.8098211
0
LINE
8
DEFAULT_255_1_234
10
24.1062817
20
132.8098211
11
24.2596879
21
132.8098211
0
LINE
8
DEFAULT_255_1_234
10
23.0434364
20
13.7473211
11
23.2426235
21
13.7473211
0
LINE
8
DEFAULT_255_1_234
10
23.2426235
20
13.7473211
11
23.6249342
21
12.7931506
0
LINE
8
DEFAULT_255_1_234
10
23.6249342
20
12.7931506
11
24.007245
21
13.7473211
0
LINE
8
DEFAULT_255_1_234
10
24.007245
20
13.7473211
11
24.2072353
21
13.7473211
0
LINE
8
DEFAULT_255_1_234
10
24.2072353
20
13.7473211
11
24.2072353
21
12.5779
0
LINE
8
DEFAULT_255_1_234
10
24.2072353
20
12.5779
11
24.0530259
21
12.5779
0
LINE
8
DEFAULT_255_1_234
10
24.0530259
20
12.5779
11
24.0530259
21
13.0332996
0
LINE
8
DEFAULT_255_1_234
10
24.0530259
20
13.0332996
11
24.067483
21
13.5248419
0
LINE
8
DEFAULT_255_1_234
10
24.067483
20
13.5248419
11
23.6835659
21
12.5779
0
LINE
8
DEFAULT_255_1_234
10
23.6835659
20
12.5779
11
23.5654994
21
12.5779
0
LINE
8
DEFAULT_255_1_234
10
23.5654994
20
12.5779
11
23.1823854
21
13.5224324
0
LINE
8
DEFAULT_255_1_234
10
23.1823854
20
13.5224324
11
23.1976458
21
13.0332996
0
LINE
8
DEFAULT_255_1_234
10
23.1976458
20
13.0332996
11
23.1976458
21
12.5779
0
LINE
8
DEFAULT_255_1_234
10
23.1976458
20
12.5779
11
23.0434364
21
12.5779
0
LINE
8
DEFAULT_255_1_234
10
23.0434364
20
12.5779
11
23.0434364
21
13.7473211
0
LINE
8
DEFAULT_255_1_234
10
22.8274489
20
21.6848211
11
22.8274489
21
20.6414983
0
LINE
8
DEFAULT_255_1_234
10
22.8274489
20
20.6414983
11
23.3816389
21
20.6414983
0
LINE
8
DEFAULT_255_1_234
10
23.3816389
20
20.6414983
11
23.3816389
21
20.5154
0
LINE
8
DEFAULT_255_1_234
10
23.3816389
20
20.5154
11
22.6724364
21
20.5154
0
LINE
8
DEFAULT_255_1_234
10
22.6724364
20
20.5154
11
22.6724364
21
21.6848211
0
LINE
8
DEFAULT_255_1_234
10
22.6724364
20
21.6848211
11
22.8274489
21
21.6848211
0
LINE
8
DEFAULT_255_1_234
10
23.959924
20
21.4840276
11
23.959924
21
21.1426788
0
LINE
8
DEFAULT_255_1_234
10
23.959924
20
21.1426788
11
24.2860126
21
21.1426788
0
LINE
8
DEFAULT_255_1_234
10
24.2860126
20
21.1426788
11
24.2860126
21
21.0021233
0
LINE
8
DEFAULT_255_1_234
10
24.2860126
20
21.0021233
11
23.959924
21
21.0021233
0
LINE
8
DEFAULT_255_1_234
10
23.959924
20
21.0021233
11
23.959924
21
20.6326634
0
LINE
8
DEFAULT_255_1_234
10
23.959924
20
20.6326634
11
23.8105337
21
20.6326634
0
LINE
8
DEFAULT_255_1_234
10
23.8105337
20
20.6326634
11
23.8105337
21
21.0021233
0
LINE
8
DEFAULT_255_1_234
10
23.8105337
20
21.0021233
11
23.4844451
21
21.0021233
0
LINE
8
DEFAULT_255_1_234
10
23.4844451
20
21.0021233
11
23.4844451
21
21.1426788
0
LINE
8
DEFAULT_255_1_234
10
23.4844451
20
21.1426788
11
23.8105337
21
21.1426788
0
LINE
8
DEFAULT_255_1_234
10
23.8105337
20
21.1426788
11
23.8105337
21
21.4840276
0
LINE
8
DEFAULT_255_1_234
10
23.8105337
20
21.4840276
11
23.959924
21
21.4840276
0
LINE
8
DEFAULT_255_1_234
10
22.6333137
20
29.6279433
11
22.6333137
21
28.4529
0
LINE
8
DEFAULT_255_1_234
10
22.6333137
20
28.4529
11
22.4839234
21
28.4529
0
LINE
8
DEFAULT_255_1_234
10
22.4839234
20
28.4529
11
22.4839234
21
29.4432133
0
LINE
8
DEFAULT_255_1_234
10
22.4839234
20
29.4432133
11
22.1843396
21
29.3331785
0
LINE
8
DEFAULT_255_1_234
10
22.1843396
20
29.3331785
11
22.1843396
21
29.4681117
0
LINE
8
DEFAULT_255_1_234
10
22.1843396
20
29.4681117
11
22.6100217
21
29.6279433
0
LINE
8
DEFAULT_255_1_234
10
22.6100217
20
29.6279433
11
22.6333137
21
29.6279433
0
ARC
8
DEFAULT_255_1_234
10
23.1941384
20
28.5317565
40
0.1070357
50
163.5417914
51
180.5078233
0
ARC
8
DEFAULT_255_1_234
10
23.1749202
20
28.5369421
40
0.0871371
50
138.1647447
51
163.2316401
0
ARC
8
DEFAULT_255_1_234
10
23.1636981
20
28.5464534
40
0.0724329
50
105.6856465
51
137.8494928
0
ARC
8
DEFAULT_255_1_234
10
23.1755413
20
28.5080129
40
0.1126485
50
92.6088068
51
106.1990587
0
ARC
8
DEFAULT_255_1_234
10
23.1785786
20
28.4684774
40
0.1522861
50
89.9660831
51
93.0733434
0
ARC
8
DEFAULT_255_1_234
10
23.1796481
20
28.490632
40
0.130135
50
78.4379222
51
90.4311858
0
ARC
8
DEFAULT_255_1_234
10
23.1893061
20
28.5356588
40
0.0840873
50
56.8960528
51
78.7359558
0
ARC
8
DEFAULT_255_1_234
10
23.1956288
20
28.5466877
40
0.0713991
50
42.6499553
51
56.3125067
0
ARC
8
DEFAULT_255_1_234
10
23.1828175
20
28.5349146
40
0.0887984
50
3.8142714
51
42.6365749
0
ARC
8
DEFAULT_255_1_234
10
23.1541976
20
28.5309153
40
0.1176392
50
359.9476902
51
4.8305927
0
ARC
8
DEFAULT_255_1_234
10
23.1768135
20
28.5298541
40
0.0950282
50
340.9376387
51
0.5750546
0
ARC
8
DEFAULT_255_1_234
10
23.1880631
20
28.5268192
40
0.0834082
50
316.0805399
51
340.3842391
0
ARC
8
DEFAULT_255_1_234
10
23.193871
20
28.5214809
40
0.0755219
50
285.8514865
51
315.9414755
0
ARC
8
DEFAULT_255_1_234
10
23.1821281
20
28.5594349
40
0.115244
50
273.1292529
51
286.3135479
0
ARC
8
DEFAULT_255_1_234
10
23.178798
20
28.5996049
40
0.1555398
50
269.9524064
51
273.5463789
0
ARC
8
DEFAULT_255_1_234
10
23.1776932
20
28.5777792
40
0.1337177
50
259.0490813
51
270.4180302
0
ARC
8
DEFAULT_255_1_234
10
23.1680595
20
28.5300393
40
0.0850178
50
239.7587791
51
259.311372
0
ARC
8
DEFAULT_255_1_234
10
23.1599626
20
28.5149482
40
0.0679053
50
222.6244131
51
239.247817
0
ARC
8
DEFAULT_255_1_234
10
23.1734001
20
28.5272619
40
0.0861314
50
182.9227855
51
222.598345
0
ARC
8
DEFAULT_255_1_234
10
23.200262
20
28.5307373
40
0.113155
50
179.9642935
51
183.9868025
0
LINE
8
DEFAULT_255_1_234
10
23.9898743
20
29.6279433
11
23.9898743
21
28.4529
0
LINE
8
DEFAULT_255_1_234
10
23.9898743
20
28.4529
11
23.840484
21
28.4529
0
LINE
8
DEFAULT_255_1_234
10
23.840484
20
28.4529
11
23.840484
21
29.4432133
0
LINE
8
DEFAULT_255_1_234
10
23.840484
20
29.4432133
11
23.5409001
21
29.3331785
0
LINE
8
DEFAULT_255_1_234
10
23.5409001
20
29.3331785
11
23.5409001
21
29.4681117
0
LINE
8
DEFAULT_255_1_234
10
23.5409001
20
29.4681117
11
23.9665823
21
29.6279433
0
LINE
8
DEFAULT_255_1_234
10
23.9665823
20
29.6279433
11
23.9898743
21
29.6279433
0
LINE
8
DEFAULT_255_1_234
10
22.6253137
20
37.5654433
11
22.6253137
21
36.3904
0
LINE
8
DEFAULT_255_1_234
10
22.6253137
20
36.3904
11
22.4759234
21
36.3904
0
LINE
8
DEFAULT_255_1_234
10
22.4759234
20
36.3904
11
22.4759234
21
37.3807133
0
LINE
8
DEFAULT_255_1_234
10
22.4759234
20
37.3807133
11
22.1763396
21
37.2706785
0
LINE
8
DEFAULT_255_1_234
10
22.1763396
20
37.2706785
11
22.1763396
21
37.4056117
0
LINE
8
DEFAULT_255_1_234
10
22.1763396
20
37.4056117
11
22.6020217
21
37.5654433
0
LINE
8
DEFAULT_255_1_234
10
22.6020217
20
37.5654433
11
22.6253137
21
37.5654433
0
ARC
8
DEFAULT_255_1_234
10
23.1861384
20
36.4692565
40
0.1070357
50
163.5417914
51
180.5078233
0
ARC
8
DEFAULT_255_1_234
10
23.1669202
20
36.4744421
40
0.0871371
50
138.1647447
51
163.2316401
0
ARC
8
DEFAULT_255_1_234
10
23.1556981
20
36.4839534
40
0.0724329
50
105.6856465
51
137.8494928
0
ARC
8
DEFAULT_255_1_234
10
23.1675413
20
36.4455129
40
0.1126485
50
92.6088068
51
106.1990587
0
ARC
8
DEFAULT_255_1_234
10
23.1705786
20
36.4059774
40
0.1522861
50
89.9660831
51
93.0733434
0
ARC
8
DEFAULT_255_1_234
10
23.1716481
20
36.428132
40
0.130135
50
78.4379222
51
90.4311858
0
ARC
8
DEFAULT_255_1_234
10
23.1813061
20
36.4731588
40
0.0840873
50
56.8960528
51
78.7359558
0
ARC
8
DEFAULT_255_1_234
10
23.1876288
20
36.4841877
40
0.0713991
50
42.6499553
51
56.3125067
0
ARC
8
DEFAULT_255_1_234
10
23.1748175
20
36.4724146
40
0.0887984
50
3.8142714
51
42.6365749
0
ARC
8
DEFAULT_255_1_234
10
23.1461976
20
36.4684153
40
0.1176392
50
359.9476902
51
4.8305927
0
ARC
8
DEFAULT_255_1_234
10
23.1688135
20
36.4673541
40
0.0950282
50
340.9376387
51
0.5750546
0
ARC
8
DEFAULT_255_1_234
10
23.1800631
20
36.4643192
40
0.0834082
50
316.0805399
51
340.3842391
0
ARC
8
DEFAULT_255_1_234
10
23.185871
20
36.4589809
40
0.0755219
50
285.8514865
51
315.9414755
0
ARC
8
DEFAULT_255_1_234
10
23.1741281
20
36.4969349
40
0.115244
50
273.1292529
51
286.3135479
0
ARC
8
DEFAULT_255_1_234
10
23.170798
20
36.5371049
40
0.1555398
50
269.9524064
51
273.5463789
0
ARC
8
DEFAULT_255_1_234
10
23.1696932
20
36.5152792
40
0.1337177
50
259.0490813
51
270.4180302
0
ARC
8
DEFAULT_255_1_234
10
23.1600595
20
36.4675393
40
0.0850178
50
239.7587791
51
259.311372
0
ARC
8
DEFAULT_255_1_234
10
23.1519626
20
36.4524482
40
0.0679053
50
222.6244131
51
239.247817
0
ARC
8
DEFAULT_255_1_234
10
23.1654001
20
36.4647619
40
0.0861314
50
182.9227855
51
222.598345
0
ARC
8
DEFAULT_255_1_234
10
23.192262
20
36.4682373
40
0.113155
50
179.9642935
51
183.9868025
0
LINE
8
DEFAULT_255_1_234
10
24.2268423
20
37.0819327
11
24.2268423
21
36.8891709
0
LINE
8
DEFAULT_255_1_234
10
23.4887256
20
36.8690916
11
23.4887256
21
37.0674755
0
LINE
8
DEFAULT_255_1_234
10
24.0782552
20
36.8490123
11
24.0782552
21
37.0923739
0
LINE
8
DEFAULT_255_1_234
10
23.6373127
20
37.1036184
11
23.6373127
21
36.8658789
0
ARC
8
DEFAULT_255_1_234
10
23.0021313
20
36.8842805
40
1.2247208
50
353.8441951
51
0.2287902
0
ARC
8
DEFAULT_255_1_234
10
23.4660817
20
36.8324806
40
0.7578929
50
344.4934747
51
353.9765454
0
ARC
8
DEFAULT_255_1_234
10
23.7653407
20
36.7473981
40
0.4467846
50
329.2803592
51
344.7472793
0
ARC
8
DEFAULT_255_1_234
10
23.8646232
20
36.6929018
40
0.3336173
50
324.9352394
51
328.6160465
0
ARC
8
DEFAULT_255_1_234
10
23.902334
20
36.6665427
40
0.2876076
50
280.580143
51
324.9173126
0
ARC
8
DEFAULT_255_1_234
10
23.8622133
20
36.8336099
40
0.4592847
50
269.5977311
51
281.6734359
0
ARC
8
DEFAULT_255_1_234
10
23.8550039
20
36.8216173
40
0.4472986
50
256.6228859
51
270.51044
0
ARC
8
DEFAULT_255_1_234
10
23.8148016
20
36.6667877
40
0.2873874
50
215.8618325
51
257.2788573
0
ARC
8
DEFAULT_255_1_234
10
23.9169048
20
36.7352977
40
0.4102928
50
197.9693508
51
215.2623606
0
ARC
8
DEFAULT_255_1_234
10
24.1654164
20
36.8191709
40
0.6725652
50
187.8816417
51
198.2346507
0
ARC
8
DEFAULT_255_1_234
10
24.5612372
20
36.8763079
40
1.0724845
50
180.8976217
51
188.0055519
0
ARC
8
DEFAULT_255_1_234
10
24.841256
20
36.8866777
40
1.3526448
50
180.7449369
51
181.1510016
0
ARC
8
DEFAULT_255_1_234
10
24.6835289
20
37.0723042
40
1.1948131
50
173.7675579
51
180.231553
0
ARC
8
DEFAULT_255_1_234
10
24.2317436
20
37.1233666
40
0.7401564
50
164.3058563
51
173.9002247
0
ARC
8
DEFAULT_255_1_234
10
23.9405505
20
37.2072656
40
0.4371288
50
148.7922025
51
164.568378
0
ARC
8
DEFAULT_255_1_234
10
23.8453957
20
37.2603929
40
0.3282386
50
144.5883898
51
148.1176286
0
ARC
8
DEFAULT_255_1_234
10
23.8110855
20
37.2843315
40
0.2864044
50
101.6440918
51
144.514236
0
ARC
8
DEFAULT_255_1_234
10
23.8535921
20
37.1154069
40
0.4604934
50
89.5284041
51
102.5819763
0
ARC
8
DEFAULT_255_1_234
10
23.8615009
20
37.1115018
40
0.464401
50
77.0437873
51
90.5081339
0
ARC
8
DEFAULT_255_1_234
10
23.9017011
20
37.2757615
40
0.2953195
50
48.2778575
51
77.4994676
0
ARC
8
DEFAULT_255_1_234
10
23.9089642
20
37.2886746
40
0.2808655
50
36.3142134
51
47.6305865
0
ARC
8
DEFAULT_255_1_234
10
23.8220949
20
37.2301515
40
0.3855453
50
18.2931786
51
35.6769206
0
ARC
8
DEFAULT_255_1_234
10
23.5677708
20
37.1428593
40
0.654423
50
8.024666
51
18.5605216
0
ARC
8
DEFAULT_255_1_234
10
23.1514628
20
37.0813792
40
1.0752407
50
1.1274072
51
8.1718305
0
ARC
8
DEFAULT_255_1_234
10
22.8278818
20
37.0686885
40
1.3990231
50
0.5424119
51
1.3863029
0
ARC
8
DEFAULT_255_1_234
10
23.0100196
20
37.0959342
40
1.0682415
50
359.8090433
51
4.9407866
0
ARC
8
DEFAULT_255_1_234
10
23.431021
20
37.1335113
40
0.6455691
50
4.8362157
51
12.2904523
0
ARC
8
DEFAULT_255_1_234
10
23.7065325
20
37.1948965
40
0.3633074
50
12.0805627
51
23.8173984
0
ARC
8
DEFAULT_255_1_234
10
23.823903
20
37.2445919
40
0.2358723
50
24.2871213
51
31.3935614
0
ARC
8
DEFAULT_255_1_234
10
23.8763728
20
37.2789233
40
0.1732111
50
30.7407893
51
82.4657128
0
ARC
8
DEFAULT_255_1_234
10
23.8583862
20
37.1905691
40
0.263235
50
81.1060089
51
90.2184952
0
ARC
8
DEFAULT_255_1_234
10
23.8548161
20
37.2163924
40
0.2374236
50
89.3806855
51
105.6762551
0
ARC
8
DEFAULT_255_1_234
10
23.8364792
20
37.2830567
40
0.1682847
50
105.7981136
51
149.7388061
0
ARC
8
DEFAULT_255_1_234
10
23.942887
20
37.219095
40
0.2924306
50
149.4208916
51
163.6286378
0
ARC
8
DEFAULT_255_1_234
10
24.1519758
20
37.155325
40
0.5110213
50
163.3763315
51
172.1410975
0
ARC
8
DEFAULT_255_1_234
10
24.4820477
20
37.1080518
40
0.8444586
50
172.0259487
51
178.0703232
0
ARC
8
DEFAULT_255_1_234
10
24.7850566
20
37.0936906
40
1.1477868
50
177.8631668
51
179.5044149
0
ARC
8
DEFAULT_255_1_234
10
24.6777971
20
36.8622389
40
1.0404907
50
179.7995573
51
185.2460446
0
ARC
8
DEFAULT_255_1_234
10
24.273501
20
36.8239513
40
0.6343885
50
185.1411642
51
193.0079639
0
ARC
8
DEFAULT_255_1_234
10
24.0091483
20
36.7614641
40
0.3627568
50
192.7897626
51
205.2507664
0
ARC
8
DEFAULT_255_1_234
10
23.904503
20
36.7147415
40
0.2481908
50
205.8005384
51
211.2537509
0
ARC
8
DEFAULT_255_1_234
10
23.852147
20
36.679658
40
0.1852521
50
210.3789793
51
238.4008143
0
ARC
8
DEFAULT_255_1_234
10
23.8501992
20
36.6843376
40
0.1882621
50
239.6520629
51
265.9793761
0
ARC
8
DEFAULT_255_1_234
10
23.8587192
20
36.7515427
40
0.2559272
50
265.1315437
51
270.060332
0
ARC
8
DEFAULT_255_1_234
10
23.8615971
20
36.7191534
40
0.2235528
50
269.3314664
51
287.2178029
0
ARC
8
DEFAULT_255_1_234
10
23.8753823
20
36.6688279
40
0.1714108
50
287.7958004
51
329.080874
0
ARC
8
DEFAULT_255_1_234
10
23.779628
20
36.728593
40
0.2842745
50
328.6634704
51
343.3325132
0
ARC
8
DEFAULT_255_1_234
10
23.56233
20
36.7962863
40
0.5118644
50
343.0499468
51
351.9393422
0
ARC
8
DEFAULT_255_1_234
10
23.21566
20
36.8473949
40
0.8622784
50
351.8069023
51
357.7959224
0
ARC
8
DEFAULT_255_1_234
10
22.8921156
20
36.8641721
40
1.1862365
50
357.5871873
51
359.2677531
0
LINE
8
DEFAULT_255_1_234
10
22.8702817
20
45.0194327
11
22.8702817
21
44.8266709
0
LINE
8
DEFAULT_255_1_234
10
22.132165
20
44.8065916
11
22.132165
21
45.0049755
0
LINE
8
DEFAULT_255_1_234
10
22.7216946
20
44.7865123
11
22.7216946
21
45.0298739
0
LINE
8
DEFAULT_255_1_234
10
22.2807521
20
45.0411184
11
22.2807521
21
44.8033789
0
ARC
8
DEFAULT_255_1_234
10
21.6455707
20
44.8217805
40
1.2247208
50
353.8441951
51
0.2287902
0
ARC
8
DEFAULT_255_1_234
10
22.1095211
20
44.7699806
40
0.7578929
50
344.4934747
51
353.9765454
0
ARC
8
DEFAULT_255_1_234
10
22.4087801
20
44.6848981
40
0.4467846
50
329.2803592
51
344.7472793
0
ARC
8
DEFAULT_255_1_234
10
22.5080626
20
44.6304018
40
0.3336173
50
324.9352394
51
328.6160465
0
ARC
8
DEFAULT_255_1_234
10
22.5457734
20
44.6040427
40
0.2876076
50
280.580143
51
324.9173126
0
ARC
8
DEFAULT_255_1_234
10
22.5056527
20
44.7711099
40
0.4592847
50
269.5977311
51
281.6734359
0
ARC
8
DEFAULT_255_1_234
10
22.4984433
20
44.7591173
40
0.4472986
50
256.6228859
51
270.51044
0
ARC
8
DEFAULT_255_1_234
10
22.458241
20
44.6042877
40
0.2873874
50
215.8618325
51
257.2788573
0
ARC
8
DEFAULT_255_1_234
10
22.5603442
20
44.6727977
40
0.4102928
50
197.9693508
51
215.2623606
0
ARC
8
DEFAULT_255_1_234
10
22.8088558
20
44.7566709
40
0.6725652
50
187.8816417
51
198.2346507
0
ARC
8
DEFAULT_255_1_234
10
23.2046766
20
44.8138079
40
1.0724845
50
180.8976217
51
188.0055519
0
ARC
8
DEFAULT_255_1_234
10
23.4846954
20
44.8241777
40
1.3526448
50
180.7449369
51
181.1510016
0
ARC
8
DEFAULT_255_1_234
10
23.3269683
20
45.0098042
40
1.1948131
50
173.7675579
51
180.231553
0
ARC
8
DEFAULT_255_1_234
10
22.875183
20
45.0608666
40
0.7401564
50
164.3058563
51
173.9002247
0
ARC
8
DEFAULT_255_1_234
10
22.5839899
20
45.1447656
40
0.4371288
50
148.7922025
51
164.568378
0
ARC
8
DEFAULT_255_1_234
10
22.4888351
20
45.1978929
40
0.3282386
50
144.5883898
51
148.1176286
0
ARC
8
DEFAULT_255_1_234
10
22.4545249
20
45.2218315
40
0.2864044
50
101.6440918
51
144.514236
0
ARC
8
DEFAULT_255_1_234
10
22.4970315
20
45.0529069
40
0.4604934
50
89.5284041
51
102.5819763
0
ARC
8
DEFAULT_255_1_234
10
22.5049403
20
45.0490018
40
0.464401
50
77.0437873
51
90.5081339
0
ARC
8
DEFAULT_255_1_234
10
22.5451405
20
45.2132615
40
0.2953195
50
48.2778575
51
77.4994676
0
ARC
8
DEFAULT_255_1_234
10
22.5524036
20
45.2261746
40
0.2808655
50
36.3142134
51
47.6305865
0
ARC
8
DEFAULT_255_1_234
10
22.4655343
20
45.1676515
40
0.3855453
50
18.2931786
51
35.6769206
0
ARC
8
DEFAULT_255_1_234
10
22.2112102
20
45.0803593
40
0.654423
50
8.024666
51
18.5605216
0
ARC
8
DEFAULT_255_1_234
10
21.7949022
20
45.0188792
40
1.0752407
50
1.1274072
51
8.1718305
0
ARC
8
DEFAULT_255_1_234
10
21.4713213
20
45.0061885
40
1.3990231
50
0.5424119
51
1.3863029
0
ARC
8
DEFAULT_255_1_234
10
21.653459
20
45.0334342
40
1.0682415
50
359.8090433
51
4.9407866
0
ARC
8
DEFAULT_255_1_234
10
22.0744604
20
45.0710113
40
0.6455691
50
4.8362157
51
12.2904523
0
ARC
8
DEFAULT_255_1_234
10
22.3499719
20
45.1323965
40
0.3633074
50
12.0805627
51
23.8173984
0
ARC
8
DEFAULT_255_1_234
10
22.4673425
20
45.1820919
40
0.2358723
50
24.2871213
51
31.3935614
0
ARC
8
DEFAULT_255_1_234
10
22.5198122
20
45.2164233
40
0.1732111
50
30.7407893
51
82.4657128
0
ARC
8
DEFAULT_255_1_234
10
22.5018256
20
45.1280691
40
0.263235
50
81.1060089
51
90.2184952
0
ARC
8
DEFAULT_255_1_234
10
22.4982555
20
45.1538924
40
0.2374236
50
89.3806855
51
105.6762551
0
ARC
8
DEFAULT_255_1_234
10
22.4799186
20
45.2205567
40
0.1682847
50
105.7981136
51
149.7388061
0
ARC
8
DEFAULT_255_1_234
10
22.5863264
20
45.156595
40
0.2924306
50
149.4208916
51
163.6286378
0
ARC
8
DEFAULT_255_1_234
10
22.7954152
20
45.092825
40
0.5110213
50
163.3763315
51
172.1410975
0
ARC
8
DEFAULT_255_1_234
10
23.1254871
20
45.0455518
40
0.8444586
50
172.0259487
51
178.0703232
0
ARC
8
DEFAULT_255_1_234
10
23.428496
20
45.0311906
40
1.1477868
50
177.8631668
51
179.5044149
0
ARC
8
DEFAULT_255_1_234
10
23.3212365
20
44.7997389
40
1.0404907
50
179.7995573
51
185.2460446
0
ARC
8
DEFAULT_255_1_234
10
22.9169404
20
44.7614513
40
0.6343885
50
185.1411642
51
193.0079639
0
ARC
8
DEFAULT_255_1_234
10
22.6525877
20
44.6989641
40
0.3627568
50
192.7897626
51
205.2507664
0
ARC
8
DEFAULT_255_1_234
10
22.5479424
20
44.6522415
40
0.2481908
50
205.8005384
51
211.2537509
0
ARC
8
DEFAULT_255_1_234
10
22.4955864
20
44.617158
40
0.1852521
50
210.3789793
51
238.4008143
0
ARC
8
DEFAULT_255_1_234
10
22.4936386
20
44.6218376
40
0.1882621
50
239.6520629
51
265.9793761
0
ARC
8
DEFAULT_255_1_234
10
22.5021586
20
44.6890427
40
0.2559272
50
265.1315437
51
270.060332
0
ARC
8
DEFAULT_255_1_234
10
22.5050365
20
44.6566534
40
0.2235528
50
269.3314664
51
287.2178029
0
ARC
8
DEFAULT_255_1_234
10
22.5188217
20
44.6063279
40
0.1714108
50
287.7958004
51
329.080874
0
ARC
8
DEFAULT_255_1_234
10
22.4230674
20
44.666093
40
0.2842745
50
328.6634704
51
343.3325132
0
ARC
8
DEFAULT_255_1_234
10
22.2057694
20
44.7337863
40
0.5118644
50
343.0499468
51
351.9393422
0
ARC
8
DEFAULT_255_1_234
10
21.8590994
20
44.7848949
40
0.8622784
50
351.8069023
51
357.7959224
0
ARC
8
DEFAULT_255_1_234
10
21.535555
20
44.8016721
40
1.1862365
50
357.5871873
51
359.2677531
0
ARC
8
DEFAULT_255_1_234
10
23.1861384
20
44.4067565
40
0.1070357
50
163.5417914
51
180.5078233
0
ARC
8
DEFAULT_255_1_234
10
23.1669202
20
44.4119421
40
0.0871371
50
138.1647447
51
163.2316401
0
ARC
8
DEFAULT_255_1_234
10
23.1556981
20
44.4214534
40
0.0724329
50
105.6856465
51
137.8494928
0
ARC
8
DEFAULT_255_1_234
10
23.1675413
20
44.3830129
40
0.1126485
50
92.6088068
51
106.1990587
0
ARC
8
DEFAULT_255_1_234
10
23.1705786
20
44.3434774
40
0.1522861
50
89.9660831
51
93.0733434
0
ARC
8
DEFAULT_255_1_234
10
23.1716481
20
44.365632
40
0.130135
50
78.4379222
51
90.4311858
0
ARC
8
DEFAULT_255_1_234
10
23.1813061
20
44.4106588
40
0.0840873
50
56.8960528
51
78.7359558
0
ARC
8
DEFAULT_255_1_234
10
23.1876288
20
44.4216877
40
0.0713991
50
42.6499553
51
56.3125067
0
ARC
8
DEFAULT_255_1_234
10
23.1748175
20
44.4099146
40
0.0887984
50
3.8142714
51
42.6365749
0
ARC
8
DEFAULT_255_1_234
10
23.1461976
20
44.4059153
40
0.1176392
50
359.9476902
51
4.8305927
0
ARC
8
DEFAULT_255_1_234
10
23.1688135
20
44.4048541
40
0.0950282
50
340.9376387
51
0.5750546
0
ARC
8
DEFAULT_255_1_234
10
23.1800631
20
44.4018192
40
0.0834082
50
316.0805399
51
340.3842391
0
ARC
8
DEFAULT_255_1_234
10
23.185871
20
44.3964809
40
0.0755219
50
285.8514865
51
315.9414755
0
ARC
8
DEFAULT_255_1_234
10
23.1741281
20
44.4344349
40
0.115244
50
273.1292529
51
286.3135479
0
ARC
8
DEFAULT_255_1_234
10
23.170798
20
44.4746049
40
0.1555398
50
269.9524064
51
273.5463789
0
ARC
8
DEFAULT_255_1_234
10
23.1696932
20
44.4527792
40
0.1337177
50
259.0490813
51
270.4180302
0
ARC
8
DEFAULT_255_1_234
10
23.1600595
20
44.4050393
40
0.0850178
50
239.7587791
51
259.311372
0
ARC
8
DEFAULT_255_1_234
10
23.1519626
20
44.3899482
40
0.0679053
50
222.6244131
51
239.247817
0
ARC
8
DEFAULT_255_1_234
10
23.1654001
20
44.4022619
40
0.0861314
50
182.9227855
51
222.598345
0
ARC
8
DEFAULT_255_1_234
10
23.192262
20
44.4057373
40
0.113155
50
179.9642935
51
183.9868025
0
LINE
8
DEFAULT_255_1_234
10
24.248528
20
45.4973211
11
24.248528
21
45.413791
0
LINE
8
DEFAULT_255_1_234
10
24.248528
20
45.413791
11
23.7642142
21
44.3279
0
LINE
8
DEFAULT_255_1_234
10
23.7642142
20
44.3279
11
23.6083985
21
44.3279
0
LINE
8
DEFAULT_255_1_234
10
23.6083985
20
44.3279
11
24.091106
21
45.3752387
0
LINE
8
DEFAULT_255_1_234
10
24.091106
20
45.3752387
11
23.458205
21
45.3752387
0
LINE
8
DEFAULT_255_1_234
10
23.458205
20
45.3752387
11
23.458205
21
45.4973211
0
LINE
8
DEFAULT_255_1_234
10
23.458205
20
45.4973211
11
24.248528
21
45.4973211
0
LINE
8
DEFAULT_255_1_234
10
22.8337378
20
52.8011169
11
22.8337378
21
52.9223962
0
LINE
8
DEFAULT_255_1_234
10
22.8337378
20
52.9223962
11
22.945379
21
52.9223962
0
LINE
8
DEFAULT_255_1_234
10
22.7550268
20
53.1280087
11
22.6064396
21
53.1280087
0
LINE
8
DEFAULT_255_1_234
10
22.5959983
20
52.5738188
11
22.7453887
21
52.5738188
0
LINE
8
DEFAULT_255_1_234
10
22.945379
20
52.8011169
11
22.8337378
21
52.8011169
0
ARC
8
DEFAULT_255_1_234
10
22.9424656
20
53.2616713
40
0.3392876
50
270.4919872
51
281.8951556
0
ARC
8
DEFAULT_255_1_234
10
22.9665918
20
53.1514702
40
0.2264817
50
281.6691735
51
301.2943132
0
ARC
8
DEFAULT_255_1_234
10
22.9836128
20
53.1203304
40
0.1910381
50
301.7833094
51
311.7545298
0
ARC
8
DEFAULT_255_1_234
10
22.9927704
20
53.1101748
40
0.1773635
50
311.7323931
51
354.2802411
0
ARC
8
DEFAULT_255_1_234
10
22.9201329
20
53.1226722
40
0.2509385
50
353.0937916
51
0.1181479
0
ARC
8
DEFAULT_255_1_234
10
22.8740114
20
53.1274386
40
0.2970898
50
359.1805295
51
15.0453146
0
ARC
8
DEFAULT_255_1_234
10
23.0085951
20
53.1666992
40
0.1569564
50
13.9577229
51
77.6713066
0
ARC
8
DEFAULT_255_1_234
10
22.969948
20
53.0281949
40
0.3006298
50
76.1116566
51
90.7026153
0
ARC
8
DEFAULT_255_1_234
10
22.9640318
20
53.0555545
40
0.2732568
50
89.5324876
51
103.531937
0
ARC
8
DEFAULT_255_1_234
10
22.9439762
20
53.1354884
40
0.1908508
50
103.2931773
51
133.5619022
0
ARC
8
DEFAULT_255_1_234
10
22.9395251
20
53.1414375
40
0.1834746
50
133.8349307
51
173.5344437
0
ARC
8
DEFAULT_255_1_234
10
23.0118294
20
53.1286213
40
0.2568033
50
172.5096846
51
180.1366907
0
ARC
8
DEFAULT_255_1_234
10
22.9167188
20
53.1320622
40
0.3103056
50
155.3484492
51
180.7484736
0
ARC
8
DEFAULT_255_1_234
10
22.9118277
20
53.1291846
40
0.3070957
50
131.5744599
51
154.4798489
0
ARC
8
DEFAULT_255_1_234
10
22.9431424
20
53.097531
40
0.3515643
50
96.9875458
51
131.9690667
0
ARC
8
DEFAULT_255_1_234
10
22.9650904
20
52.9729636
40
0.4779224
50
89.8596053
51
97.7825159
0
ARC
8
DEFAULT_255_1_234
10
22.9698967
20
52.9467616
40
0.5041361
50
78.3655447
51
90.4131539
0
ARC
8
DEFAULT_255_1_234
10
23.0056885
20
53.1126887
40
0.3344039
50
56.6229102
51
78.638727
0
ARC
8
DEFAULT_255_1_234
10
23.0271829
20
53.1502805
40
0.2912001
50
47.0253525
51
56.0854072
0
ARC
8
DEFAULT_255_1_234
10
23.0291609
20
53.1542223
40
0.2869704
50
10.9208013
51
46.7778124
0
ARC
8
DEFAULT_255_1_234
10
22.8927675
20
53.1226857
40
0.426899
50
359.6364486
51
11.6087304
0
ARC
8
DEFAULT_255_1_234
10
23.0762519
20
53.1211752
40
0.243409
50
332.3549906
51
359.7179418
0
ARC
8
DEFAULT_255_1_234
10
23.0112121
20
53.1520142
40
0.3153459
50
325.2333722
51
332.8745602
0
ARC
8
DEFAULT_255_1_234
10
23.0264744
20
53.1413828
40
0.2967456
50
292.9802137
51
325.2392345
0
ARC
8
DEFAULT_255_1_234
10
22.9990118
20
53.1947863
40
0.3566604
50
292.5402179
51
293.6924929
0
ARC
8
DEFAULT_255_1_234
10
23.0382714
20
52.5493091
40
0.3307468
50
57.6435486
51
72.8625112
0
ARC
8
DEFAULT_255_1_234
10
23.0737214
20
52.6067549
40
0.2632492
50
36.7248896
51
57.4697979
0
ARC
8
DEFAULT_255_1_234
10
23.0725847
20
52.608022
40
0.2634081
50
8.0545065
51
36.356114
0
ARC
8
DEFAULT_255_1_234
10
22.9863032
20
52.5925174
40
0.3510261
50
359.8320645
51
8.5869982
0
ARC
8
DEFAULT_255_1_234
10
22.9487808
20
52.5877101
40
0.3885653
50
343.9829931
51
0.5571613
0
ARC
8
DEFAULT_255_1_234
10
23.0374005
20
52.5634438
40
0.2966924
50
311.6359546
51
343.7651759
0
ARC
8
DEFAULT_255_1_234
10
22.9995574
20
52.6061102
40
0.3537231
50
279.7829875
51
311.6255694
0
ARC
8
DEFAULT_255_1_234
10
22.9694351
20
52.749828
40
0.5004971
50
269.7286406
51
280.3856417
0
ARC
8
DEFAULT_255_1_234
10
22.9632423
20
52.7456996
40
0.4963778
50
256.6828919
51
270.4412052
0
ARC
8
DEFAULT_255_1_234
10
22.9293719
20
52.6072394
40
0.3538406
50
229.4223008
51
256.8556159
0
ARC
8
DEFAULT_255_1_234
10
22.8879112
20
52.5605736
40
0.2914296
50
181.818294
51
229.6455059
0
ARC
8
DEFAULT_255_1_234
10
22.9919068
20
52.5736496
40
0.3959084
50
179.9755256
51
183.2323064
0
ARC
8
DEFAULT_255_1_234
10
22.9746814
20
52.5716037
40
0.2293034
50
179.4465117
51
196.2869258
0
ARC
8
DEFAULT_255_1_234
10
22.9259222
20
52.5582651
40
0.1787621
50
196.5661473
51
227.705904
0
ARC
8
DEFAULT_255_1_234
10
22.9423317
20
52.5766155
40
0.2033784
50
227.7652068
51
257.8762805
0
ARC
8
DEFAULT_255_1_234
10
22.9648287
20
52.6709156
40
0.3003081
50
257.4584385
51
270.426602
0
ARC
8
DEFAULT_255_1_234
10
22.9693853
20
52.6998996
40
0.329292
50
269.5962073
51
280.8789248
0
ARC
8
DEFAULT_255_1_234
10
22.9923382
20
52.5852685
40
0.2123908
50
280.6346389
51
299.8595945
0
ARC
8
DEFAULT_255_1_234
10
23.0114289
20
52.5490212
40
0.171457
50
300.3576302
51
314.5517981
0
ARC
8
DEFAULT_255_1_234
10
23.0031349
20
52.5550919
40
0.1816095
50
315.0728369
51
345.0431014
0
ARC
8
DEFAULT_255_1_234
10
22.9108163
20
52.5819841
40
0.2777492
50
344.5986631
51
357.9269593
0
ARC
8
DEFAULT_255_1_234
10
22.8212489
20
52.5881276
40
0.3674917
50
357.4748886
51
0.0231117
0
ARC
8
DEFAULT_255_1_234
10
22.9235599
20
52.5905679
40
0.2651907
50
359.5047933
51
13.4239635
0
ARC
8
DEFAULT_255_1_234
10
23.0102242
20
52.6127478
40
0.1757509
50
12.9498199
51
48.7551375
0
ARC
8
DEFAULT_255_1_234
10
22.9919976
20
52.58784
40
0.2065134
50
49.5088623
51
72.1836453
0
ARC
8
DEFAULT_255_1_234
10
22.9562129
20
52.4816291
40
0.3185836
50
71.9010081
51
84.3554254
0
ARC
8
DEFAULT_255_1_234
10
22.9400761
20
52.3455326
40
0.4556151
50
84.0193428
51
89.333121
0
LINE
8
DEFAULT_255_1_234
10
23.7348988
20
53.4348211
11
23.7348988
21
52.3914983
0
LINE
8
DEFAULT_255_1_234
10
23.7348988
20
52.3914983
11
24.2890888
21
52.3914983
0
LINE
8
DEFAULT_255_1_234
10
24.2890888
20
52.3914983
11
24.2890888
21
52.2654
0
LINE
8
DEFAULT_255_1_234
10
24.2890888
20
52.2654
11
23.5798863
21
52.2654
0
LINE
8
DEFAULT_255_1_234
10
23.5798863
20
52.2654
11
23.5798863
21
53.4348211
0
LINE
8
DEFAULT_255_1_234
10
23.5798863
20
53.4348211
11
23.7348988
21
53.4348211
0
LINE
8
DEFAULT_255_1_234
10
22.8702817
20
60.8944327
11
22.8702817
21
60.7016709
0
LINE
8
DEFAULT_255_1_234
10
22.132165
20
60.6815916
11
22.132165
21
60.8799755
0
LINE
8
DEFAULT_255_1_234
10
22.7216946
20
60.6615123
11
22.7216946
21
60.9048739
0
LINE
8
DEFAULT_255_1_234
10
22.2807521
20
60.9161184
11
22.2807521
21
60.6783789
0
ARC
8
DEFAULT_255_1_234
10
21.6455707
20
60.6967805
40
1.2247208
50
353.8441951
51
0.2287902
0
ARC
8
DEFAULT_255_1_234
10
22.1095211
20
60.6449806
40
0.7578929
50
344.4934747
51
353.9765454
0
ARC
8
DEFAULT_255_1_234
10
22.4087801
20
60.5598981
40
0.4467846
50
329.2803592
51
344.7472793
0
ARC
8
DEFAULT_255_1_234
10
22.5080626
20
60.5054018
40
0.3336173
50
324.9352394
51
328.6160465
0
ARC
8
DEFAULT_255_1_234
10
22.5457734
20
60.4790427
40
0.2876076
50
280.580143
51
324.9173126
0
ARC
8
DEFAULT_255_1_234
10
22.5056527
20
60.6461099
40
0.4592847
50
269.5977311
51
281.6734359
0
ARC
8
DEFAULT_255_1_234
10
22.4984433
20
60.6341173
40
0.4472986
50
256.6228859
51
270.51044
0
ARC
8
DEFAULT_255_1_234
10
22.458241
20
60.4792877
40
0.2873874
50
215.8618325
51
257.2788573
0
ARC
8
DEFAULT_255_1_234
10
22.5603442
20
60.5477977
40
0.4102928
50
197.9693508
51
215.2623606
0
ARC
8
DEFAULT_255_1_234
10
22.8088558
20
60.6316709
40
0.6725652
50
187.8816417
51
198.2346507
0
ARC
8
DEFAULT_255_1_234
10
23.2046766
20
60.6888079
40
1.0724845
50
180.8976217
51
188.0055519
0
ARC
8
DEFAULT_255_1_234
10
23.4846954
20
60.6991777
40
1.3526448
50
180.7449369
51
181.1510016
0
ARC
8
DEFAULT_255_1_234
10
23.3269683
20
60.8848042
40
1.1948131
50
173.7675579
51
180.231553
0
ARC
8
DEFAULT_255_1_234
10
22.875183
20
60.9358666
40
0.7401564
50
164.3058563
51
173.9002247
0
ARC
8
DEFAULT_255_1_234
10
22.5839899
20
61.0197656
40
0.4371288
50
148.7922025
51
164.568378
0
ARC
8
DEFAULT_255_1_234
10
22.4888351
20
61.0728929
40
0.3282386
50
144.5883898
51
148.1176286
0
ARC
8
DEFAULT_255_1_234
10
22.4545249
20
61.0968315
40
0.2864044
50
101.6440918
51
144.514236
0
ARC
8
DEFAULT_255_1_234
10
22.4970315
20
60.9279069
40
0.4604934
50
89.5284041
51
102.5819763
0
ARC
8
DEFAULT_255_1_234
10
22.5049403
20
60.9240018
40
0.464401
50
77.0437873
51
90.5081339
0
ARC
8
DEFAULT_255_1_234
10
22.5451405
20
61.0882615
40
0.2953195
50
48.2778575
51
77.4994676
0
ARC
8
DEFAULT_255_1_234
10
22.5524036
20
61.1011746
40
0.2808655
50
36.3142134
51
47.6305865
0
ARC
8
DEFAULT_255_1_234
10
22.4655343
20
61.0426515
40
0.3855453
50
18.2931786
51
35.6769206
0
ARC
8
DEFAULT_255_1_234
10
22.2112102
20
60.9553593
40
0.654423
50
8.024666
51
18.5605216
0
ARC
8
DEFAULT_255_1_234
10
21.7949022
20
60.8938792
40
1.0752407
50
1.1274072
51
8.1718305
0
ARC
8
DEFAULT_255_1_234
10
21.4713213
20
60.8811885
40
1.3990231
50
0.5424119
51
1.3863029
0
ARC
8
DEFAULT_255_1_234
10
21.653459
20
60.9084342
40
1.0682415
50
359.8090433
51
4.9407866
0
ARC
8
DEFAULT_255_1_234
10
22.0744604
20
60.9460113
40
0.6455691
50
4.8362157
51
12.2904523
0
ARC
8
DEFAULT_255_1_234
10
22.3499719
20
61.0073965
40
0.3633074
50
12.0805627
51
23.8173984
0
ARC
8
DEFAULT_255_1_234
10
22.4673425
20
61.0570919
40
0.2358723
50
24.2871213
51
31.3935614
0
ARC
8
DEFAULT_255_1_234
10
22.5198122
20
61.0914233
40
0.1732111
50
30.7407893
51
82.4657128
0
ARC
8
DEFAULT_255_1_234
10
22.5018256
20
61.0030691
40
0.263235
50
81.1060089
51
90.2184952
0
ARC
8
DEFAULT_255_1_234
10
22.4982555
20
61.0288924
40
0.2374236
50
89.3806855
51
105.6762551
0
ARC
8
DEFAULT_255_1_234
10
22.4799186
20
61.0955567
40
0.1682847
50
105.7981136
51
149.7388061
0
ARC
8
DEFAULT_255_1_234
10
22.5863264
20
61.031595
40
0.2924306
50
149.4208916
51
163.6286378
0
ARC
8
DEFAULT_255_1_234
10
22.7954152
20
60.967825
40
0.5110213
50
163.3763315
51
172.1410975
0
ARC
8
DEFAULT_255_1_234
10
23.1254871
20
60.9205518
40
0.8444586
50
172.0259487
51
178.0703232
0
ARC
8
DEFAULT_255_1_234
10
23.428496
20
60.9061906
40
1.1477868
50
177.8631668
51
179.5044149
0
ARC
8
DEFAULT_255_1_234
10
23.3212365
20
60.6747389
40
1.0404907
50
179.7995573
51
185.2460446
0
ARC
8
DEFAULT_255_1_234
10
22.9169404
20
60.6364513
40
0.6343885
50
185.1411642
51
193.0079639
0
ARC
8
DEFAULT_255_1_234
10
22.6525877
20
60.5739641
40
0.3627568
50
192.7897626
51
205.2507664
0
ARC
8
DEFAULT_255_1_234
10
22.5479424
20
60.5272415
40
0.2481908
50
205.8005384
51
211.2537509
0
ARC
8
DEFAULT_255_1_234
10
22.4955864
20
60.492158
40
0.1852521
50
210.3789793
51
238.4008143
0
ARC
8
DEFAULT_255_1_234
10
22.4936386
20
60.4968376
40
0.1882621
50
239.6520629
51
265.9793761
0
ARC
8
DEFAULT_255_1_234
10
22.5021586
20
60.5640427
40
0.2559272
50
265.1315437
51
270.060332
0
ARC
8
DEFAULT_255_1_234
10
22.5050365
20
60.5316534
40
0.2235528
50
269.3314664
51
287.2178029
0
ARC
8
DEFAULT_255_1_234
10
22.5188217
20
60.4813279
40
0.1714108
50
287.7958004
51
329.080874
0
ARC
8
DEFAULT_255_1_234
10
22.4230674
20
60.541093
40
0.2842745
50
328.6634704
51
343.3325132
0
ARC
8
DEFAULT_255_1_234
10
22.2057694
20
60.6087863
40
0.5118644
50
343.0499468
51
351.9393422
0
ARC
8
DEFAULT_255_1_234
10
21.8590994
20
60.6598949
40
0.8622784
50
351.8069023
51
357.7959224
0
ARC
8
DEFAULT_255_1_234
10
21.535555
20
60.6766721
40
1.1862365
50
357.5871873
51
359.2677531
0
ARC
8
DEFAULT_255_1_234
10
23.1861384
20
60.2817565
40
0.1070357
50
163.5417914
51
180.5078233
0
ARC
8
DEFAULT_255_1_234
10
23.1669202
20
60.2869421
40
0.0871371
50
138.1647447
51
163.2316401
0
ARC
8
DEFAULT_255_1_234
10
23.1556981
20
60.2964534
40
0.0724329
50
105.6856465
51
137.8494928
0
ARC
8
DEFAULT_255_1_234
10
23.1675413
20
60.2580129
40
0.1126485
50
92.6088068
51
106.1990587
0
ARC
8
DEFAULT_255_1_234
10
23.1705786
20
60.2184774
40
0.1522861
50
89.9660831
51
93.0733434
0
ARC
8
DEFAULT_255_1_234
10
23.1716481
20
60.240632
40
0.130135
50
78.4379222
51
90.4311858
0
ARC
8
DEFAULT_255_1_234
10
23.1813061
20
60.2856588
40
0.0840873
50
56.8960528
51
78.7359558
0
ARC
8
DEFAULT_255_1_234
10
23.1876288
20
60.2966877
40
0.0713991
50
42.6499553
51
56.3125067
0
ARC
8
DEFAULT_255_1_234
10
23.1748175
20
60.2849146
40
0.0887984
50
3.8142714
51
42.6365749
0
ARC
8
DEFAULT_255_1_234
10
23.1461976
20
60.2809153
40
0.1176392
50
359.9476902
51
4.8305927
0
ARC
8
DEFAULT_255_1_234
10
23.1688135
20
60.2798541
40
0.0950282
50
340.9376387
51
0.5750546
0
ARC
8
DEFAULT_255_1_234
10
23.1800631
20
60.2768192
40
0.0834082
50
316.0805399
51
340.3842391
0
ARC
8
DEFAULT_255_1_234
10
23.185871
20
60.2714809
40
0.0755219
50
285.8514865
51
315.9414755
0
ARC
8
DEFAULT_255_1_234
10
23.1741281
20
60.3094349
40
0.115244
50
273.1292529
51
286.3135479
0
ARC
8
DEFAULT_255_1_234
10
23.170798
20
60.3496049
40
0.1555398
50
269.9524064
51
273.5463789
0
ARC
8
DEFAULT_255_1_234
10
23.1696932
20
60.3277792
40
0.1337177
50
259.0490813
51
270.4180302
0
ARC
8
DEFAULT_255_1_234
10
23.1600595
20
60.2800393
40
0.0850178
50
239.7587791
51
259.311372
0
ARC
8
DEFAULT_255_1_234
10
23.1519626
20
60.2649482
40
0.0679053
50
222.6244131
51
239.247817
0
ARC
8
DEFAULT_255_1_234
10
23.1654001
20
60.2772619
40
0.0861314
50
182.9227855
51
222.598345
0
ARC
8
DEFAULT_255_1_234
10
23.192262
20
60.2807373
40
0.113155
50
179.9642935
51
183.9868025
0
LINE
8
DEFAULT_255_1_234
10
24.0501441
20
61.3731243
11
24.0766488
21
61.3731243
0
LINE
8
DEFAULT_255_1_234
10
24.0766488
20
61.3731243
11
24.0766488
21
61.247026
0
LINE
8
DEFAULT_255_1_234
10
24.0766488
20
61.247026
11
24.0493409
21
61.247026
0
LINE
8
DEFAULT_255_1_234
10
23.5023795
20
60.6478583
11
23.5023795
21
60.7048836
0
LINE
8
DEFAULT_255_1_234
10
23.6517699
20
60.6856075
11
23.6517699
21
60.6309917
0
ARC
8
DEFAULT_255_1_234
10
24.0545757
20
60.7472455
40
0.4998079
50
90.6001036
51
104.514704
0
ARC
8
DEFAULT_255_1_234
10
24.0157273
20
60.8917131
40
0.3502176
50
104.2855254
51
133.862935
0
ARC
8
DEFAULT_255_1_234
10
24.032103
20
60.880883
40
0.3693984
50
134.5302688
51
161.6210873
0
ARC
8
DEFAULT_255_1_234
10
24.1974219
20
60.8225895
40
0.5446739
50
161.2849839
51
174.2076652
0
ARC
8
DEFAULT_255_1_234
10
24.3381156
20
60.8031787
40
0.6866274
50
173.7810589
51
174.9254635
0
ARC
8
DEFAULT_255_1_234
10
23.8830988
20
60.6648839
40
0.3033419
50
95.8330959
51
138.9954921
0
ARC
8
DEFAULT_255_1_234
10
23.9054344
20
60.5370375
40
0.4328947
50
89.8753725
51
97.0544009
0
ARC
8
DEFAULT_255_1_234
10
23.910181
20
60.6205748
40
0.3493769
50
71.6407809
51
90.6240094
0
ARC
8
DEFAULT_255_1_234
10
23.9252383
20
60.6760082
40
0.2920396
50
39.6367836
51
71.019018
0
ARC
8
DEFAULT_255_1_234
10
23.8615856
20
60.6209998
40
0.3761538
50
10.658731
51
39.9043955
0
ARC
8
DEFAULT_255_1_234
10
23.7067939
20
60.5873686
40
0.5345136
50
359.682601
51
11.132623
0
ARC
8
DEFAULT_255_1_234
10
23.702807
20
60.580301
40
0.5385081
50
347.2486944
51
0.4369317
0
ARC
8
DEFAULT_255_1_234
10
23.8695547
20
60.5401807
40
0.3670249
50
318.1409698
51
347.6118597
0
ARC
8
DEFAULT_255_1_234
10
23.902054
20
60.5134702
40
0.3250007
50
275.6342139
51
317.8248465
0
ARC
8
DEFAULT_255_1_234
10
23.8799651
20
60.6434219
40
0.4565864
50
269.8874292
51
276.7917694
0
ARC
8
DEFAULT_255_1_234
10
23.8744722
20
60.5408743
40
0.3540676
50
246.9140195
51
270.7437342
0
ARC
8
DEFAULT_255_1_234
10
23.8751112
20
60.5266384
40
0.3412781
50
218.1665114
51
245.878116
0
ARC
8
DEFAULT_255_1_234
10
23.9630573
20
60.6002279
40
0.455911
50
191.4115814
51
218.6077802
0
ARC
8
DEFAULT_255_1_234
10
24.1568662
20
60.6436833
40
0.6545001
50
179.6345085
51
191.7836486
0
ARC
8
DEFAULT_255_1_234
10
24.7150999
20
60.7115697
40
1.2127388
50
171.4525249
51
180.3158839
0
ARC
8
DEFAULT_255_1_234
10
24.2755875
20
60.7799608
40
0.7679464
50
157.9802646
51
171.6246686
0
ARC
8
DEFAULT_255_1_234
10
24.0541896
20
60.8682421
40
0.5296008
50
141.4298019
51
157.854097
0
ARC
8
DEFAULT_255_1_234
10
23.9900216
20
60.9136381
40
0.4511509
50
102.8715806
51
140.8564722
0
ARC
8
DEFAULT_255_1_234
10
24.0547832
20
60.6696552
40
0.7034845
50
90.3778349
51
103.5869322
0
ARC
8
DEFAULT_255_1_234
10
23.8809608
20
60.609173
40
0.2370698
50
89.8751008
51
126.2071704
0
ARC
8
DEFAULT_255_1_234
10
23.8855398
20
60.5937303
40
0.2522934
50
124.9745049
51
144.895901
0
ARC
8
DEFAULT_255_1_234
10
23.8679588
20
60.608056
40
0.2296779
50
145.2974905
51
160.2660252
0
ARC
8
DEFAULT_255_1_234
10
24.1752127
20
60.6278071
40
0.5234525
50
179.6514266
51
190.2855912
0
ARC
8
DEFAULT_255_1_234
10
24.0058264
20
60.5958786
40
0.3510893
50
190.0945431
51
207.5098196
0
ARC
8
DEFAULT_255_1_234
10
23.9492534
20
60.5689623
40
0.288489
50
207.9583163
51
216.3251085
0
ARC
8
DEFAULT_255_1_234
10
23.9152642
20
60.5410105
40
0.2445587
50
215.7661442
51
232.5456785
0
ARC
8
DEFAULT_255_1_234
10
23.8769625
20
60.4923482
40
0.1826382
50
232.8005391
51
270.6605633
0
ARC
8
DEFAULT_255_1_234
10
23.8815326
20
60.5287612
40
0.2190529
50
269.35537
51
288.4744281
0
ARC
8
DEFAULT_255_1_234
10
23.8908223
20
60.4938118
40
0.1829749
50
289.1833337
51
322.9683818
0
ARC
8
DEFAULT_255_1_234
10
23.8296745
20
60.5420391
40
0.2608399
50
322.6007884
51
346.5182367
0
ARC
8
DEFAULT_255_1_234
10
23.7139341
20
60.5715616
40
0.3802777
50
346.2582162
51
358.7741648
0
ARC
8
DEFAULT_255_1_234
10
23.612101
20
60.5770965
40
0.4822176
50
358.3755224
51
0.0098023
0
ARC
8
DEFAULT_255_1_234
10
23.6877197
20
60.5798657
40
0.4066078
50
359.6214041
51
11.2839074
0
ARC
8
DEFAULT_255_1_234
10
23.8154344
20
60.6065066
40
0.2761514
50
11.0482309
51
31.8146458
0
ARC
8
DEFAULT_255_1_234
10
23.8463387
20
60.6232584
40
0.2410679
50
32.3035391
51
38.082671
0
ARC
8
DEFAULT_255_1_234
10
23.8884047
20
60.6613662
40
0.1844966
50
36.825067
51
85.7415724
0
ARC
8
DEFAULT_255_1_234
10
23.881688
20
60.6113301
40
0.2349122
50
85.0140713
51
90.0513278
0
LINE
8
DEFAULT_255_1_234
10
22.8702817
20
68.8319327
11
22.8702817
21
68.6391709
0
LINE
8
DEFAULT_255_1_234
10
22.132165
20
68.6190916
11
22.132165
21
68.8174755
0
LINE
8
DEFAULT_255_1_234
10
22.7216946
20
68.5990123
11
22.7216946
21
68.8423739
0
LINE
8
DEFAULT_255_1_234
10
22.2807521
20
68.8536184
11
22.2807521
21
68.6158789
0
ARC
8
DEFAULT_255_1_234
10
21.6455707
20
68.6342805
40
1.2247208
50
353.8441951
51
0.2287902
0
ARC
8
DEFAULT_255_1_234
10
22.1095211
20
68.5824806
40
0.7578929
50
344.4934747
51
353.9765454
0
ARC
8
DEFAULT_255_1_234
10
22.4087801
20
68.4973981
40
0.4467846
50
329.2803592
51
344.7472793
0
ARC
8
DEFAULT_255_1_234
10
22.5080626
20
68.4429018
40
0.3336173
50
324.9352394
51
328.6160465
0
ARC
8
DEFAULT_255_1_234
10
22.5457734
20
68.4165427
40
0.2876076
50
280.580143
51
324.9173126
0
ARC
8
DEFAULT_255_1_234
10
22.5056527
20
68.5836099
40
0.4592847
50
269.5977311
51
281.6734359
0
ARC
8
DEFAULT_255_1_234
10
22.4984433
20
68.5716173
40
0.4472986
50
256.6228859
51
270.51044
0
ARC
8
DEFAULT_255_1_234
10
22.458241
20
68.4167877
40
0.2873874
50
215.8618325
51
257.2788573
0
ARC
8
DEFAULT_255_1_234
10
22.5603442
20
68.4852977
40
0.4102928
50
197.9693508
51
215.2623606
0
ARC
8
DEFAULT_255_1_234
10
22.8088558
20
68.5691709
40
0.6725652
50
187.8816417
51
198.2346507
0
ARC
8
DEFAULT_255_1_234
10
23.2046766
20
68.6263079
40
1.0724845
50
180.8976217
51
188.0055519
0
ARC
8
DEFAULT_255_1_234
10
23.4846954
20
68.6366777
40
1.3526448
50
180.7449369
51
181.1510016
0
ARC
8
DEFAULT_255_1_234
10
23.3269683
20
68.8223042
40
1.1948131
50
173.7675579
51
180.231553
0
ARC
8
DEFAULT_255_1_234
10
22.875183
20
68.8733666
40
0.7401564
50
164.3058563
51
173.9002247
0
ARC
8
DEFAULT_255_1_234
10
22.5839899
20
68.9572656
40
0.4371288
50
148.7922025
51
164.568378
0
ARC
8
DEFAULT_255_1_234
10
22.4888351
20
69.0103929
40
0.3282386
50
144.5883898
51
148.1176286
0
ARC
8
DEFAULT_255_1_234
10
22.4545249
20
69.0343315
40
0.2864044
50
101.6440918
51
144.514236
0
ARC
8
DEFAULT_255_1_234
10
22.4970315
20
68.8654069
40
0.4604934
50
89.5284041
51
102.5819763
0
ARC
8
DEFAULT_255_1_234
10
22.5049403
20
68.8615018
40
0.464401
50
77.0437873
51
90.5081339
0
ARC
8
DEFAULT_255_1_234
10
22.5451405
20
69.0257615
40
0.2953195
50
48.2778575
51
77.4994676
0
ARC
8
DEFAULT_255_1_234
10
22.5524036
20
69.0386746
40
0.2808655
50
36.3142134
51
47.6305865
0
ARC
8
DEFAULT_255_1_234
10
22.4655343
20
68.9801515
40
0.3855453
50
18.2931786
51
35.6769206
0
ARC
8
DEFAULT_255_1_234
10
22.2112102
20
68.8928593
40
0.654423
50
8.024666
51
18.5605216
0
ARC
8
DEFAULT_255_1_234
10
21.7949022
20
68.8313792
40
1.0752407
50
1.1274072
51
8.1718305
0
ARC
8
DEFAULT_255_1_234
10
21.4713213
20
68.8186885
40
1.3990231
50
0.5424119
51
1.3863029
0
ARC
8
DEFAULT_255_1_234
10
21.653459
20
68.8459342
40
1.0682415
50
359.8090433
51
4.9407866
0
ARC
8
DEFAULT_255_1_234
10
22.0744604
20
68.8835113
40
0.6455691
50
4.8362157
51
12.2904523
0
ARC
8
DEFAULT_255_1_234
10
22.3499719
20
68.9448965
40
0.3633074
50
12.0805627
51
23.8173984
0
ARC
8
DEFAULT_255_1_234
10
22.4673425
20
68.9945919
40
0.2358723
50
24.2871213
51
31.3935614
0
ARC
8
DEFAULT_255_1_234
10
22.5198122
20
69.0289233
40
0.1732111
50
30.7407893
51
82.4657128
0
ARC
8
DEFAULT_255_1_234
10
22.5018256
20
68.9405691
40
0.263235
50
81.1060089
51
90.2184952
0
ARC
8
DEFAULT_255_1_234
10
22.4982555
20
68.9663924
40
0.2374236
50
89.3806855
51
105.6762551
0
ARC
8
DEFAULT_255_1_234
10
22.4799186
20
69.0330567
40
0.1682847
50
105.7981136
51
149.7388061
0
ARC
8
DEFAULT_255_1_234
10
22.5863264
20
68.969095
40
0.2924306
50
149.4208916
51
163.6286378
0
ARC
8
DEFAULT_255_1_234
10
22.7954152
20
68.905325
40
0.5110213
50
163.3763315
51
172.1410975
0
ARC
8
DEFAULT_255_1_234
10
23.1254871
20
68.8580518
40
0.8444586
50
172.0259487
51
178.0703232
0
ARC
8
DEFAULT_255_1_234
10
23.428496
20
68.8436906
40
1.1477868
50
177.8631668
51
179.5044149
0
ARC
8
DEFAULT_255_1_234
10
23.3212365
20
68.6122389
40
1.0404907
50
179.7995573
51
185.2460446
0
ARC
8
DEFAULT_255_1_234
10
22.9169404
20
68.5739513
40
0.6343885
50
185.1411642
51
193.0079639
0
ARC
8
DEFAULT_255_1_234
10
22.6525877
20
68.5114641
40
0.3627568
50
192.7897626
51
205.2507664
0
ARC
8
DEFAULT_255_1_234
10
22.5479424
20
68.4647415
40
0.2481908
50
205.8005384
51
211.2537509
0
ARC
8
DEFAULT_255_1_234
10
22.4955864
20
68.429658
40
0.1852521
50
210.3789793
51
238.4008143
0
ARC
8
DEFAULT_255_1_234
10
22.4936386
20
68.4343376
40
0.1882621
50
239.6520629
51
265.9793761
0
ARC
8
DEFAULT_255_1_234
10
22.5021586
20
68.5015427
40
0.2559272
50
265.1315437
51
270.060332
0
ARC
8
DEFAULT_255_1_234
10
22.5050365
20
68.4691534
40
0.2235528
50
269.3314664
51
287.2178029
0
ARC
8
DEFAULT_255_1_234
10
22.5188217
20
68.4188279
40
0.1714108
50
287.7958004
51
329.080874
0
ARC
8
DEFAULT_255_1_234
10
22.4230674
20
68.478593
40
0.2842745
50
328.6634704
51
343.3325132
0
ARC
8
DEFAULT_255_1_234
10
22.2057694
20
68.5462863
40
0.5118644
50
343.0499468
51
351.9393422
0
ARC
8
DEFAULT_255_1_234
10
21.8590994
20
68.5973949
40
0.8622784
50
351.8069023
51
357.7959224
0
ARC
8
DEFAULT_255_1_234
10
21.535555
20
68.6141721
40
1.1862365
50
357.5871873
51
359.2677531
0
ARC
8
DEFAULT_255_1_234
10
23.1861384
20
68.2192565
40
0.1070357
50
163.5417914
51
180.5078233
0
ARC
8
DEFAULT_255_1_234
10
23.1669202
20
68.2244421
40
0.0871371
50
138.1647447
51
163.2316401
0
ARC
8
DEFAULT_255_1_234
10
23.1556981
20
68.2339534
40
0.0724329
50
105.6856465
51
137.8494928
0
ARC
8
DEFAULT_255_1_234
10
23.1675413
20
68.1955129
40
0.1126485
50
92.6088068
51
106.1990587
0
ARC
8
DEFAULT_255_1_234
10
23.1705786
20
68.1559774
40
0.1522861
50
89.9660831
51
93.0733434
0
ARC
8
DEFAULT_255_1_234
10
23.1716481
20
68.178132
40
0.130135
50
78.4379222
51
90.4311858
0
ARC
8
DEFAULT_255_1_234
10
23.1813061
20
68.2231588
40
0.0840873
50
56.8960528
51
78.7359558
0
ARC
8
DEFAULT_255_1_234
10
23.1876288
20
68.2341877
40
0.0713991
50
42.6499553
51
56.3125067
0
ARC
8
DEFAULT_255_1_234
10
23.1748175
20
68.2224146
40
0.0887984
50
3.8142714
51
42.6365749
0
ARC
8
DEFAULT_255_1_234
10
23.1461976
20
68.2184153
40
0.1176392
50
359.9476902
51
4.8305927
0
ARC
8
DEFAULT_255_1_234
10
23.1688135
20
68.2173541
40
0.0950282
50
340.9376387
51
0.5750546
0
ARC
8
DEFAULT_255_1_234
10
23.1800631
20
68.2143192
40
0.0834082
50
316.0805399
51
340.3842391
0
ARC
8
DEFAULT_255_1_234
10
23.185871
20
68.2089809
40
0.0755219
50
285.8514865
51
315.9414755
0
ARC
8
DEFAULT_255_1_234
10
23.1741281
20
68.2469349
40
0.115244
50
273.1292529
51
286.3135479
0
ARC
8
DEFAULT_255_1_234
10
23.170798
20
68.2871049
40
0.1555398
50
269.9524064
51
273.5463789
0
ARC
8
DEFAULT_255_1_234
10
23.1696932
20
68.2652792
40
0.1337177
50
259.0490813
51
270.4180302
0
ARC
8
DEFAULT_255_1_234
10
23.1600595
20
68.2175393
40
0.0850178
50
239.7587791
51
259.311372
0
ARC
8
DEFAULT_255_1_234
10
23.1519626
20
68.2024482
40
0.0679053
50
222.6244131
51
239.247817
0
ARC
8
DEFAULT_255_1_234
10
23.1654001
20
68.2147619
40
0.0861314
50
182.9227855
51
222.598345
0
ARC
8
DEFAULT_255_1_234
10
23.192262
20
68.2182373
40
0.113155
50
179.9642935
51
183.9868025
0
LINE
8
DEFAULT_255_1_234
10
23.6806841
20
68.6961963
11
23.5618144
21
68.7267169
0
LINE
8
DEFAULT_255_1_234
10
23.5618144
20
68.7267169
11
23.6212493
21
69.3098211
0
LINE
8
DEFAULT_255_1_234
10
23.6212493
20
69.3098211
11
24.2204169
21
69.3098211
0
LINE
8
DEFAULT_255_1_234
10
24.2204169
20
69.3098211
11
24.2204169
21
69.1724784
0
LINE
8
DEFAULT_255_1_234
10
24.2204169
20
69.1724784
11
23.7473476
21
69.1724784
0
LINE
8
DEFAULT_255_1_234
10
23.7473476
20
69.1724784
11
23.7120079
21
68.8536184
0
LINE
8
DEFAULT_255_1_234
10
23.5200494
20
68.4480156
11
23.6606048
21
68.4480156
0
LINE
8
DEFAULT_255_1_234
10
23.7200396
20
68.7283232
11
23.6806841
21
68.6961963
0
ARC
8
DEFAULT_255_1_234
10
23.8974863
20
68.535623
40
0.3681349
50
93.7182161
51
120.2538958
0
ARC
8
DEFAULT_255_1_234
10
23.9069126
20
68.4548394
40
0.449379
50
89.9660152
51
94.2496022
0
ARC
8
DEFAULT_255_1_234
10
23.910986
20
68.5137549
40
0.390482
50
73.8043271
51
90.5585896
0
ARC
8
DEFAULT_255_1_234
10
23.9344757
20
68.5995602
40
0.3015334
50
41.3071453
51
73.5430202
0
ARC
8
DEFAULT_255_1_234
10
23.8928584
20
68.5637324
40
0.3564457
50
13.5075983
51
41.2174222
0
ARC
8
DEFAULT_255_1_234
10
23.7286788
20
68.5207486
40
0.5261351
50
1.1331335
51
13.8829381
0
ARC
8
DEFAULT_255_1_234
10
23.5875157
20
68.5131665
40
0.6674378
50
359.9919444
51
1.544251
0
ARC
8
DEFAULT_255_1_234
10
23.7151983
20
68.509028
40
0.5397702
50
347.8572367
51
0.4293338
0
ARC
8
DEFAULT_255_1_234
10
23.8902301
20
68.4693736
40
0.3603188
50
323.673004
51
348.1672506
0
ARC
8
DEFAULT_255_1_234
10
23.9196809
20
68.4514168
40
0.3259678
50
316.8171152
51
323.1492751
0
ARC
8
DEFAULT_255_1_234
10
23.9257998
20
68.447746
40
0.3189975
50
281.8396411
51
316.5457803
0
ARC
8
DEFAULT_255_1_234
10
23.8882262
20
68.6032762
40
0.4789527
50
269.5770101
51
282.4214771
0
ARC
8
DEFAULT_255_1_234
10
23.8811073
20
68.5819125
40
0.45759
50
256.2427136
51
270.4486331
0
ARC
8
DEFAULT_255_1_234
10
23.8511975
20
68.4619229
40
0.3339303
50
228.9023911
51
256.3314342
0
ARC
8
DEFAULT_255_1_234
10
23.8438208
20
68.4502746
40
0.32031
50
193.753695
51
228.5271154
0
ARC
8
DEFAULT_255_1_234
10
23.9676162
20
68.48658
40
0.4492253
50
184.924711
51
194.497588
0
ARC
8
DEFAULT_255_1_234
10
23.9868729
20
68.4901591
40
0.3289787
50
187.3600538
51
198.6732863
0
ARC
8
DEFAULT_255_1_234
10
23.8819023
20
68.4537674
40
0.217884
50
198.4451669
51
217.794479
0
ARC
8
DEFAULT_255_1_234
10
23.8523198
20
68.4328085
40
0.1816698
50
218.2887171
51
228.5612368
0
ARC
8
DEFAULT_255_1_234
10
23.8620985
20
68.4459963
40
0.1980329
50
228.9654866
51
258.1234728
0
ARC
8
DEFAULT_255_1_234
10
23.8826695
20
68.5340833
40
0.2884748
50
257.7258293
51
270.401361
0
ARC
8
DEFAULT_255_1_234
10
23.8871581
20
68.4895821
40
0.2439788
50
269.4204404
51
286.4209037
0
ARC
8
DEFAULT_255_1_234
10
23.9020069
20
68.4356657
40
0.1880666
50
286.7251356
51
320.600362
0
ARC
8
DEFAULT_255_1_234
10
23.8636894
20
68.4667595
40
0.2374121
50
320.6712579
51
344.5441685
0
ARC
8
DEFAULT_255_1_234
10
23.748022
20
68.5007045
40
0.3579479
50
344.2412205
51
356.7357071
0
ARC
8
DEFAULT_255_1_234
10
23.6231369
20
68.5110444
40
0.4832297
50
356.3548756
51
0.0500261
0
ARC
8
DEFAULT_255_1_234
10
23.7567878
20
68.514165
40
0.3495889
50
359.5576869
51
12.953486
0
ARC
8
DEFAULT_255_1_234
10
23.8622775
20
68.5397434
40
0.2410532
50
12.6490276
51
41.6081334
0
ARC
8
DEFAULT_255_1_234
10
23.8853146
20
68.5593321
40
0.2108218
50
41.7850273
51
85.9892764
0
ARC
8
DEFAULT_255_1_234
10
23.8729883
20
68.4780462
40
0.2928454
50
84.6957577
51
90.0676183
0
ARC
8
DEFAULT_255_1_234
10
23.8706367
20
68.4111716
40
0.3597255
50
89.6804936
51
99.1614436
0
ARC
8
DEFAULT_255_1_234
10
23.8500998
20
68.5339131
40
0.235281
50
98.9830931
51
113.8908934
0
ARC
8
DEFAULT_255_1_234
10
23.8271408
20
68.5880587
40
0.176479
50
114.1950727
51
127.3641004
0
LINE
8
DEFAULT_255_1_234
10
22.7644817
20
76.7694327
11
22.7644817
21
76.5766709
0
LINE
8
DEFAULT_255_1_234
10
22.026365
20
76.5565916
11
22.026365
21
76.7549755
0
LINE
8
DEFAULT_255_1_234
10
22.6158946
20
76.5365123
11
22.6158946
21
76.7798739
0
LINE
8
DEFAULT_255_1_234
10
22.1749521
20
76.7911184
11
22.1749521
21
76.5533789
0
ARC
8
DEFAULT_255_1_234
10
21.5397707
20
76.5717805
40
1.2247208
50
353.8441951
51
0.2287902
0
ARC
8
DEFAULT_255_1_234
10
22.0037211
20
76.5199806
40
0.7578929
50
344.4934747
51
353.9765454
0
ARC
8
DEFAULT_255_1_234
10
22.3029801
20
76.4348981
40
0.4467846
50
329.2803592
51
344.7472793
0
ARC
8
DEFAULT_255_1_234
10
22.4022626
20
76.3804018
40
0.3336173
50
324.9352394
51
328.6160465
0
ARC
8
DEFAULT_255_1_234
10
22.4399734
20
76.3540427
40
0.2876076
50
280.580143
51
324.9173126
0
ARC
8
DEFAULT_255_1_234
10
22.3998527
20
76.5211099
40
0.4592847
50
269.5977311
51
281.6734359
0
ARC
8
DEFAULT_255_1_234
10
22.3926433
20
76.5091173
40
0.4472986
50
256.6228859
51
270.51044
0
ARC
8
DEFAULT_255_1_234
10
22.352441
20
76.3542877
40
0.2873874
50
215.8618325
51
257.2788573
0
ARC
8
DEFAULT_255_1_234
10
22.4545442
20
76.4227977
40
0.4102928
50
197.9693508
51
215.2623606
0
ARC
8
DEFAULT_255_1_234
10
22.7030558
20
76.5066709
40
0.6725652
50
187.8816417
51
198.2346507
0
ARC
8
DEFAULT_255_1_234
10
23.0988766
20
76.5638079
40
1.0724845
50
180.8976217
51
188.0055519
0
ARC
8
DEFAULT_255_1_234
10
23.3788954
20
76.5741777
40
1.3526448
50
180.7449369
51
181.1510016
0
ARC
8
DEFAULT_255_1_234
10
23.2211683
20
76.7598042
40
1.1948131
50
173.7675579
51
180.231553
0
ARC
8
DEFAULT_255_1_234
10
22.769383
20
76.8108666
40
0.7401564
50
164.3058563
51
173.9002247
0
ARC
8
DEFAULT_255_1_234
10
22.4781899
20
76.8947656
40
0.4371288
50
148.7922025
51
164.568378
0
ARC
8
DEFAULT_255_1_234
10
22.3830351
20
76.9478929
40
0.3282386
50
144.5883898
51
148.1176286
0
ARC
8
DEFAULT_255_1_234
10
22.3487249
20
76.9718315
40
0.2864044
50
101.6440918
51
144.514236
0
ARC
8
DEFAULT_255_1_234
10
22.3912315
20
76.8029069
40
0.4604934
50
89.5284041
51
102.5819763
0
ARC
8
DEFAULT_255_1_234
10
22.3991403
20
76.7990018
40
0.464401
50
77.0437873
51
90.5081339
0
ARC
8
DEFAULT_255_1_234
10
22.4393405
20
76.9632615
40
0.2953195
50
48.2778575
51
77.4994676
0
ARC
8
DEFAULT_255_1_234
10
22.4466036
20
76.9761746
40
0.2808655
50
36.3142134
51
47.6305865
0
ARC
8
DEFAULT_255_1_234
10
22.3597343
20
76.9176515
40
0.3855453
50
18.2931786
51
35.6769206
0
ARC
8
DEFAULT_255_1_234
10
22.1054102
20
76.8303593
40
0.654423
50
8.024666
51
18.5605216
0
ARC
8
DEFAULT_255_1_234
10
21.6891022
20
76.7688792
40
1.0752407
50
1.1274072
51
8.1718305
0
ARC
8
DEFAULT_255_1_234
10
21.3655213
20
76.7561885
40
1.3990231
50
0.5424119
51
1.3863029
0
ARC
8
DEFAULT_255_1_234
10
21.547659
20
76.7834342
40
1.0682415
50
359.8090433
51
4.9407866
0
ARC
8
DEFAULT_255_1_234
10
21.9686604
20
76.8210113
40
0.6455691
50
4.8362157
51
12.2904523
0
ARC
8
DEFAULT_255_1_234
10
22.2441719
20
76.8823965
40
0.3633074
50
12.0805627
51
23.8173984
0
ARC
8
DEFAULT_255_1_234
10
22.3615425
20
76.9320919
40
0.2358723
50
24.2871213
51
31.3935614
0
ARC
8
DEFAULT_255_1_234
10
22.4140122
20
76.9664233
40
0.1732111
50
30.7407893
51
82.4657128
0
ARC
8
DEFAULT_255_1_234
10
22.3960256
20
76.8780691
40
0.263235
50
81.1060089
51
90.2184952
0
ARC
8
DEFAULT_255_1_234
10
22.3924555
20
76.9038924
40
0.2374236
50
89.3806855
51
105.6762551
0
ARC
8
DEFAULT_255_1_234
10
22.3741186
20
76.9705567
40
0.1682847
50
105.7981136
51
149.7388061
0
ARC
8
DEFAULT_255_1_234
10
22.4805264
20
76.906595
40
0.2924306
50
149.4208916
51
163.6286378
0
ARC
8
DEFAULT_255_1_234
10
22.6896152
20
76.842825
40
0.5110213
50
163.3763315
51
172.1410975
0
ARC
8
DEFAULT_255_1_234
10
23.0196871
20
76.7955518
40
0.8444586
50
172.0259487
51
178.0703232
0
ARC
8
DEFAULT_255_1_234
10
23.322696
20
76.7811906
40
1.1477868
50
177.8631668
51
179.5044149
0
ARC
8
DEFAULT_255_1_234
10
23.2154365
20
76.5497389
40
1.0404907
50
179.7995573
51
185.2460446
0
ARC
8
DEFAULT_255_1_234
10
22.8111404
20
76.5114513
40
0.6343885
50
185.1411642
51
193.0079639
0
ARC
8
DEFAULT_255_1_234
10
22.5467877
20
76.4489641
40
0.3627568
50
192.7897626
51
205.2507664
0
ARC
8
DEFAULT_255_1_234
10
22.4421424
20
76.4022415
40
0.2481908
50
205.8005384
51
211.2537509
0
ARC
8
DEFAULT_255_1_234
10
22.3897864
20
76.367158
40
0.1852521
50
210.3789793
51
238.4008143
0
ARC
8
DEFAULT_255_1_234
10
22.3878386
20
76.3718376
40
0.1882621
50
239.6520629
51
265.9793761
0
ARC
8
DEFAULT_255_1_234
10
22.3963586
20
76.4390427
40
0.2559272
50
265.1315437
51
270.060332
0
ARC
8
DEFAULT_255_1_234
10
22.3992365
20
76.4066534
40
0.2235528
50
269.3314664
51
287.2178029
0
ARC
8
DEFAULT_255_1_234
10
22.4130217
20
76.3563279
40
0.1714108
50
287.7958004
51
329.080874
0
ARC
8
DEFAULT_255_1_234
10
22.3172674
20
76.416093
40
0.2842745
50
328.6634704
51
343.3325132
0
ARC
8
DEFAULT_255_1_234
10
22.0999694
20
76.4837863
40
0.5118644
50
343.0499468
51
351.9393422
0
ARC
8
DEFAULT_255_1_234
10
21.7532994
20
76.5348949
40
0.8622784
50
351.8069023
51
357.7959224
0
ARC
8
DEFAULT_255_1_234
10
21.429755
20
76.5516721
40
1.1862365
50
357.5871873
51
359.2677531
0
ARC
8
DEFAULT_255_1_234
10
23.0803384
20
76.1567565
40
0.1070357
50
163.5417914
51
180.5078233
0
ARC
8
DEFAULT_255_1_234
10
23.0611202
20
76.1619421
40
0.0871371
50
138.1647447
51
163.2316401
0
ARC
8
DEFAULT_255_1_234
10
23.0498981
20
76.1714534
40
0.0724329
50
105.6856465
51
137.8494928
0
ARC
8
DEFAULT_255_1_234
10
23.0617413
20
76.1330129
40
0.1126485
50
92.6088068
51
106.1990587
0
ARC
8
DEFAULT_255_1_234
10
23.0647786
20
76.0934774
40
0.1522861
50
89.9660831
51
93.0733434
0
ARC
8
DEFAULT_255_1_234
10
23.0658481
20
76.115632
40
0.130135
50
78.4379222
51
90.4311858
0
ARC
8
DEFAULT_255_1_234
10
23.0755061
20
76.1606588
40
0.0840873
50
56.8960528
51
78.7359558
0
ARC
8
DEFAULT_255_1_234
10
23.0818288
20
76.1716877
40
0.0713991
50
42.6499553
51
56.3125067
0
ARC
8
DEFAULT_255_1_234
10
23.0690175
20
76.1599146
40
0.0887984
50
3.8142714
51
42.6365749
0
ARC
8
DEFAULT_255_1_234
10
23.0403976
20
76.1559153
40
0.1176392
50
359.9476902
51
4.8305927
0
ARC
8
DEFAULT_255_1_234
10
23.0630135
20
76.1548541
40
0.0950282
50
340.9376387
51
0.5750546
0
ARC
8
DEFAULT_255_1_234
10
23.0742631
20
76.1518192
40
0.0834082
50
316.0805399
51
340.3842391
0
ARC
8
DEFAULT_255_1_234
10
23.080071
20
76.1464809
40
0.0755219
50
285.8514865
51
315.9414755
0
ARC
8
DEFAULT_255_1_234
10
23.0683281
20
76.1844349
40
0.115244
50
273.1292529
51
286.3135479
0
ARC
8
DEFAULT_255_1_234
10
23.064998
20
76.2246049
40
0.1555398
50
269.9524064
51
273.5463789
0
ARC
8
DEFAULT_255_1_234
10
23.0638932
20
76.2027792
40
0.1337177
50
259.0490813
51
270.4180302
0
ARC
8
DEFAULT_255_1_234
10
23.0542595
20
76.1550393
40
0.0850178
50
239.7587791
51
259.311372
0
ARC
8
DEFAULT_255_1_234
10
23.0461626
20
76.1399482
40
0.0679053
50
222.6244131
51
239.247817
0
ARC
8
DEFAULT_255_1_234
10
23.0596001
20
76.1522619
40
0.0861314
50
182.9227855
51
222.598345
0
ARC
8
DEFAULT_255_1_234
10
23.086462
20
76.1557373
40
0.113155
50
179.9642935
51
183.9868025
0
LINE
8
DEFAULT_255_1_234
10
24.0150234
20
77.2473211
11
24.0150234
21
76.470652
0
LINE
8
DEFAULT_255_1_234
10
24.0150234
20
76.470652
11
24.1772645
21
76.470652
0
LINE
8
DEFAULT_255_1_234
10
24.1772645
20
76.470652
11
24.1772645
21
76.3493728
0
LINE
8
DEFAULT_255_1_234
10
24.1772645
20
76.3493728
11
24.0150234
21
76.3493728
0
LINE
8
DEFAULT_255_1_234
10
24.0150234
20
76.3493728
11
24.0150234
21
76.0779
0
LINE
8
DEFAULT_255_1_234
10
24.0150234
20
76.0779
11
23.8656331
21
76.0779
0
LINE
8
DEFAULT_255_1_234
10
23.8656331
20
76.0779
11
23.8656331
21
76.3493728
0
LINE
8
DEFAULT_255_1_234
10
23.8656331
20
76.3493728
11
23.3331288
21
76.3493728
0
LINE
8
DEFAULT_255_1_234
10
23.3331288
20
76.3493728
11
23.3331288
21
76.4369187
0
LINE
8
DEFAULT_255_1_234
10
23.3331288
20
76.4369187
11
23.8567981
21
77.2473211
0
LINE
8
DEFAULT_255_1_234
10
23.8567981
20
77.2473211
11
24.0150234
21
77.2473211
0
LINE
8
DEFAULT_255_1_234
10
23.8479632
20
77.0119912
11
23.5017953
21
76.470652
0
LINE
8
DEFAULT_255_1_234
10
23.5017953
20
76.470652
11
23.8656331
21
76.470652
0
LINE
8
DEFAULT_255_1_234
10
23.8656331
20
76.470652
11
23.8656331
21
77.0441181
0
LINE
8
DEFAULT_255_1_234
10
23.8656331
20
77.0441181
11
23.8479632
21
77.0119912
0
LINE
8
DEFAULT_255_1_234
10
22.4171119
20
84.1366792
11
22.4171119
21
84.0154
0
LINE
8
DEFAULT_255_1_234
10
22.4171119
20
84.0154
11
21.650884
21
84.0154
0
LINE
8
DEFAULT_255_1_234
10
21.650884
20
84.0154
11
21.650884
21
84.1222221
0
LINE
8
DEFAULT_255_1_234
10
21.650884
20
84.1222221
11
22.0556836
21
84.5719995
0
LINE
8
DEFAULT_255_1_234
10
21.7769823
20
84.8402595
11
21.6283952
21
84.8402595
0
LINE
8
DEFAULT_255_1_234
10
22.1432296
20
84.4764218
11
21.8299918
21
84.1366792
0
LINE
8
DEFAULT_255_1_234
10
21.8299918
20
84.1366792
11
22.4171119
21
84.1366792
0
ARC
8
DEFAULT_255_1_234
10
20.706667
20
85.7649527
40
1.8008286
50
318.5132453
51
320.7828378
0
ARC
8
DEFAULT_255_1_234
10
21.2353644
20
85.3346426
40
1.1191493
50
320.7372736
51
323.9737074
0
ARC
8
DEFAULT_255_1_234
10
21.6273501
20
85.0506361
40
0.6350923
50
323.8961724
51
328.6421089
0
ARC
8
DEFAULT_255_1_234
10
21.8320096
20
84.9244031
40
0.3946393
50
328.8299013
51
331.789948
0
ARC
8
DEFAULT_255_1_234
10
21.9317274
20
84.8729509
40
0.2824501
50
331.4255242
51
352.9364833
0
ARC
8
DEFAULT_255_1_234
10
21.9453775
20
84.8698976
40
0.2685315
50
353.2248685
51
0.0169286
0
ARC
8
DEFAULT_255_1_234
10
21.9663652
20
84.872195
40
0.2475536
50
359.4866256
51
15.9339782
0
ARC
8
DEFAULT_255_1_234
10
22.0170637
20
84.8858286
40
0.1950618
50
16.1714718
51
43.5284424
0
ARC
8
DEFAULT_255_1_234
10
22.0247946
20
84.8935573
40
0.184134
50
43.4415429
51
83.1661404
0
ARC
8
DEFAULT_255_1_234
10
22.0113864
20
84.8198771
40
0.258926
50
82.160215
51
90.1505798
0
ARC
8
DEFAULT_255_1_234
10
22.0082291
20
84.7661865
40
0.3126255
50
89.5460705
51
102.5418777
0
ARC
8
DEFAULT_255_1_234
10
21.9839377
20
84.8692665
40
0.2067346
50
102.1739365
51
129.2061916
0
ARC
8
DEFAULT_255_1_234
10
21.9760449
20
84.8817094
40
0.1921118
50
129.7279328
51
135.7542026
0
ARC
8
DEFAULT_255_1_234
10
21.9881977
20
84.8720045
40
0.2075944
50
136.175737
51
166.3674722
0
ARC
8
DEFAULT_255_1_234
10
22.0888896
20
84.8450182
40
0.3118201
50
165.9092917
51
178.8683903
0
ARC
8
DEFAULT_255_1_234
10
22.1753757
20
84.8403179
40
0.3983935
50
178.438168
51
180.0083905
0
ARC
8
DEFAULT_255_1_234
10
22.0352359
20
84.8442231
40
0.4068601
50
163.2878735
51
180.5581814
0
ARC
8
DEFAULT_255_1_234
10
21.9550621
20
84.866284
40
0.3237344
50
133.454115
51
162.9470031
0
ARC
8
DEFAULT_255_1_234
10
21.9729162
20
84.8473
40
0.349795
50
100.7869394
51
133.4384016
0
ARC
8
DEFAULT_255_1_234
10
22.0076934
20
84.6924319
40
0.5084616
50
89.6605301
51
101.3704185
0
ARC
8
DEFAULT_255_1_234
10
22.0143273
20
84.6985496
40
0.502348
50
78.2171172
51
90.4130393
0
ARC
8
DEFAULT_255_1_234
10
22.0498351
20
84.8609637
40
0.3361092
50
55.9268222
51
78.4888551
0
ARC
8
DEFAULT_255_1_234
10
22.0694791
20
84.8948324
40
0.2970617
50
47.9292255
51
55.4054003
0
ARC
8
DEFAULT_255_1_234
10
22.0796352
20
84.9051502
40
0.2825983
50
4.3347696
51
48.0560701
0
ARC
8
DEFAULT_255_1_234
10
21.9700745
20
84.8881601
40
0.393225
50
359.925209
51
5.5967654
0
ARC
8
DEFAULT_255_1_234
10
22.0129637
20
84.8937816
40
0.3503892
50
337.8914096
51
358.9967724
0
ARC
8
DEFAULT_255_1_234
10
21.7416049
20
84.9984706
40
0.6412172
50
326.9135351
51
338.3505194
0
ARC
8
DEFAULT_255_1_234
10
21.3430353
20
85.2539284
40
1.1146189
50
319.6472867
51
327.095818
0
ARC
8
DEFAULT_255_1_234
10
20.9597356
20
85.5701
40
1.6114559
50
317.2586784
51
319.9046139
0
LINE
8
DEFAULT_255_1_234
10
22.7680988
20
85.1848211
11
22.7680988
21
84.1414983
0
LINE
8
DEFAULT_255_1_234
10
22.7680988
20
84.1414983
11
23.3222888
21
84.1414983
0
LINE
8
DEFAULT_255_1_234
10
23.3222888
20
84.1414983
11
23.3222888
21
84.0154
0
LINE
8
DEFAULT_255_1_234
10
23.3222888
20
84.0154
11
22.6130863
21
84.0154
0
LINE
8
DEFAULT_255_1_234
10
22.6130863
20
84.0154
11
22.6130863
21
85.1848211
0
LINE
8
DEFAULT_255_1_234
10
22.6130863
20
85.1848211
11
22.7680988
21
85.1848211
0
LINE
8
DEFAULT_255_1_234
10
23.9005739
20
84.9840276
11
23.9005739
21
84.6426788
0
LINE
8
DEFAULT_255_1_234
10
23.9005739
20
84.6426788
11
24.2266625
21
84.6426788
0
LINE
8
DEFAULT_255_1_234
10
24.2266625
20
84.6426788
11
24.2266625
21
84.5021233
0
LINE
8
DEFAULT_255_1_234
10
24.2266625
20
84.5021233
11
23.9005739
21
84.5021233
0
LINE
8
DEFAULT_255_1_234
10
23.9005739
20
84.5021233
11
23.9005739
21
84.1326634
0
LINE
8
DEFAULT_255_1_234
10
23.9005739
20
84.1326634
11
23.7511836
21
84.1326634
0
LINE
8
DEFAULT_255_1_234
10
23.7511836
20
84.1326634
11
23.7511836
21
84.5021233
0
LINE
8
DEFAULT_255_1_234
10
23.7511836
20
84.5021233
11
23.425095
21
84.5021233
0
LINE
8
DEFAULT_255_1_234
10
23.425095
20
84.5021233
11
23.425095
21
84.6426788
0
LINE
8
DEFAULT_255_1_234
10
23.425095
20
84.6426788
11
23.7511836
21
84.6426788
0
LINE
8
DEFAULT_255_1_234
10
23.7511836
20
84.6426788
11
23.7511836
21
84.9840276
0
LINE
8
DEFAULT_255_1_234
10
23.7511836
20
84.9840276
11
23.9005739
21
84.9840276
0
LINE
8
DEFAULT_255_1_234
10
22.8702817
20
92.6444327
11
22.8702817
21
92.4516709
0
LINE
8
DEFAULT_255_1_234
10
22.132165
20
92.4315916
11
22.132165
21
92.6299755
0
LINE
8
DEFAULT_255_1_234
10
22.7216946
20
92.4115123
11
22.7216946
21
92.6548739
0
LINE
8
DEFAULT_255_1_234
10
22.2807521
20
92.6661184
11
22.2807521
21
92.4283789
0
ARC
8
DEFAULT_255_1_234
10
21.6455707
20
92.4467805
40
1.2247208
50
353.8441951
51
0.2287902
0
ARC
8
DEFAULT_255_1_234
10
22.1095211
20
92.3949806
40
0.7578929
50
344.4934747
51
353.9765454
0
ARC
8
DEFAULT_255_1_234
10
22.4087801
20
92.3098981
40
0.4467846
50
329.2803592
51
344.7472793
0
ARC
8
DEFAULT_255_1_234
10
22.5080626
20
92.2554018
40
0.3336173
50
324.9352394
51
328.6160465
0
ARC
8
DEFAULT_255_1_234
10
22.5457734
20
92.2290427
40
0.2876076
50
280.580143
51
324.9173126
0
ARC
8
DEFAULT_255_1_234
10
22.5056527
20
92.3961099
40
0.4592847
50
269.5977311
51
281.6734359
0
ARC
8
DEFAULT_255_1_234
10
22.4984433
20
92.3841173
40
0.4472986
50
256.6228859
51
270.51044
0
ARC
8
DEFAULT_255_1_234
10
22.458241
20
92.2292877
40
0.2873874
50
215.8618325
51
257.2788573
0
ARC
8
DEFAULT_255_1_234
10
22.5603442
20
92.2977977
40
0.4102928
50
197.9693508
51
215.2623606
0
ARC
8
DEFAULT_255_1_234
10
22.8088558
20
92.3816709
40
0.6725652
50
187.8816417
51
198.2346507
0
ARC
8
DEFAULT_255_1_234
10
23.2046766
20
92.4388079
40
1.0724845
50
180.8976217
51
188.0055519
0
ARC
8
DEFAULT_255_1_234
10
23.4846954
20
92.4491777
40
1.3526448
50
180.7449369
51
181.1510016
0
ARC
8
DEFAULT_255_1_234
10
23.3269683
20
92.6348042
40
1.1948131
50
173.7675579
51
180.231553
0
ARC
8
DEFAULT_255_1_234
10
22.875183
20
92.6858666
40
0.7401564
50
164.3058563
51
173.9002247
0
ARC
8
DEFAULT_255_1_234
10
22.5839899
20
92.7697656
40
0.4371288
50
148.7922025
51
164.568378
0
ARC
8
DEFAULT_255_1_234
10
22.4888351
20
92.8228929
40
0.3282386
50
144.5883898
51
148.1176286
0
ARC
8
DEFAULT_255_1_234
10
22.4545249
20
92.8468315
40
0.2864044
50
101.6440918
51
144.514236
0
ARC
8
DEFAULT_255_1_234
10
22.4970315
20
92.6779069
40
0.4604934
50
89.5284041
51
102.5819763
0
ARC
8
DEFAULT_255_1_234
10
22.5049403
20
92.6740018
40
0.464401
50
77.0437873
51
90.5081339
0
ARC
8
DEFAULT_255_1_234
10
22.5451405
20
92.8382615
40
0.2953195
50
48.2778575
51
77.4994676
0
ARC
8
DEFAULT_255_1_234
10
22.5524036
20
92.8511746
40
0.2808655
50
36.3142134
51
47.6305865
0
ARC
8
DEFAULT_255_1_234
10
22.4655343
20
92.7926515
40
0.3855453
50
18.2931786
51
35.6769206
0
ARC
8
DEFAULT_255_1_234
10
22.2112102
20
92.7053593
40
0.654423
50
8.024666
51
18.5605216
0
ARC
8
DEFAULT_255_1_234
10
21.7949022
20
92.6438792
40
1.0752407
50
1.1274072
51
8.1718305
0
ARC
8
DEFAULT_255_1_234
10
21.4713213
20
92.6311885
40
1.3990231
50
0.5424119
51
1.3863029
0
ARC
8
DEFAULT_255_1_234
10
21.653459
20
92.6584342
40
1.0682415
50
359.8090433
51
4.9407866
0
ARC
8
DEFAULT_255_1_234
10
22.0744604
20
92.6960113
40
0.6455691
50
4.8362157
51
12.2904523
0
ARC
8
DEFAULT_255_1_234
10
22.3499719
20
92.7573965
40
0.3633074
50
12.0805627
51
23.8173984
0
ARC
8
DEFAULT_255_1_234
10
22.4673425
20
92.8070919
40
0.2358723
50
24.2871213
51
31.3935614
0
ARC
8
DEFAULT_255_1_234
10
22.5198122
20
92.8414233
40
0.1732111
50
30.7407893
51
82.4657128
0
ARC
8
DEFAULT_255_1_234
10
22.5018256
20
92.7530691
40
0.263235
50
81.1060089
51
90.2184952
0
ARC
8
DEFAULT_255_1_234
10
22.4982555
20
92.7788924
40
0.2374236
50
89.3806855
51
105.6762551
0
ARC
8
DEFAULT_255_1_234
10
22.4799186
20
92.8455567
40
0.1682847
50
105.7981136
51
149.7388061
0
ARC
8
DEFAULT_255_1_234
10
22.5863264
20
92.781595
40
0.2924306
50
149.4208916
51
163.6286378
0
ARC
8
DEFAULT_255_1_234
10
22.7954152
20
92.717825
40
0.5110213
50
163.3763315
51
172.1410975
0
ARC
8
DEFAULT_255_1_234
10
23.1254871
20
92.6705518
40
0.8444586
50
172.0259487
51
178.0703232
0
ARC
8
DEFAULT_255_1_234
10
23.428496
20
92.6561906
40
1.1477868
50
177.8631668
51
179.5044149
0
ARC
8
DEFAULT_255_1_234
10
23.3212365
20
92.4247389
40
1.0404907
50
179.7995573
51
185.2460446
0
ARC
8
DEFAULT_255_1_234
10
22.9169404
20
92.3864513
40
0.6343885
50
185.1411642
51
193.0079639
0
ARC
8
DEFAULT_255_1_234
10
22.6525877
20
92.3239641
40
0.3627568
50
192.7897626
51
205.2507664
0
ARC
8
DEFAULT_255_1_234
10
22.5479424
20
92.2772415
40
0.2481908
50
205.8005384
51
211.2537509
0
ARC
8
DEFAULT_255_1_234
10
22.4955864
20
92.242158
40
0.1852521
50
210.3789793
51
238.4008143
0
ARC
8
DEFAULT_255_1_234
10
22.4936386
20
92.2468376
40
0.1882621
50
239.6520629
51
265.9793761
0
ARC
8
DEFAULT_255_1_234
10
22.5021586
20
92.3140427
40
0.2559272
50
265.1315437
51
270.060332
0
ARC
8
DEFAULT_255_1_234
10
22.5050365
20
92.2816534
40
0.2235528
50
269.3314664
51
287.2178029
0
ARC
8
DEFAULT_255_1_234
10
22.5188217
20
92.2313279
40
0.1714108
50
287.7958004
51
329.080874
0
ARC
8
DEFAULT_255_1_234
10
22.4230674
20
92.291093
40
0.2842745
50
328.6634704
51
343.3325132
0
ARC
8
DEFAULT_255_1_234
10
22.2057694
20
92.3587863
40
0.5118644
50
343.0499468
51
351.9393422
0
ARC
8
DEFAULT_255_1_234
10
21.8590994
20
92.4098949
40
0.8622784
50
351.8069023
51
357.7959224
0
ARC
8
DEFAULT_255_1_234
10
21.535555
20
92.4266721
40
1.1862365
50
357.5871873
51
359.2677531
0
ARC
8
DEFAULT_255_1_234
10
23.1861384
20
92.0317565
40
0.1070357
50
163.5417914
51
180.5078233
0
ARC
8
DEFAULT_255_1_234
10
23.1669202
20
92.0369421
40
0.0871371
50
138.1647447
51
163.2316401
0
ARC
8
DEFAULT_255_1_234
10
23.1556981
20
92.0464534
40
0.0724329
50
105.6856465
51
137.8494928
0
ARC
8
DEFAULT_255_1_234
10
23.1675413
20
92.0080129
40
0.1126485
50
92.6088068
51
106.1990587
0
ARC
8
DEFAULT_255_1_234
10
23.1705786
20
91.9684774
40
0.1522861
50
89.9660831
51
93.0733434
0
ARC
8
DEFAULT_255_1_234
10
23.1716481
20
91.990632
40
0.130135
50
78.4379222
51
90.4311858
0
ARC
8
DEFAULT_255_1_234
10
23.1813061
20
92.0356588
40
0.0840873
50
56.8960528
51
78.7359558
0
ARC
8
DEFAULT_255_1_234
10
23.1876288
20
92.0466877
40
0.0713991
50
42.6499553
51
56.3125067
0
ARC
8
DEFAULT_255_1_234
10
23.1748175
20
92.0349146
40
0.0887984
50
3.8142714
51
42.6365749
0
ARC
8
DEFAULT_255_1_234
10
23.1461976
20
92.0309153
40
0.1176392
50
359.9476902
51
4.8305927
0
ARC
8
DEFAULT_255_1_234
10
23.1688135
20
92.0298541
40
0.0950282
50
340.9376387
51
0.5750546
0
ARC
8
DEFAULT_255_1_234
10
23.1800631
20
92.0268192
40
0.0834082
50
316.0805399
51
340.3842391
0
ARC
8
DEFAULT_255_1_234
10
23.185871
20
92.0214809
40
0.0755219
50
285.8514865
51
315.9414755
0
ARC
8
DEFAULT_255_1_234
10
23.1741281
20
92.0594349
40
0.115244
50
273.1292529
51
286.3135479
0
ARC
8
DEFAULT_255_1_234
10
23.170798
20
92.0996049
40
0.1555398
50
269.9524064
51
273.5463789
0
ARC
8
DEFAULT_255_1_234
10
23.1696932
20
92.0777792
40
0.1337177
50
259.0490813
51
270.4180302
0
ARC
8
DEFAULT_255_1_234
10
23.1600595
20
92.0300393
40
0.0850178
50
239.7587791
51
259.311372
0
ARC
8
DEFAULT_255_1_234
10
23.1519626
20
92.0149482
40
0.0679053
50
222.6244131
51
239.247817
0
ARC
8
DEFAULT_255_1_234
10
23.1654001
20
92.0272619
40
0.0861314
50
182.9227855
51
222.598345
0
ARC
8
DEFAULT_255_1_234
10
23.192262
20
92.0307373
40
0.113155
50
179.9642935
51
183.9868025
0
LINE
8
DEFAULT_255_1_234
10
23.7095984
20
92.4886169
11
23.7095984
21
92.6098962
0
LINE
8
DEFAULT_255_1_234
10
23.7095984
20
92.6098962
11
23.8212396
21
92.6098962
0
LINE
8
DEFAULT_255_1_234
10
23.6308874
20
92.8155087
11
23.4823002
21
92.8155087
0
LINE
8
DEFAULT_255_1_234
10
23.4718589
20
92.2613188
11
23.6212493
21
92.2613188
0
LINE
8
DEFAULT_255_1_234
10
23.8212396
20
92.4886169
11
23.7095984
21
92.4886169
0
ARC
8
DEFAULT_255_1_234
10
23.8183262
20
92.9491713
40
0.3392876
50
270.4919872
51
281.8951556
0
ARC
8
DEFAULT_255_1_234
10
23.8424524
20
92.8389702
40
0.2264817
50
281.6691735
51
301.2943132
0
ARC
8
DEFAULT_255_1_234
10
23.8594734
20
92.8078304
40
0.1910381
50
301.7833094
51
311.7545298
0
ARC
8
DEFAULT_255_1_234
10
23.868631
20
92.7976748
40
0.1773635
50
311.7323931
51
354.2802411
0
ARC
8
DEFAULT_255_1_234
10
23.7959935
20
92.8101722
40
0.2509385
50
353.0937916
51
0.1181479
0
ARC
8
DEFAULT_255_1_234
10
23.749872
20
92.8149386
40
0.2970898
50
359.1805295
51
15.0453146
0
ARC
8
DEFAULT_255_1_234
10
23.8844557
20
92.8541992
40
0.1569564
50
13.9577229
51
77.6713066
0
ARC
8
DEFAULT_255_1_234
10
23.8458086
20
92.7156949
40
0.3006298
50
76.1116566
51
90.7026153
0
ARC
8
DEFAULT_255_1_234
10
23.8398924
20
92.7430545
40
0.2732568
50
89.5324876
51
103.531937
0
ARC
8
DEFAULT_255_1_234
10
23.8198368
20
92.8229884
40
0.1908508
50
103.2931773
51
133.5619022
0
ARC
8
DEFAULT_255_1_234
10
23.8153857
20
92.8289375
40
0.1834746
50
133.8349307
51
173.5344437
0
ARC
8
DEFAULT_255_1_234
10
23.88769
20
92.8161213
40
0.2568033
50
172.5096846
51
180.1366907
0
ARC
8
DEFAULT_255_1_234
10
23.7925794
20
92.8195622
40
0.3103056
50
155.3484492
51
180.7484736
0
ARC
8
DEFAULT_255_1_234
10
23.7876883
20
92.8166846
40
0.3070957
50
131.5744599
51
154.4798489
0
ARC
8
DEFAULT_255_1_234
10
23.819003
20
92.785031
40
0.3515643
50
96.9875458
51
131.9690667
0
ARC
8
DEFAULT_255_1_234
10
23.840951
20
92.6604636
40
0.4779224
50
89.8596053
51
97.7825159
0
ARC
8
DEFAULT_255_1_234
10
23.8457573
20
92.6342616
40
0.5041361
50
78.3655447
51
90.4131539
0
ARC
8
DEFAULT_255_1_234
10
23.8815491
20
92.8001887
40
0.3344039
50
56.6229102
51
78.638727
0
ARC
8
DEFAULT_255_1_234
10
23.9030435
20
92.8377805
40
0.2912001
50
47.0253525
51
56.0854072
0
ARC
8
DEFAULT_255_1_234
10
23.9050215
20
92.8417223
40
0.2869704
50
10.9208013
51
46.7778124
0
ARC
8
DEFAULT_255_1_234
10
23.7686281
20
92.8101857
40
0.426899
50
359.6364486
51
11.6087304
0
ARC
8
DEFAULT_255_1_234
10
23.9521125
20
92.8086752
40
0.243409
50
332.3549906
51
359.7179418
0
ARC
8
DEFAULT_255_1_234
10
23.8870727
20
92.8395142
40
0.3153459
50
325.2333722
51
332.8745602
0
ARC
8
DEFAULT_255_1_234
10
23.902335
20
92.8288828
40
0.2967456
50
292.9802137
51
325.2392345
0
ARC
8
DEFAULT_255_1_234
10
23.8748724
20
92.8822863
40
0.3566604
50
292.5402179
51
293.6924929
0
ARC
8
DEFAULT_255_1_234
10
23.914132
20
92.2368091
40
0.3307468
50
57.6435486
51
72.8625112
0
ARC
8
DEFAULT_255_1_234
10
23.949582
20
92.2942549
40
0.2632492
50
36.7248896
51
57.4697979
0
ARC
8
DEFAULT_255_1_234
10
23.9484452
20
92.295522
40
0.2634081
50
8.0545065
51
36.356114
0
ARC
8
DEFAULT_255_1_234
10
23.8621638
20
92.2800174
40
0.3510261
50
359.8320645
51
8.5869982
0
ARC
8
DEFAULT_255_1_234
10
23.8246414
20
92.2752101
40
0.3885653
50
343.9829931
51
0.5571613
0
ARC
8
DEFAULT_255_1_234
10
23.9132611
20
92.2509438
40
0.2966924
50
311.6359546
51
343.7651759
0
ARC
8
DEFAULT_255_1_234
10
23.875418
20
92.2936102
40
0.3537231
50
279.7829875
51
311.6255694
0
ARC
8
DEFAULT_255_1_234
10
23.8452956
20
92.437328
40
0.5004971
50
269.7286406
51
280.3856417
0
ARC
8
DEFAULT_255_1_234
10
23.8391029
20
92.4331996
40
0.4963778
50
256.6828919
51
270.4412052
0
ARC
8
DEFAULT_255_1_234
10
23.8052325
20
92.2947394
40
0.3538406
50
229.4223008
51
256.8556159
0
ARC
8
DEFAULT_255_1_234
10
23.7637718
20
92.2480736
40
0.2914296
50
181.818294
51
229.6455059
0
ARC
8
DEFAULT_255_1_234
10
23.8677674
20
92.2611496
40
0.3959084
50
179.9755256
51
183.2323064
0
ARC
8
DEFAULT_255_1_234
10
23.850542
20
92.2591037
40
0.2293034
50
179.4465117
51
196.2869258
0
ARC
8
DEFAULT_255_1_234
10
23.8017828
20
92.2457651
40
0.1787621
50
196.5661473
51
227.705904
0
ARC
8
DEFAULT_255_1_234
10
23.8181923
20
92.2641155
40
0.2033784
50
227.7652068
51
257.8762805
0
ARC
8
DEFAULT_255_1_234
10
23.8406893
20
92.3584156
40
0.3003081
50
257.4584385
51
270.426602
0
ARC
8
DEFAULT_255_1_234
10
23.8452459
20
92.3873996
40
0.329292
50
269.5962073
51
280.8789248
0
ARC
8
DEFAULT_255_1_234
10
23.8681988
20
92.2727685
40
0.2123908
50
280.6346389
51
299.8595945
0
ARC
8
DEFAULT_255_1_234
10
23.8872894
20
92.2365212
40
0.171457
50
300.3576302
51
314.5517981
0
ARC
8
DEFAULT_255_1_234
10
23.8789955
20
92.2425919
40
0.1816095
50
315.0728369
51
345.0431014
0
ARC
8
DEFAULT_255_1_234
10
23.7866769
20
92.2694841
40
0.2777492
50
344.5986631
51
357.9269593
0
ARC
8
DEFAULT_255_1_234
10
23.6971095
20
92.2756276
40
0.3674917
50
357.4748886
51
0.0231117
0
ARC
8
DEFAULT_255_1_234
10
23.7994205
20
92.2780679
40
0.2651907
50
359.5047933
51
13.4239635
0
ARC
8
DEFAULT_255_1_234
10
23.8860848
20
92.3002478
40
0.1757509
50
12.9498199
51
48.7551375
0
ARC
8
DEFAULT_255_1_234
10
23.8678582
20
92.27534
40
0.2065134
50
49.5088623
51
72.1836453
0
ARC
8
DEFAULT_255_1_234
10
23.8320735
20
92.1691291
40
0.3185836
50
71.9010081
51
84.3554254
0
ARC
8
DEFAULT_255_1_234
10
23.8159367
20
92.0330326
40
0.4556151
50
84.0193428
51
89.333121
0
LINE
8
DEFAULT_255_1_234
10
22.8702817
20
100.5819327
11
22.8702817
21
100.3891709
0
LINE
8
DEFAULT_255_1_234
10
22.132165
20
100.3690916
11
22.132165
21
100.5674755
0
LINE
8
DEFAULT_255_1_234
10
22.7216946
20
100.3490123
11
22.7216946
21
100.5923739
0
LINE
8
DEFAULT_255_1_234
10
22.2807521
20
100.6036184
11
22.2807521
21
100.3658789
0
ARC
8
DEFAULT_255_1_234
10
21.6455707
20
100.3842805
40
1.2247208
50
353.8441951
51
0.2287902
0
ARC
8
DEFAULT_255_1_234
10
22.1095211
20
100.3324806
40
0.7578929
50
344.4934747
51
353.9765454
0
ARC
8
DEFAULT_255_1_234
10
22.4087801
20
100.2473981
40
0.4467846
50
329.2803592
51
344.7472793
0
ARC
8
DEFAULT_255_1_234
10
22.5080626
20
100.1929018
40
0.3336173
50
324.9352394
51
328.6160465
0
ARC
8
DEFAULT_255_1_234
10
22.5457734
20
100.1665427
40
0.2876076
50
280.580143
51
324.9173126
0
ARC
8
DEFAULT_255_1_234
10
22.5056527
20
100.3336099
40
0.4592847
50
269.5977311
51
281.6734359
0
ARC
8
DEFAULT_255_1_234
10
22.4984433
20
100.3216173
40
0.4472986
50
256.6228859
51
270.51044
0
ARC
8
DEFAULT_255_1_234
10
22.458241
20
100.1667877
40
0.2873874
50
215.8618325
51
257.2788573
0
ARC
8
DEFAULT_255_1_234
10
22.5603442
20
100.2352977
40
0.4102928
50
197.9693508
51
215.2623606
0
ARC
8
DEFAULT_255_1_234
10
22.8088558
20
100.3191709
40
0.6725652
50
187.8816417
51
198.2346507
0
ARC
8
DEFAULT_255_1_234
10
23.2046766
20
100.3763079
40
1.0724845
50
180.8976217
51
188.0055519
0
ARC
8
DEFAULT_255_1_234
10
23.4846954
20
100.3866777
40
1.3526448
50
180.7449369
51
181.1510016
0
ARC
8
DEFAULT_255_1_234
10
23.3269683
20
100.5723042
40
1.1948131
50
173.7675579
51
180.231553
0
ARC
8
DEFAULT_255_1_234
10
22.875183
20
100.6233666
40
0.7401564
50
164.3058563
51
173.9002247
0
ARC
8
DEFAULT_255_1_234
10
22.5839899
20
100.7072656
40
0.4371288
50
148.7922025
51
164.568378
0
ARC
8
DEFAULT_255_1_234
10
22.4888351
20
100.7603929
40
0.3282386
50
144.5883898
51
148.1176286
0
ARC
8
DEFAULT_255_1_234
10
22.4545249
20
100.7843315
40
0.2864044
50
101.6440918
51
144.514236
0
ARC
8
DEFAULT_255_1_234
10
22.4970315
20
100.6154069
40
0.4604934
50
89.5284041
51
102.5819763
0
ARC
8
DEFAULT_255_1_234
10
22.5049403
20
100.6115018
40
0.464401
50
77.0437873
51
90.5081339
0
ARC
8
DEFAULT_255_1_234
10
22.5451405
20
100.7757615
40
0.2953195
50
48.2778575
51
77.4994676
0
ARC
8
DEFAULT_255_1_234
10
22.5524036
20
100.7886746
40
0.2808655
50
36.3142134
51
47.6305865
0
ARC
8
DEFAULT_255_1_234
10
22.4655343
20
100.7301515
40
0.3855453
50
18.2931786
51
35.6769206
0
ARC
8
DEFAULT_255_1_234
10
22.2112102
20
100.6428593
40
0.654423
50
8.024666
51
18.5605216
0
ARC
8
DEFAULT_255_1_234
10
21.7949022
20
100.5813792
40
1.0752407
50
1.1274072
51
8.1718305
0
ARC
8
DEFAULT_255_1_234
10
21.4713213
20
100.5686885
40
1.3990231
50
0.5424119
51
1.3863029
0
ARC
8
DEFAULT_255_1_234
10
21.653459
20
100.5959342
40
1.0682415
50
359.8090433
51
4.9407866
0
ARC
8
DEFAULT_255_1_234
10
22.0744604
20
100.6335113
40
0.6455691
50
4.8362157
51
12.2904523
0
ARC
8
DEFAULT_255_1_234
10
22.3499719
20
100.6948965
40
0.3633074
50
12.0805627
51
23.8173984
0
ARC
8
DEFAULT_255_1_234
10
22.4673425
20
100.7445919
40
0.2358723
50
24.2871213
51
31.3935614
0
ARC
8
DEFAULT_255_1_234
10
22.5198122
20
100.7789233
40
0.1732111
50
30.7407893
51
82.4657128
0
ARC
8
DEFAULT_255_1_234
10
22.5018256
20
100.6905691
40
0.263235
50
81.1060089
51
90.2184952
0
ARC
8
DEFAULT_255_1_234
10
22.4982555
20
100.7163924
40
0.2374236
50
89.3806855
51
105.6762551
0
ARC
8
DEFAULT_255_1_234
10
22.4799186
20
100.7830567
40
0.1682847
50
105.7981136
51
149.7388061
0
ARC
8
DEFAULT_255_1_234
10
22.5863264
20
100.719095
40
0.2924306
50
149.4208916
51
163.6286378
0
ARC
8
DEFAULT_255_1_234
10
22.7954152
20
100.655325
40
0.5110213
50
163.3763315
51
172.1410975
0
ARC
8
DEFAULT_255_1_234
10
23.1254871
20
100.6080518
40
0.8444586
50
172.0259487
51
178.0703232
0
ARC
8
DEFAULT_255_1_234
10
23.428496
20
100.5936906
40
1.1477868
50
177.8631668
51
179.5044149
0
ARC
8
DEFAULT_255_1_234
10
23.3212365
20
100.3622389
40
1.0404907
50
179.7995573
51
185.2460446
0
ARC
8
DEFAULT_255_1_234
10
22.9169404
20
100.3239513
40
0.6343885
50
185.1411642
51
193.0079639
0
ARC
8
DEFAULT_255_1_234
10
22.6525877
20
100.2614641
40
0.3627568
50
192.7897626
51
205.2507664
0
ARC
8
DEFAULT_255_1_234
10
22.5479424
20
100.2147415
40
0.2481908
50
205.8005384
51
211.2537509
0
ARC
8
DEFAULT_255_1_234
10
22.4955864
20
100.179658
40
0.1852521
50
210.3789793
51
238.4008143
0
ARC
8
DEFAULT_255_1_234
10
22.4936386
20
100.1843376
40
0.1882621
50
239.6520629
51
265.9793761
0
ARC
8
DEFAULT_255_1_234
10
22.5021586
20
100.2515427
40
0.2559272
50
265.1315437
51
270.060332
0
ARC
8
DEFAULT_255_1_234
10
22.5050365
20
100.2191534
40
0.2235528
50
269.3314664
51
287.2178029
0
ARC
8
DEFAULT_255_1_234
10
22.5188217
20
100.1688279
40
0.1714108
50
287.7958004
51
329.080874
0
ARC
8
DEFAULT_255_1_234
10
22.4230674
20
100.228593
40
0.2842745
50
328.6634704
51
343.3325132
0
ARC
8
DEFAULT_255_1_234
10
22.2057694
20
100.2962863
40
0.5118644
50
343.0499468
51
351.9393422
0
ARC
8
DEFAULT_255_1_234
10
21.8590994
20
100.3473949
40
0.8622784
50
351.8069023
51
357.7959224
0
ARC
8
DEFAULT_255_1_234
10
21.535555
20
100.3641721
40
1.1862365
50
357.5871873
51
359.2677531
0
ARC
8
DEFAULT_255_1_234
10
23.1861384
20
99.9692565
40
0.1070357
50
163.5417914
51
180.5078233
0
ARC
8
DEFAULT_255_1_234
10
23.1669202
20
99.9744421
40
0.0871371
50
138.1647447
51
163.2316401
0
ARC
8
DEFAULT_255_1_234
10
23.1556981
20
99.9839534
40
0.0724329
50
105.6856465
51
137.8494928
0
ARC
8
DEFAULT_255_1_234
10
23.1675413
20
99.9455129
40
0.1126485
50
92.6088068
51
106.1990587
0
ARC
8
DEFAULT_255_1_234
10
23.1705786
20
99.9059774
40
0.1522861
50
89.9660831
51
93.0733434
0
ARC
8
DEFAULT_255_1_234
10
23.1716481
20
99.928132
40
0.130135
50
78.4379222
51
90.4311858
0
ARC
8
DEFAULT_255_1_234
10
23.1813061
20
99.9731588
40
0.0840873
50
56.8960528
51
78.7359558
0
ARC
8
DEFAULT_255_1_234
10
23.1876288
20
99.9841877
40
0.0713991
50
42.6499553
51
56.3125067
0
ARC
8
DEFAULT_255_1_234
10
23.1748175
20
99.9724146
40
0.0887984
50
3.8142714
51
42.6365749
0
ARC
8
DEFAULT_255_1_234
10
23.1461976
20
99.9684153
40
0.1176392
50
359.9476902
51
4.8305927
0
ARC
8
DEFAULT_255_1_234
10
23.1688135
20
99.9673541
40
0.0950282
50
340.9376387
51
0.5750546
0
ARC
8
DEFAULT_255_1_234
10
23.1800631
20
99.9643192
40
0.0834082
50
316.0805399
51
340.3842391
0
ARC
8
DEFAULT_255_1_234
10
23.185871
20
99.9589809
40
0.0755219
50
285.8514865
51
315.9414755
0
ARC
8
DEFAULT_255_1_234
10
23.1741281
20
99.9969349
40
0.115244
50
273.1292529
51
286.3135479
0
ARC
8
DEFAULT_255_1_234
10
23.170798
20
100.0371049
40
0.1555398
50
269.9524064
51
273.5463789
0
ARC
8
DEFAULT_255_1_234
10
23.1696932
20
100.0152792
40
0.1337177
50
259.0490813
51
270.4180302
0
ARC
8
DEFAULT_255_1_234
10
23.1600595
20
99.9675393
40
0.0850178
50
239.7587791
51
259.311372
0
ARC
8
DEFAULT_255_1_234
10
23.1519626
20
99.9524482
40
0.0679053
50
222.6244131
51
239.247817
0
ARC
8
DEFAULT_255_1_234
10
23.1654001
20
99.9647619
40
0.0861314
50
182.9227855
51
222.598345
0
ARC
8
DEFAULT_255_1_234
10
23.192262
20
99.9682373
40
0.113155
50
179.9642935
51
183.9868025
0
LINE
8
DEFAULT_255_1_234
10
24.2597725
20
100.0116792
11
24.2597725
21
99.8904
0
LINE
8
DEFAULT_255_1_234
10
24.2597725
20
99.8904
11
23.4935446
21
99.8904
0
LINE
8
DEFAULT_255_1_234
10
23.4935446
20
99.8904
11
23.4935446
21
99.9972221
0
LINE
8
DEFAULT_255_1_234
10
23.4935446
20
99.9972221
11
23.8983442
21
100.4469995
0
LINE
8
DEFAULT_255_1_234
10
23.6196429
20
100.7152595
11
23.4710558
21
100.7152595
0
LINE
8
DEFAULT_255_1_234
10
23.9858902
20
100.3514218
11
23.6726524
21
100.0116792
0
LINE
8
DEFAULT_255_1_234
10
23.6726524
20
100.0116792
11
24.2597725
21
100.0116792
0
ARC
8
DEFAULT_255_1_234
10
22.5493276
20
101.6399527
40
1.8008286
50
318.5132453
51
320.7828378
0
ARC
8
DEFAULT_255_1_234
10
23.078025
20
101.2096426
40
1.1191493
50
320.7372736
51
323.9737074
0
ARC
8
DEFAULT_255_1_234
10
23.4700106
20
100.9256361
40
0.6350923
50
323.8961724
51
328.6421089
0
ARC
8
DEFAULT_255_1_234
10
23.6746702
20
100.7994031
40
0.3946393
50
328.8299013
51
331.789948
0
ARC
8
DEFAULT_255_1_234
10
23.774388
20
100.7479509
40
0.2824501
50
331.4255242
51
352.9364833
0
ARC
8
DEFAULT_255_1_234
10
23.7880381
20
100.7448976
40
0.2685315
50
353.2248685
51
0.0169286
0
ARC
8
DEFAULT_255_1_234
10
23.8090258
20
100.747195
40
0.2475536
50
359.4866256
51
15.9339782
0
ARC
8
DEFAULT_255_1_234
10
23.8597243
20
100.7608286
40
0.1950618
50
16.1714718
51
43.5284424
0
ARC
8
DEFAULT_255_1_234
10
23.8674552
20
100.7685573
40
0.184134
50
43.4415429
51
83.1661404
0
ARC
8
DEFAULT_255_1_234
10
23.854047
20
100.6948771
40
0.258926
50
82.160215
51
90.1505798
0
ARC
8
DEFAULT_255_1_234
10
23.8508897
20
100.6411865
40
0.3126255
50
89.5460705
51
102.5418777
0
ARC
8
DEFAULT_255_1_234
10
23.8265983
20
100.7442665
40
0.2067346
50
102.1739365
51
129.2061916
0
ARC
8
DEFAULT_255_1_234
10
23.8187055
20
100.7567094
40
0.1921118
50
129.7279328
51
135.7542026
0
ARC
8
DEFAULT_255_1_234
10
23.8308583
20
100.7470045
40
0.2075944
50
136.175737
51
166.3674722
0
ARC
8
DEFAULT_255_1_234
10
23.9315502
20
100.7200182
40
0.3118201
50
165.9092917
51
178.8683903
0
ARC
8
DEFAULT_255_1_234
10
24.0180363
20
100.7153179
40
0.3983935
50
178.438168
51
180.0083905
0
ARC
8
DEFAULT_255_1_234
10
23.8778965
20
100.7192231
40
0.4068601
50
163.2878735
51
180.5581814
0
ARC
8
DEFAULT_255_1_234
10
23.7977227
20
100.741284
40
0.3237344
50
133.454115
51
162.9470031
0
ARC
8
DEFAULT_255_1_234
10
23.8155768
20
100.7223
40
0.349795
50
100.7869394
51
133.4384016
0
ARC
8
DEFAULT_255_1_234
10
23.850354
20
100.5674319
40
0.5084616
50
89.6605301
51
101.3704185
0
ARC
8
DEFAULT_255_1_234
10
23.8569878
20
100.5735496
40
0.502348
50
78.2171172
51
90.4130393
0
ARC
8
DEFAULT_255_1_234
10
23.8924957
20
100.7359637
40
0.3361092
50
55.9268222
51
78.4888551
0
ARC
8
DEFAULT_255_1_234
10
23.9121397
20
100.7698324
40
0.2970617
50
47.9292255
51
55.4054003
0
ARC
8
DEFAULT_255_1_234
10
23.9222957
20
100.7801502
40
0.2825983
50
4.3347696
51
48.0560701
0
ARC
8
DEFAULT_255_1_234
10
23.8127351
20
100.7631601
40
0.393225
50
359.925209
51
5.5967654
0
ARC
8
DEFAULT_255_1_234
10
23.8556243
20
100.7687816
40
0.3503892
50
337.8914096
51
358.9967724
0
ARC
8
DEFAULT_255_1_234
10
23.5842655
20
100.8734706
40
0.6412172
50
326.9135351
51
338.3505194
0
ARC
8
DEFAULT_255_1_234
10
23.1856959
20
101.1289284
40
1.1146189
50
319.6472867
51
327.095818
0
ARC
8
DEFAULT_255_1_234
10
22.8023962
20
101.4451
40
1.6114559
50
317.2586784
51
319.9046139
0
LINE
8
DEFAULT_255_1_234
10
22.8782817
20
108.5194327
11
22.8782817
21
108.3266709
0
LINE
8
DEFAULT_255_1_234
10
22.140165
20
108.3065916
11
22.140165
21
108.5049755
0
LINE
8
DEFAULT_255_1_234
10
22.7296946
20
108.2865123
11
22.7296946
21
108.5298739
0
LINE
8
DEFAULT_255_1_234
10
22.2887521
20
108.5411184
11
22.2887521
21
108.3033789
0
ARC
8
DEFAULT_255_1_234
10
21.6535707
20
108.3217805
40
1.2247208
50
353.8441951
51
0.2287902
0
ARC
8
DEFAULT_255_1_234
10
22.1175211
20
108.2699806
40
0.7578929
50
344.4934747
51
353.9765454
0
ARC
8
DEFAULT_255_1_234
10
22.4167801
20
108.1848981
40
0.4467846
50
329.2803592
51
344.7472793
0
ARC
8
DEFAULT_255_1_234
10
22.5160626
20
108.1304018
40
0.3336173
50
324.9352394
51
328.6160465
0
ARC
8
DEFAULT_255_1_234
10
22.5537734
20
108.1040427
40
0.2876076
50
280.580143
51
324.9173126
0
ARC
8
DEFAULT_255_1_234
10
22.5136527
20
108.2711099
40
0.4592847
50
269.5977311
51
281.6734359
0
ARC
8
DEFAULT_255_1_234
10
22.5064433
20
108.2591173
40
0.4472986
50
256.6228859
51
270.51044
0
ARC
8
DEFAULT_255_1_234
10
22.466241
20
108.1042877
40
0.2873874
50
215.8618325
51
257.2788573
0
ARC
8
DEFAULT_255_1_234
10
22.5683442
20
108.1727977
40
0.4102928
50
197.9693508
51
215.2623606
0
ARC
8
DEFAULT_255_1_234
10
22.8168558
20
108.2566709
40
0.6725652
50
187.8816417
51
198.2346507
0
ARC
8
DEFAULT_255_1_234
10
23.2126766
20
108.3138079
40
1.0724845
50
180.8976217
51
188.0055519
0
ARC
8
DEFAULT_255_1_234
10
23.4926954
20
108.3241777
40
1.3526448
50
180.7449369
51
181.1510016
0
ARC
8
DEFAULT_255_1_234
10
23.3349683
20
108.5098042
40
1.1948131
50
173.7675579
51
180.231553
0
ARC
8
DEFAULT_255_1_234
10
22.883183
20
108.5608666
40
0.7401564
50
164.3058563
51
173.9002247
0
ARC
8
DEFAULT_255_1_234
10
22.5919899
20
108.6447656
40
0.4371288
50
148.7922025
51
164.568378
0
ARC
8
DEFAULT_255_1_234
10
22.4968351
20
108.6978929
40
0.3282386
50
144.5883898
51
148.1176286
0
ARC
8
DEFAULT_255_1_234
10
22.4625249
20
108.7218315
40
0.2864044
50
101.6440918
51
144.514236
0
ARC
8
DEFAULT_255_1_234
10
22.5050315
20
108.5529069
40
0.4604934
50
89.5284041
51
102.5819763
0
ARC
8
DEFAULT_255_1_234
10
22.5129403
20
108.5490018
40
0.464401
50
77.0437873
51
90.5081339
0
ARC
8
DEFAULT_255_1_234
10
22.5531405
20
108.7132615
40
0.2953195
50
48.2778575
51
77.4994676
0
ARC
8
DEFAULT_255_1_234
10
22.5604036
20
108.7261746
40
0.2808655
50
36.3142134
51
47.6305865
0
ARC
8
DEFAULT_255_1_234
10
22.4735343
20
108.6676515
40
0.3855453
50
18.2931786
51
35.6769206
0
ARC
8
DEFAULT_255_1_234
10
22.2192102
20
108.5803593
40
0.654423
50
8.024666
51
18.5605216
0
ARC
8
DEFAULT_255_1_234
10
21.8029022
20
108.5188792
40
1.0752407
50
1.1274072
51
8.1718305
0
ARC
8
DEFAULT_255_1_234
10
21.4793213
20
108.5061885
40
1.3990231
50
0.5424119
51
1.3863029
0
ARC
8
DEFAULT_255_1_234
10
21.661459
20
108.5334342
40
1.0682415
50
359.8090433
51
4.9407866
0
ARC
8
DEFAULT_255_1_234
10
22.0824604
20
108.5710113
40
0.6455691
50
4.8362157
51
12.2904523
0
ARC
8
DEFAULT_255_1_234
10
22.3579719
20
108.6323965
40
0.3633074
50
12.0805627
51
23.8173984
0
ARC
8
DEFAULT_255_1_234
10
22.4753425
20
108.6820919
40
0.2358723
50
24.2871213
51
31.3935614
0
ARC
8
DEFAULT_255_1_234
10
22.5278122
20
108.7164233
40
0.1732111
50
30.7407893
51
82.4657128
0
ARC
8
DEFAULT_255_1_234
10
22.5098256
20
108.6280691
40
0.263235
50
81.1060089
51
90.2184952
0
ARC
8
DEFAULT_255_1_234
10
22.5062555
20
108.6538924
40
0.2374236
50
89.3806855
51
105.6762551
0
ARC
8
DEFAULT_255_1_234
10
22.4879186
20
108.7205567
40
0.1682847
50
105.7981136
51
149.7388061
0
ARC
8
DEFAULT_255_1_234
10
22.5943264
20
108.656595
40
0.2924306
50
149.4208916
51
163.6286378
0
ARC
8
DEFAULT_255_1_234
10
22.8034152
20
108.592825
40
0.5110213
50
163.3763315
51
172.1410975
0
ARC
8
DEFAULT_255_1_234
10
23.1334871
20
108.5455518
40
0.8444586
50
172.0259487
51
178.0703232
0
ARC
8
DEFAULT_255_1_234
10
23.436496
20
108.5311906
40
1.1477868
50
177.8631668
51
179.5044149
0
ARC
8
DEFAULT_255_1_234
10
23.3292365
20
108.2997389
40
1.0404907
50
179.7995573
51
185.2460446
0
ARC
8
DEFAULT_255_1_234
10
22.9249404
20
108.2614513
40
0.6343885
50
185.1411642
51
193.0079639
0
ARC
8
DEFAULT_255_1_234
10
22.6605877
20
108.1989641
40
0.3627568
50
192.7897626
51
205.2507664
0
ARC
8
DEFAULT_255_1_234
10
22.5559424
20
108.1522415
40
0.2481908
50
205.8005384
51
211.2537509
0
ARC
8
DEFAULT_255_1_234
10
22.5035864
20
108.117158
40
0.1852521
50
210.3789793
51
238.4008143
0
ARC
8
DEFAULT_255_1_234
10
22.5016386
20
108.1218376
40
0.1882621
50
239.6520629
51
265.9793761
0
ARC
8
DEFAULT_255_1_234
10
22.5101586
20
108.1890427
40
0.2559272
50
265.1315437
51
270.060332
0
ARC
8
DEFAULT_255_1_234
10
22.5130365
20
108.1566534
40
0.2235528
50
269.3314664
51
287.2178029
0
ARC
8
DEFAULT_255_1_234
10
22.5268217
20
108.1063279
40
0.1714108
50
287.7958004
51
329.080874
0
ARC
8
DEFAULT_255_1_234
10
22.4310674
20
108.166093
40
0.2842745
50
328.6634704
51
343.3325132
0
ARC
8
DEFAULT_255_1_234
10
22.2137694
20
108.2337863
40
0.5118644
50
343.0499468
51
351.9393422
0
ARC
8
DEFAULT_255_1_234
10
21.8670994
20
108.2848949
40
0.8622784
50
351.8069023
51
357.7959224
0
ARC
8
DEFAULT_255_1_234
10
21.543555
20
108.3016721
40
1.1862365
50
357.5871873
51
359.2677531
0
ARC
8
DEFAULT_255_1_234
10
23.1941384
20
107.9067565
40
0.1070357
50
163.5417914
51
180.5078233
0
ARC
8
DEFAULT_255_1_234
10
23.1749202
20
107.9119421
40
0.0871371
50
138.1647447
51
163.2316401
0
ARC
8
DEFAULT_255_1_234
10
23.1636981
20
107.9214534
40
0.0724329
50
105.6856465
51
137.8494928
0
ARC
8
DEFAULT_255_1_234
10
23.1755413
20
107.8830129
40
0.1126485
50
92.6088068
51
106.1990587
0
ARC
8
DEFAULT_255_1_234
10
23.1785786
20
107.8434774
40
0.1522861
50
89.9660831
51
93.0733434
0
ARC
8
DEFAULT_255_1_234
10
23.1796481
20
107.865632
40
0.130135
50
78.4379222
51
90.4311858
0
ARC
8
DEFAULT_255_1_234
10
23.1893061
20
107.9106588
40
0.0840873
50
56.8960528
51
78.7359558
0
ARC
8
DEFAULT_255_1_234
10
23.1956288
20
107.9216877
40
0.0713991
50
42.6499553
51
56.3125067
0
ARC
8
DEFAULT_255_1_234
10
23.1828175
20
107.9099146
40
0.0887984
50
3.8142714
51
42.6365749
0
ARC
8
DEFAULT_255_1_234
10
23.1541976
20
107.9059153
40
0.1176392
50
359.9476902
51
4.8305927
0
ARC
8
DEFAULT_255_1_234
10
23.1768135
20
107.9048541
40
0.0950282
50
340.9376387
51
0.5750546
0
ARC
8
DEFAULT_255_1_234
10
23.1880631
20
107.9018192
40
0.0834082
50
316.0805399
51
340.3842391
0
ARC
8
DEFAULT_255_1_234
10
23.193871
20
107.8964809
40
0.0755219
50
285.8514865
51
315.9414755
0
ARC
8
DEFAULT_255_1_234
10
23.1821281
20
107.9344349
40
0.115244
50
273.1292529
51
286.3135479
0
ARC
8
DEFAULT_255_1_234
10
23.178798
20
107.9746049
40
0.1555398
50
269.9524064
51
273.5463789
0
ARC
8
DEFAULT_255_1_234
10
23.1776932
20
107.9527792
40
0.1337177
50
259.0490813
51
270.4180302
0
ARC
8
DEFAULT_255_1_234
10
23.1680595
20
107.9050393
40
0.0850178
50
239.7587791
51
259.311372
0
ARC
8
DEFAULT_255_1_234
10
23.1599626
20
107.8899482
40
0.0679053
50
222.6244131
51
239.247817
0
ARC
8
DEFAULT_255_1_234
10
23.1734001
20
107.9022619
40
0.0861314
50
182.9227855
51
222.598345
0
ARC
8
DEFAULT_255_1_234
10
23.200262
20
107.9057373
40
0.113155
50
179.9642935
51
183.9868025
0
LINE
8
DEFAULT_255_1_234
10
23.9898743
20
109.0029433
11
23.9898743
21
107.8279
0
LINE
8
DEFAULT_255_1_234
10
23.9898743
20
107.8279
11
23.840484
21
107.8279
0
LINE
8
DEFAULT_255_1_234
10
23.840484
20
107.8279
11
23.840484
21
108.8182133
0
LINE
8
DEFAULT_255_1_234
10
23.840484
20
108.8182133
11
23.5409001
21
108.7081785
0
LINE
8
DEFAULT_255_1_234
10
23.5409001
20
108.7081785
11
23.5409001
21
108.8431117
0
LINE
8
DEFAULT_255_1_234
10
23.5409001
20
108.8431117
11
23.9665823
21
109.0029433
0
LINE
8
DEFAULT_255_1_234
10
23.9665823
20
109.0029433
11
23.9898743
21
109.0029433
0
LINE
8
DEFAULT_255_1_234
10
22.8702817
20
116.4569327
11
22.8702817
21
116.2641709
0
LINE
8
DEFAULT_255_1_234
10
22.132165
20
116.2440916
11
22.132165
21
116.4424755
0
LINE
8
DEFAULT_255_1_234
10
22.7216946
20
116.2240123
11
22.7216946
21
116.4673739
0
LINE
8
DEFAULT_255_1_234
10
22.2807521
20
116.4786184
11
22.2807521
21
116.2408789
0
ARC
8
DEFAULT_255_1_234
10
21.6455707
20
116.2592805
40
1.2247208
50
353.8441951
51
0.2287902
0
ARC
8
DEFAULT_255_1_234
10
22.1095211
20
116.2074806
40
0.7578929
50
344.4934747
51
353.9765454
0
ARC
8
DEFAULT_255_1_234
10
22.4087801
20
116.1223981
40
0.4467846
50
329.2803592
51
344.7472793
0
ARC
8
DEFAULT_255_1_234
10
22.5080626
20
116.0679018
40
0.3336173
50
324.9352394
51
328.6160465
0
ARC
8
DEFAULT_255_1_234
10
22.5457734
20
116.0415427
40
0.2876076
50
280.580143
51
324.9173126
0
ARC
8
DEFAULT_255_1_234
10
22.5056527
20
116.2086099
40
0.4592847
50
269.5977311
51
281.6734359
0
ARC
8
DEFAULT_255_1_234
10
22.4984433
20
116.1966173
40
0.4472986
50
256.6228859
51
270.51044
0
ARC
8
DEFAULT_255_1_234
10
22.458241
20
116.0417877
40
0.2873874
50
215.8618325
51
257.2788573
0
ARC
8
DEFAULT_255_1_234
10
22.5603442
20
116.1102977
40
0.4102928
50
197.9693508
51
215.2623606
0
ARC
8
DEFAULT_255_1_234
10
22.8088558
20
116.1941709
40
0.6725652
50
187.8816417
51
198.2346507
0
ARC
8
DEFAULT_255_1_234
10
23.2046766
20
116.2513079
40
1.0724845
50
180.8976217
51
188.0055519
0
ARC
8
DEFAULT_255_1_234
10
23.4846954
20
116.2616777
40
1.3526448
50
180.7449369
51
181.1510016
0
ARC
8
DEFAULT_255_1_234
10
23.3269683
20
116.4473042
40
1.1948131
50
173.7675579
51
180.231553
0
ARC
8
DEFAULT_255_1_234
10
22.875183
20
116.4983666
40
0.7401564
50
164.3058563
51
173.9002247
0
ARC
8
DEFAULT_255_1_234
10
22.5839899
20
116.5822656
40
0.4371288
50
148.7922025
51
164.568378
0
ARC
8
DEFAULT_255_1_234
10
22.4888351
20
116.6353929
40
0.3282386
50
144.5883898
51
148.1176286
0
ARC
8
DEFAULT_255_1_234
10
22.4545249
20
116.6593315
40
0.2864044
50
101.6440918
51
144.514236
0
ARC
8
DEFAULT_255_1_234
10
22.4970315
20
116.4904069
40
0.4604934
50
89.5284041
51
102.5819763
0
ARC
8
DEFAULT_255_1_234
10
22.5049403
20
116.4865018
40
0.464401
50
77.0437873
51
90.5081339
0
ARC
8
DEFAULT_255_1_234
10
22.5451405
20
116.6507615
40
0.2953195
50
48.2778575
51
77.4994676
0
ARC
8
DEFAULT_255_1_234
10
22.5524036
20
116.6636746
40
0.2808655
50
36.3142134
51
47.6305865
0
ARC
8
DEFAULT_255_1_234
10
22.4655343
20
116.6051515
40
0.3855453
50
18.2931786
51
35.6769206
0
ARC
8
DEFAULT_255_1_234
10
22.2112102
20
116.5178593
40
0.654423
50
8.024666
51
18.5605216
0
ARC
8
DEFAULT_255_1_234
10
21.7949022
20
116.4563792
40
1.0752407
50
1.1274072
51
8.1718305
0
ARC
8
DEFAULT_255_1_234
10
21.4713213
20
116.4436885
40
1.3990231
50
0.5424119
51
1.3863029
0
ARC
8
DEFAULT_255_1_234
10
21.653459
20
116.4709342
40
1.0682415
50
359.8090433
51
4.9407866
0
ARC
8
DEFAULT_255_1_234
10
22.0744604
20
116.5085113
40
0.6455691
50
4.8362157
51
12.2904523
0
ARC
8
DEFAULT_255_1_234
10
22.3499719
20
116.5698965
40
0.3633074
50
12.0805627
51
23.8173984
0
ARC
8
DEFAULT_255_1_234
10
22.4673425
20
116.6195919
40
0.2358723
50
24.2871213
51
31.3935614
0
ARC
8
DEFAULT_255_1_234
10
22.5198122
20
116.6539233
40
0.1732111
50
30.7407893
51
82.4657128
0
ARC
8
DEFAULT_255_1_234
10
22.5018256
20
116.5655691
40
0.263235
50
81.1060089
51
90.2184952
0
ARC
8
DEFAULT_255_1_234
10
22.4982555
20
116.5913924
40
0.2374236
50
89.3806855
51
105.6762551
0
ARC
8
DEFAULT_255_1_234
10
22.4799186
20
116.6580567
40
0.1682847
50
105.7981136
51
149.7388061
0
ARC
8
DEFAULT_255_1_234
10
22.5863264
20
116.594095
40
0.2924306
50
149.4208916
51
163.6286378
0
ARC
8
DEFAULT_255_1_234
10
22.7954152
20
116.530325
40
0.5110213
50
163.3763315
51
172.1410975
0
ARC
8
DEFAULT_255_1_234
10
23.1254871
20
116.4830518
40
0.8444586
50
172.0259487
51
178.0703232
0
ARC
8
DEFAULT_255_1_234
10
23.428496
20
116.4686906
40
1.1477868
50
177.8631668
51
179.5044149
0
ARC
8
DEFAULT_255_1_234
10
23.3212365
20
116.2372389
40
1.0404907
50
179.7995573
51
185.2460446
0
ARC
8
DEFAULT_255_1_234
10
22.9169404
20
116.1989513
40
0.6343885
50
185.1411642
51
193.0079639
0
ARC
8
DEFAULT_255_1_234
10
22.6525877
20
116.1364641
40
0.3627568
50
192.7897626
51
205.2507664
0
ARC
8
DEFAULT_255_1_234
10
22.5479424
20
116.0897415
40
0.2481908
50
205.8005384
51
211.2537509
0
ARC
8
DEFAULT_255_1_234
10
22.4955864
20
116.054658
40
0.1852521
50
210.3789793
51
238.4008143
0
ARC
8
DEFAULT_255_1_234
10
22.4936386
20
116.0593376
40
0.1882621
50
239.6520629
51
265.9793761
0
ARC
8
DEFAULT_255_1_234
10
22.5021586
20
116.1265427
40
0.2559272
50
265.1315437
51
270.060332
0
ARC
8
DEFAULT_255_1_234
10
22.5050365
20
116.0941534
40
0.2235528
50
269.3314664
51
287.2178029
0
ARC
8
DEFAULT_255_1_234
10
22.5188217
20
116.0438279
40
0.1714108
50
287.7958004
51
329.080874
0
ARC
8
DEFAULT_255_1_234
10
22.4230674
20
116.103593
40
0.2842745
50
328.6634704
51
343.3325132
0
ARC
8
DEFAULT_255_1_234
10
22.2057694
20
116.1712863
40
0.5118644
50
343.0499468
51
351.9393422
0
ARC
8
DEFAULT_255_1_234
10
21.8590994
20
116.2223949
40
0.8622784
50
351.8069023
51
357.7959224
0
ARC
8
DEFAULT_255_1_234
10
21.535555
20
116.2391721
40
1.1862365
50
357.5871873
51
359.2677531
0
ARC
8
DEFAULT_255_1_234
10
23.1861384
20
115.8442565
40
0.1070357
50
163.5417914
51
180.5078233
0
ARC
8
DEFAULT_255_1_234
10
23.1669202
20
115.8494421
40
0.0871371
50
138.1647447
51
163.2316401
0
ARC
8
DEFAULT_255_1_234
10
23.1556981
20
115.8589534
40
0.0724329
50
105.6856465
51
137.8494928
0
ARC
8
DEFAULT_255_1_234
10
23.1675413
20
115.8205129
40
0.1126485
50
92.6088068
51
106.1990587
0
ARC
8
DEFAULT_255_1_234
10
23.1705786
20
115.7809774
40
0.1522861
50
89.9660831
51
93.0733434
0
ARC
8
DEFAULT_255_1_234
10
23.1716481
20
115.803132
40
0.130135
50
78.4379222
51
90.4311858
0
ARC
8
DEFAULT_255_1_234
10
23.1813061
20
115.8481588
40
0.0840873
50
56.8960528
51
78.7359558
0
ARC
8
DEFAULT_255_1_234
10
23.1876288
20
115.8591877
40
0.0713991
50
42.6499553
51
56.3125067
0
ARC
8
DEFAULT_255_1_234
10
23.1748175
20
115.8474146
40
0.0887984
50
3.8142714
51
42.6365749
0
ARC
8
DEFAULT_255_1_234
10
23.1461976
20
115.8434153
40
0.1176392
50
359.9476902
51
4.8305927
0
ARC
8
DEFAULT_255_1_234
10
23.1688135
20
115.8423541
40
0.0950282
50
340.9376387
51
0.5750546
0
ARC
8
DEFAULT_255_1_234
10
23.1800631
20
115.8393192
40
0.0834082
50
316.0805399
51
340.3842391
0
ARC
8
DEFAULT_255_1_234
10
23.185871
20
115.8339809
40
0.0755219
50
285.8514865
51
315.9414755
0
ARC
8
DEFAULT_255_1_234
10
23.1741281
20
115.8719349
40
0.115244
50
273.1292529
51
286.3135479
0
ARC
8
DEFAULT_255_1_234
10
23.170798
20
115.9121049
40
0.1555398
50
269.9524064
51
273.5463789
0
ARC
8
DEFAULT_255_1_234
10
23.1696932
20
115.8902792
40
0.1337177
50
259.0490813
51
270.4180302
0
ARC
8
DEFAULT_255_1_234
10
23.1600595
20
115.8425393
40
0.0850178
50
239.7587791
51
259.311372
0
ARC
8
DEFAULT_255_1_234
10
23.1519626
20
115.8274482
40
0.0679053
50
222.6244131
51
239.247817
0
ARC
8
DEFAULT_255_1_234
10
23.1654001
20
115.8397619
40
0.0861314
50
182.9227855
51
222.598345
0
ARC
8
DEFAULT_255_1_234
10
23.192262
20
115.8432373
40
0.113155
50
179.9642935
51
183.9868025
0
LINE
8
DEFAULT_255_1_234
10
24.2268423
20
116.4569327
11
24.2268423
21
116.2641709
0
LINE
8
DEFAULT_255_1_234
10
23.4887256
20
116.2440916
11
23.4887256
21
116.4424755
0
LINE
8
DEFAULT_255_1_234
10
24.0782552
20
116.2240123
11
24.0782552
21
116.4673739
0
LINE
8
DEFAULT_255_1_234
10
23.6373127
20
116.4786184
11
23.6373127
21
116.2408789
0
ARC
8
DEFAULT_255_1_234
10
23.0021313
20
116.2592805
40
1.2247208
50
353.8441951
51
0.2287902
0
ARC
8
DEFAULT_255_1_234
10
23.4660817
20
116.2074806
40
0.7578929
50
344.4934747
51
353.9765454
0
ARC
8
DEFAULT_255_1_234
10
23.7653407
20
116.1223981
40
0.4467846
50
329.2803592
51
344.7472793
0
ARC
8
DEFAULT_255_1_234
10
23.8646232
20
116.0679018
40
0.3336173
50
324.9352394
51
328.6160465
0
ARC
8
DEFAULT_255_1_234
10
23.902334
20
116.0415427
40
0.2876076
50
280.580143
51
324.9173126
0
ARC
8
DEFAULT_255_1_234
10
23.8622133
20
116.2086099
40
0.4592847
50
269.5977311
51
281.6734359
0
ARC
8
DEFAULT_255_1_234
10
23.8550039
20
116.1966173
40
0.4472986
50
256.6228859
51
270.51044
0
ARC
8
DEFAULT_255_1_234
10
23.8148016
20
116.0417877
40
0.2873874
50
215.8618325
51
257.2788573
0
ARC
8
DEFAULT_255_1_234
10
23.9169048
20
116.1102977
40
0.4102928
50
197.9693508
51
215.2623606
0
ARC
8
DEFAULT_255_1_234
10
24.1654164
20
116.1941709
40
0.6725652
50
187.8816417
51
198.2346507
0
ARC
8
DEFAULT_255_1_234
10
24.5612372
20
116.2513079
40
1.0724845
50
180.8976217
51
188.0055519
0
ARC
8
DEFAULT_255_1_234
10
24.841256
20
116.2616777
40
1.3526448
50
180.7449369
51
181.1510016
0
ARC
8
DEFAULT_255_1_234
10
24.6835289
20
116.4473042
40
1.1948131
50
173.7675579
51
180.231553
0
ARC
8
DEFAULT_255_1_234
10
24.2317436
20
116.4983666
40
0.7401564
50
164.3058563
51
173.9002247
0
ARC
8
DEFAULT_255_1_234
10
23.9405505
20
116.5822656
40
0.4371288
50
148.7922025
51
164.568378
0
ARC
8
DEFAULT_255_1_234
10
23.8453957
20
116.6353929
40
0.3282386
50
144.5883898
51
148.1176286
0
ARC
8
DEFAULT_255_1_234
10
23.8110855
20
116.6593315
40
0.2864044
50
101.6440918
51
144.514236
0
ARC
8
DEFAULT_255_1_234
10
23.8535921
20
116.4904069
40
0.4604934
50
89.5284041
51
102.5819763
0
ARC
8
DEFAULT_255_1_234
10
23.8615009
20
116.4865018
40
0.464401
50
77.0437873
51
90.5081339
0
ARC
8
DEFAULT_255_1_234
10
23.9017011
20
116.6507615
40
0.2953195
50
48.2778575
51
77.4994676
0
ARC
8
DEFAULT_255_1_234
10
23.9089642
20
116.6636746
40
0.2808655
50
36.3142134
51
47.6305865
0
ARC
8
DEFAULT_255_1_234
10
23.8220949
20
116.6051515
40
0.3855453
50
18.2931786
51
35.6769206
0
ARC
8
DEFAULT_255_1_234
10
23.5677708
20
116.5178593
40
0.654423
50
8.024666
51
18.5605216
0
ARC
8
DEFAULT_255_1_234
10
23.1514628
20
116.4563792
40
1.0752407
50
1.1274072
51
8.1718305
0
ARC
8
DEFAULT_255_1_234
10
22.8278818
20
116.4436885
40
1.3990231
50
0.5424119
51
1.3863029
0
ARC
8
DEFAULT_255_1_234
10
23.0100196
20
116.4709342
40
1.0682415
50
359.8090433
51
4.9407866
0
ARC
8
DEFAULT_255_1_234
10
23.431021
20
116.5085113
40
0.6455691
50
4.8362157
51
12.2904523
0
ARC
8
DEFAULT_255_1_234
10
23.7065325
20
116.5698965
40
0.3633074
50
12.0805627
51
23.8173984
0
ARC
8
DEFAULT_255_1_234
10
23.823903
20
116.6195919
40
0.2358723
50
24.2871213
51
31.3935614
0
ARC
8
DEFAULT_255_1_234
10
23.8763728
20
116.6539233
40
0.1732111
50
30.7407893
51
82.4657128
0
ARC
8
DEFAULT_255_1_234
10
23.8583862
20
116.5655691
40
0.263235
50
81.1060089
51
90.2184952
0
ARC
8
DEFAULT_255_1_234
10
23.8548161
20
116.5913924
40
0.2374236
50
89.3806855
51
105.6762551
0
ARC
8
DEFAULT_255_1_234
10
23.8364792
20
116.6580567
40
0.1682847
50
105.7981136
51
149.7388061
0
ARC
8
DEFAULT_255_1_234
10
23.942887
20
116.594095
40
0.2924306
50
149.4208916
51
163.6286378
0
ARC
8
DEFAULT_255_1_234
10
24.1519758
20
116.530325
40
0.5110213
50
163.3763315
51
172.1410975
0
ARC
8
DEFAULT_255_1_234
10
24.4820477
20
116.4830518
40
0.8444586
50
172.0259487
51
178.0703232
0
ARC
8
DEFAULT_255_1_234
10
24.7850566
20
116.4686906
40
1.1477868
50
177.8631668
51
179.5044149
0
ARC
8
DEFAULT_255_1_234
10
24.6777971
20
116.2372389
40
1.0404907
50
179.7995573
51
185.2460446
0
ARC
8
DEFAULT_255_1_234
10
24.273501
20
116.1989513
40
0.6343885
50
185.1411642
51
193.0079639
0
ARC
8
DEFAULT_255_1_234
10
24.0091483
20
116.1364641
40
0.3627568
50
192.7897626
51
205.2507664
0
ARC
8
DEFAULT_255_1_234
10
23.904503
20
116.0897415
40
0.2481908
50
205.8005384
51
211.2537509
0
ARC
8
DEFAULT_255_1_234
10
23.852147
20
116.054658
40
0.1852521
50
210.3789793
51
238.4008143
0
ARC
8
DEFAULT_255_1_234
10
23.8501992
20
116.0593376
40
0.1882621
50
239.6520629
51
265.9793761
0
ARC
8
DEFAULT_255_1_234
10
23.8587192
20
116.1265427
40
0.2559272
50
265.1315437
51
270.060332
0
ARC
8
DEFAULT_255_1_234
10
23.8615971
20
116.0941534
40
0.2235528
50
269.3314664
51
287.2178029
0
ARC
8
DEFAULT_255_1_234
10
23.8753823
20
116.0438279
40
0.1714108
50
287.7958004
51
329.080874
0
ARC
8
DEFAULT_255_1_234
10
23.779628
20
116.103593
40
0.2842745
50
328.6634704
51
343.3325132
0
ARC
8
DEFAULT_255_1_234
10
23.56233
20
116.1712863
40
0.5118644
50
343.0499468
51
351.9393422
0
ARC
8
DEFAULT_255_1_234
10
23.21566
20
116.2223949
40
0.8622784
50
351.8069023
51
357.7959224
0
ARC
8
DEFAULT_255_1_234
10
22.8921156
20
116.2391721
40
1.1862365
50
357.5871873
51
359.2677531
0
LINE
8
DEFAULT_255_1_234
10
23.1060137
20
124.8779433
11
23.1060137
21
123.7029
0
LINE
8
DEFAULT_255_1_234
10
23.1060137
20
123.7029
11
22.9566234
21
123.7029
0
LINE
8
DEFAULT_255_1_234
10
22.9566234
20
123.7029
11
22.9566234
21
124.6932133
0
LINE
8
DEFAULT_255_1_234
10
22.9566234
20
124.6932133
11
22.6570396
21
124.5831785
0
LINE
8
DEFAULT_255_1_234
10
22.6570396
20
124.5831785
11
22.6570396
21
124.7181117
0
LINE
8
DEFAULT_255_1_234
10
22.6570396
20
124.7181117
11
23.0827217
21
124.8779433
0
LINE
8
DEFAULT_255_1_234
10
23.0827217
20
124.8779433
11
23.1060137
21
124.8779433
0
LINE
8
DEFAULT_255_1_234
10
23.7348988
20
124.8723211
11
23.7348988
21
123.8289983
0
LINE
8
DEFAULT_255_1_234
10
23.7348988
20
123.8289983
11
24.2890888
21
123.8289983
0
LINE
8
DEFAULT_255_1_234
10
24.2890888
20
123.8289983
11
24.2890888
21
123.7029
0
LINE
8
DEFAULT_255_1_234
10
24.2890888
20
123.7029
11
23.5798863
21
123.7029
0
LINE
8
DEFAULT_255_1_234
10
23.5798863
20
123.7029
11
23.5798863
21
124.8723211
0
LINE
8
DEFAULT_255_1_234
10
23.5798863
20
124.8723211
11
23.7348988
21
124.8723211
0
ENDSEC
0
EOF