0
SECTION
2
HEADER
9
$MEASUREMENT
70
1
0
ENDSEC
0
SECTION
2
TABLES
0
TABLE
2
LTYPE
0
LTYPE
72
65
70
64
2
CONTINUOUS
3
______
73
0
40
0
0
ENDTAB
0
TABLE
2
LAYER
0
LAYER
2
DEFAULT_255_2_778
70
0
62
255
6
CONTINUOUS
0
LAYER
2
DEFAULT_255_1_234
70
0
62
255
6
CONTINUOUS
0
ENDTAB
0
ENDSEC
0
SECTION
2
ENTITIES
0
ARC
8
DEFAULT_255_2_778
10
3.5700693
20
51.9926534
40
0.7914215
50
129.1312896
51
180.1450914
0
ARC
8
DEFAULT_255_2_778
10
3.5703345
20
51.9931405
40
0.7912112
50
89.854026
51
129.1684493
0
ARC
8
DEFAULT_255_2_778
10
25.7993937
20
51.992827
40
0.7915249
50
39.4792447
51
90.147911
0
ARC
8
DEFAULT_255_2_778
10
25.7999935
20
51.9926737
40
0.7911595
50
359.8533901
51
39.5154338
0
ARC
8
DEFAULT_255_2_778
10
25.7996693
20
-1.9863989
40
0.7914836
50
309.4761667
51
0.1482649
0
ARC
8
DEFAULT_255_2_778
10
25.799398
20
-1.98683
40
0.7913235
50
269.8517415
51
309.511178
0
ARC
8
DEFAULT_255_2_778
10
3.570342
20
-1.9867718
40
0.7913815
50
219.1282118
51
270.1454017
0
ARC
8
DEFAULT_255_2_778
10
3.5700247
20
-1.9863893
40
0.7913769
50
179.8524075
51
219.1641908
0
LINE
8
DEFAULT_255_2_778
10
3.5723503
20
52.7843492
11
25.7973503
21
52.7843492
0
LINE
8
DEFAULT_255_2_778
10
26.5911503
20
51.9906492
11
26.5911503
21
-1.9843508
0
LINE
8
DEFAULT_255_2_778
10
25.7973503
20
-2.7781508
11
3.5723503
21
-2.7781508
0
LINE
8
DEFAULT_255_2_778
10
2.7786503
20
-1.9843508
11
2.7786503
21
51.9906492
0
LINE
8
DEFAULT_255_1_234
10
6.6280835
20
0.5189243
11
6.6545882
21
0.5189243
0
LINE
8
DEFAULT_255_1_234
10
6.6545882
20
0.5189243
11
6.6545882
21
0.392826
0
LINE
8
DEFAULT_255_1_234
10
6.6545882
20
0.392826
11
6.6272803
21
0.392826
0
LINE
8
DEFAULT_255_1_234
10
6.0803189
20
-0.2063417
11
6.0803189
21
-0.1493164
0
LINE
8
DEFAULT_255_1_234
10
6.2297093
20
-0.1685925
11
6.2297093
21
-0.2232083
0
ARC
8
DEFAULT_255_1_234
10
6.6325151
20
-0.1069545
40
0.4998079
50
90.6001036
51
104.514704
0
ARC
8
DEFAULT_255_1_234
10
6.5936667
20
0.0375131
40
0.3502176
50
104.2855254
51
133.862935
0
ARC
8
DEFAULT_255_1_234
10
6.6100424
20
0.026683
40
0.3693984
50
134.5302688
51
161.6210873
0
ARC
8
DEFAULT_255_1_234
10
6.7753613
20
-0.0316105
40
0.5446739
50
161.2849839
51
174.2076652
0
ARC
8
DEFAULT_255_1_234
10
6.916055
20
-0.0510213
40
0.6866274
50
173.7810589
51
174.9254635
0
ARC
8
DEFAULT_255_1_234
10
6.4610382
20
-0.1893161
40
0.3033419
50
95.8330959
51
138.9954921
0
ARC
8
DEFAULT_255_1_234
10
6.4833738
20
-0.3171625
40
0.4328947
50
89.8753725
51
97.0544009
0
ARC
8
DEFAULT_255_1_234
10
6.4881204
20
-0.2336252
40
0.3493769
50
71.6407809
51
90.6240094
0
ARC
8
DEFAULT_255_1_234
10
6.5031777
20
-0.1781918
40
0.2920396
50
39.6367836
51
71.019018
0
ARC
8
DEFAULT_255_1_234
10
6.439525
20
-0.2332002
40
0.3761538
50
10.658731
51
39.9043955
0
ARC
8
DEFAULT_255_1_234
10
6.2847333
20
-0.2668314
40
0.5345136
50
359.682601
51
11.132623
0
ARC
8
DEFAULT_255_1_234
10
6.2807464
20
-0.273899
40
0.5385081
50
347.2486944
51
0.4369317
0
ARC
8
DEFAULT_255_1_234
10
6.4474941
20
-0.3140193
40
0.3670249
50
318.1409698
51
347.6118597
0
ARC
8
DEFAULT_255_1_234
10
6.4799934
20
-0.3407298
40
0.3250007
50
275.6342139
51
317.8248465
0
ARC
8
DEFAULT_255_1_234
10
6.4579045
20
-0.2107781
40
0.4565864
50
269.8874292
51
276.7917694
0
ARC
8
DEFAULT_255_1_234
10
6.4524116
20
-0.3133257
40
0.3540676
50
246.9140195
51
270.7437342
0
ARC
8
DEFAULT_255_1_234
10
6.4530506
20
-0.3275616
40
0.3412781
50
218.1665114
51
245.878116
0
ARC
8
DEFAULT_255_1_234
10
6.5409967
20
-0.2539721
40
0.455911
50
191.4115814
51
218.6077802
0
ARC
8
DEFAULT_255_1_234
10
6.7348056
20
-0.2105167
40
0.6545001
50
179.6345085
51
191.7836486
0
ARC
8
DEFAULT_255_1_234
10
7.2930393
20
-0.1426303
40
1.2127388
50
171.4525249
51
180.3158839
0
ARC
8
DEFAULT_255_1_234
10
6.8535269
20
-0.0742392
40
0.7679464
50
157.9802646
51
171.6246686
0
ARC
8
DEFAULT_255_1_234
10
6.632129
20
0.0140421
40
0.5296008
50
141.4298019
51
157.854097
0
ARC
8
DEFAULT_255_1_234
10
6.567961
20
0.0594381
40
0.4511509
50
102.8715806
51
140.8564722
0
ARC
8
DEFAULT_255_1_234
10
6.6327226
20
-0.1845448
40
0.7034845
50
90.3778349
51
103.5869322
0
ARC
8
DEFAULT_255_1_234
10
6.4589002
20
-0.245027
40
0.2370698
50
89.8751008
51
126.2071704
0
ARC
8
DEFAULT_255_1_234
10
6.4634792
20
-0.2604697
40
0.2522934
50
124.9745049
51
144.895901
0
ARC
8
DEFAULT_255_1_234
10
6.4458982
20
-0.246144
40
0.2296779
50
145.2974905
51
160.2660252
0
ARC
8
DEFAULT_255_1_234
10
6.7531521
20
-0.2263929
40
0.5234525
50
179.6514266
51
190.2855912
0
ARC
8
DEFAULT_255_1_234
10
6.5837658
20
-0.2583214
40
0.3510893
50
190.0945431
51
207.5098196
0
ARC
8
DEFAULT_255_1_234
10
6.5271928
20
-0.2852377
40
0.288489
50
207.9583163
51
216.3251085
0
ARC
8
DEFAULT_255_1_234
10
6.4932036
20
-0.3131895
40
0.2445587
50
215.7661442
51
232.5456785
0
ARC
8
DEFAULT_255_1_234
10
6.4549019
20
-0.3618518
40
0.1826382
50
232.8005391
51
270.6605633
0
ARC
8
DEFAULT_255_1_234
10
6.459472
20
-0.3254388
40
0.2190529
50
269.35537
51
288.4744281
0
ARC
8
DEFAULT_255_1_234
10
6.4687617
20
-0.3603882
40
0.1829749
50
289.1833337
51
322.9683818
0
ARC
8
DEFAULT_255_1_234
10
6.4076139
20
-0.3121609
40
0.2608399
50
322.6007884
51
346.5182367
0
ARC
8
DEFAULT_255_1_234
10
6.2918735
20
-0.2826384
40
0.3802777
50
346.2582162
51
358.7741648
0
ARC
8
DEFAULT_255_1_234
10
6.1900404
20
-0.2771035
40
0.4822176
50
358.3755224
51
0.0098023
0
ARC
8
DEFAULT_255_1_234
10
6.2656591
20
-0.2743343
40
0.4066078
50
359.6214041
51
11.2839074
0
ARC
8
DEFAULT_255_1_234
10
6.3933738
20
-0.2476934
40
0.2761514
50
11.0482309
51
31.8146458
0
ARC
8
DEFAULT_255_1_234
10
6.4242781
20
-0.2309416
40
0.2410679
50
32.3035391
51
38.082671
0
ARC
8
DEFAULT_255_1_234
10
6.4663441
20
-0.1928338
40
0.1844966
50
36.825067
51
85.7415724
0
ARC
8
DEFAULT_255_1_234
10
6.4596274
20
-0.2428699
40
0.2349122
50
85.0140713
51
90.0513278
0
LINE
8
DEFAULT_255_1_234
10
7.8970981
20
-0.068999
11
7.8970981
21
-0.4978938
0
LINE
8
DEFAULT_255_1_234
10
6.9959371
20
-0.1228116
11
6.9959371
21
-0.0208085
0
LINE
8
DEFAULT_255_1_234
10
7.8970981
20
0.1751659
11
7.7428888
21
0.1751659
0
LINE
8
DEFAULT_255_1_234
10
7.1509497
20
-0.0167927
11
7.1509497
21
-0.1123704
0
LINE
8
DEFAULT_255_1_234
10
7.7436919
20
-0.4569319
11
7.7436919
21
-0.1942941
0
LINE
8
DEFAULT_255_1_234
10
7.7436919
20
-0.1942941
11
7.4730224
21
-0.1942941
0
LINE
8
DEFAULT_255_1_234
10
7.4730224
20
-0.1942941
11
7.4730224
21
-0.068999
0
LINE
8
DEFAULT_255_1_234
10
7.4730224
20
-0.068999
11
7.8970981
21
-0.068999
0
ARC
8
DEFAULT_255_1_234
10
7.6139488
20
-0.2985604
40
0.3462765
50
295.8437914
51
324.8549609
0
ARC
8
DEFAULT_255_1_234
10
7.5723455
20
-0.2232433
40
0.4322211
50
291.5695085
51
296.4549398
0
ARC
8
DEFAULT_255_1_234
10
7.5212706
20
-0.0867725
40
0.5779178
50
278.6622409
51
291.3045483
0
ARC
8
DEFAULT_255_1_234
10
7.4873198
20
0.1280408
40
0.7953952
50
270.020006
51
278.7494541
0
ARC
8
DEFAULT_255_1_234
10
7.4835122
20
0.2597036
40
0.927067
50
269.9969998
51
270.2524872
0
ARC
8
DEFAULT_255_1_234
10
7.4796835
20
-0.1486411
40
0.5187361
50
253.5786322
51
270.4175299
0
ARC
8
DEFAULT_255_1_234
10
7.4623491
20
-0.2157764
40
0.4494451
50
238.8203306
51
253.2788235
0
ARC
8
DEFAULT_255_1_234
10
7.4603864
20
-0.2208769
40
0.4440665
50
206.7883783
51
238.6962764
0
ARC
8
DEFAULT_255_1_234
10
7.5377774
20
-0.1744595
40
0.5341121
50
206.1129412
51
207.4916643
0
ARC
8
DEFAULT_255_1_234
10
7.5974689
20
-0.1490512
40
0.5989041
50
188.6921119
51
205.7821245
0
ARC
8
DEFAULT_255_1_234
10
7.7831051
20
-0.117477
40
0.7871862
50
180.3882829
51
188.9219216
0
ARC
8
DEFAULT_255_1_234
10
7.9058865
20
-0.0151536
40
0.909967
50
170.2024264
51
180.3560651
0
ARC
8
DEFAULT_255_1_234
10
7.5895383
20
0.0414237
40
0.5886083
50
154.2857445
51
170.3893044
0
ARC
8
DEFAULT_255_1_234
10
7.4613586
20
0.100095
40
0.4476743
50
139.8401567
51
153.9332699
0
ARC
8
DEFAULT_255_1_234
10
7.4254322
20
0.1288577
40
0.4016697
50
98.4190291
51
139.6707122
0
ARC
8
DEFAULT_255_1_234
10
7.463384
20
-0.0556672
40
0.5898566
50
89.7659205
51
99.4415478
0
ARC
8
DEFAULT_255_1_234
10
7.4699089
20
-0.0491156
40
0.5833147
50
78.0551672
51
90.4042112
0
ARC
8
DEFAULT_255_1_234
10
7.5103599
20
0.1327644
40
0.3970055
50
54.6380464
51
78.3339173
0
ARC
8
DEFAULT_255_1_234
10
7.5293655
20
0.1647795
40
0.3599102
50
50.031736
51
54.1558201
0
ARC
8
DEFAULT_255_1_234
10
7.5186443
20
0.1551766
40
0.3741624
50
18.1092409
51
49.7180913
0
ARC
8
DEFAULT_255_1_234
10
7.3729643
20
0.1018089
40
0.5292424
50
7.9672797
51
18.6984571
0
ARC
8
DEFAULT_255_1_234
10
7.3880121
20
0.1141504
40
0.3600838
50
9.7557294
51
27.3215714
0
ARC
8
DEFAULT_255_1_234
10
7.5007593
20
0.1704912
40
0.2340608
50
27.7361077
51
84.5257964
0
ARC
8
DEFAULT_255_1_234
10
7.467998
20
0.006164
40
0.4011215
50
82.106034
51
90.2001166
0
ARC
8
DEFAULT_255_1_234
10
7.4630197
20
0.0569215
40
0.3503799
50
89.4150119
51
105.5823402
0
ARC
8
DEFAULT_255_1_234
10
7.4373195
20
0.1504867
40
0.2533503
50
105.6678618
51
144.2648758
0
ARC
8
DEFAULT_255_1_234
10
7.526645
20
0.0869289
40
0.3629787
50
144.3561283
51
162.8564086
0
ARC
8
DEFAULT_255_1_234
10
7.7350359
20
0.0200017
40
0.5818441
50
162.6076014
51
173.6780284
0
ARC
8
DEFAULT_255_1_234
10
8.0411503
20
-0.017211
40
0.8902007
50
173.4670142
51
179.9730753
0
ARC
8
DEFAULT_255_1_234
10
7.8503174
20
-0.116574
40
0.6993804
50
179.6556203
51
190.0080463
0
ARC
8
DEFAULT_255_1_234
10
7.6187003
20
-0.1590625
40
0.4639066
50
189.8116607
51
206.6796816
0
ARC
8
DEFAULT_255_1_234
10
7.5342155
20
-0.1984497
40
0.3707421
50
207.1031645
51
217.7074368
0
ARC
8
DEFAULT_255_1_234
10
7.4707844
20
-0.2536441
40
0.2868417
50
216.7345547
51
265.6812148
0
ARC
8
DEFAULT_255_1_234
10
7.4838635
20
-0.1632145
40
0.3780509
50
264.7366618
51
270.0611241
0
ARC
8
DEFAULT_255_1_234
10
7.4861898
20
0.1208111
40
0.662079
50
269.8335834
51
276.0539546
0
ARC
8
DEFAULT_255_1_234
10
7.5068903
20
-0.069344
40
0.4708016
50
275.9894168
51
284.4615085
0
ARC
8
DEFAULT_255_1_234
10
7.526691
20
-0.1526337
40
0.3852094
50
284.7034461
51
286.4953897
0
ARC
8
DEFAULT_255_1_234
10
7.5673923
20
-0.2837035
40
0.2479842
50
286.0770838
51
304.2625829
0
ARC
8
DEFAULT_255_1_234
10
7.5807337
20
-0.3055406
40
0.2224291
50
304.5891602
51
317.1073298
0
LINE
8
DEFAULT_255_1_234
10
8.8657258
20
-0.6513
11
8.4512881
21
-0.1075513
0
LINE
8
DEFAULT_255_1_234
10
8.4512881
20
-0.1075513
11
8.3083231
21
-0.2561385
0
LINE
8
DEFAULT_255_1_234
10
8.3083231
20
-0.2561385
11
8.3083231
21
-0.6513
0
LINE
8
DEFAULT_255_1_234
10
8.3083231
20
-0.6513
11
8.1541138
21
-0.6513
0
LINE
8
DEFAULT_255_1_234
10
8.1541138
20
-0.6513
11
8.1541138
21
0.5181211
0
LINE
8
DEFAULT_255_1_234
10
8.1541138
20
0.5181211
11
8.3083231
21
0.5181211
0
LINE
8
DEFAULT_255_1_234
10
8.3083231
20
0.5181211
11
8.3083231
21
-0.0601641
0
LINE
8
DEFAULT_255_1_234
10
8.3083231
20
-0.0601641
11
8.8279766
21
0.5181211
0
LINE
8
DEFAULT_255_1_234
10
8.8279766
20
0.5181211
11
9.0143129
21
0.5181211
0
LINE
8
DEFAULT_255_1_234
10
9.0143129
20
0.5181211
11
8.5540943
21
0.0016803
0
LINE
8
DEFAULT_255_1_234
10
8.5540943
20
0.0016803
11
9.0504558
21
-0.6513
0
LINE
8
DEFAULT_255_1_234
10
9.0504558
20
-0.6513
11
8.8657258
21
-0.6513
0
LINE
8
DEFAULT_255_1_234
10
9.90182
20
0.5181211
11
9.90182
21
0.434591
0
LINE
8
DEFAULT_255_1_234
10
9.90182
20
0.434591
11
9.4175062
21
-0.6513
0
LINE
8
DEFAULT_255_1_234
10
9.4175062
20
-0.6513
11
9.2616905
21
-0.6513
0
LINE
8
DEFAULT_255_1_234
10
9.2616905
20
-0.6513
11
9.7443979
21
0.3960387
0
LINE
8
DEFAULT_255_1_234
10
9.7443979
20
0.3960387
11
9.111497
21
0.3960387
0
LINE
8
DEFAULT_255_1_234
10
9.111497
20
0.3960387
11
9.111497
21
0.5181211
0
LINE
8
DEFAULT_255_1_234
10
9.111497
20
0.5181211
11
9.90182
21
0.5181211
0
LINE
8
DEFAULT_255_1_234
10
10.5588162
20
0.5237433
11
10.5588162
21
-0.6513
0
LINE
8
DEFAULT_255_1_234
10
10.5588162
20
-0.6513
11
10.4094259
21
-0.6513
0
LINE
8
DEFAULT_255_1_234
10
10.4094259
20
-0.6513
11
10.4094259
21
0.3390133
0
LINE
8
DEFAULT_255_1_234
10
10.4094259
20
0.3390133
11
10.109842
21
0.2289785
0
LINE
8
DEFAULT_255_1_234
10
10.109842
20
0.2289785
11
10.109842
21
0.3639117
0
LINE
8
DEFAULT_255_1_234
10
10.109842
20
0.3639117
11
10.5355242
21
0.5237433
0
LINE
8
DEFAULT_255_1_234
10
10.5355242
20
0.5237433
11
10.5588162
21
0.5237433
0
LINE
8
DEFAULT_255_1_234
10
11.6214152
20
0.5181211
11
11.6214152
21
-0.258548
0
LINE
8
DEFAULT_255_1_234
10
11.6214152
20
-0.258548
11
11.7836563
21
-0.258548
0
LINE
8
DEFAULT_255_1_234
10
11.7836563
20
-0.258548
11
11.7836563
21
-0.3798272
0
LINE
8
DEFAULT_255_1_234
10
11.7836563
20
-0.3798272
11
11.6214152
21
-0.3798272
0
LINE
8
DEFAULT_255_1_234
10
11.6214152
20
-0.3798272
11
11.6214152
21
-0.6513
0
LINE
8
DEFAULT_255_1_234
10
11.6214152
20
-0.6513
11
11.4720249
21
-0.6513
0
LINE
8
DEFAULT_255_1_234
10
11.4720249
20
-0.6513
11
11.4720249
21
-0.3798272
0
LINE
8
DEFAULT_255_1_234
10
11.4720249
20
-0.3798272
11
10.9395206
21
-0.3798272
0
LINE
8
DEFAULT_255_1_234
10
10.9395206
20
-0.3798272
11
10.9395206
21
-0.2922813
0
LINE
8
DEFAULT_255_1_234
10
10.9395206
20
-0.2922813
11
11.4631899
21
0.5181211
0
LINE
8
DEFAULT_255_1_234
10
11.4631899
20
0.5181211
11
11.6214152
21
0.5181211
0
LINE
8
DEFAULT_255_1_234
10
11.454355
20
0.2827912
11
11.1081871
21
-0.258548
0
LINE
8
DEFAULT_255_1_234
10
11.1081871
20
-0.258548
11
11.4720249
21
-0.258548
0
LINE
8
DEFAULT_255_1_234
10
11.4720249
20
-0.258548
11
11.4720249
21
0.3149181
0
LINE
8
DEFAULT_255_1_234
10
11.4720249
20
0.3149181
11
11.454355
21
0.2827912
0
LINE
8
DEFAULT_255_1_234
10
12.6840142
20
-0.5300208
11
12.6840142
21
-0.6513
0
LINE
8
DEFAULT_255_1_234
10
12.6840142
20
-0.6513
11
11.9177863
21
-0.6513
0
LINE
8
DEFAULT_255_1_234
10
11.9177863
20
-0.6513
11
11.9177863
21
-0.5444779
0
LINE
8
DEFAULT_255_1_234
10
11.9177863
20
-0.5444779
11
12.3225859
21
-0.0947005
0
LINE
8
DEFAULT_255_1_234
10
12.0438846
20
0.1735595
11
11.8952975
21
0.1735595
0
LINE
8
DEFAULT_255_1_234
10
12.4101319
20
-0.1902782
11
12.0968941
21
-0.5300208
0
LINE
8
DEFAULT_255_1_234
10
12.0968941
20
-0.5300208
11
12.6840142
21
-0.5300208
0
ARC
8
DEFAULT_255_1_234
10
10.9735693
20
1.0982527
40
1.8008286
50
318.5132453
51
320.7828378
0
ARC
8
DEFAULT_255_1_234
10
11.5022667
20
0.6679426
40
1.1191493
50
320.7372736
51
323.9737074
0
ARC
8
DEFAULT_255_1_234
10
11.8942523
20
0.3839361
40
0.6350923
50
323.8961724
51
328.6421089
0
ARC
8
DEFAULT_255_1_234
10
12.0989119
20
0.2577031
40
0.3946393
50
328.8299013
51
331.789948
0
ARC
8
DEFAULT_255_1_234
10
12.1986297
20
0.2062509
40
0.2824501
50
331.4255242
51
352.9364833
0
ARC
8
DEFAULT_255_1_234
10
12.2122798
20
0.2031976
40
0.2685315
50
353.2248685
51
0.0169286
0
ARC
8
DEFAULT_255_1_234
10
12.2332675
20
0.205495
40
0.2475536
50
359.4866256
51
15.9339782
0
ARC
8
DEFAULT_255_1_234
10
12.283966
20
0.2191286
40
0.1950618
50
16.1714718
51
43.5284424
0
ARC
8
DEFAULT_255_1_234
10
12.2916969
20
0.2268573
40
0.184134
50
43.4415429
51
83.1661404
0
ARC
8
DEFAULT_255_1_234
10
12.2782887
20
0.1531771
40
0.258926
50
82.160215
51
90.1505798
0
ARC
8
DEFAULT_255_1_234
10
12.2751314
20
0.0994865
40
0.3126255
50
89.5460705
51
102.5418777
0
ARC
8
DEFAULT_255_1_234
10
12.25084
20
0.2025665
40
0.2067346
50
102.1739365
51
129.2061916
0
ARC
8
DEFAULT_255_1_234
10
12.2429472
20
0.2150094
40
0.1921118
50
129.7279328
51
135.7542026
0
ARC
8
DEFAULT_255_1_234
10
12.2551
20
0.2053045
40
0.2075944
50
136.175737
51
166.3674722
0
ARC
8
DEFAULT_255_1_234
10
12.3557919
20
0.1783182
40
0.3118201
50
165.9092917
51
178.8683903
0
ARC
8
DEFAULT_255_1_234
10
12.442278
20
0.1736179
40
0.3983935
50
178.438168
51
180.0083905
0
ARC
8
DEFAULT_255_1_234
10
12.3021382
20
0.1775231
40
0.4068601
50
163.2878735
51
180.5581814
0
ARC
8
DEFAULT_255_1_234
10
12.2219644
20
0.199584
40
0.3237344
50
133.454115
51
162.9470031
0
ARC
8
DEFAULT_255_1_234
10
12.2398185
20
0.1806
40
0.349795
50
100.7869394
51
133.4384016
0
ARC
8
DEFAULT_255_1_234
10
12.2745957
20
0.0257319
40
0.5084616
50
89.6605301
51
101.3704185
0
ARC
8
DEFAULT_255_1_234
10
12.2812295
20
0.0318496
40
0.502348
50
78.2171172
51
90.4130393
0
ARC
8
DEFAULT_255_1_234
10
12.3167374
20
0.1942637
40
0.3361092
50
55.9268222
51
78.4888551
0
ARC
8
DEFAULT_255_1_234
10
12.3363814
20
0.2281324
40
0.2970617
50
47.9292255
51
55.4054003
0
ARC
8
DEFAULT_255_1_234
10
12.3465374
20
0.2384502
40
0.2825983
50
4.3347696
51
48.0560701
0
ARC
8
DEFAULT_255_1_234
10
12.2369768
20
0.2214601
40
0.393225
50
359.925209
51
5.5967654
0
ARC
8
DEFAULT_255_1_234
10
12.279866
20
0.2270816
40
0.3503892
50
337.8914096
51
358.9967724
0
ARC
8
DEFAULT_255_1_234
10
12.0085072
20
0.3317706
40
0.6412172
50
326.9135351
51
338.3505194
0
ARC
8
DEFAULT_255_1_234
10
11.6099376
20
0.5872284
40
1.1146189
50
319.6472867
51
327.095818
0
ARC
8
DEFAULT_255_1_234
10
11.2266379
20
0.9034
40
1.6114559
50
317.2586784
51
319.9046139
0
LINE
8
DEFAULT_255_1_234
10
13.1659185
20
-0.0938974
11
13.1659185
21
-0.2151766
0
LINE
8
DEFAULT_255_1_234
10
13.1659185
20
-0.2151766
11
12.7739696
21
-0.2151766
0
LINE
8
DEFAULT_255_1_234
10
12.7739696
20
-0.2151766
11
12.7739696
21
-0.0938974
0
LINE
8
DEFAULT_255_1_234
10
12.7739696
20
-0.0938974
11
13.1659185
21
-0.0938974
0
LINE
8
DEFAULT_255_1_234
10
14.0502128
20
0.5181211
11
14.0502128
21
0.434591
0
LINE
8
DEFAULT_255_1_234
10
14.0502128
20
0.434591
11
13.565899
21
-0.6513
0
LINE
8
DEFAULT_255_1_234
10
13.565899
20
-0.6513
11
13.4100833
21
-0.6513
0
LINE
8
DEFAULT_255_1_234
10
13.4100833
20
-0.6513
11
13.8927908
21
0.3960387
0
LINE
8
DEFAULT_255_1_234
10
13.8927908
20
0.3960387
11
13.2598898
21
0.3960387
0
LINE
8
DEFAULT_255_1_234
10
13.2598898
20
0.3960387
11
13.2598898
21
0.5181211
0
LINE
8
DEFAULT_255_1_234
10
13.2598898
20
0.5181211
11
14.0502128
21
0.5181211
0
LINE
8
DEFAULT_255_1_234
10
14.9184438
20
0.0153343
11
14.9184438
21
-0.110764
0
LINE
8
DEFAULT_255_1_234
10
14.9184438
20
-0.110764
11
14.4116411
21
-0.110764
0
LINE
8
DEFAULT_255_1_234
10
14.4116411
20
-0.110764
11
14.4116411
21
-0.5252017
0
LINE
8
DEFAULT_255_1_234
10
14.4116411
20
-0.5252017
11
15.0003675
21
-0.5252017
0
LINE
8
DEFAULT_255_1_234
10
15.0003675
20
-0.5252017
11
15.0003675
21
-0.6513
0
LINE
8
DEFAULT_255_1_234
10
15.0003675
20
-0.6513
11
14.2574317
21
-0.6513
0
LINE
8
DEFAULT_255_1_234
10
14.2574317
20
-0.6513
11
14.2574317
21
0.5181211
0
LINE
8
DEFAULT_255_1_234
10
14.2574317
20
0.5181211
11
14.9923357
21
0.5181211
0
LINE
8
DEFAULT_255_1_234
10
14.9923357
20
0.5181211
11
14.9923357
21
0.3912196
0
LINE
8
DEFAULT_255_1_234
10
14.9923357
20
0.3912196
11
14.4116411
21
0.3912196
0
LINE
8
DEFAULT_255_1_234
10
14.4116411
20
0.3912196
11
14.4116411
21
0.0153343
0
LINE
8
DEFAULT_255_1_234
10
14.4116411
20
0.0153343
11
14.9184438
21
0.0153343
0
LINE
8
DEFAULT_255_1_234
10
15.2919196
20
0.5181211
11
15.5738336
21
0.0699501
0
LINE
8
DEFAULT_255_1_234
10
15.5738336
20
0.0699501
11
15.8541413
21
0.5181211
0
LINE
8
DEFAULT_255_1_234
10
15.8541413
20
0.5181211
11
16.0356585
21
0.5181211
0
LINE
8
DEFAULT_255_1_234
10
16.0356585
20
0.5181211
11
15.6661986
21
-0.0617704
0
LINE
8
DEFAULT_255_1_234
10
15.6661986
20
-0.0617704
11
16.0444935
21
-0.6513
0
LINE
8
DEFAULT_255_1_234
10
16.0444935
20
-0.6513
11
15.8613698
21
-0.6513
0
LINE
8
DEFAULT_255_1_234
10
15.8613698
20
-0.6513
11
15.5738336
21
-0.1950973
0
LINE
8
DEFAULT_255_1_234
10
15.5738336
20
-0.1950973
11
15.284691
21
-0.6513
0
LINE
8
DEFAULT_255_1_234
10
15.284691
20
-0.6513
11
15.1023706
21
-0.6513
0
LINE
8
DEFAULT_255_1_234
10
15.1023706
20
-0.6513
11
15.4814686
21
-0.0617704
0
LINE
8
DEFAULT_255_1_234
10
15.4814686
20
-0.0617704
11
15.1112055
21
0.5181211
0
LINE
8
DEFAULT_255_1_234
10
15.1112055
20
0.5181211
11
15.2919196
21
0.5181211
0
LINE
8
DEFAULT_255_1_234
10
16.9183466
20
0.0402327
11
16.9183466
21
-0.1525291
0
LINE
8
DEFAULT_255_1_234
10
16.1802298
20
-0.1726084
11
16.1802298
21
0.0257755
0
LINE
8
DEFAULT_255_1_234
10
16.7697594
20
-0.1926877
11
16.7697594
21
0.0506739
0
LINE
8
DEFAULT_255_1_234
10
16.328817
20
0.0619184
11
16.328817
21
-0.1758211
0
ARC
8
DEFAULT_255_1_234
10
15.6936355
20
-0.1574195
40
1.2247208
50
353.8441951
51
0.2287902
0
ARC
8
DEFAULT_255_1_234
10
16.1575859
20
-0.2092194
40
0.7578929
50
344.4934747
51
353.9765454
0
ARC
8
DEFAULT_255_1_234
10
16.4568449
20
-0.2943019
40
0.4467846
50
329.2803592
51
344.7472793
0
ARC
8
DEFAULT_255_1_234
10
16.5561274
20
-0.3487982
40
0.3336173
50
324.9352394
51
328.6160465
0
ARC
8
DEFAULT_255_1_234
10
16.5938383
20
-0.3751573
40
0.2876076
50
280.580143
51
324.9173126
0
ARC
8
DEFAULT_255_1_234
10
16.5537175
20
-0.2080901
40
0.4592847
50
269.5977311
51
281.6734359
0
ARC
8
DEFAULT_255_1_234
10
16.5465081
20
-0.2200827
40
0.4472986
50
256.6228859
51
270.51044
0
ARC
8
DEFAULT_255_1_234
10
16.5063059
20
-0.3749123
40
0.2873874
50
215.8618325
51
257.2788573
0
ARC
8
DEFAULT_255_1_234
10
16.608409
20
-0.3064023
40
0.4102928
50
197.9693508
51
215.2623606
0
ARC
8
DEFAULT_255_1_234
10
16.8569206
20
-0.2225291
40
0.6725652
50
187.8816417
51
198.2346507
0
ARC
8
DEFAULT_255_1_234
10
17.2527414
20
-0.1653921
40
1.0724845
50
180.8976217
51
188.0055519
0
ARC
8
DEFAULT_255_1_234
10
17.5327603
20
-0.1550223
40
1.3526448
50
180.7449369
51
181.1510016
0
ARC
8
DEFAULT_255_1_234
10
17.3750332
20
0.0306042
40
1.1948131
50
173.7675579
51
180.231553
0
ARC
8
DEFAULT_255_1_234
10
16.9232478
20
0.0816666
40
0.7401564
50
164.3058563
51
173.9002247
0
ARC
8
DEFAULT_255_1_234
10
16.6320547
20
0.1655656
40
0.4371288
50
148.7922025
51
164.568378
0
ARC
8
DEFAULT_255_1_234
10
16.5368999
20
0.2186929
40
0.3282386
50
144.5883898
51
148.1176286
0
ARC
8
DEFAULT_255_1_234
10
16.5025897
20
0.2426315
40
0.2864044
50
101.6440918
51
144.514236
0
ARC
8
DEFAULT_255_1_234
10
16.5450964
20
0.0737069
40
0.4604934
50
89.5284041
51
102.5819763
0
ARC
8
DEFAULT_255_1_234
10
16.5530052
20
0.0698018
40
0.464401
50
77.0437873
51
90.5081339
0
ARC
8
DEFAULT_255_1_234
10
16.5932053
20
0.2340615
40
0.2953195
50
48.2778575
51
77.4994676
0
ARC
8
DEFAULT_255_1_234
10
16.6004685
20
0.2469746
40
0.2808655
50
36.3142134
51
47.6305865
0
ARC
8
DEFAULT_255_1_234
10
16.5135992
20
0.1884515
40
0.3855453
50
18.2931786
51
35.6769206
0
ARC
8
DEFAULT_255_1_234
10
16.259275
20
0.1011593
40
0.654423
50
8.024666
51
18.5605216
0
ARC
8
DEFAULT_255_1_234
10
15.842967
20
0.0396792
40
1.0752407
50
1.1274072
51
8.1718305
0
ARC
8
DEFAULT_255_1_234
10
15.5193861
20
0.0269885
40
1.3990231
50
0.5424119
51
1.3863029
0
ARC
8
DEFAULT_255_1_234
10
15.7015239
20
0.0542342
40
1.0682415
50
359.8090433
51
4.9407866
0
ARC
8
DEFAULT_255_1_234
10
16.1225253
20
0.0918113
40
0.6455691
50
4.8362157
51
12.2904523
0
ARC
8
DEFAULT_255_1_234
10
16.3980368
20
0.1531965
40
0.3633074
50
12.0805627
51
23.8173984
0
ARC
8
DEFAULT_255_1_234
10
16.5154073
20
0.2028919
40
0.2358723
50
24.2871213
51
31.3935614
0
ARC
8
DEFAULT_255_1_234
10
16.567877
20
0.2372233
40
0.1732111
50
30.7407893
51
82.4657128
0
ARC
8
DEFAULT_255_1_234
10
16.5498905
20
0.1488691
40
0.263235
50
81.1060089
51
90.2184952
0
ARC
8
DEFAULT_255_1_234
10
16.5463203
20
0.1746924
40
0.2374236
50
89.3806855
51
105.6762551
0
ARC
8
DEFAULT_255_1_234
10
16.5279834
20
0.2413567
40
0.1682847
50
105.7981136
51
149.7388061
0
ARC
8
DEFAULT_255_1_234
10
16.6343912
20
0.177395
40
0.2924306
50
149.4208916
51
163.6286378
0
ARC
8
DEFAULT_255_1_234
10
16.84348
20
0.113625
40
0.5110213
50
163.3763315
51
172.1410975
0
ARC
8
DEFAULT_255_1_234
10
17.1735519
20
0.0663518
40
0.8444586
50
172.0259487
51
178.0703232
0
ARC
8
DEFAULT_255_1_234
10
17.4765609
20
0.0519906
40
1.1477868
50
177.8631668
51
179.5044149
0
ARC
8
DEFAULT_255_1_234
10
17.3693013
20
-0.1794611
40
1.0404907
50
179.7995573
51
185.2460446
0
ARC
8
DEFAULT_255_1_234
10
16.9650053
20
-0.2177487
40
0.6343885
50
185.1411642
51
193.0079639
0
ARC
8
DEFAULT_255_1_234
10
16.7006525
20
-0.2802359
40
0.3627568
50
192.7897626
51
205.2507664
0
ARC
8
DEFAULT_255_1_234
10
16.5960072
20
-0.3269585
40
0.2481908
50
205.8005384
51
211.2537509
0
ARC
8
DEFAULT_255_1_234
10
16.5436513
20
-0.362042
40
0.1852521
50
210.3789793
51
238.4008143
0
ARC
8
DEFAULT_255_1_234
10
16.5417035
20
-0.3573624
40
0.1882621
50
239.6520629
51
265.9793761
0
ARC
8
DEFAULT_255_1_234
10
16.5502235
20
-0.2901573
40
0.2559272
50
265.1315437
51
270.060332
0
ARC
8
DEFAULT_255_1_234
10
16.5531013
20
-0.3225466
40
0.2235528
50
269.3314664
51
287.2178029
0
ARC
8
DEFAULT_255_1_234
10
16.5668865
20
-0.3728721
40
0.1714108
50
287.7958004
51
329.080874
0
ARC
8
DEFAULT_255_1_234
10
16.4711322
20
-0.313107
40
0.2842745
50
328.6634704
51
343.3325132
0
ARC
8
DEFAULT_255_1_234
10
16.2538342
20
-0.2454137
40
0.5118644
50
343.0499468
51
351.9393422
0
ARC
8
DEFAULT_255_1_234
10
15.9071642
20
-0.1943051
40
0.8622784
50
351.8069023
51
357.7959224
0
ARC
8
DEFAULT_255_1_234
10
15.5836198
20
-0.1775279
40
1.1862365
50
357.5871873
51
359.2677531
0
LINE
8
DEFAULT_255_1_234
10
17.8419965
20
0.0402327
11
17.8419965
21
-0.1525291
0
LINE
8
DEFAULT_255_1_234
10
17.1038797
20
-0.1726084
11
17.1038797
21
0.0257755
0
LINE
8
DEFAULT_255_1_234
10
17.6934093
20
-0.1926877
11
17.6934093
21
0.0506739
0
LINE
8
DEFAULT_255_1_234
10
17.2524669
20
0.0619184
11
17.2524669
21
-0.1758211
0
ARC
8
DEFAULT_255_1_234
10
16.6172854
20
-0.1574195
40
1.2247208
50
353.8441951
51
0.2287902
0
ARC
8
DEFAULT_255_1_234
10
17.0812358
20
-0.2092194
40
0.7578929
50
344.4934747
51
353.9765454
0
ARC
8
DEFAULT_255_1_234
10
17.3804948
20
-0.2943019
40
0.4467846
50
329.2803592
51
344.7472793
0
ARC
8
DEFAULT_255_1_234
10
17.4797773
20
-0.3487982
40
0.3336173
50
324.9352394
51
328.6160465
0
ARC
8
DEFAULT_255_1_234
10
17.5174882
20
-0.3751573
40
0.2876076
50
280.580143
51
324.9173126
0
ARC
8
DEFAULT_255_1_234
10
17.4773674
20
-0.2080901
40
0.4592847
50
269.5977311
51
281.6734359
0
ARC
8
DEFAULT_255_1_234
10
17.470158
20
-0.2200827
40
0.4472986
50
256.6228859
51
270.51044
0
ARC
8
DEFAULT_255_1_234
10
17.4299558
20
-0.3749123
40
0.2873874
50
215.8618325
51
257.2788573
0
ARC
8
DEFAULT_255_1_234
10
17.5320589
20
-0.3064023
40
0.4102928
50
197.9693508
51
215.2623606
0
ARC
8
DEFAULT_255_1_234
10
17.7805705
20
-0.2225291
40
0.6725652
50
187.8816417
51
198.2346507
0
ARC
8
DEFAULT_255_1_234
10
18.1763913
20
-0.1653921
40
1.0724845
50
180.8976217
51
188.0055519
0
ARC
8
DEFAULT_255_1_234
10
18.4564102
20
-0.1550223
40
1.3526448
50
180.7449369
51
181.1510016
0
ARC
8
DEFAULT_255_1_234
10
18.2986831
20
0.0306042
40
1.1948131
50
173.7675579
51
180.231553
0
ARC
8
DEFAULT_255_1_234
10
17.8468977
20
0.0816666
40
0.7401564
50
164.3058563
51
173.9002247
0
ARC
8
DEFAULT_255_1_234
10
17.5557046
20
0.1655656
40
0.4371288
50
148.7922025
51
164.568378
0
ARC
8
DEFAULT_255_1_234
10
17.4605498
20
0.2186929
40
0.3282386
50
144.5883898
51
148.1176286
0
ARC
8
DEFAULT_255_1_234
10
17.4262396
20
0.2426315
40
0.2864044
50
101.6440918
51
144.514236
0
ARC
8
DEFAULT_255_1_234
10
17.4687463
20
0.0737069
40
0.4604934
50
89.5284041
51
102.5819763
0
ARC
8
DEFAULT_255_1_234
10
17.4766551
20
0.0698018
40
0.464401
50
77.0437873
51
90.5081339
0
ARC
8
DEFAULT_255_1_234
10
17.5168552
20
0.2340615
40
0.2953195
50
48.2778575
51
77.4994676
0
ARC
8
DEFAULT_255_1_234
10
17.5241184
20
0.2469746
40
0.2808655
50
36.3142134
51
47.6305865
0
ARC
8
DEFAULT_255_1_234
10
17.4372491
20
0.1884515
40
0.3855453
50
18.2931786
51
35.6769206
0
ARC
8
DEFAULT_255_1_234
10
17.1829249
20
0.1011593
40
0.654423
50
8.024666
51
18.5605216
0
ARC
8
DEFAULT_255_1_234
10
16.7666169
20
0.0396792
40
1.0752407
50
1.1274072
51
8.1718305
0
ARC
8
DEFAULT_255_1_234
10
16.443036
20
0.0269885
40
1.3990231
50
0.5424119
51
1.3863029
0
ARC
8
DEFAULT_255_1_234
10
16.6251738
20
0.0542342
40
1.0682415
50
359.8090433
51
4.9407866
0
ARC
8
DEFAULT_255_1_234
10
17.0461752
20
0.0918113
40
0.6455691
50
4.8362157
51
12.2904523
0
ARC
8
DEFAULT_255_1_234
10
17.3216867
20
0.1531965
40
0.3633074
50
12.0805627
51
23.8173984
0
ARC
8
DEFAULT_255_1_234
10
17.4390572
20
0.2028919
40
0.2358723
50
24.2871213
51
31.3935614
0
ARC
8
DEFAULT_255_1_234
10
17.4915269
20
0.2372233
40
0.1732111
50
30.7407893
51
82.4657128
0
ARC
8
DEFAULT_255_1_234
10
17.4735404
20
0.1488691
40
0.263235
50
81.1060089
51
90.2184952
0
ARC
8
DEFAULT_255_1_234
10
17.4699702
20
0.1746924
40
0.2374236
50
89.3806855
51
105.6762551
0
ARC
8
DEFAULT_255_1_234
10
17.4516333
20
0.2413567
40
0.1682847
50
105.7981136
51
149.7388061
0
ARC
8
DEFAULT_255_1_234
10
17.5580411
20
0.177395
40
0.2924306
50
149.4208916
51
163.6286378
0
ARC
8
DEFAULT_255_1_234
10
17.7671299
20
0.113625
40
0.5110213
50
163.3763315
51
172.1410975
0
ARC
8
DEFAULT_255_1_234
10
18.0972018
20
0.0663518
40
0.8444586
50
172.0259487
51
178.0703232
0
ARC
8
DEFAULT_255_1_234
10
18.4002108
20
0.0519906
40
1.1477868
50
177.8631668
51
179.5044149
0
ARC
8
DEFAULT_255_1_234
10
18.2929512
20
-0.1794611
40
1.0404907
50
179.7995573
51
185.2460446
0
ARC
8
DEFAULT_255_1_234
10
17.8886552
20
-0.2177487
40
0.6343885
50
185.1411642
51
193.0079639
0
ARC
8
DEFAULT_255_1_234
10
17.6243024
20
-0.2802359
40
0.3627568
50
192.7897626
51
205.2507664
0
ARC
8
DEFAULT_255_1_234
10
17.5196571
20
-0.3269585
40
0.2481908
50
205.8005384
51
211.2537509
0
ARC
8
DEFAULT_255_1_234
10
17.4673012
20
-0.362042
40
0.1852521
50
210.3789793
51
238.4008143
0
ARC
8
DEFAULT_255_1_234
10
17.4653534
20
-0.3573624
40
0.1882621
50
239.6520629
51
265.9793761
0
ARC
8
DEFAULT_255_1_234
10
17.4738734
20
-0.2901573
40
0.2559272
50
265.1315437
51
270.060332
0
ARC
8
DEFAULT_255_1_234
10
17.4767513
20
-0.3225466
40
0.2235528
50
269.3314664
51
287.2178029
0
ARC
8
DEFAULT_255_1_234
10
17.4905364
20
-0.3728721
40
0.1714108
50
287.7958004
51
329.080874
0
ARC
8
DEFAULT_255_1_234
10
17.3947821
20
-0.313107
40
0.2842745
50
328.6634704
51
343.3325132
0
ARC
8
DEFAULT_255_1_234
10
17.1774841
20
-0.2454137
40
0.5118644
50
343.0499468
51
351.9393422
0
ARC
8
DEFAULT_255_1_234
10
16.8308141
20
-0.1943051
40
0.8622784
50
351.8069023
51
357.7959224
0
ARC
8
DEFAULT_255_1_234
10
16.5072697
20
-0.1775279
40
1.1862365
50
357.5871873
51
359.2677531
0
LINE
8
DEFAULT_255_1_234
10
18.3568309
20
-0.0938974
11
18.3568309
21
-0.2151766
0
LINE
8
DEFAULT_255_1_234
10
18.3568309
20
-0.2151766
11
17.9648821
21
-0.2151766
0
LINE
8
DEFAULT_255_1_234
10
17.9648821
20
-0.2151766
11
17.9648821
21
-0.0938974
0
LINE
8
DEFAULT_255_1_234
10
17.9648821
20
-0.0938974
11
18.3568309
21
-0.0938974
0
LINE
8
DEFAULT_255_1_234
10
19.2194396
20
0.0402327
11
19.2194396
21
-0.1525291
0
LINE
8
DEFAULT_255_1_234
10
18.4813229
20
-0.1726084
11
18.4813229
21
0.0257755
0
LINE
8
DEFAULT_255_1_234
10
19.0708524
20
-0.1926877
11
19.0708524
21
0.0506739
0
LINE
8
DEFAULT_255_1_234
10
18.62991
20
0.0619184
11
18.62991
21
-0.1758211
0
ARC
8
DEFAULT_255_1_234
10
17.9947286
20
-0.1574195
40
1.2247208
50
353.8441951
51
0.2287902
0
ARC
8
DEFAULT_255_1_234
10
18.4586789
20
-0.2092194
40
0.7578929
50
344.4934747
51
353.9765454
0
ARC
8
DEFAULT_255_1_234
10
18.7579379
20
-0.2943019
40
0.4467846
50
329.2803592
51
344.7472793
0
ARC
8
DEFAULT_255_1_234
10
18.8572204
20
-0.3487982
40
0.3336173
50
324.9352394
51
328.6160465
0
ARC
8
DEFAULT_255_1_234
10
18.8949313
20
-0.3751573
40
0.2876076
50
280.580143
51
324.9173126
0
ARC
8
DEFAULT_255_1_234
10
18.8548106
20
-0.2080901
40
0.4592847
50
269.5977311
51
281.6734359
0
ARC
8
DEFAULT_255_1_234
10
18.8476011
20
-0.2200827
40
0.4472986
50
256.6228859
51
270.51044
0
ARC
8
DEFAULT_255_1_234
10
18.8073989
20
-0.3749123
40
0.2873874
50
215.8618325
51
257.2788573
0
ARC
8
DEFAULT_255_1_234
10
18.9095021
20
-0.3064023
40
0.4102928
50
197.9693508
51
215.2623606
0
ARC
8
DEFAULT_255_1_234
10
19.1580136
20
-0.2225291
40
0.6725652
50
187.8816417
51
198.2346507
0
ARC
8
DEFAULT_255_1_234
10
19.5538345
20
-0.1653921
40
1.0724845
50
180.8976217
51
188.0055519
0
ARC
8
DEFAULT_255_1_234
10
19.8338533
20
-0.1550223
40
1.3526448
50
180.7449369
51
181.1510016
0
ARC
8
DEFAULT_255_1_234
10
19.6761262
20
0.0306042
40
1.1948131
50
173.7675579
51
180.231553
0
ARC
8
DEFAULT_255_1_234
10
19.2243408
20
0.0816666
40
0.7401564
50
164.3058563
51
173.9002247
0
ARC
8
DEFAULT_255_1_234
10
18.9331477
20
0.1655656
40
0.4371288
50
148.7922025
51
164.568378
0
ARC
8
DEFAULT_255_1_234
10
18.8379929
20
0.2186929
40
0.3282386
50
144.5883898
51
148.1176286
0
ARC
8
DEFAULT_255_1_234
10
18.8036827
20
0.2426315
40
0.2864044
50
101.6440918
51
144.514236
0
ARC
8
DEFAULT_255_1_234
10
18.8461894
20
0.0737069
40
0.4604934
50
89.5284041
51
102.5819763
0
ARC
8
DEFAULT_255_1_234
10
18.8540982
20
0.0698018
40
0.464401
50
77.0437873
51
90.5081339
0
ARC
8
DEFAULT_255_1_234
10
18.8942983
20
0.2340615
40
0.2953195
50
48.2778575
51
77.4994676
0
ARC
8
DEFAULT_255_1_234
10
18.9015615
20
0.2469746
40
0.2808655
50
36.3142134
51
47.6305865
0
ARC
8
DEFAULT_255_1_234
10
18.8146922
20
0.1884515
40
0.3855453
50
18.2931786
51
35.6769206
0
ARC
8
DEFAULT_255_1_234
10
18.5603681
20
0.1011593
40
0.654423
50
8.024666
51
18.5605216
0
ARC
8
DEFAULT_255_1_234
10
18.1440601
20
0.0396792
40
1.0752407
50
1.1274072
51
8.1718305
0
ARC
8
DEFAULT_255_1_234
10
17.8204791
20
0.0269885
40
1.3990231
50
0.5424119
51
1.3863029
0
ARC
8
DEFAULT_255_1_234
10
18.0026169
20
0.0542342
40
1.0682415
50
359.8090433
51
4.9407866
0
ARC
8
DEFAULT_255_1_234
10
18.4236183
20
0.0918113
40
0.6455691
50
4.8362157
51
12.2904523
0
ARC
8
DEFAULT_255_1_234
10
18.6991298
20
0.1531965
40
0.3633074
50
12.0805627
51
23.8173984
0
ARC
8
DEFAULT_255_1_234
10
18.8165003
20
0.2028919
40
0.2358723
50
24.2871213
51
31.3935614
0
ARC
8
DEFAULT_255_1_234
10
18.86897
20
0.2372233
40
0.1732111
50
30.7407893
51
82.4657128
0
ARC
8
DEFAULT_255_1_234
10
18.8509835
20
0.1488691
40
0.263235
50
81.1060089
51
90.2184952
0
ARC
8
DEFAULT_255_1_234
10
18.8474134
20
0.1746924
40
0.2374236
50
89.3806855
51
105.6762551
0
ARC
8
DEFAULT_255_1_234
10
18.8290764
20
0.2413567
40
0.1682847
50
105.7981136
51
149.7388061
0
ARC
8
DEFAULT_255_1_234
10
18.9354843
20
0.177395
40
0.2924306
50
149.4208916
51
163.6286378
0
ARC
8
DEFAULT_255_1_234
10
19.1445731
20
0.113625
40
0.5110213
50
163.3763315
51
172.1410975
0
ARC
8
DEFAULT_255_1_234
10
19.474645
20
0.0663518
40
0.8444586
50
172.0259487
51
178.0703232
0
ARC
8
DEFAULT_255_1_234
10
19.7776539
20
0.0519906
40
1.1477868
50
177.8631668
51
179.5044149
0
ARC
8
DEFAULT_255_1_234
10
19.6703943
20
-0.1794611
40
1.0404907
50
179.7995573
51
185.2460446
0
ARC
8
DEFAULT_255_1_234
10
19.2660983
20
-0.2177487
40
0.6343885
50
185.1411642
51
193.0079639
0
ARC
8
DEFAULT_255_1_234
10
19.0017455
20
-0.2802359
40
0.3627568
50
192.7897626
51
205.2507664
0
ARC
8
DEFAULT_255_1_234
10
18.8971002
20
-0.3269585
40
0.2481908
50
205.8005384
51
211.2537509
0
ARC
8
DEFAULT_255_1_234
10
18.8447443
20
-0.362042
40
0.1852521
50
210.3789793
51
238.4008143
0
ARC
8
DEFAULT_255_1_234
10
18.8427965
20
-0.3573624
40
0.1882621
50
239.6520629
51
265.9793761
0
ARC
8
DEFAULT_255_1_234
10
18.8513165
20
-0.2901573
40
0.2559272
50
265.1315437
51
270.060332
0
ARC
8
DEFAULT_255_1_234
10
18.8541944
20
-0.3225466
40
0.2235528
50
269.3314664
51
287.2178029
0
ARC
8
DEFAULT_255_1_234
10
18.8679796
20
-0.3728721
40
0.1714108
50
287.7958004
51
329.080874
0
ARC
8
DEFAULT_255_1_234
10
18.7722252
20
-0.313107
40
0.2842745
50
328.6634704
51
343.3325132
0
ARC
8
DEFAULT_255_1_234
10
18.5549272
20
-0.2454137
40
0.5118644
50
343.0499468
51
351.9393422
0
ARC
8
DEFAULT_255_1_234
10
18.2082572
20
-0.1943051
40
0.8622784
50
351.8069023
51
357.7959224
0
ARC
8
DEFAULT_255_1_234
10
17.8847128
20
-0.1775279
40
1.1862365
50
357.5871873
51
359.2677531
0
LINE
8
DEFAULT_255_1_234
10
20.2057371
20
-0.6513
11
20.0940959
21
-0.3460939
0
LINE
8
DEFAULT_255_1_234
10
20.0940959
20
-0.3460939
11
19.6041599
21
-0.3460939
0
LINE
8
DEFAULT_255_1_234
10
19.6041599
20
-0.3460939
11
19.494125
21
-0.6513
0
LINE
8
DEFAULT_255_1_234
10
19.494125
20
-0.6513
11
19.3350966
21
-0.6513
0
LINE
8
DEFAULT_255_1_234
10
19.3350966
20
-0.6513
11
19.7816613
21
0.5181211
0
LINE
8
DEFAULT_255_1_234
10
19.7816613
20
0.5181211
11
19.9165945
21
0.5181211
0
LINE
8
DEFAULT_255_1_234
10
19.9165945
20
0.5181211
11
20.3639623
21
-0.6513
0
LINE
8
DEFAULT_255_1_234
10
20.3639623
20
-0.6513
11
20.2057371
21
-0.6513
0
LINE
8
DEFAULT_255_1_234
10
19.8491279
20
0.3277689
11
19.6507439
21
-0.2191925
0
LINE
8
DEFAULT_255_1_234
10
19.6507439
20
-0.2191925
11
20.048315
21
-0.2191925
0
LINE
8
DEFAULT_255_1_234
10
20.048315
20
-0.2191925
11
19.8491279
21
0.3277689
0
LINE
8
DEFAULT_255_1_234
10
20.6209779
20
0.5181211
11
20.9028919
21
0.0699501
0
LINE
8
DEFAULT_255_1_234
10
20.9028919
20
0.0699501
11
21.1831996
21
0.5181211
0
LINE
8
DEFAULT_255_1_234
10
21.1831996
20
0.5181211
11
21.3647169
21
0.5181211
0
LINE
8
DEFAULT_255_1_234
10
21.3647169
20
0.5181211
11
20.9952569
21
-0.0617704
0
LINE
8
DEFAULT_255_1_234
10
20.9952569
20
-0.0617704
11
21.3735518
21
-0.6513
0
LINE
8
DEFAULT_255_1_234
10
21.3735518
20
-0.6513
11
21.1904282
21
-0.6513
0
LINE
8
DEFAULT_255_1_234
10
21.1904282
20
-0.6513
11
20.9028919
21
-0.1950973
0
LINE
8
DEFAULT_255_1_234
10
20.9028919
20
-0.1950973
11
20.6137494
21
-0.6513
0
LINE
8
DEFAULT_255_1_234
10
20.6137494
20
-0.6513
11
20.4314289
21
-0.6513
0
LINE
8
DEFAULT_255_1_234
10
20.4314289
20
-0.6513
11
20.810527
21
-0.0617704
0
LINE
8
DEFAULT_255_1_234
10
20.810527
20
-0.0617704
11
20.4402638
21
0.5181211
0
LINE
8
DEFAULT_255_1_234
10
20.4402638
20
0.5181211
11
20.6209779
21
0.5181211
0
LINE
8
DEFAULT_255_1_234
10
22.2474049
20
0.0402327
11
22.2474049
21
-0.1525291
0
LINE
8
DEFAULT_255_1_234
10
21.5092882
20
-0.1726084
11
21.5092882
21
0.0257755
0
LINE
8
DEFAULT_255_1_234
10
22.0988178
20
-0.1926877
11
22.0988178
21
0.0506739
0
LINE
8
DEFAULT_255_1_234
10
21.6578753
20
0.0619184
11
21.6578753
21
-0.1758211
0
ARC
8
DEFAULT_255_1_234
10
21.0226939
20
-0.1574195
40
1.2247208
50
353.8441951
51
0.2287902
0
ARC
8
DEFAULT_255_1_234
10
21.4866442
20
-0.2092194
40
0.7578929
50
344.4934747
51
353.9765454
0
ARC
8
DEFAULT_255_1_234
10
21.7859033
20
-0.2943019
40
0.4467846
50
329.2803592
51
344.7472793
0
ARC
8
DEFAULT_255_1_234
10
21.8851858
20
-0.3487982
40
0.3336173
50
324.9352394
51
328.6160465
0
ARC
8
DEFAULT_255_1_234
10
21.9228966
20
-0.3751573
40
0.2876076
50
280.580143
51
324.9173126
0
ARC
8
DEFAULT_255_1_234
10
21.8827759
20
-0.2080901
40
0.4592847
50
269.5977311
51
281.6734359
0
ARC
8
DEFAULT_255_1_234
10
21.8755665
20
-0.2200827
40
0.4472986
50
256.6228859
51
270.51044
0
ARC
8
DEFAULT_255_1_234
10
21.8353642
20
-0.3749123
40
0.2873874
50
215.8618325
51
257.2788573
0
ARC
8
DEFAULT_255_1_234
10
21.9374674
20
-0.3064023
40
0.4102928
50
197.9693508
51
215.2623606
0
ARC
8
DEFAULT_255_1_234
10
22.185979
20
-0.2225291
40
0.6725652
50
187.8816417
51
198.2346507
0
ARC
8
DEFAULT_255_1_234
10
22.5817998
20
-0.1653921
40
1.0724845
50
180.8976217
51
188.0055519
0
ARC
8
DEFAULT_255_1_234
10
22.8618186
20
-0.1550223
40
1.3526448
50
180.7449369
51
181.1510016
0
ARC
8
DEFAULT_255_1_234
10
22.7040915
20
0.0306042
40
1.1948131
50
173.7675579
51
180.231553
0
ARC
8
DEFAULT_255_1_234
10
22.2523062
20
0.0816666
40
0.7401564
50
164.3058563
51
173.9002247
0
ARC
8
DEFAULT_255_1_234
10
21.961113
20
0.1655656
40
0.4371288
50
148.7922025
51
164.568378
0
ARC
8
DEFAULT_255_1_234
10
21.8659583
20
0.2186929
40
0.3282386
50
144.5883898
51
148.1176286
0
ARC
8
DEFAULT_255_1_234
10
21.8316481
20
0.2426315
40
0.2864044
50
101.6440918
51
144.514236
0
ARC
8
DEFAULT_255_1_234
10
21.8741547
20
0.0737069
40
0.4604934
50
89.5284041
51
102.5819763
0
ARC
8
DEFAULT_255_1_234
10
21.8820635
20
0.0698018
40
0.464401
50
77.0437873
51
90.5081339
0
ARC
8
DEFAULT_255_1_234
10
21.9222637
20
0.2340615
40
0.2953195
50
48.2778575
51
77.4994676
0
ARC
8
DEFAULT_255_1_234
10
21.9295268
20
0.2469746
40
0.2808655
50
36.3142134
51
47.6305865
0
ARC
8
DEFAULT_255_1_234
10
21.8426575
20
0.1884515
40
0.3855453
50
18.2931786
51
35.6769206
0
ARC
8
DEFAULT_255_1_234
10
21.5883334
20
0.1011593
40
0.654423
50
8.024666
51
18.5605216
0
ARC
8
DEFAULT_255_1_234
10
21.1720254
20
0.0396792
40
1.0752407
50
1.1274072
51
8.1718305
0
ARC
8
DEFAULT_255_1_234
10
20.8484444
20
0.0269885
40
1.3990231
50
0.5424119
51
1.3863029
0
ARC
8
DEFAULT_255_1_234
10
21.0305822
20
0.0542342
40
1.0682415
50
359.8090433
51
4.9407866
0
ARC
8
DEFAULT_255_1_234
10
21.4515836
20
0.0918113
40
0.6455691
50
4.8362157
51
12.2904523
0
ARC
8
DEFAULT_255_1_234
10
21.7270951
20
0.1531965
40
0.3633074
50
12.0805627
51
23.8173984
0
ARC
8
DEFAULT_255_1_234
10
21.8444656
20
0.2028919
40
0.2358723
50
24.2871213
51
31.3935614
0
ARC
8
DEFAULT_255_1_234
10
21.8969354
20
0.2372233
40
0.1732111
50
30.7407893
51
82.4657128
0
ARC
8
DEFAULT_255_1_234
10
21.8789488
20
0.1488691
40
0.263235
50
81.1060089
51
90.2184952
0
ARC
8
DEFAULT_255_1_234
10
21.8753787
20
0.1746924
40
0.2374236
50
89.3806855
51
105.6762551
0
ARC
8
DEFAULT_255_1_234
10
21.8570418
20
0.2413567
40
0.1682847
50
105.7981136
51
149.7388061
0
ARC
8
DEFAULT_255_1_234
10
21.9634496
20
0.177395
40
0.2924306
50
149.4208916
51
163.6286378
0
ARC
8
DEFAULT_255_1_234
10
22.1725384
20
0.113625
40
0.5110213
50
163.3763315
51
172.1410975
0
ARC
8
DEFAULT_255_1_234
10
22.5026103
20
0.0663518
40
0.8444586
50
172.0259487
51
178.0703232
0
ARC
8
DEFAULT_255_1_234
10
22.8056192
20
0.0519906
40
1.1477868
50
177.8631668
51
179.5044149
0
ARC
8
DEFAULT_255_1_234
10
22.6983597
20
-0.1794611
40
1.0404907
50
179.7995573
51
185.2460446
0
ARC
8
DEFAULT_255_1_234
10
22.2940636
20
-0.2177487
40
0.6343885
50
185.1411642
51
193.0079639
0
ARC
8
DEFAULT_255_1_234
10
22.0297109
20
-0.2802359
40
0.3627568
50
192.7897626
51
205.2507664
0
ARC
8
DEFAULT_255_1_234
10
21.9250656
20
-0.3269585
40
0.2481908
50
205.8005384
51
211.2537509
0
ARC
8
DEFAULT_255_1_234
10
21.8727096
20
-0.362042
40
0.1852521
50
210.3789793
51
238.4008143
0
ARC
8
DEFAULT_255_1_234
10
21.8707618
20
-0.3573624
40
0.1882621
50
239.6520629
51
265.9793761
0
ARC
8
DEFAULT_255_1_234
10
21.8792818
20
-0.2901573
40
0.2559272
50
265.1315437
51
270.060332
0
ARC
8
DEFAULT_255_1_234
10
21.8821597
20
-0.3225466
40
0.2235528
50
269.3314664
51
287.2178029
0
ARC
8
DEFAULT_255_1_234
10
21.8959449
20
-0.3728721
40
0.1714108
50
287.7958004
51
329.080874
0
ARC
8
DEFAULT_255_1_234
10
21.8001906
20
-0.313107
40
0.2842745
50
328.6634704
51
343.3325132
0
ARC
8
DEFAULT_255_1_234
10
21.5828926
20
-0.2454137
40
0.5118644
50
343.0499468
51
351.9393422
0
ARC
8
DEFAULT_255_1_234
10
21.2362226
20
-0.1943051
40
0.8622784
50
351.8069023
51
357.7959224
0
ARC
8
DEFAULT_255_1_234
10
20.9126782
20
-0.1775279
40
1.1862365
50
357.5871873
51
359.2677531
0
ARC
8
DEFAULT_255_2_778
10
7.7543439
20
52.2948128
40
3.0466403
50
251.6724781
51
258.5987661
0
ARC
8
DEFAULT_255_2_778
10
7.5400558
20
51.2136316
40
1.9444375
50
258.4907215
51
268.3974115
0
ARC
8
DEFAULT_255_2_778
10
7.5177542
20
50.7829995
40
1.5133848
50
268.7854544
51
269.9953942
0
ARC
8
DEFAULT_255_2_778
10
7.5280263
20
50.3336726
40
1.0641086
50
269.4403512
51
279.6841037
0
ARC
8
DEFAULT_255_2_778
10
7.6421978
20
49.7041567
40
0.4244099
50
278.7863046
51
300.3428271
0
ARC
8
DEFAULT_255_2_778
10
7.7612279
20
49.50153
40
0.1894089
50
300.2328316
51
1.9014863
0
ARC
8
DEFAULT_255_2_778
10
7.746508
20
49.5106715
40
0.2040445
50
359.1977832
51
359.9996968
0
ARC
8
DEFAULT_255_2_778
10
7.753075
20
49.5115013
40
0.1974794
50
359.7589479
51
47.2071953
0
ARC
8
DEFAULT_255_2_778
10
7.619013
20
49.3625429
40
0.3978723
50
47.6130098
51
60.824453
0
ARC
8
DEFAULT_255_2_778
10
7.0184997
20
48.3455677
40
1.5788249
50
59.7878046
51
64.8721208
0
ARC
8
DEFAULT_255_2_778
10
6.0925837
20
46.4143461
40
3.7205057
50
64.5916011
51
66.820345
0
ARC
8
DEFAULT_255_2_778
10
9.6378482
20
54.7724609
40
5.3584611
50
244.3087082
51
247.1497851
0
ARC
8
DEFAULT_255_2_778
10
8.548978
20
52.516872
40
2.8538059
50
240.2312866
51
244.3765687
0
ARC
8
DEFAULT_255_2_778
10
7.7796999
20
51.1824805
40
1.3135689
50
233.2094737
51
240.4596791
0
ARC
8
DEFAULT_255_2_778
10
7.3564445
20
50.6124409
40
0.603585
50
225.678902
51
232.9782433
0
ARC
8
DEFAULT_255_2_778
10
7.396701
20
50.6372518
40
0.6495632
50
178.2741582
51
224.667467
0
ARC
8
DEFAULT_255_2_778
10
7.506651
20
50.6706559
40
0.7593447
50
157.036112
51
181.044431
0
ARC
8
DEFAULT_255_2_778
10
7.3792854
20
50.7114246
40
0.6262846
50
124.9253006
51
155.9241303
0
ARC
8
DEFAULT_255_2_778
10
7.5965789
20
50.4030358
40
1.0035357
50
100.4079723
51
125.0168617
0
ARC
8
DEFAULT_255_2_778
10
7.6996521
20
49.9089723
40
1.5081396
50
89.6483922
51
100.8684975
0
ARC
8
DEFAULT_255_2_778
10
7.7088565
20
49.5567665
40
1.8603169
50
89.5079487
51
89.9984402
0
ARC
8
DEFAULT_255_2_778
10
7.7104896
20
49.4915371
40
1.9255311
50
83.9170631
51
89.5732113
0
ARC
8
DEFAULT_255_2_778
10
7.507684
20
47.4839635
40
3.9433074
50
80.7325723
51
84.0779772
0
ARC
8
DEFAULT_255_2_778
10
7.021378
20
44.4610497
40
7.0050837
50
78.5086351
51
80.7886813
0
ARC
8
DEFAULT_255_2_778
10
7.66255
20
49.0605221
40
1.9415426
50
67.135818
51
78.0934208
0
ARC
8
DEFAULT_255_2_778
10
7.7857137
20
49.6309486
40
1.3579807
50
78.2126325
51
89.7333975
0
ARC
8
DEFAULT_255_2_778
10
7.7799169
20
50.0453048
40
0.9436877
50
89.2643807
51
100.5577599
0
ARC
8
DEFAULT_255_2_778
10
7.6671349
20
50.6140957
40
0.3639224
50
99.5099416
51
124.0285213
0
ARC
8
DEFAULT_255_2_778
10
7.57092
20
50.7641933
40
0.1857341
50
125.3416971
51
182.2767689
0
ARC
8
DEFAULT_255_2_778
10
7.5504732
20
50.7575853
40
0.1651425
50
180.2673353
51
239.6912529
0
ARC
8
DEFAULT_255_2_778
10
7.9323524
20
51.355904
40
0.8748407
50
237.8744287
51
242.8176978
0
ARC
8
DEFAULT_255_2_778
10
9.4134979
20
54.1665997
40
4.0518771
50
242.3429481
51
244.0446069
0
ARC
8
DEFAULT_255_2_778
10
12.367478
20
60.2004499
40
10.7700062
50
243.963828
51
244.8175572
0
ARC
8
DEFAULT_255_2_778
10
15.3896528
20
66.5921513
40
17.8401724
50
244.7685545
51
244.971514
0
ARC
8
DEFAULT_255_2_778
10
5.8614283
20
46.0973652
40
4.7613433
50
62.2451122
51
65.4192096
0
ARC
8
DEFAULT_255_2_778
10
6.9259351
20
48.109274
40
2.4851839
50
57.2979848
51
62.3628589
0
ARC
8
DEFAULT_255_2_778
10
7.6805627
20
49.274958
40
1.0965802
50
48.7493094
51
57.571194
0
ARC
8
DEFAULT_255_2_778
10
8.0120821
20
49.6632759
40
0.586081
50
44.3424824
51
48.0852666
0
ARC
8
DEFAULT_255_2_778
10
7.9788325
20
49.6437146
40
0.6236013
50
1.3523843
51
43.4925744
0
ARC
8
DEFAULT_255_2_778
10
7.7108854
20
49.6107828
40
0.8926473
50
359.9763756
51
3.0599076
0
ARC
8
DEFAULT_255_2_778
10
7.8648098
20
49.5956968
40
0.7388693
50
333.0409438
51
1.1413791
0
ARC
8
DEFAULT_255_2_778
10
7.8953469
20
49.6025035
40
0.7150136
50
300.8436672
51
331.44521
0
ARC
8
DEFAULT_255_2_778
10
7.6951587
20
49.9165479
40
1.0873327
50
281.4188469
51
301.4162372
0
ARC
8
DEFAULT_255_2_778
10
7.5637994
20
50.5253698
40
1.7101299
50
270.2272327
51
281.6944092
0
ARC
8
DEFAULT_255_2_778
10
7.5459128
20
51.0010692
40
2.185955
50
269.9983113
51
270.6466065
0
LINE
8
DEFAULT_255_2_778
10
7.5458484
20
48.8151142
11
7.5443325
21
48.8151147
0
ARC
8
DEFAULT_255_2_778
10
7.5514484
20
51.9980647
40
3.1829579
50
256.2431122
51
269.871909
0
ARC
8
DEFAULT_255_2_778
10
21.7546021
20
52.2168817
40
2.9666503
50
251.5318157
51
258.7258279
0
ARC
8
DEFAULT_255_2_778
10
21.5543563
20
51.194951
40
1.9252941
50
258.62435
51
268.8252909
0
ARC
8
DEFAULT_255_2_778
10
21.5360665
20
50.8000972
40
1.5301823
50
269.2068806
51
269.9987259
0
ARC
8
DEFAULT_255_2_778
10
21.5479171
20
50.3358861
40
1.0660376
50
269.3612297
51
279.5899087
0
ARC
8
DEFAULT_255_2_778
10
21.6613762
20
49.7044001
40
0.424527
50
278.6895227
51
300.2363944
0
ARC
8
DEFAULT_255_2_778
10
21.7804406
20
49.500947
40
0.188796
50
300.1108484
51
1.9024905
0
ARC
8
DEFAULT_255_2_778
10
21.74449
20
49.5115898
40
0.2246851
50
358.8842611
51
0.0019649
0
ARC
8
DEFAULT_255_2_778
10
21.7775114
20
49.5155062
40
0.1917038
50
358.831716
51
47.0900458
0
ARC
8
DEFAULT_255_2_778
10
21.6382597
20
49.3570519
40
0.402612
50
47.9285592
51
61.0836101
0
ARC
8
DEFAULT_255_2_778
10
21.0435796
20
48.3387787
40
1.5817315
50
60.0631222
51
65.1602386
0
ARC
8
DEFAULT_255_2_778
10
20.1320272
20
46.412706
40
3.7125866
50
64.8807046
51
67.1209578
0
ARC
8
DEFAULT_255_2_778
10
23.628079
20
54.7021565
40
5.2839333
50
244.2656926
51
247.1407051
0
ARC
8
DEFAULT_255_2_778
10
22.560032
20
52.4939327
40
2.8309849
50
240.1545061
51
244.3326325
0
ARC
8
DEFAULT_255_2_778
10
21.7861871
20
51.1579023
40
1.2870531
50
232.697515
51
240.4357497
0
ARC
8
DEFAULT_255_2_778
10
21.3710829
20
50.6068895
40
0.5972006
50
225.5850892
51
232.3393736
0
ARC
8
DEFAULT_255_2_778
10
21.4139264
20
50.636461
40
0.6483829
50
178.7795739
51
224.7095916
0
ARC
8
DEFAULT_255_2_778
10
21.6674642
20
50.6604812
40
0.9018316
50
179.997867
51
180.6487041
0
ARC
8
DEFAULT_255_2_778
10
21.5173061
20
50.6742926
40
0.7517998
50
156.9195758
51
181.050088
0
ARC
8
DEFAULT_255_2_778
10
21.3933805
20
50.7137389
40
0.6224513
50
124.7111133
51
155.7879672
0
ARC
8
DEFAULT_255_2_778
10
21.6055077
20
50.4234843
40
0.9818859
50
101.7943006
51
125.2417472
0
ARC
8
DEFAULT_255_2_778
10
21.7300568
20
49.8700359
40
1.5491324
50
89.5237779
51
102.119608
0
ARC
8
DEFAULT_255_2_778
10
21.728565
20
49.3152684
40
2.1038954
50
83.2897778
51
89.6087235
0
ARC
8
DEFAULT_255_2_778
10
21.5240013
20
47.5029907
40
3.9276711
50
79.3121016
51
83.4152109
0
ARC
8
DEFAULT_255_2_778
10
21.2073148
20
45.7383502
40
5.7204535
50
78.2244786
51
79.4731175
0
ARC
8
DEFAULT_255_2_778
10
21.6839903
20
49.0720601
40
1.9313541
50
67.1320052
51
78.3124693
0
ARC
8
DEFAULT_255_2_778
10
21.8016805
20
49.624309
40
1.3667182
50
78.4541134
51
89.7546716
0
ARC
8
DEFAULT_255_2_778
10
21.7954662
20
50.0529688
40
0.9381236
50
89.263032
51
100.5789495
0
ARC
8
DEFAULT_255_2_778
10
21.6826638
20
50.6196991
40
0.3603816
50
99.4915893
51
124.3627674
0
ARC
8
DEFAULT_255_2_778
10
21.5877509
20
50.7667673
40
0.1854666
50
125.8028369
51
182.2896157
0
ARC
8
DEFAULT_255_2_778
10
21.5495799
20
50.759272
40
0.1471476
50
179.9666171
51
180.1001736
0
ARC
8
DEFAULT_255_2_778
10
21.5665745
20
50.7591091
40
0.164142
50
180.032935
51
239.8907271
0
ARC
8
DEFAULT_255_2_778
10
21.9360551
20
51.341313
40
0.8535847
50
238.0402264
51
243.0370307
0
ARC
8
DEFAULT_255_2_778
10
23.4793463
20
54.2934461
40
4.1847343
50
242.5305029
51
244.1852103
0
ARC
8
DEFAULT_255_2_778
10
26.6271515
20
60.7636116
40
11.3799845
50
244.1038809
51
244.9214171
0
ARC
8
DEFAULT_255_2_778
10
29.8777528
20
67.672326
40
19.0152051
50
244.8737354
51
245.0669821
0
ARC
8
DEFAULT_255_2_778
10
19.8882742
20
46.139071
40
4.7223648
50
62.036831
51
65.2981624
0
ARC
8
DEFAULT_255_2_778
10
20.9522164
20
48.1336714
40
2.4617531
50
57.1110762
51
62.1404081
0
ARC
8
DEFAULT_255_2_778
10
21.7048272
20
49.286797
40
1.0847836
50
48.3568195
51
57.4187314
0
ARC
8
DEFAULT_255_2_778
10
22.029546
20
49.6631639
40
0.5878002
50
44.453022
51
47.6325253
0
ARC
8
DEFAULT_255_2_778
10
21.9979779
20
49.6449098
40
0.6231843
50
1.0876759
51
43.6183889
0
ARC
8
DEFAULT_255_2_778
10
21.7310111
20
49.6128301
40
0.8911213
50
359.9797211
51
2.8243422
0
ARC
8
DEFAULT_255_2_778
10
21.8804151
20
49.5977736
40
0.7418639
50
333.2156265
51
1.138567
0
ARC
8
DEFAULT_255_2_778
10
21.9152495
20
49.6022363
40
0.7130495
50
300.9658303
51
331.6339563
0
ARC
8
DEFAULT_255_2_778
10
21.7187382
20
49.91147
40
1.0793606
50
281.9136331
51
301.4645182
0
ARC
8
DEFAULT_255_2_778
10
21.5855532
20
50.5086054
40
1.6911426
50
270.5804277
51
282.1523279
0
ARC
8
DEFAULT_255_2_778
10
21.5644102
20
51.0025177
40
2.1853034
50
269.9959061
51
271.0035609
0
LINE
8
DEFAULT_255_2_778
10
21.5642541
20
48.8172142
11
21.5627325
21
48.8172147
0
ARC
8
DEFAULT_255_2_778
10
21.5696949
20
52.0013913
40
3.1841842
50
256.2458002
51
269.8747201
0
LINE
8
DEFAULT_255_2_778
10
6.7963325
20
48.9079147
11
6.7963325
21
49.4027147
0
LINE
8
DEFAULT_255_2_778
10
8.4169325
20
51.3257147
11
8.4169325
21
50.8495147
0
LINE
8
DEFAULT_255_2_778
10
6.7945325
20
48.9064147
11
6.7963325
21
48.9079147
0
LINE
8
DEFAULT_255_2_778
10
8.9871325
20
51.3752147
11
9.6634325
21
51.3752147
0
LINE
8
DEFAULT_255_2_778
10
9.6634325
20
51.3752147
11
9.6634325
21
48.8677147
0
LINE
8
DEFAULT_255_2_778
10
9.6634325
20
48.8677147
11
8.9871325
21
48.8677147
0
LINE
8
DEFAULT_255_2_778
10
8.9871325
20
48.8677147
11
8.9871325
21
51.3752147
0
LINE
8
DEFAULT_255_2_778
10
10.2814325
20
48.8677147
11
10.2814325
21
51.3752147
0
LINE
8
DEFAULT_255_2_778
10
10.2814325
20
51.3752147
11
12.0137325
21
51.3752147
0
LINE
8
DEFAULT_255_2_778
10
12.0137325
20
51.3752147
11
12.0137325
21
50.9214147
0
LINE
8
DEFAULT_255_2_778
10
12.0137325
20
50.9214147
11
10.9326325
21
50.9214147
0
LINE
8
DEFAULT_255_2_778
10
10.9326325
20
50.9214147
11
10.9326325
21
50.3552147
0
LINE
8
DEFAULT_255_2_778
10
10.9326325
20
50.3552147
11
11.8740325
21
50.3552147
0
LINE
8
DEFAULT_255_2_778
10
11.8740325
20
50.3552147
11
11.8740325
21
49.9417147
0
LINE
8
DEFAULT_255_2_778
10
11.8740325
20
49.9417147
11
10.9326325
21
49.9417147
0
LINE
8
DEFAULT_255_2_778
10
10.9326325
20
49.9417147
11
10.9326325
21
49.3464147
0
LINE
8
DEFAULT_255_2_778
10
10.9326325
20
49.3464147
11
12.0417325
21
49.3464147
0
LINE
8
DEFAULT_255_2_778
10
12.0417325
20
49.3464147
11
12.0417325
21
48.8661147
0
LINE
8
DEFAULT_255_2_778
10
12.0417325
20
48.8661147
11
10.2814325
21
48.8677147
0
LINE
8
DEFAULT_255_2_778
10
12.4822325
20
48.8677147
11
12.4822325
21
51.3752147
0
LINE
8
DEFAULT_255_2_778
10
12.4822325
20
51.3752147
11
13.3580325
21
51.3752147
0
LINE
8
DEFAULT_255_2_778
10
13.3580325
20
51.3752147
11
13.9676325
21
49.7729147
0
LINE
8
DEFAULT_255_2_778
10
13.9676325
20
49.7729147
11
14.5902325
21
51.3752147
0
LINE
8
DEFAULT_255_2_778
10
14.5902325
20
51.3752147
11
15.4220325
21
51.3752147
0
LINE
8
DEFAULT_255_2_778
10
15.4220325
20
51.3752147
11
15.4220325
21
48.8677147
0
LINE
8
DEFAULT_255_2_778
10
15.4220325
20
48.8677147
11
14.7817325
21
48.8677147
0
LINE
8
DEFAULT_255_2_778
10
14.7817325
20
48.8677147
11
14.7817325
21
50.6436147
0
LINE
8
DEFAULT_255_2_778
10
14.7817325
20
50.6436147
11
14.0729325
21
48.8434147
0
LINE
8
DEFAULT_255_2_778
10
14.0729325
20
48.8434147
11
13.6520325
21
48.8434147
0
LINE
8
DEFAULT_255_2_778
10
13.6520325
20
48.8434147
11
12.9564325
21
50.6436147
0
LINE
8
DEFAULT_255_2_778
10
12.9564325
20
50.6436147
11
12.9564325
21
48.8675147
0
LINE
8
DEFAULT_255_2_778
10
12.9564325
20
48.8675147
11
12.4822325
21
48.8677147
0
LINE
8
DEFAULT_255_2_778
10
16.0414325
20
48.8677147
11
16.0414325
21
51.3752147
0
LINE
8
DEFAULT_255_2_778
10
16.0414325
20
51.3752147
11
17.7736325
21
51.3752147
0
LINE
8
DEFAULT_255_2_778
10
17.7736325
20
51.3752147
11
17.7736325
21
50.9214147
0
LINE
8
DEFAULT_255_2_778
10
17.7736325
20
50.9214147
11
16.6926325
21
50.9214147
0
LINE
8
DEFAULT_255_2_778
10
16.6926325
20
50.9214147
11
16.6926325
21
50.3552147
0
LINE
8
DEFAULT_255_2_778
10
16.6926325
20
50.3552147
11
17.6339325
21
50.3552147
0
LINE
8
DEFAULT_255_2_778
10
17.6339325
20
50.3552147
11
17.6339325
21
49.9417147
0
LINE
8
DEFAULT_255_2_778
10
17.6339325
20
49.9417147
11
16.6926325
21
49.9417147
0
LINE
8
DEFAULT_255_2_778
10
16.6926325
20
49.9417147
11
16.6926325
21
49.3464147
0
LINE
8
DEFAULT_255_2_778
10
16.6926325
20
49.3464147
11
17.8035325
21
49.3464147
0
LINE
8
DEFAULT_255_2_778
10
17.8035325
20
49.3464147
11
17.8035325
21
48.8661147
0
LINE
8
DEFAULT_255_2_778
10
17.8035325
20
48.8661147
11
16.0414325
21
48.8677147
0
LINE
8
DEFAULT_255_2_778
10
18.2459325
20
48.8677147
11
18.2459325
21
51.3752147
0
LINE
8
DEFAULT_255_2_778
10
18.2459325
20
51.3752147
11
19.0288325
21
51.3752147
0
LINE
8
DEFAULT_255_2_778
10
19.0288325
20
51.3752147
11
19.8591325
21
49.6964147
0
LINE
8
DEFAULT_255_2_778
10
19.8591325
20
49.6964147
11
19.8591325
21
51.3752147
0
LINE
8
DEFAULT_255_2_778
10
19.8591325
20
51.3752147
11
20.3348325
21
51.3752147
0
LINE
8
DEFAULT_255_2_778
10
20.3348325
20
51.3752147
11
20.3348325
21
48.8677147
0
LINE
8
DEFAULT_255_2_778
10
20.3348325
20
48.8677147
11
19.5744325
21
48.8677147
0
LINE
8
DEFAULT_255_2_778
10
19.5744325
20
48.8677147
11
18.7219325
21
50.5690147
0
LINE
8
DEFAULT_255_2_778
10
18.7219325
20
50.5690147
11
18.7219325
21
48.8677147
0
LINE
8
DEFAULT_255_2_778
10
18.7219325
20
48.8677147
11
18.2459325
21
48.8677147
0
LINE
8
DEFAULT_255_2_778
10
20.8148325
20
48.9082147
11
20.8148325
21
49.4030147
0
LINE
8
DEFAULT_255_2_778
10
22.3747325
20
51.3384147
11
22.4345325
21
51.3278147
0
LINE
8
DEFAULT_255_2_778
10
22.4345325
20
51.3278147
11
22.4345325
21
50.8516147
0
LINE
8
DEFAULT_255_2_778
10
20.8126325
20
48.9085147
11
20.8148325
21
48.9082147
0
LINE
8
DEFAULT_255_1_234
10
12.1272489
20
47.4816211
11
12.1272489
21
46.4382983
0
LINE
8
DEFAULT_255_1_234
10
12.1272489
20
46.4382983
11
12.6814389
21
46.4382983
0
LINE
8
DEFAULT_255_1_234
10
12.6814389
20
46.4382983
11
12.6814389
21
46.3122
0
LINE
8
DEFAULT_255_1_234
10
12.6814389
20
46.3122
11
11.9722364
21
46.3122
0
LINE
8
DEFAULT_255_1_234
10
11.9722364
20
46.3122
11
11.9722364
21
47.4816211
0
LINE
8
DEFAULT_255_1_234
10
11.9722364
20
47.4816211
11
12.1272489
21
47.4816211
0
LINE
8
DEFAULT_255_1_234
10
13.7046823
20
46.9330534
11
13.7046823
21
46.8591614
0
LINE
8
DEFAULT_255_1_234
10
12.7641658
20
46.8487201
11
12.7641658
21
46.9330534
0
LINE
8
DEFAULT_255_1_234
10
13.5512761
20
46.8479169
11
13.5512761
21
46.9346597
0
LINE
8
DEFAULT_255_1_234
10
12.917572
20
46.945101
11
12.917572
21
46.8591614
0
ARC
8
DEFAULT_255_1_234
10
12.840485
20
46.8552015
40
0.8642064
50
350.487711
51
0.2625388
0
ARC
8
DEFAULT_255_1_234
10
13.0698091
20
46.8157578
40
0.631518
50
336.0277639
51
350.5787438
0
ARC
8
DEFAULT_255_1_234
10
13.2042914
20
46.7549892
40
0.4839466
50
319.8877444
51
336.1328423
0
ARC
8
DEFAULT_255_1_234
10
13.2645555
20
46.706758
40
0.4067874
50
302.4806467
51
319.6143626
0
ARC
8
DEFAULT_255_1_234
10
13.2530566
20
46.7289202
40
0.4316636
50
275.8195682
51
302.1884709
0
ARC
8
DEFAULT_255_1_234
10
13.2364199
20
46.8431665
40
0.5470306
50
269.9171439
51
276.3397983
0
ARC
8
DEFAULT_255_1_234
10
13.2319409
20
46.7745681
40
0.4784458
50
252.5219675
51
270.4416499
0
ARC
8
DEFAULT_255_1_234
10
13.2175668
20
46.7206592
40
0.422716
50
237.5352116
51
252.1857531
0
ARC
8
DEFAULT_255_1_234
10
13.2264863
20
46.7320363
40
0.4371052
50
209.063312
51
237.3492538
0
ARC
8
DEFAULT_255_1_234
10
13.3134711
20
46.7866685
40
0.5397041
50
205.1183774
51
209.6470015
0
ARC
8
DEFAULT_255_1_234
10
13.3931748
20
46.820483
40
0.6262326
50
188.7215458
51
204.8240747
0
ARC
8
DEFAULT_255_1_234
10
13.5929277
20
46.8541067
40
0.8287794
50
180.3723947
51
188.9252049
0
ARC
8
DEFAULT_255_1_234
10
13.5902028
20
46.9370402
40
0.8260467
50
169.5253763
51
180.2765336
0
ARC
8
DEFAULT_255_1_234
10
13.3999477
20
46.9720309
40
0.6326007
50
155.8315255
51
169.5089989
0
ARC
8
DEFAULT_255_1_234
10
13.2718978
20
47.0314348
40
0.4914567
50
139.6258461
51
156.0379525
0
ARC
8
DEFAULT_255_1_234
10
13.2129312
20
47.0788799
40
0.4158054
50
122.6416387
51
139.3430715
0
ARC
8
DEFAULT_255_1_234
10
13.2229931
20
47.0605451
40
0.4366739
50
93.0223692
51
122.455762
0
ARC
8
DEFAULT_255_1_234
10
13.2337928
20
46.9640709
40
0.5336137
50
89.975342
51
93.6341897
0
ARC
8
DEFAULT_255_1_234
10
13.2376708
20
47.0039242
40
0.4937738
50
73.746375
51
90.4233405
0
ARC
8
DEFAULT_255_1_234
10
13.2552286
20
47.0719287
40
0.4235786
50
57.662753
51
73.4518111
0
ARC
8
DEFAULT_255_1_234
10
13.2544292
20
47.0740832
40
0.4221899
50
29.1440151
51
57.414694
0
ARC
8
DEFAULT_255_1_234
10
13.1609487
20
47.0157005
40
0.5322966
50
24.0982783
51
29.7323517
0
ARC
8
DEFAULT_255_1_234
10
13.0575762
20
46.9728399
40
0.6441673
50
8.6655297
51
23.8241346
0
ARC
8
DEFAULT_255_1_234
10
12.8341501
20
46.9363854
40
0.8705386
50
359.7806941
51
8.8218784
0
ARC
8
DEFAULT_255_1_234
10
12.7194499
20
46.9389345
40
0.8318373
50
359.7055579
51
8.036044
0
ARC
8
DEFAULT_255_1_234
10
13.0194505
20
46.9826239
40
0.5286768
50
7.8928306
51
20.2962107
0
ARC
8
DEFAULT_255_1_234
10
13.1822075
20
47.0426395
40
0.3552073
50
20.3231126
51
36.4992797
0
ARC
8
DEFAULT_255_1_234
10
13.2507621
20
47.0954402
40
0.2686974
50
36.1437156
51
85.6627023
0
ARC
8
DEFAULT_255_1_234
10
13.2345167
20
46.9914221
40
0.373739
50
84.3852322
51
90.0757696
0
ARC
8
DEFAULT_255_1_234
10
13.2302839
20
47.0574839
40
0.3076997
50
89.3038458
51
109.9045693
0
ARC
8
DEFAULT_255_1_234
10
13.221023
20
47.0957062
40
0.2686424
50
110.8228367
51
143.9179474
0
ARC
8
DEFAULT_255_1_234
10
13.3143891
20
47.0244236
40
0.3860887
50
143.5289163
51
163.2980757
0
ARC
8
DEFAULT_255_1_234
10
13.5051712
20
46.9644433
40
0.5860659
50
163.0418846
51
174.3140048
0
ARC
8
DEFAULT_255_1_234
10
13.7455824
20
46.9366854
40
0.8280531
50
174.0509143
51
179.4176892
0
ARC
8
DEFAULT_255_1_234
10
13.6951562
20
46.8549954
40
0.7775954
50
179.6930361
51
188.7906598
0
ARC
8
DEFAULT_255_1_234
10
13.4288041
20
46.8123935
40
0.5078633
50
188.6331305
51
202.5629587
0
ARC
8
DEFAULT_255_1_234
10
13.3033633
20
46.7619996
40
0.3726913
50
202.8081362
51
216.1193925
0
ARC
8
DEFAULT_255_1_234
10
13.2224204
20
46.6968676
40
0.2689577
50
215.0755913
51
264.6379694
0
ARC
8
DEFAULT_255_1_234
10
13.2351153
20
46.7799513
40
0.3528978
50
263.846392
51
270.0833719
0
ARC
8
DEFAULT_255_1_234
10
13.2392543
20
46.7541374
40
0.3271036
50
269.3649385
51
287.5152008
0
ARC
8
DEFAULT_255_1_234
10
13.2570701
20
46.6894238
40
0.2600406
50
288.0630309
51
323.8113348
0
ARC
8
DEFAULT_255_1_234
10
13.1699543
20
46.7544049
40
0.3687189
50
323.6547608
51
342.6590488
0
ARC
8
DEFAULT_255_1_234
10
12.9668158
20
46.8204952
40
0.5823286
50
342.4091907
51
353.6451149
0
ARC
8
DEFAULT_255_1_234
10
12.6836669
20
46.855719
40
0.8676442
50
353.4029884
51
359.4847795
0
LINE
8
DEFAULT_255_1_234
10
14.7994083
20
46.894501
11
14.7994083
21
46.4656062
0
LINE
8
DEFAULT_255_1_234
10
13.8982472
20
46.8406884
11
13.8982472
21
46.9426915
0
LINE
8
DEFAULT_255_1_234
10
14.7994083
20
47.1386659
11
14.6451989
21
47.1386659
0
LINE
8
DEFAULT_255_1_234
10
14.0532598
20
46.9467073
11
14.0532598
21
46.8511296
0
LINE
8
DEFAULT_255_1_234
10
14.6460021
20
46.5065681
11
14.6460021
21
46.7692059
0
LINE
8
DEFAULT_255_1_234
10
14.6460021
20
46.7692059
11
14.3753325
21
46.7692059
0
LINE
8
DEFAULT_255_1_234
10
14.3753325
20
46.7692059
11
14.3753325
21
46.894501
0
LINE
8
DEFAULT_255_1_234
10
14.3753325
20
46.894501
11
14.7994083
21
46.894501
0
ARC
8
DEFAULT_255_1_234
10
14.5162589
20
46.6649396
40
0.3462765
50
295.8437914
51
324.8549609
0
ARC
8
DEFAULT_255_1_234
10
14.4746556
20
46.7402567
40
0.4322211
50
291.5695085
51
296.4549398
0
ARC
8
DEFAULT_255_1_234
10
14.4235808
20
46.8767275
40
0.5779178
50
278.6622409
51
291.3045483
0
ARC
8
DEFAULT_255_1_234
10
14.3896299
20
47.0915408
40
0.7953952
50
270.020006
51
278.7494541
0
ARC
8
DEFAULT_255_1_234
10
14.3858223
20
47.2232036
40
0.927067
50
269.9969998
51
270.2524872
0
ARC
8
DEFAULT_255_1_234
10
14.3819936
20
46.8148589
40
0.5187361
50
253.5786322
51
270.4175299
0
ARC
8
DEFAULT_255_1_234
10
14.3646592
20
46.7477236
40
0.4494451
50
238.8203306
51
253.2788235
0
ARC
8
DEFAULT_255_1_234
10
14.3626965
20
46.7426231
40
0.4440665
50
206.7883783
51
238.6962764
0
ARC
8
DEFAULT_255_1_234
10
14.4400875
20
46.7890405
40
0.5341121
50
206.1129412
51
207.4916643
0
ARC
8
DEFAULT_255_1_234
10
14.499779
20
46.8144488
40
0.5989041
50
188.6921119
51
205.7821245
0
ARC
8
DEFAULT_255_1_234
10
14.6854152
20
46.846023
40
0.7871862
50
180.3882829
51
188.9219216
0
ARC
8
DEFAULT_255_1_234
10
14.8081966
20
46.9483464
40
0.909967
50
170.2024264
51
180.3560651
0
ARC
8
DEFAULT_255_1_234
10
14.4918484
20
47.0049237
40
0.5886083
50
154.2857445
51
170.3893044
0
ARC
8
DEFAULT_255_1_234
10
14.3636687
20
47.063595
40
0.4476743
50
139.8401567
51
153.9332699
0
ARC
8
DEFAULT_255_1_234
10
14.3277423
20
47.0923577
40
0.4016697
50
98.4190291
51
139.6707122
0
ARC
8
DEFAULT_255_1_234
10
14.3656941
20
46.9078328
40
0.5898566
50
89.7659205
51
99.4415478
0
ARC
8
DEFAULT_255_1_234
10
14.3722191
20
46.9143844
40
0.5833147
50
78.0551672
51
90.4042112
0
ARC
8
DEFAULT_255_1_234
10
14.41267
20
47.0962644
40
0.3970055
50
54.6380464
51
78.3339173
0
ARC
8
DEFAULT_255_1_234
10
14.4316756
20
47.1282795
40
0.3599102
50
50.031736
51
54.1558201
0
ARC
8
DEFAULT_255_1_234
10
14.4209544
20
47.1186766
40
0.3741624
50
18.1092409
51
49.7180913
0
ARC
8
DEFAULT_255_1_234
10
14.2752744
20
47.0653089
40
0.5292424
50
7.9672797
51
18.6984571
0
ARC
8
DEFAULT_255_1_234
10
14.2903222
20
47.0776504
40
0.3600838
50
9.7557294
51
27.3215714
0
ARC
8
DEFAULT_255_1_234
10
14.4030694
20
47.1339912
40
0.2340608
50
27.7361077
51
84.5257964
0
ARC
8
DEFAULT_255_1_234
10
14.3703081
20
46.969664
40
0.4011215
50
82.106034
51
90.2001166
0
ARC
8
DEFAULT_255_1_234
10
14.3653298
20
47.0204215
40
0.3503799
50
89.4150119
51
105.5823402
0
ARC
8
DEFAULT_255_1_234
10
14.3396296
20
47.1139867
40
0.2533503
50
105.6678618
51
144.2648758
0
ARC
8
DEFAULT_255_1_234
10
14.4289551
20
47.0504289
40
0.3629787
50
144.3561283
51
162.8564086
0
ARC
8
DEFAULT_255_1_234
10
14.6373461
20
46.9835017
40
0.5818441
50
162.6076014
51
173.6780284
0
ARC
8
DEFAULT_255_1_234
10
14.9434604
20
46.946289
40
0.8902007
50
173.4670142
51
179.9730753
0
ARC
8
DEFAULT_255_1_234
10
14.7526275
20
46.846926
40
0.6993804
50
179.6556203
51
190.0080463
0
ARC
8
DEFAULT_255_1_234
10
14.5210104
20
46.8044375
40
0.4639066
50
189.8116607
51
206.6796816
0
ARC
8
DEFAULT_255_1_234
10
14.4365256
20
46.7650503
40
0.3707421
50
207.1031645
51
217.7074368
0
ARC
8
DEFAULT_255_1_234
10
14.3730945
20
46.7098559
40
0.2868417
50
216.7345547
51
265.6812148
0
ARC
8
DEFAULT_255_1_234
10
14.3861736
20
46.8002855
40
0.3780509
50
264.7366618
51
270.0611241
0
ARC
8
DEFAULT_255_1_234
10
14.3884999
20
47.0843111
40
0.662079
50
269.8335834
51
276.0539546
0
ARC
8
DEFAULT_255_1_234
10
14.4092004
20
46.894156
40
0.4708016
50
275.9894168
51
284.4615085
0
ARC
8
DEFAULT_255_1_234
10
14.4290011
20
46.8108663
40
0.3852094
50
284.7034461
51
286.4953897
0
ARC
8
DEFAULT_255_1_234
10
14.4697024
20
46.6797965
40
0.2479842
50
286.0770838
51
304.2625829
0
ARC
8
DEFAULT_255_1_234
10
14.4830438
20
46.6579594
40
0.2224291
50
304.5891602
51
317.1073298
0
LINE
8
DEFAULT_255_1_234
10
15.9559786
20
46.9330534
11
15.9559786
21
46.8591614
0
LINE
8
DEFAULT_255_1_234
10
15.015462
20
46.8487201
11
15.015462
21
46.9330534
0
LINE
8
DEFAULT_255_1_234
10
15.8025724
20
46.8479169
11
15.8025724
21
46.9346597
0
LINE
8
DEFAULT_255_1_234
10
15.1688682
20
46.945101
11
15.1688682
21
46.8591614
0
ARC
8
DEFAULT_255_1_234
10
15.0917812
20
46.8552015
40
0.8642064
50
350.487711
51
0.2625388
0
ARC
8
DEFAULT_255_1_234
10
15.3211053
20
46.8157578
40
0.631518
50
336.0277639
51
350.5787438
0
ARC
8
DEFAULT_255_1_234
10
15.4555877
20
46.7549892
40
0.4839466
50
319.8877444
51
336.1328423
0
ARC
8
DEFAULT_255_1_234
10
15.5158518
20
46.706758
40
0.4067874
50
302.4806467
51
319.6143626
0
ARC
8
DEFAULT_255_1_234
10
15.5043528
20
46.7289202
40
0.4316636
50
275.8195682
51
302.1884709
0
ARC
8
DEFAULT_255_1_234
10
15.4877161
20
46.8431665
40
0.5470306
50
269.9171439
51
276.3397983
0
ARC
8
DEFAULT_255_1_234
10
15.4832371
20
46.7745681
40
0.4784458
50
252.5219675
51
270.4416499
0
ARC
8
DEFAULT_255_1_234
10
15.468863
20
46.7206592
40
0.422716
50
237.5352116
51
252.1857531
0
ARC
8
DEFAULT_255_1_234
10
15.4777826
20
46.7320363
40
0.4371052
50
209.063312
51
237.3492538
0
ARC
8
DEFAULT_255_1_234
10
15.5647674
20
46.7866685
40
0.5397041
50
205.1183774
51
209.6470015
0
ARC
8
DEFAULT_255_1_234
10
15.6444711
20
46.820483
40
0.6262326
50
188.7215458
51
204.8240747
0
ARC
8
DEFAULT_255_1_234
10
15.8442239
20
46.8541067
40
0.8287794
50
180.3723947
51
188.9252049
0
ARC
8
DEFAULT_255_1_234
10
15.8414991
20
46.9370402
40
0.8260467
50
169.5253763
51
180.2765336
0
ARC
8
DEFAULT_255_1_234
10
15.6512439
20
46.9720309
40
0.6326007
50
155.8315255
51
169.5089989
0
ARC
8
DEFAULT_255_1_234
10
15.5231941
20
47.0314348
40
0.4914567
50
139.6258461
51
156.0379525
0
ARC
8
DEFAULT_255_1_234
10
15.4642274
20
47.0788799
40
0.4158054
50
122.6416387
51
139.3430715
0
ARC
8
DEFAULT_255_1_234
10
15.4742894
20
47.0605451
40
0.4366739
50
93.0223692
51
122.455762
0
ARC
8
DEFAULT_255_1_234
10
15.4850891
20
46.9640709
40
0.5336137
50
89.975342
51
93.6341897
0
ARC
8
DEFAULT_255_1_234
10
15.488967
20
47.0039242
40
0.4937738
50
73.746375
51
90.4233405
0
ARC
8
DEFAULT_255_1_234
10
15.5065248
20
47.0719287
40
0.4235786
50
57.662753
51
73.4518111
0
ARC
8
DEFAULT_255_1_234
10
15.5057255
20
47.0740832
40
0.4221899
50
29.1440151
51
57.414694
0
ARC
8
DEFAULT_255_1_234
10
15.4122449
20
47.0157005
40
0.5322966
50
24.0982783
51
29.7323517
0
ARC
8
DEFAULT_255_1_234
10
15.3088725
20
46.9728399
40
0.6441673
50
8.6655297
51
23.8241346
0
ARC
8
DEFAULT_255_1_234
10
15.0854463
20
46.9363854
40
0.8705386
50
359.7806941
51
8.8218784
0
ARC
8
DEFAULT_255_1_234
10
14.9707461
20
46.9389345
40
0.8318373
50
359.7055579
51
8.036044
0
ARC
8
DEFAULT_255_1_234
10
15.2707467
20
46.9826239
40
0.5286768
50
7.8928306
51
20.2962107
0
ARC
8
DEFAULT_255_1_234
10
15.4335037
20
47.0426395
40
0.3552073
50
20.3231126
51
36.4992797
0
ARC
8
DEFAULT_255_1_234
10
15.5020583
20
47.0954402
40
0.2686974
50
36.1437156
51
85.6627023
0
ARC
8
DEFAULT_255_1_234
10
15.4858129
20
46.9914221
40
0.373739
50
84.3852322
51
90.0757696
0
ARC
8
DEFAULT_255_1_234
10
15.4815802
20
47.0574839
40
0.3076997
50
89.3038458
51
109.9045693
0
ARC
8
DEFAULT_255_1_234
10
15.4723193
20
47.0957062
40
0.2686424
50
110.8228367
51
143.9179474
0
ARC
8
DEFAULT_255_1_234
10
15.5656853
20
47.0244236
40
0.3860887
50
143.5289163
51
163.2980757
0
ARC
8
DEFAULT_255_1_234
10
15.7564674
20
46.9644433
40
0.5860659
50
163.0418846
51
174.3140048
0
ARC
8
DEFAULT_255_1_234
10
15.9968786
20
46.9366854
40
0.8280531
50
174.0509143
51
179.4176892
0
ARC
8
DEFAULT_255_1_234
10
15.9464525
20
46.8549954
40
0.7775954
50
179.6930361
51
188.7906598
0
ARC
8
DEFAULT_255_1_234
10
15.6801004
20
46.8123935
40
0.5078633
50
188.6331305
51
202.5629587
0
ARC
8
DEFAULT_255_1_234
10
15.5546596
20
46.7619996
40
0.3726913
50
202.8081362
51
216.1193925
0
ARC
8
DEFAULT_255_1_234
10
15.4737166
20
46.6968676
40
0.2689577
50
215.0755913
51
264.6379694
0
ARC
8
DEFAULT_255_1_234
10
15.4864115
20
46.7799513
40
0.3528978
50
263.846392
51
270.0833719
0
ARC
8
DEFAULT_255_1_234
10
15.4905506
20
46.7541374
40
0.3271036
50
269.3649385
51
287.5152008
0
ARC
8
DEFAULT_255_1_234
10
15.5083663
20
46.6894238
40
0.2600406
50
288.0630309
51
323.8113348
0
ARC
8
DEFAULT_255_1_234
10
15.4212505
20
46.7544049
40
0.3687189
50
323.6547608
51
342.6590488
0
ARC
8
DEFAULT_255_1_234
10
15.218112
20
46.8204952
40
0.5823286
50
342.4091907
51
353.6451149
0
ARC
8
DEFAULT_255_1_234
10
14.9349631
20
46.855719
40
0.8676442
50
353.4029884
51
359.4847795
0
LINE
8
DEFAULT_255_1_234
10
16.341502
20
47.4816211
11
16.3302576
21
46.6423044
0
LINE
8
DEFAULT_255_1_234
10
16.3302576
20
46.6423044
11
16.1961275
21
46.6423044
0
LINE
8
DEFAULT_255_1_234
10
16.1961275
20
46.6423044
11
16.1856863
21
47.4816211
0
LINE
8
DEFAULT_255_1_234
10
16.1856863
20
47.4816211
11
16.341502
21
47.4816211
0
ARC
8
DEFAULT_255_1_234
10
16.2777289
20
46.3878156
40
0.0976691
50
162.1584895
51
180.5399622
0
ARC
8
DEFAULT_255_1_234
10
16.2635718
20
46.3917022
40
0.0830046
50
137.728464
51
161.7182334
0
ARC
8
DEFAULT_255_1_234
10
16.2540217
20
46.4000242
40
0.0703406
50
105.057597
51
137.5118876
0
ARC
8
DEFAULT_255_1_234
10
16.2650566
20
46.3628557
40
0.1091042
50
92.0805836
51
105.5827737
0
ARC
8
DEFAULT_255_1_234
10
16.2675453
20
46.3269307
40
0.1451008
50
89.9744466
51
92.5476359
0
ARC
8
DEFAULT_255_1_234
10
16.2685541
20
46.3497095
40
0.1223258
50
78.2146798
51
90.4421891
0
ARC
8
DEFAULT_255_1_234
10
16.2778019
20
46.3920168
40
0.0790225
50
56.0837456
51
78.5132969
0
ARC
8
DEFAULT_255_1_234
10
16.2834256
20
46.4016385
40
0.0679038
50
42.5241188
51
55.4914579
0
ARC
8
DEFAULT_255_1_234
10
16.2710253
20
46.3901587
40
0.0848021
50
2.397718
51
42.5776288
0
ARC
8
DEFAULT_255_1_234
10
16.2449158
20
46.3869488
40
0.1110431
50
359.9723047
51
3.4889367
0
ARC
8
DEFAULT_255_1_234
10
16.260622
20
46.3859914
40
0.0953415
50
342.7087048
51
0.5431316
0
ARC
8
DEFAULT_255_1_234
10
16.2764655
20
46.3816415
40
0.078923
50
316.2433759
51
342.3051481
0
ARC
8
DEFAULT_255_1_234
10
16.2817921
20
46.3769433
40
0.0718269
50
285.532829
51
316.0116862
0
ARC
8
DEFAULT_255_1_234
10
16.2705751
20
46.413961
40
0.1105001
50
272.5953665
51
285.9965648
0
ARC
8
DEFAULT_255_1_234
10
16.2676951
20
46.4518567
40
0.1484917
50
269.9671508
51
273.0433633
0
ARC
8
DEFAULT_255_1_234
10
16.2667036
20
46.4300848
40
0.126723
50
259.0265948
51
270.4098411
0
ARC
8
DEFAULT_255_1_234
10
16.2576835
20
46.3855941
40
0.0813296
50
239.413751
51
259.2986253
0
ARC
8
DEFAULT_255_1_234
10
16.2503669
20
46.3720327
40
0.065935
50
223.0077841
51
238.8907076
0
ARC
8
DEFAULT_255_1_234
10
16.2618621
20
46.3825716
40
0.0815295
50
184.7848311
51
222.9135279
0
ARC
8
DEFAULT_255_1_234
10
16.2893995
20
46.3867526
40
0.1093355
50
179.925276
51
185.7644975
0
LINE
8
DEFAULT_255_1_234
10
4.2446489
20
45.4973211
11
4.2446489
21
44.4539983
0
LINE
8
DEFAULT_255_1_234
10
4.2446489
20
44.4539983
11
4.7988389
21
44.4539983
0
LINE
8
DEFAULT_255_1_234
10
4.7988389
20
44.4539983
11
4.7988389
21
44.3279
0
LINE
8
DEFAULT_255_1_234
10
4.7988389
20
44.3279
11
4.0896364
21
44.3279
0
LINE
8
DEFAULT_255_1_234
10
4.0896364
20
44.3279
11
4.0896364
21
45.4973211
0
LINE
8
DEFAULT_255_1_234
10
4.0896364
20
45.4973211
11
4.2446489
21
45.4973211
0
LINE
8
DEFAULT_255_1_234
10
5.377124
20
45.2965276
11
5.377124
21
44.9551788
0
LINE
8
DEFAULT_255_1_234
10
5.377124
20
44.9551788
11
5.7032126
21
44.9551788
0
LINE
8
DEFAULT_255_1_234
10
5.7032126
20
44.9551788
11
5.7032126
21
44.8146233
0
LINE
8
DEFAULT_255_1_234
10
5.7032126
20
44.8146233
11
5.377124
21
44.8146233
0
LINE
8
DEFAULT_255_1_234
10
5.377124
20
44.8146233
11
5.377124
21
44.4451634
0
LINE
8
DEFAULT_255_1_234
10
5.377124
20
44.4451634
11
5.2277337
21
44.4451634
0
LINE
8
DEFAULT_255_1_234
10
5.2277337
20
44.4451634
11
5.2277337
21
44.8146233
0
LINE
8
DEFAULT_255_1_234
10
5.2277337
20
44.8146233
11
4.9016451
21
44.8146233
0
LINE
8
DEFAULT_255_1_234
10
4.9016451
20
44.8146233
11
4.9016451
21
44.9551788
0
LINE
8
DEFAULT_255_1_234
10
4.9016451
20
44.9551788
11
5.2277337
21
44.9551788
0
LINE
8
DEFAULT_255_1_234
10
5.2277337
20
44.9551788
11
5.2277337
21
45.2965276
0
LINE
8
DEFAULT_255_1_234
10
5.2277337
20
45.2965276
11
5.377124
21
45.2965276
0
LINE
8
DEFAULT_255_1_234
10
5.0753482
20
36.972701
11
5.0753482
21
36.5438062
0
LINE
8
DEFAULT_255_1_234
10
4.1741872
20
36.9188884
11
4.1741872
21
37.0208915
0
LINE
8
DEFAULT_255_1_234
10
5.0753482
20
37.2168659
11
4.9211389
21
37.2168659
0
LINE
8
DEFAULT_255_1_234
10
4.3291998
20
37.0249073
11
4.3291998
21
36.9293296
0
LINE
8
DEFAULT_255_1_234
10
4.921942
20
36.5847681
11
4.921942
21
36.8474059
0
LINE
8
DEFAULT_255_1_234
10
4.921942
20
36.8474059
11
4.6512725
21
36.8474059
0
LINE
8
DEFAULT_255_1_234
10
4.6512725
20
36.8474059
11
4.6512725
21
36.972701
0
LINE
8
DEFAULT_255_1_234
10
4.6512725
20
36.972701
11
5.0753482
21
36.972701
0
ARC
8
DEFAULT_255_1_234
10
4.7921989
20
36.7431396
40
0.3462765
50
295.8437914
51
324.8549609
0
ARC
8
DEFAULT_255_1_234
10
4.7505956
20
36.8184567
40
0.4322211
50
291.5695085
51
296.4549398
0
ARC
8
DEFAULT_255_1_234
10
4.6995207
20
36.9549275
40
0.5779178
50
278.6622409
51
291.3045483
0
ARC
8
DEFAULT_255_1_234
10
4.6655699
20
37.1697408
40
0.7953952
50
270.020006
51
278.7494541
0
ARC
8
DEFAULT_255_1_234
10
4.6617623
20
37.3014036
40
0.927067
50
269.9969998
51
270.2524872
0
ARC
8
DEFAULT_255_1_234
10
4.6579336
20
36.8930589
40
0.5187361
50
253.5786322
51
270.4175299
0
ARC
8
DEFAULT_255_1_234
10
4.6405992
20
36.8259236
40
0.4494451
50
238.8203306
51
253.2788235
0
ARC
8
DEFAULT_255_1_234
10
4.6386365
20
36.8208231
40
0.4440665
50
206.7883783
51
238.6962764
0
ARC
8
DEFAULT_255_1_234
10
4.7160275
20
36.8672405
40
0.5341121
50
206.1129412
51
207.4916643
0
ARC
8
DEFAULT_255_1_234
10
4.775719
20
36.8926488
40
0.5989041
50
188.6921119
51
205.7821245
0
ARC
8
DEFAULT_255_1_234
10
4.9613552
20
36.924223
40
0.7871862
50
180.3882829
51
188.9219216
0
ARC
8
DEFAULT_255_1_234
10
5.0841366
20
37.0265464
40
0.909967
50
170.2024264
51
180.3560651
0
ARC
8
DEFAULT_255_1_234
10
4.7677884
20
37.0831237
40
0.5886083
50
154.2857445
51
170.3893044
0
ARC
8
DEFAULT_255_1_234
10
4.6396087
20
37.141795
40
0.4476743
50
139.8401567
51
153.9332699
0
ARC
8
DEFAULT_255_1_234
10
4.6036823
20
37.1705577
40
0.4016697
50
98.4190291
51
139.6707122
0
ARC
8
DEFAULT_255_1_234
10
4.6416341
20
36.9860328
40
0.5898566
50
89.7659205
51
99.4415478
0
ARC
8
DEFAULT_255_1_234
10
4.648159
20
36.9925844
40
0.5833147
50
78.0551672
51
90.4042112
0
ARC
8
DEFAULT_255_1_234
10
4.68861
20
37.1744644
40
0.3970055
50
54.6380464
51
78.3339173
0
ARC
8
DEFAULT_255_1_234
10
4.7076156
20
37.2064795
40
0.3599102
50
50.031736
51
54.1558201
0
ARC
8
DEFAULT_255_1_234
10
4.6968944
20
37.1968766
40
0.3741624
50
18.1092409
51
49.7180913
0
ARC
8
DEFAULT_255_1_234
10
4.5512144
20
37.1435089
40
0.5292424
50
7.9672797
51
18.6984571
0
ARC
8
DEFAULT_255_1_234
10
4.5662622
20
37.1558504
40
0.3600838
50
9.7557294
51
27.3215714
0
ARC
8
DEFAULT_255_1_234
10
4.6790094
20
37.2121912
40
0.2340608
50
27.7361077
51
84.5257964
0
ARC
8
DEFAULT_255_1_234
10
4.6462481
20
37.047864
40
0.4011215
50
82.106034
51
90.2001166
0
ARC
8
DEFAULT_255_1_234
10
4.6412698
20
37.0986215
40
0.3503799
50
89.4150119
51
105.5823402
0
ARC
8
DEFAULT_255_1_234
10
4.6155696
20
37.1921867
40
0.2533503
50
105.6678618
51
144.2648758
0
ARC
8
DEFAULT_255_1_234
10
4.7048951
20
37.1286289
40
0.3629787
50
144.3561283
51
162.8564086
0
ARC
8
DEFAULT_255_1_234
10
4.913286
20
37.0617017
40
0.5818441
50
162.6076014
51
173.6780284
0
ARC
8
DEFAULT_255_1_234
10
5.2194004
20
37.024489
40
0.8902007
50
173.4670142
51
179.9730753
0
ARC
8
DEFAULT_255_1_234
10
5.0285675
20
36.925126
40
0.6993804
50
179.6556203
51
190.0080463
0
ARC
8
DEFAULT_255_1_234
10
4.7969504
20
36.8826375
40
0.4639066
50
189.8116607
51
206.6796816
0
ARC
8
DEFAULT_255_1_234
10
4.7124656
20
36.8432503
40
0.3707421
50
207.1031645
51
217.7074368
0
ARC
8
DEFAULT_255_1_234
10
4.6490345
20
36.7880559
40
0.2868417
50
216.7345547
51
265.6812148
0
ARC
8
DEFAULT_255_1_234
10
4.6621136
20
36.8784855
40
0.3780509
50
264.7366618
51
270.0611241
0
ARC
8
DEFAULT_255_1_234
10
4.6644399
20
37.1625111
40
0.662079
50
269.8335834
51
276.0539546
0
ARC
8
DEFAULT_255_1_234
10
4.6851404
20
36.972356
40
0.4708016
50
275.9894168
51
284.4615085
0
ARC
8
DEFAULT_255_1_234
10
4.7049411
20
36.8890663
40
0.3852094
50
284.7034461
51
286.4953897
0
ARC
8
DEFAULT_255_1_234
10
4.7456424
20
36.7579965
40
0.2479842
50
286.0770838
51
304.2625829
0
ARC
8
DEFAULT_255_1_234
10
4.7589838
20
36.7361594
40
0.2224291
50
304.5891602
51
317.1073298
0
LINE
8
DEFAULT_255_1_234
10
6.2311154
20
37.5598211
11
6.2311154
21
36.3904
0
LINE
8
DEFAULT_255_1_234
10
6.2311154
20
36.3904
11
6.0761028
21
36.3904
0
LINE
8
DEFAULT_255_1_234
10
6.0761028
20
36.3904
11
5.4873764
21
37.291561
0
LINE
8
DEFAULT_255_1_234
10
5.4873764
20
37.291561
11
5.4873764
21
36.3904
0
LINE
8
DEFAULT_255_1_234
10
5.4873764
20
36.3904
11
5.3323639
21
36.3904
0
LINE
8
DEFAULT_255_1_234
10
5.3323639
20
36.3904
11
5.3323639
21
37.5598211
0
LINE
8
DEFAULT_255_1_234
10
5.3323639
20
37.5598211
11
5.4873764
21
37.5598211
0
LINE
8
DEFAULT_255_1_234
10
5.4873764
20
37.5598211
11
6.0777092
21
36.6546442
0
LINE
8
DEFAULT_255_1_234
10
6.0777092
20
36.6546442
11
6.0777092
21
37.5598211
0
LINE
8
DEFAULT_255_1_234
10
6.0777092
20
37.5598211
11
6.2311154
21
37.5598211
0
LINE
8
DEFAULT_255_1_234
10
6.8286767
20
36.3904
11
6.5049977
21
36.3904
0
LINE
8
DEFAULT_255_1_234
10
6.5049977
20
36.3904
11
6.5049977
21
37.5598211
0
LINE
8
DEFAULT_255_1_234
10
6.5049977
20
37.5598211
11
6.8351021
21
37.5598211
0
LINE
8
DEFAULT_255_1_234
10
7.3507397
20
37.0144661
11
7.3507397
21
36.9397709
0
LINE
8
DEFAULT_255_1_234
10
6.839118
20
37.4329196
11
6.659207
21
37.4329196
0
LINE
8
DEFAULT_255_1_234
10
6.659207
20
37.4329196
11
6.659207
21
36.5164983
0
LINE
8
DEFAULT_255_1_234
10
6.659207
20
36.5164983
11
6.8214481
21
36.5164983
0
LINE
8
DEFAULT_255_1_234
10
7.1981367
20
36.9429836
11
7.1981367
21
37.0112534
0
ARC
8
DEFAULT_255_1_234
10
6.8389963
20
36.9732894
40
0.5865446
50
75.4101064
51
90.3804066
0
ARC
8
DEFAULT_255_1_234
10
6.8619477
20
37.0689492
40
0.4881916
50
60.145586
51
75.1888407
0
ARC
8
DEFAULT_255_1_234
10
6.8778252
20
37.0966199
40
0.4562893
50
26.5253612
51
60.1450928
0
ARC
8
DEFAULT_255_1_234
10
6.7658002
20
37.0372158
40
0.5830602
50
7.4030428
51
26.8320788
0
ARC
8
DEFAULT_255_1_234
10
6.6063758
20
37.0123804
40
0.7443669
50
0.1605367
51
7.7176192
0
ARC
8
DEFAULT_255_1_234
10
6.6227663
20
36.9359434
40
0.7279835
50
348.7289388
51
0.3012466
0
ARC
8
DEFAULT_255_1_234
10
6.7884093
20
36.9030386
40
0.559104
50
333.0706509
51
348.7181832
0
ARC
8
DEFAULT_255_1_234
10
6.8850851
20
36.8505319
40
0.4491417
50
299.2531685
51
333.4571258
0
ARC
8
DEFAULT_255_1_234
10
6.8489991
20
36.9190828
40
0.5265881
50
278.107187
51
299.0339503
0
ARC
8
DEFAULT_255_1_234
10
6.823407
20
37.0698216
40
0.679442
50
270.4443897
51
278.4511052
0
ARC
8
DEFAULT_255_1_234
10
6.82549
20
36.9769213
40
0.4604407
50
269.4970433
51
284.0205042
0
ARC
8
DEFAULT_255_1_234
10
6.8610201
20
36.8403978
40
0.3193797
50
283.7700273
51
318.1555492
0
ARC
8
DEFAULT_255_1_234
10
6.8272959
20
36.8656367
40
0.3613588
50
318.7415601
51
343.6873628
0
ARC
8
DEFAULT_255_1_234
10
6.6468982
20
36.9219832
40
0.5503313
50
343.3325091
51
355.8548958
0
ARC
8
DEFAULT_255_1_234
10
6.4370666
20
36.9419319
40
0.7610708
50
355.4988528
51
0.0791727
0
ARC
8
DEFAULT_255_1_234
10
6.5153289
20
37.015478
40
0.6828208
50
359.6455037
51
9.8607896
0
ARC
8
DEFAULT_255_1_234
10
6.7513987
20
37.0581099
40
0.4429406
50
9.6571907
51
26.1932807
0
ARC
8
DEFAULT_255_1_234
10
6.8441975
20
37.1012118
40
0.3406537
50
26.5777228
51
40.1532208
0
ARC
8
DEFAULT_255_1_234
10
6.8697702
20
37.1211619
40
0.308246
50
40.3840491
51
80.1431104
0
ARC
8
DEFAULT_255_1_234
10
6.837082
20
36.9762333
40
0.4566909
50
79.2152159
51
89.7445637
0
LINE
8
DEFAULT_255_1_234
10
23.3181902
20
45.4973211
11
23.3181902
21
44.3279
0
LINE
8
DEFAULT_255_1_234
10
23.3181902
20
44.3279
11
23.1639808
21
44.3279
0
LINE
8
DEFAULT_255_1_234
10
23.1639808
20
44.3279
11
23.1639808
21
45.4973211
0
LINE
8
DEFAULT_255_1_234
10
23.1639808
20
45.4973211
11
23.3181902
21
45.4973211
0
LINE
8
DEFAULT_255_1_234
10
24.0498815
20
45.5029433
11
24.0498815
21
44.3279
0
LINE
8
DEFAULT_255_1_234
10
24.0498815
20
44.3279
11
23.9004912
21
44.3279
0
LINE
8
DEFAULT_255_1_234
10
23.9004912
20
44.3279
11
23.9004912
21
45.3182133
0
LINE
8
DEFAULT_255_1_234
10
23.9004912
20
45.3182133
11
23.6009074
21
45.2081785
0
LINE
8
DEFAULT_255_1_234
10
23.6009074
20
45.2081785
11
23.6009074
21
45.3431117
0
LINE
8
DEFAULT_255_1_234
10
23.6009074
20
45.3431117
11
24.0265895
21
45.5029433
0
LINE
8
DEFAULT_255_1_234
10
24.0265895
20
45.5029433
11
24.0498815
21
45.5029433
0
LINE
8
DEFAULT_255_1_234
10
23.3112657
20
5.2620565
11
23.3112657
21
5.1873614
0
LINE
8
DEFAULT_255_1_234
10
23.1064563
20
4.7038507
11
23.3152815
21
4.5400033
0
LINE
8
DEFAULT_255_1_234
10
23.3152815
20
4.5400033
11
23.2100658
21
4.4428192
0
LINE
8
DEFAULT_255_1_234
10
23.2100658
20
4.4428192
11
22.9634914
21
4.6387937
0
LINE
8
DEFAULT_255_1_234
10
22.3699459
20
5.1769201
11
22.3699459
21
5.2612534
0
LINE
8
DEFAULT_255_1_234
10
23.1570563
20
5.1761169
11
23.1570563
21
5.2628597
0
LINE
8
DEFAULT_255_1_234
10
22.5241553
20
5.273301
11
22.5241553
21
5.1873614
0
ARC
8
DEFAULT_255_1_234
10
22.4158909
20
5.1834707
40
0.8953833
50
351.453011
51
0.2489685
0
ARC
8
DEFAULT_255_1_234
10
22.6743709
20
5.1434933
40
0.6338333
50
338.6861641
51
351.5540711
0
ARC
8
DEFAULT_255_1_234
10
22.7677593
20
5.1104828
40
0.5348431
50
336.2887631
51
338.3442418
0
ARC
8
DEFAULT_255_1_234
10
22.8017215
20
5.0918698
40
0.4962747
50
321.1170344
51
336.6795229
0
ARC
8
DEFAULT_255_1_234
10
22.8649044
20
5.0432206
40
0.4165565
50
305.4419708
51
320.8705636
0
ARC
8
DEFAULT_255_1_234
10
22.8452514
20
5.1179707
40
0.4935497
50
271.6373023
51
283.8611969
0
ARC
8
DEFAULT_255_1_234
10
22.8414767
20
5.1835572
40
0.5592206
50
269.9930596
51
271.8318864
0
ARC
8
DEFAULT_255_1_234
10
22.837721
20
5.1027681
40
0.4784458
50
252.5219675
51
270.4416499
0
ARC
8
DEFAULT_255_1_234
10
22.8233469
20
5.0488592
40
0.422716
50
237.5352116
51
252.1857531
0
ARC
8
DEFAULT_255_1_234
10
22.8322665
20
5.0602363
40
0.4371052
50
209.063312
51
237.3492538
0
ARC
8
DEFAULT_255_1_234
10
22.9192513
20
5.1148685
40
0.5397041
50
205.1183774
51
209.6470015
0
ARC
8
DEFAULT_255_1_234
10
22.998955
20
5.148683
40
0.6262326
50
188.7215458
51
204.8240747
0
ARC
8
DEFAULT_255_1_234
10
23.1987078
20
5.1823067
40
0.8287794
50
180.3723947
51
188.9252049
0
ARC
8
DEFAULT_255_1_234
10
23.195983
20
5.2652402
40
0.8260467
50
169.5253763
51
180.2765336
0
ARC
8
DEFAULT_255_1_234
10
23.0057279
20
5.3002309
40
0.6326007
50
155.8315255
51
169.5089989
0
ARC
8
DEFAULT_255_1_234
10
22.877678
20
5.3596348
40
0.4914567
50
139.6258461
51
156.0379525
0
ARC
8
DEFAULT_255_1_234
10
22.8187113
20
5.4070799
40
0.4158054
50
122.6416387
51
139.3430715
0
ARC
8
DEFAULT_255_1_234
10
22.8287733
20
5.3887451
40
0.4366739
50
93.0223692
51
122.455762
0
ARC
8
DEFAULT_255_1_234
10
22.839573
20
5.2922709
40
0.5336137
50
89.975342
51
93.6341897
0
ARC
8
DEFAULT_255_1_234
10
22.8434616
20
5.3302375
40
0.4956606
50
73.9665422
51
90.4229648
0
ARC
8
DEFAULT_255_1_234
10
22.8618263
20
5.4017451
40
0.4218674
50
57.5178019
51
73.6813337
0
ARC
8
DEFAULT_255_1_234
10
22.8574046
20
5.3981462
40
0.4272816
50
28.7261108
51
57.2767933
0
ARC
8
DEFAULT_255_1_234
10
22.7663378
20
5.3418688
40
0.534218
50
24.2448911
51
29.3248482
0
ARC
8
DEFAULT_255_1_234
10
22.6737479
20
5.3035819
40
0.6343711
50
9.064382
51
23.9639114
0
ARC
8
DEFAULT_255_1_234
10
22.4481807
20
5.2656925
40
0.8630926
50
359.7586264
51
9.1891435
0
ARC
8
DEFAULT_255_1_234
10
22.3227287
20
5.2670343
40
0.834338
50
359.7133237
51
7.96545
0
ARC
8
DEFAULT_255_1_234
10
22.6189504
20
5.3097681
40
0.5350538
50
7.8291991
51
20.0421623
0
ARC
8
DEFAULT_255_1_234
10
22.7814067
20
5.3688606
40
0.3621841
50
20.0677553
51
35.9161685
0
ARC
8
DEFAULT_255_1_234
10
22.8589105
20
5.426467
40
0.2656263
50
35.6594382
51
85.1578074
0
ARC
8
DEFAULT_255_1_234
10
22.8404361
20
5.3149378
40
0.3784238
50
83.7959068
51
90.095906
0
ARC
8
DEFAULT_255_1_234
10
22.8361295
20
5.3882601
40
0.3051229
50
89.3102392
51
109.9889877
0
ARC
8
DEFAULT_255_1_234
10
22.8278778
20
5.4238433
40
0.2688988
50
110.9285147
51
143.9411762
0
ARC
8
DEFAULT_255_1_234
10
22.9209724
20
5.3526236
40
0.3860887
50
143.5289163
51
163.2980757
0
ARC
8
DEFAULT_255_1_234
10
23.1117545
20
5.2926433
40
0.5860659
50
163.0418846
51
174.3140048
0
ARC
8
DEFAULT_255_1_234
10
23.3521657
20
5.2648854
40
0.8280531
50
174.0509143
51
179.4176892
0
ARC
8
DEFAULT_255_1_234
10
23.3007992
20
5.1830634
40
0.7766558
50
179.6829237
51
188.9631324
0
ARC
8
DEFAULT_255_1_234
10
23.0337553
20
5.1395752
40
0.5060992
50
188.8100743
51
202.9300012
0
ARC
8
DEFAULT_255_1_234
10
22.9121182
20
5.0900855
40
0.3747967
50
203.2069261
51
215.7876482
0
ARC
8
DEFAULT_255_1_234
10
22.8272579
20
5.0229671
40
0.2667526
50
214.7521006
51
264.2834488
0
ARC
8
DEFAULT_255_1_234
10
22.8408234
20
5.108478
40
0.3532247
50
263.4755397
51
270.0949833
0
ARC
8
DEFAULT_255_1_234
10
22.8450345
20
5.0823374
40
0.3271036
50
269.3649385
51
287.5152008
0
ARC
8
DEFAULT_255_1_234
10
22.8628503
20
5.0176238
40
0.2600406
50
288.0630309
51
323.8113348
0
ARC
8
DEFAULT_255_1_234
10
22.7757345
20
5.0826049
40
0.3687189
50
323.6547608
51
342.6590488
0
ARC
8
DEFAULT_255_1_234
10
22.572596
20
5.1486952
40
0.5823286
50
342.4091907
51
353.6451149
0
ARC
8
DEFAULT_255_1_234
10
22.2894471
20
5.183919
40
0.8676442
50
353.4029884
51
359.4847795
0
LINE
8
DEFAULT_255_1_234
10
24.2766806
20
4.7616792
11
24.2766806
21
4.6404
0
LINE
8
DEFAULT_255_1_234
10
24.2766806
20
4.6404
11
23.5104528
21
4.6404
0
LINE
8
DEFAULT_255_1_234
10
23.5104528
20
4.6404
11
23.5104528
21
4.7472221
0
LINE
8
DEFAULT_255_1_234
10
23.5104528
20
4.7472221
11
23.9152524
21
5.1969995
0
LINE
8
DEFAULT_255_1_234
10
23.6365511
20
5.4652595
11
23.4879639
21
5.4652595
0
LINE
8
DEFAULT_255_1_234
10
24.0027983
20
5.1014218
11
23.6895605
21
4.7616792
0
LINE
8
DEFAULT_255_1_234
10
23.6895605
20
4.7616792
11
24.2766806
21
4.7616792
0
ARC
8
DEFAULT_255_1_234
10
22.5662357
20
6.3899527
40
1.8008286
50
318.5132453
51
320.7828378
0
ARC
8
DEFAULT_255_1_234
10
23.0949332
20
5.9596426
40
1.1191493
50
320.7372736
51
323.9737074
0
ARC
8
DEFAULT_255_1_234
10
23.4869188
20
5.6756361
40
0.6350923
50
323.8961724
51
328.6421089
0
ARC
8
DEFAULT_255_1_234
10
23.6915783
20
5.5494031
40
0.3946393
50
328.8299013
51
331.789948
0
ARC
8
DEFAULT_255_1_234
10
23.7912962
20
5.4979509
40
0.2824501
50
331.4255242
51
352.9364833
0
ARC
8
DEFAULT_255_1_234
10
23.8049463
20
5.4948976
40
0.2685315
50
353.2248685
51
0.0169286
0
ARC
8
DEFAULT_255_1_234
10
23.8259339
20
5.497195
40
0.2475536
50
359.4866256
51
15.9339782
0
ARC
8
DEFAULT_255_1_234
10
23.8766325
20
5.5108286
40
0.1950618
50
16.1714718
51
43.5284424
0
ARC
8
DEFAULT_255_1_234
10
23.8843633
20
5.5185573
40
0.184134
50
43.4415429
51
83.1661404
0
ARC
8
DEFAULT_255_1_234
10
23.8709551
20
5.4448771
40
0.258926
50
82.160215
51
90.1505798
0
ARC
8
DEFAULT_255_1_234
10
23.8677979
20
5.3911865
40
0.3126255
50
89.5460705
51
102.5418777
0
ARC
8
DEFAULT_255_1_234
10
23.8435065
20
5.4942665
40
0.2067346
50
102.1739365
51
129.2061916
0
ARC
8
DEFAULT_255_1_234
10
23.8356137
20
5.5067094
40
0.1921118
50
129.7279328
51
135.7542026
0
ARC
8
DEFAULT_255_1_234
10
23.8477664
20
5.4970045
40
0.2075944
50
136.175737
51
166.3674722
0
ARC
8
DEFAULT_255_1_234
10
23.9484584
20
5.4700182
40
0.3118201
50
165.9092917
51
178.8683903
0
ARC
8
DEFAULT_255_1_234
10
24.0349445
20
5.4653179
40
0.3983935
50
178.438168
51
180.0083905
0
ARC
8
DEFAULT_255_1_234
10
23.8948047
20
5.4692231
40
0.4068601
50
163.2878735
51
180.5581814
0
ARC
8
DEFAULT_255_1_234
10
23.8146308
20
5.491284
40
0.3237344
50
133.454115
51
162.9470031
0
ARC
8
DEFAULT_255_1_234
10
23.832485
20
5.4723
40
0.349795
50
100.7869394
51
133.4384016
0
ARC
8
DEFAULT_255_1_234
10
23.8672621
20
5.3174319
40
0.5084616
50
89.6605301
51
101.3704185
0
ARC
8
DEFAULT_255_1_234
10
23.873896
20
5.3235496
40
0.502348
50
78.2171172
51
90.4130393
0
ARC
8
DEFAULT_255_1_234
10
23.9094038
20
5.4859637
40
0.3361092
50
55.9268222
51
78.4888551
0
ARC
8
DEFAULT_255_1_234
10
23.9290478
20
5.5198324
40
0.2970617
50
47.9292255
51
55.4054003
0
ARC
8
DEFAULT_255_1_234
10
23.9392039
20
5.5301502
40
0.2825983
50
4.3347696
51
48.0560701
0
ARC
8
DEFAULT_255_1_234
10
23.8296433
20
5.5131601
40
0.393225
50
359.925209
51
5.5967654
0
ARC
8
DEFAULT_255_1_234
10
23.8725325
20
5.5187816
40
0.3503892
50
337.8914096
51
358.9967724
0
ARC
8
DEFAULT_255_1_234
10
23.6011737
20
5.6234706
40
0.6412172
50
326.9135351
51
338.3505194
0
ARC
8
DEFAULT_255_1_234
10
23.202604
20
5.8789284
40
1.1146189
50
319.6472867
51
327.095818
0
ARC
8
DEFAULT_255_1_234
10
22.8193043
20
6.1951
40
1.6114559
50
317.2586784
51
319.9046139
0
LINE
8
DEFAULT_255_1_234
10
23.0463364
20
13.7473211
11
23.2455235
21
13.7473211
0
LINE
8
DEFAULT_255_1_234
10
23.2455235
20
13.7473211
11
23.6278342
21
12.7931506
0
LINE
8
DEFAULT_255_1_234
10
23.6278342
20
12.7931506
11
24.010145
21
13.7473211
0
LINE
8
DEFAULT_255_1_234
10
24.010145
20
13.7473211
11
24.2101353
21
13.7473211
0
LINE
8
DEFAULT_255_1_234
10
24.2101353
20
13.7473211
11
24.2101353
21
12.5779
0
LINE
8
DEFAULT_255_1_234
10
24.2101353
20
12.5779
11
24.0559259
21
12.5779
0
LINE
8
DEFAULT_255_1_234
10
24.0559259
20
12.5779
11
24.0559259
21
13.0332996
0
LINE
8
DEFAULT_255_1_234
10
24.0559259
20
13.0332996
11
24.070383
21
13.5248419
0
LINE
8
DEFAULT_255_1_234
10
24.070383
20
13.5248419
11
23.6864659
21
12.5779
0
LINE
8
DEFAULT_255_1_234
10
23.6864659
20
12.5779
11
23.5683994
21
12.5779
0
LINE
8
DEFAULT_255_1_234
10
23.5683994
20
12.5779
11
23.1852854
21
13.5224324
0
LINE
8
DEFAULT_255_1_234
10
23.1852854
20
13.5224324
11
23.2005458
21
13.0332996
0
LINE
8
DEFAULT_255_1_234
10
23.2005458
20
13.0332996
11
23.2005458
21
12.5779
0
LINE
8
DEFAULT_255_1_234
10
23.2005458
20
12.5779
11
23.0463364
21
12.5779
0
LINE
8
DEFAULT_255_1_234
10
23.0463364
20
12.5779
11
23.0463364
21
13.7473211
0
LINE
8
DEFAULT_255_1_234
10
23.3195657
20
21.1370565
11
23.3195657
21
21.0623614
0
LINE
8
DEFAULT_255_1_234
10
23.1147563
20
20.5788507
11
23.3235815
21
20.4150033
0
LINE
8
DEFAULT_255_1_234
10
23.3235815
20
20.4150033
11
23.2183658
21
20.3178192
0
LINE
8
DEFAULT_255_1_234
10
23.2183658
20
20.3178192
11
22.9717914
21
20.5137937
0
LINE
8
DEFAULT_255_1_234
10
22.3782459
20
21.0519201
11
22.3782459
21
21.1362534
0
LINE
8
DEFAULT_255_1_234
10
23.1653563
20
21.0511169
11
23.1653563
21
21.1378597
0
LINE
8
DEFAULT_255_1_234
10
22.5324553
20
21.148301
11
22.5324553
21
21.0623614
0
ARC
8
DEFAULT_255_1_234
10
22.4241909
20
21.0584707
40
0.8953833
50
351.453011
51
0.2489685
0
ARC
8
DEFAULT_255_1_234
10
22.6826709
20
21.0184933
40
0.6338333
50
338.6861641
51
351.5540711
0
ARC
8
DEFAULT_255_1_234
10
22.7760593
20
20.9854828
40
0.5348431
50
336.2887631
51
338.3442418
0
ARC
8
DEFAULT_255_1_234
10
22.8100215
20
20.9668698
40
0.4962747
50
321.1170344
51
336.6795229
0
ARC
8
DEFAULT_255_1_234
10
22.8732044
20
20.9182206
40
0.4165565
50
305.4419708
51
320.8705636
0
ARC
8
DEFAULT_255_1_234
10
22.8535514
20
20.9929707
40
0.4935497
50
271.6373023
51
283.8611969
0
ARC
8
DEFAULT_255_1_234
10
22.8497767
20
21.0585572
40
0.5592206
50
269.9930596
51
271.8318864
0
ARC
8
DEFAULT_255_1_234
10
22.846021
20
20.9777681
40
0.4784458
50
252.5219675
51
270.4416499
0
ARC
8
DEFAULT_255_1_234
10
22.8316469
20
20.9238592
40
0.422716
50
237.5352116
51
252.1857531
0
ARC
8
DEFAULT_255_1_234
10
22.8405665
20
20.9352363
40
0.4371052
50
209.063312
51
237.3492538
0
ARC
8
DEFAULT_255_1_234
10
22.9275513
20
20.9898685
40
0.5397041
50
205.1183774
51
209.6470015
0
ARC
8
DEFAULT_255_1_234
10
23.007255
20
21.023683
40
0.6262326
50
188.7215458
51
204.8240747
0
ARC
8
DEFAULT_255_1_234
10
23.2070078
20
21.0573067
40
0.8287794
50
180.3723947
51
188.9252049
0
ARC
8
DEFAULT_255_1_234
10
23.204283
20
21.1402402
40
0.8260467
50
169.5253763
51
180.2765336
0
ARC
8
DEFAULT_255_1_234
10
23.0140279
20
21.1752309
40
0.6326007
50
155.8315255
51
169.5089989
0
ARC
8
DEFAULT_255_1_234
10
22.885978
20
21.2346348
40
0.4914567
50
139.6258461
51
156.0379525
0
ARC
8
DEFAULT_255_1_234
10
22.8270113
20
21.2820799
40
0.4158054
50
122.6416387
51
139.3430715
0
ARC
8
DEFAULT_255_1_234
10
22.8370733
20
21.2637451
40
0.4366739
50
93.0223692
51
122.455762
0
ARC
8
DEFAULT_255_1_234
10
22.847873
20
21.1672709
40
0.5336137
50
89.975342
51
93.6341897
0
ARC
8
DEFAULT_255_1_234
10
22.8517616
20
21.2052375
40
0.4956606
50
73.9665422
51
90.4229648
0
ARC
8
DEFAULT_255_1_234
10
22.8701263
20
21.2767451
40
0.4218674
50
57.5178019
51
73.6813337
0
ARC
8
DEFAULT_255_1_234
10
22.8657046
20
21.2731462
40
0.4272816
50
28.7261108
51
57.2767933
0
ARC
8
DEFAULT_255_1_234
10
22.7746378
20
21.2168688
40
0.534218
50
24.2448911
51
29.3248482
0
ARC
8
DEFAULT_255_1_234
10
22.6820479
20
21.1785819
40
0.6343711
50
9.064382
51
23.9639114
0
ARC
8
DEFAULT_255_1_234
10
22.4564807
20
21.1406925
40
0.8630926
50
359.7586264
51
9.1891435
0
ARC
8
DEFAULT_255_1_234
10
22.3310287
20
21.1420343
40
0.834338
50
359.7133237
51
7.96545
0
ARC
8
DEFAULT_255_1_234
10
22.6272504
20
21.1847681
40
0.5350538
50
7.8291991
51
20.0421623
0
ARC
8
DEFAULT_255_1_234
10
22.7897067
20
21.2438606
40
0.3621841
50
20.0677553
51
35.9161685
0
ARC
8
DEFAULT_255_1_234
10
22.8672105
20
21.301467
40
0.2656263
50
35.6594382
51
85.1578074
0
ARC
8
DEFAULT_255_1_234
10
22.8487361
20
21.1899378
40
0.3784238
50
83.7959068
51
90.095906
0
ARC
8
DEFAULT_255_1_234
10
22.8444295
20
21.2632601
40
0.3051229
50
89.3102392
51
109.9889877
0
ARC
8
DEFAULT_255_1_234
10
22.8361778
20
21.2988433
40
0.2688988
50
110.9285147
51
143.9411762
0
ARC
8
DEFAULT_255_1_234
10
22.9292724
20
21.2276236
40
0.3860887
50
143.5289163
51
163.2980757
0
ARC
8
DEFAULT_255_1_234
10
23.1200545
20
21.1676433
40
0.5860659
50
163.0418846
51
174.3140048
0
ARC
8
DEFAULT_255_1_234
10
23.3604657
20
21.1398854
40
0.8280531
50
174.0509143
51
179.4176892
0
ARC
8
DEFAULT_255_1_234
10
23.3090992
20
21.0580634
40
0.7766558
50
179.6829237
51
188.9631324
0
ARC
8
DEFAULT_255_1_234
10
23.0420553
20
21.0145752
40
0.5060992
50
188.8100743
51
202.9300012
0
ARC
8
DEFAULT_255_1_234
10
22.9204182
20
20.9650855
40
0.3747967
50
203.2069261
51
215.7876482
0
ARC
8
DEFAULT_255_1_234
10
22.8355579
20
20.8979671
40
0.2667526
50
214.7521006
51
264.2834488
0
ARC
8
DEFAULT_255_1_234
10
22.8491234
20
20.983478
40
0.3532247
50
263.4755397
51
270.0949833
0
ARC
8
DEFAULT_255_1_234
10
22.8533345
20
20.9573374
40
0.3271036
50
269.3649385
51
287.5152008
0
ARC
8
DEFAULT_255_1_234
10
22.8711503
20
20.8926238
40
0.2600406
50
288.0630309
51
323.8113348
0
ARC
8
DEFAULT_255_1_234
10
22.7840345
20
20.9576049
40
0.3687189
50
323.6547608
51
342.6590488
0
ARC
8
DEFAULT_255_1_234
10
22.580896
20
21.0236952
40
0.5823286
50
342.4091907
51
353.6451149
0
ARC
8
DEFAULT_255_1_234
10
22.2977471
20
21.058919
40
0.8676442
50
353.4029884
51
359.4847795
0
LINE
8
DEFAULT_255_1_234
10
24.0070825
20
21.6904433
11
24.0070825
21
20.5154
0
LINE
8
DEFAULT_255_1_234
10
24.0070825
20
20.5154
11
23.8576921
21
20.5154
0
LINE
8
DEFAULT_255_1_234
10
23.8576921
20
20.5154
11
23.8576921
21
21.5057133
0
LINE
8
DEFAULT_255_1_234
10
23.8576921
20
21.5057133
11
23.5581083
21
21.3956785
0
LINE
8
DEFAULT_255_1_234
10
23.5581083
20
21.3956785
11
23.5581083
21
21.5306117
0
LINE
8
DEFAULT_255_1_234
10
23.5581083
20
21.5306117
11
23.9837904
21
21.6904433
0
LINE
8
DEFAULT_255_1_234
10
23.9837904
20
21.6904433
11
24.0070825
21
21.6904433
0
LINE
8
DEFAULT_255_1_234
10
23.3094902
20
29.6223211
11
23.3094902
21
28.4529
0
LINE
8
DEFAULT_255_1_234
10
23.3094902
20
28.4529
11
23.1552808
21
28.4529
0
LINE
8
DEFAULT_255_1_234
10
23.1552808
20
28.4529
11
23.1552808
21
29.6223211
0
LINE
8
DEFAULT_255_1_234
10
23.1552808
20
29.6223211
11
23.3094902
21
29.6223211
0
LINE
8
DEFAULT_255_1_234
10
24.3190797
20
28.5741792
11
24.3190797
21
28.4529
0
LINE
8
DEFAULT_255_1_234
10
24.3190797
20
28.4529
11
23.5528519
21
28.4529
0
LINE
8
DEFAULT_255_1_234
10
23.5528519
20
28.4529
11
23.5528519
21
28.5597221
0
LINE
8
DEFAULT_255_1_234
10
23.5528519
20
28.5597221
11
23.9576515
21
29.0094995
0
LINE
8
DEFAULT_255_1_234
10
23.6789501
20
29.2777595
11
23.530363
21
29.2777595
0
LINE
8
DEFAULT_255_1_234
10
24.0451974
20
28.9139218
11
23.7319596
21
28.5741792
0
LINE
8
DEFAULT_255_1_234
10
23.7319596
20
28.5741792
11
24.3190797
21
28.5741792
0
ARC
8
DEFAULT_255_1_234
10
22.6086348
20
30.2024527
40
1.8008286
50
318.5132453
51
320.7828378
0
ARC
8
DEFAULT_255_1_234
10
23.1373322
20
29.7721426
40
1.1191493
50
320.7372736
51
323.9737074
0
ARC
8
DEFAULT_255_1_234
10
23.5293179
20
29.4881361
40
0.6350923
50
323.8961724
51
328.6421089
0
ARC
8
DEFAULT_255_1_234
10
23.7339774
20
29.3619031
40
0.3946393
50
328.8299013
51
331.789948
0
ARC
8
DEFAULT_255_1_234
10
23.8336953
20
29.3104509
40
0.2824501
50
331.4255242
51
352.9364833
0
ARC
8
DEFAULT_255_1_234
10
23.8473453
20
29.3073976
40
0.2685315
50
353.2248685
51
0.0169286
0
ARC
8
DEFAULT_255_1_234
10
23.868333
20
29.309695
40
0.2475536
50
359.4866256
51
15.9339782
0
ARC
8
DEFAULT_255_1_234
10
23.9190316
20
29.3233286
40
0.1950618
50
16.1714718
51
43.5284424
0
ARC
8
DEFAULT_255_1_234
10
23.9267624
20
29.3310573
40
0.184134
50
43.4415429
51
83.1661404
0
ARC
8
DEFAULT_255_1_234
10
23.9133542
20
29.2573771
40
0.258926
50
82.160215
51
90.1505798
0
ARC
8
DEFAULT_255_1_234
10
23.910197
20
29.2036865
40
0.3126255
50
89.5460705
51
102.5418777
0
ARC
8
DEFAULT_255_1_234
10
23.8859056
20
29.3067665
40
0.2067346
50
102.1739365
51
129.2061916
0
ARC
8
DEFAULT_255_1_234
10
23.8780127
20
29.3192094
40
0.1921118
50
129.7279328
51
135.7542026
0
ARC
8
DEFAULT_255_1_234
10
23.8901655
20
29.3095045
40
0.2075944
50
136.175737
51
166.3674722
0
ARC
8
DEFAULT_255_1_234
10
23.9908574
20
29.2825182
40
0.3118201
50
165.9092917
51
178.8683903
0
ARC
8
DEFAULT_255_1_234
10
24.0773436
20
29.2778179
40
0.3983935
50
178.438168
51
180.0083905
0
ARC
8
DEFAULT_255_1_234
10
23.9372038
20
29.2817231
40
0.4068601
50
163.2878735
51
180.5581814
0
ARC
8
DEFAULT_255_1_234
10
23.8570299
20
29.303784
40
0.3237344
50
133.454115
51
162.9470031
0
ARC
8
DEFAULT_255_1_234
10
23.8748841
20
29.2848
40
0.349795
50
100.7869394
51
133.4384016
0
ARC
8
DEFAULT_255_1_234
10
23.9096612
20
29.1299319
40
0.5084616
50
89.6605301
51
101.3704185
0
ARC
8
DEFAULT_255_1_234
10
23.9162951
20
29.1360496
40
0.502348
50
78.2171172
51
90.4130393
0
ARC
8
DEFAULT_255_1_234
10
23.9518029
20
29.2984637
40
0.3361092
50
55.9268222
51
78.4888551
0
ARC
8
DEFAULT_255_1_234
10
23.9714469
20
29.3323324
40
0.2970617
50
47.9292255
51
55.4054003
0
ARC
8
DEFAULT_255_1_234
10
23.981603
20
29.3426502
40
0.2825983
50
4.3347696
51
48.0560701
0
ARC
8
DEFAULT_255_1_234
10
23.8720424
20
29.3256601
40
0.393225
50
359.925209
51
5.5967654
0
ARC
8
DEFAULT_255_1_234
10
23.9149315
20
29.3312816
40
0.3503892
50
337.8914096
51
358.9967724
0
ARC
8
DEFAULT_255_1_234
10
23.6435727
20
29.4359706
40
0.6412172
50
326.9135351
51
338.3505194
0
ARC
8
DEFAULT_255_1_234
10
23.2450031
20
29.6914284
40
1.1146189
50
319.6472867
51
327.095818
0
ARC
8
DEFAULT_255_1_234
10
22.8617034
20
30.0076
40
1.6114559
50
317.2586784
51
319.9046139
0
LINE
8
DEFAULT_255_1_234
10
23.0463364
20
37.5598211
11
23.2455235
21
37.5598211
0
LINE
8
DEFAULT_255_1_234
10
23.2455235
20
37.5598211
11
23.6278342
21
36.6056506
0
LINE
8
DEFAULT_255_1_234
10
23.6278342
20
36.6056506
11
24.010145
21
37.5598211
0
LINE
8
DEFAULT_255_1_234
10
24.010145
20
37.5598211
11
24.2101353
21
37.5598211
0
LINE
8
DEFAULT_255_1_234
10
24.2101353
20
37.5598211
11
24.2101353
21
36.3904
0
LINE
8
DEFAULT_255_1_234
10
24.2101353
20
36.3904
11
24.0559259
21
36.3904
0
LINE
8
DEFAULT_255_1_234
10
24.0559259
20
36.3904
11
24.0559259
21
36.8457996
0
LINE
8
DEFAULT_255_1_234
10
24.0559259
20
36.8457996
11
24.070383
21
37.3373419
0
LINE
8
DEFAULT_255_1_234
10
24.070383
20
37.3373419
11
23.6864659
21
36.3904
0
LINE
8
DEFAULT_255_1_234
10
23.6864659
20
36.3904
11
23.5683994
21
36.3904
0
LINE
8
DEFAULT_255_1_234
10
23.5683994
20
36.3904
11
23.1852854
21
37.3349324
0
LINE
8
DEFAULT_255_1_234
10
23.1852854
20
37.3349324
11
23.2005458
21
36.8457996
0
LINE
8
DEFAULT_255_1_234
10
23.2005458
20
36.8457996
11
23.2005458
21
36.3904
0
LINE
8
DEFAULT_255_1_234
10
23.2005458
20
36.3904
11
23.0463364
21
36.3904
0
LINE
8
DEFAULT_255_1_234
10
23.0463364
20
36.3904
11
23.0463364
21
37.5598211
0
ENDSEC
0
EOF