0
SECTION
2
HEADER
9
$MEASUREMENT
70
1
0
ENDSEC
0
SECTION
2
TABLES
0
TABLE
2
LTYPE
0
LTYPE
72
65
70
64
2
CONTINUOUS
3
______
73
0
40
0
0
ENDTAB
0
TABLE
2
LAYER
0
LAYER
2
DEFAULT_255_2_778
70
0
62
255
6
CONTINUOUS
0
LAYER
2
DEFAULT_255_1_234
70
0
62
255
6
CONTINUOUS
0
ENDTAB
0
ENDSEC
0
SECTION
2
ENTITIES
0
ARC
8
DEFAULT_255_2_778
10
3.5695693
20
36.1176536
40
0.7914215
50
129.1312896
51
180.1450914
0
ARC
8
DEFAULT_255_2_778
10
3.5698345
20
36.1181407
40
0.7912112
50
89.854026
51
129.1684493
0
ARC
8
DEFAULT_255_2_778
10
25.7988937
20
36.1178272
40
0.7915249
50
39.4792447
51
90.147911
0
ARC
8
DEFAULT_255_2_778
10
25.7994935
20
36.1176739
40
0.7911595
50
359.8533901
51
39.5154338
0
ARC
8
DEFAULT_255_2_778
10
25.7991693
20
-1.9863987
40
0.7914836
50
309.4761667
51
0.1482649
0
ARC
8
DEFAULT_255_2_778
10
25.798898
20
-1.9868298
40
0.7913235
50
269.8517415
51
309.511178
0
ARC
8
DEFAULT_255_2_778
10
3.569842
20
-1.9867716
40
0.7913815
50
219.1282118
51
270.1454017
0
ARC
8
DEFAULT_255_2_778
10
3.5695247
20
-1.9863891
40
0.7913769
50
179.8524075
51
219.1641908
0
LINE
8
DEFAULT_255_2_778
10
3.5718503
20
36.9093494
11
25.7968503
21
36.9093494
0
LINE
8
DEFAULT_255_2_778
10
26.5906503
20
36.1156494
11
26.5906503
21
-1.9843506
0
LINE
8
DEFAULT_255_2_778
10
25.7968503
20
-2.7781506
11
3.5718503
21
-2.7781506
0
LINE
8
DEFAULT_255_2_778
10
2.7781503
20
-1.9843506
11
2.7781503
21
36.1156494
0
ARC
8
DEFAULT_255_2_778
10
7.7485909
20
36.63144
40
3.1367904
50
252.3172038
51
259.0807113
0
ARC
8
DEFAULT_255_2_778
10
7.5374166
20
35.5158974
40
2.0014467
50
258.9672958
51
268.7384557
0
ARC
8
DEFAULT_255_2_778
10
7.5171807
20
35.0798713
40
1.5651169
50
269.127651
51
269.9970552
0
ARC
8
DEFAULT_255_2_778
10
7.5282369
20
34.617189
40
1.1024909
50
269.4212235
51
279.304757
0
ARC
8
DEFAULT_255_2_778
10
7.6424456
20
33.9610933
40
0.4366123
50
278.4353852
51
299.11427
0
ARC
8
DEFAULT_255_2_778
10
7.7687045
20
33.7392277
40
0.1813628
50
298.3696866
51
1.556618
0
ARC
8
DEFAULT_255_2_778
10
7.7607731
20
33.7469056
40
0.1892471
50
359.167
51
359.999679
0
ARC
8
DEFAULT_255_2_778
10
7.7621256
20
33.7468928
40
0.1878948
50
0.0035752
51
48.4707938
0
ARC
8
DEFAULT_255_2_778
10
7.6241179
20
33.588326
40
0.3981044
50
48.732028
51
61.7680099
0
ARC
8
DEFAULT_255_2_778
10
7.0282641
20
32.5402023
40
1.6036722
50
60.7260073
51
65.6921054
0
ARC
8
DEFAULT_255_2_778
10
6.1077612
20
30.5467982
40
3.7993142
50
65.4156409
51
67.5847818
0
ARC
8
DEFAULT_255_2_778
10
9.6066473
20
39.109153
40
5.4503761
50
245.128515
51
247.9047275
0
ARC
8
DEFAULT_255_2_778
10
8.5259656
20
36.7861079
40
2.8882696
50
241.1320633
51
245.1962756
0
ARC
8
DEFAULT_255_2_778
10
7.7630454
20
35.4132163
40
1.3176592
50
234.2113748
51
241.3622699
0
ARC
8
DEFAULT_255_2_778
10
7.3438693
20
34.8277113
40
0.5975813
50
226.7214828
51
233.9837466
0
ARC
8
DEFAULT_255_2_778
10
7.3610966
20
34.8345728
40
0.6144367
50
178.3976213
51
225.9905587
0
ARC
8
DEFAULT_255_2_778
10
7.4479133
20
34.8658454
40
0.7011547
50
154.8735925
51
181.1515496
0
ARC
8
DEFAULT_255_2_778
10
7.3604049
20
34.8912792
40
0.6112906
50
123.8165102
51
153.54904
0
ARC
8
DEFAULT_255_2_778
10
7.5901921
20
34.5535388
40
1.0197826
50
100.5304332
51
123.982159
0
ARC
8
DEFAULT_255_2_778
10
7.6990249
20
34.0306706
40
1.5537767
50
89.6287661
51
100.9523483
0
ARC
8
DEFAULT_255_2_778
10
7.7090926
20
33.6635161
40
1.9208984
50
89.5463873
51
90.0000125
0
ARC
8
DEFAULT_255_2_778
10
7.7099768
20
33.585193
40
1.9992127
50
84.1426129
51
89.5894994
0
ARC
8
DEFAULT_255_2_778
10
7.5078054
20
31.5062453
40
4.0879532
50
81.0724968
51
84.2974367
0
ARC
8
DEFAULT_255_2_778
10
7.0237164
20
28.3806832
40
7.250777
50
78.9261702
51
81.1263461
0
ARC
8
DEFAULT_255_2_778
10
7.6683034
20
33.1977967
40
1.9859479
50
67.8708824
51
78.7622215
0
ARC
8
DEFAULT_255_2_778
10
7.7856122
20
33.7704165
40
1.4014502
50
78.9039563
51
89.7592781
0
ARC
8
DEFAULT_255_2_778
10
7.7793524
20
34.1942116
40
0.9777183
50
89.2881014
51
100.1843776
0
ARC
8
DEFAULT_255_2_778
10
7.6658995
20
34.7878799
40
0.3734036
50
99.1570246
51
122.7347563
0
ARC
8
DEFAULT_255_2_778
10
7.5618036
20
34.9543312
40
0.1771147
50
123.5257165
51
182.0309683
0
ARC
8
DEFAULT_255_2_778
10
7.5428899
20
34.9499308
40
0.1581008
50
180.6800447
51
241.1486722
0
ARC
8
DEFAULT_255_2_778
10
7.9232305
20
35.5661089
40
0.8820514
50
238.822493
51
243.6821447
0
ARC
8
DEFAULT_255_2_778
10
9.3821709
20
38.4399759
40
4.1049967
50
243.2133286
51
244.8806059
0
ARC
8
DEFAULT_255_2_778
10
12.2927158
20
44.6122378
40
10.9290718
50
244.8013453
51
245.6369449
0
ARC
8
DEFAULT_255_2_778
10
15.2578722
20
51.1232332
40
18.0834464
50
245.588748
51
245.787665
0
ARC
8
DEFAULT_255_2_778
10
5.8891596
20
30.2014306
40
4.8403276
50
63.1117553
51
66.2123
0
ARC
8
DEFAULT_255_2_778
10
6.9466095
20
32.2755717
40
2.5121927
50
58.2727928
51
63.2279679
0
ARC
8
DEFAULT_255_2_778
10
7.6960396
20
33.4774803
40
1.0958018
50
49.8218374
51
58.5541977
0
ARC
8
DEFAULT_255_2_778
10
8.0252396
20
33.8778219
40
0.5775748
50
45.4118875
51
49.1507981
0
ARC
8
DEFAULT_255_2_778
10
8.0078546
20
33.8708809
40
0.5947698
50
359.8266002
51
44.6885537
0
ARC
8
DEFAULT_255_2_778
10
7.7567553
20
33.8437699
40
0.8462449
50
359.9921763
51
1.7139588
0
ARC
8
DEFAULT_255_2_778
10
7.9236841
20
33.8279488
40
0.6794977
50
328.8434326
51
1.3244197
0
ARC
8
DEFAULT_255_2_778
10
7.9038875
20
33.8640073
40
0.7153916
50
299.9830705
51
327.1921484
0
ARC
8
DEFAULT_255_2_778
10
7.7012555
20
34.1960429
40
1.1042976
50
281.4942083
51
300.4802073
0
ARC
8
DEFAULT_255_2_778
10
7.5665306
20
34.819865
40
1.7424723
50
270.5625225
51
281.7478816
0
ARC
8
DEFAULT_255_2_778
10
7.5455157
20
35.3269548
40
2.2498011
50
269.996365
51
270.9709017
0
LINE
8
DEFAULT_255_2_778
10
7.545373
20
33.0771538
11
7.5438002
21
33.0771543
0
ARC
8
DEFAULT_255_2_778
10
7.5505417
20
36.3692647
40
3.2921172
50
256.7144726
51
269.882672
0
ARC
8
DEFAULT_255_2_778
10
21.7504516
20
36.5560513
40
3.0599176
50
252.185271
51
259.1427573
0
ARC
8
DEFAULT_255_2_778
10
21.5517839
20
35.4978255
40
1.9832175
50
259.0208764
51
269.2247582
0
ARC
8
DEFAULT_255_2_778
10
21.5355123
20
35.099243
40
1.5844885
50
269.6180891
51
269.9995636
0
ARC
8
DEFAULT_255_2_778
10
21.5474133
20
34.620367
40
1.1056768
50
269.3826571
51
279.2415406
0
ARC
8
DEFAULT_255_2_778
10
21.6613199
20
33.9616939
40
0.4373106
50
278.3705839
51
299.0156343
0
ARC
8
DEFAULT_255_2_778
10
21.7879297
20
33.7385004
40
0.1807355
50
298.2360606
51
1.5389494
0
ARC
8
DEFAULT_255_2_778
10
21.7603652
20
33.7475667
40
0.2082776
50
358.8411392
51
0.0020684
0
ARC
8
DEFAULT_255_2_778
10
21.7866933
20
33.7506628
40
0.1819759
50
359.027495
51
48.4049054
0
ARC
8
DEFAULT_255_2_778
10
21.6426988
20
33.582691
40
0.4032051
50
48.948177
51
62.1095173
0
ARC
8
DEFAULT_255_2_778
10
21.0553488
20
32.5363768
40
1.6030099
50
61.0487088
51
66.0223331
0
ARC
8
DEFAULT_255_2_778
10
20.1651728
20
30.5787609
40
3.7534838
50
65.750311
51
67.9399335
0
ARC
8
DEFAULT_255_2_778
10
23.5885642
20
39.0186293
40
5.35426
50
245.0886904
51
247.9085292
0
ARC
8
DEFAULT_255_2_778
10
22.5327748
20
36.7532301
40
2.8549193
50
241.0445351
51
245.1557194
0
ARC
8
DEFAULT_255_2_778
10
21.7833134
20
35.4094017
40
1.3162482
50
234.0878076
51
241.2704023
0
ARC
8
DEFAULT_255_2_778
10
21.3685041
20
34.8324995
40
0.6057061
50
226.6350428
51
233.8590908
0
ARC
8
DEFAULT_255_2_778
10
21.3797041
20
34.8345701
40
0.6149385
50
178.1097058
51
226.0088463
0
ARC
8
DEFAULT_255_2_778
10
21.4585606
20
34.8690802
40
0.6936062
50
154.5307055
51
181.1752148
0
ARC
8
DEFAULT_255_2_778
10
21.3749435
20
34.8929859
40
0.6080053
50
123.6088607
51
153.1759302
0
ARC
8
DEFAULT_255_2_778
10
21.5988489
20
34.5767393
40
0.9953885
50
101.9261307
51
124.2666527
0
ARC
8
DEFAULT_255_2_778
10
21.7271622
20
34.009577
40
1.5768466
50
89.8677607
51
102.2291486
0
ARC
8
DEFAULT_255_2_778
10
21.7427185
20
33.557695
40
2.0287594
50
90.0005168
51
90.3365569
0
ARC
8
DEFAULT_255_2_778
10
21.7283083
20
33.3958185
40
2.1906831
50
83.5560006
51
89.6235862
0
ARC
8
DEFAULT_255_2_778
10
21.5238767
20
31.5090102
40
4.0885236
50
79.7361676
51
83.6768054
0
ARC
8
DEFAULT_255_2_778
10
21.2079482
20
29.6744099
40
5.9500801
50
78.6906041
51
79.8904129
0
ARC
8
DEFAULT_255_2_778
10
21.6896179
20
33.207229
40
1.9779825
50
67.8744446
51
78.9030929
0
ARC
8
DEFAULT_255_2_778
10
21.8016885
20
33.7591175
40
1.4148476
50
79.0551066
51
89.7767944
0
ARC
8
DEFAULT_255_2_778
10
21.7951063
20
34.2029565
40
0.9710732
50
89.2864107
51
100.2116886
0
ARC
8
DEFAULT_255_2_778
10
21.681801
20
34.7934677
40
0.3698916
50
99.1550036
51
123.0119564
0
ARC
8
DEFAULT_255_2_778
10
21.579009
20
34.9568297
40
0.176923
50
123.920376
51
182.0550514
0
ARC
8
DEFAULT_255_2_778
10
21.5390366
20
34.9504025
40
0.1368366
50
179.9653657
51
180.1039286
0
ARC
8
DEFAULT_255_2_778
10
21.5595115
20
34.9516104
40
0.157318
50
180.5303168
51
241.2736447
0
ARC
8
DEFAULT_255_2_778
10
21.9257678
20
35.54739
40
0.8565132
50
238.9429609
51
243.884641
0
ARC
8
DEFAULT_255_2_778
10
23.4342946
20
38.5407722
40
4.2084849
50
243.3823468
51
245.0163422
0
ARC
8
DEFAULT_255_2_778
10
26.5083187
20
45.0998925
40
11.4522123
50
244.9359232
51
245.7429141
0
ARC
8
DEFAULT_255_2_778
10
29.6927214
20
52.1284377
40
19.1684757
50
245.6959642
51
245.8864146
0
ARC
8
DEFAULT_255_2_778
10
19.9154971
20
30.2433834
40
4.8013152
50
62.9050538
51
66.089679
0
ARC
8
DEFAULT_255_2_778
10
20.9733939
20
32.3012652
40
2.4874475
50
58.0771566
51
63.0087022
0
ARC
8
DEFAULT_255_2_778
10
21.7200156
20
33.4886496
40
1.0848613
50
49.460189
51
58.3856987
0
ARC
8
DEFAULT_255_2_778
10
22.0420624
20
33.8764693
40
0.5808595
50
45.5403682
51
48.7368826
0
ARC
8
DEFAULT_255_2_778
10
22.0276279
20
33.8724376
40
0.5938943
50
359.8498367
51
44.8188382
0
ARC
8
DEFAULT_255_2_778
10
21.7783019
20
33.8455631
40
0.8435982
50
359.9926129
51
1.719814
0
ARC
8
DEFAULT_255_2_778
10
21.9395402
20
33.8298337
40
0.6825388
50
329.2212416
51
1.3113892
0
ARC
8
DEFAULT_255_2_778
10
21.9246155
20
33.8626294
40
0.7124399
50
300.0989301
51
327.5692204
0
ARC
8
DEFAULT_255_2_778
10
21.7224438
20
34.1964907
40
1.102697
50
281.4434856
51
300.4876618
0
ARC
8
DEFAULT_255_2_778
10
21.5850721
20
34.8340991
40
1.7549039
50
270.5536601
51
281.7092007
0
ARC
8
DEFAULT_255_2_778
10
21.5637113
20
35.350588
40
2.271634
50
269.9960451
51
270.9665268
0
LINE
8
DEFAULT_255_2_778
10
21.5635545
20
33.0789541
11
21.5625002
21
33.0789543
0
ARC
8
DEFAULT_255_2_778
10
21.5691776
20
36.380398
40
3.3014504
50
256.7485089
51
269.8841161
0
LINE
8
DEFAULT_255_2_778
10
6.7958002
20
33.1660543
11
6.7958002
21
33.6428543
0
LINE
8
DEFAULT_255_2_778
10
8.4164002
20
35.4964543
11
8.4164002
21
35.0374543
0
LINE
8
DEFAULT_255_2_778
10
6.7940002
20
33.1652543
11
6.7958002
21
33.1660543
0
LINE
8
DEFAULT_255_2_778
10
8.9866002
20
35.5435543
11
9.6629002
21
35.5435543
0
LINE
8
DEFAULT_255_2_778
10
9.6629002
20
35.5435543
11
9.6629002
21
33.1271543
0
LINE
8
DEFAULT_255_2_778
10
9.6629002
20
33.1271543
11
8.9866002
21
33.1271543
0
LINE
8
DEFAULT_255_2_778
10
8.9866002
20
33.1271543
11
8.9866002
21
35.5435543
0
LINE
8
DEFAULT_255_2_778
10
10.2809002
20
33.1271543
11
10.2809002
21
35.5438543
0
LINE
8
DEFAULT_255_2_778
10
10.2809002
20
35.5438543
11
12.0132002
21
35.5438543
0
LINE
8
DEFAULT_255_2_778
10
12.0132002
20
35.5438543
11
12.0132002
21
35.1067543
0
LINE
8
DEFAULT_255_2_778
10
12.0132002
20
35.1067543
11
10.9321002
21
35.1067543
0
LINE
8
DEFAULT_255_2_778
10
10.9321002
20
35.1067543
11
10.9321002
21
34.5611543
0
LINE
8
DEFAULT_255_2_778
10
10.9321002
20
34.5611543
11
11.8735002
21
34.5611543
0
LINE
8
DEFAULT_255_2_778
10
11.8735002
20
34.5611543
11
11.8735002
21
34.1627543
0
LINE
8
DEFAULT_255_2_778
10
11.8735002
20
34.1627543
11
10.9321002
21
34.1627543
0
LINE
8
DEFAULT_255_2_778
10
10.9321002
20
34.1627543
11
10.9321002
21
33.5891543
0
LINE
8
DEFAULT_255_2_778
10
10.9321002
20
33.5891543
11
12.0412002
21
33.5891543
0
LINE
8
DEFAULT_255_2_778
10
12.0412002
20
33.5891543
11
12.0412002
21
33.1263543
0
LINE
8
DEFAULT_255_2_778
10
12.0412002
20
33.1263543
11
10.2809002
21
33.1271543
0
LINE
8
DEFAULT_255_2_778
10
12.4817002
20
33.1271543
11
12.4817002
21
35.5438543
0
LINE
8
DEFAULT_255_2_778
10
12.4817002
20
35.5438543
11
13.3575002
21
35.5438543
0
LINE
8
DEFAULT_255_2_778
10
13.3575002
20
35.5438543
11
13.9671002
21
33.9997543
0
LINE
8
DEFAULT_255_2_778
10
13.9671002
20
33.9997543
11
14.5897002
21
35.5438543
0
LINE
8
DEFAULT_255_2_778
10
14.5897002
20
35.5438543
11
15.4215002
21
35.5438543
0
LINE
8
DEFAULT_255_2_778
10
15.4215002
20
35.5438543
11
15.4215002
21
33.1274543
0
LINE
8
DEFAULT_255_2_778
10
15.4215002
20
33.1274543
11
14.7812002
21
33.1274543
0
LINE
8
DEFAULT_255_2_778
10
14.7812002
20
33.1274543
11
14.7812002
21
34.8390543
0
LINE
8
DEFAULT_255_2_778
10
14.7812002
20
34.8390543
11
14.0724002
21
33.1041543
0
LINE
8
DEFAULT_255_2_778
10
14.0724002
20
33.1041543
11
13.6515002
21
33.1041543
0
LINE
8
DEFAULT_255_2_778
10
13.6515002
20
33.1041543
11
12.9559002
21
34.8390543
0
LINE
8
DEFAULT_255_2_778
10
12.9559002
20
34.8390543
11
12.9559002
21
33.1274543
0
LINE
8
DEFAULT_255_2_778
10
12.9559002
20
33.1274543
11
12.4817002
21
33.1271543
0
LINE
8
DEFAULT_255_2_778
10
16.0409002
20
33.1271543
11
16.0409002
21
35.5438543
0
LINE
8
DEFAULT_255_2_778
10
16.0409002
20
35.5438543
11
17.7731002
21
35.5438543
0
LINE
8
DEFAULT_255_2_778
10
17.7731002
20
35.5438543
11
17.7731002
21
35.1067543
0
LINE
8
DEFAULT_255_2_778
10
17.7731002
20
35.1067543
11
16.6921002
21
35.1067543
0
LINE
8
DEFAULT_255_2_778
10
16.6921002
20
35.1067543
11
16.6921002
21
34.5611543
0
LINE
8
DEFAULT_255_2_778
10
16.6921002
20
34.5611543
11
17.6334002
21
34.5611543
0
LINE
8
DEFAULT_255_2_778
10
17.6334002
20
34.5611543
11
17.6334002
21
34.1627543
0
LINE
8
DEFAULT_255_2_778
10
17.6334002
20
34.1627543
11
16.6921002
21
34.1627543
0
LINE
8
DEFAULT_255_2_778
10
16.6921002
20
34.1627543
11
16.6921002
21
33.5891543
0
LINE
8
DEFAULT_255_2_778
10
16.6921002
20
33.5891543
11
17.8030002
21
33.5891543
0
LINE
8
DEFAULT_255_2_778
10
17.8030002
20
33.5891543
11
17.8030002
21
33.1263543
0
LINE
8
DEFAULT_255_2_778
10
17.8030002
20
33.1263543
11
16.0409002
21
33.1271543
0
LINE
8
DEFAULT_255_2_778
10
18.2454002
20
33.1271543
11
18.2454002
21
35.5438543
0
LINE
8
DEFAULT_255_2_778
10
18.2454002
20
35.5438543
11
19.0283002
21
35.5438543
0
LINE
8
DEFAULT_255_2_778
10
19.0283002
20
35.5438543
11
19.8586002
21
33.9259543
0
LINE
8
DEFAULT_255_2_778
10
19.8586002
20
33.9259543
11
19.8586002
21
35.5438543
0
LINE
8
DEFAULT_255_2_778
10
19.8586002
20
35.5438543
11
20.3343002
21
35.5438543
0
LINE
8
DEFAULT_255_2_778
10
20.3343002
20
35.5438543
11
20.3343002
21
33.1274543
0
LINE
8
DEFAULT_255_2_778
10
20.3343002
20
33.1274543
11
19.5739002
21
33.1274543
0
LINE
8
DEFAULT_255_2_778
10
19.5739002
20
33.1274543
11
18.7214002
21
34.7667543
0
LINE
8
DEFAULT_255_2_778
10
18.7214002
20
34.7667543
11
18.7214002
21
33.1274543
0
LINE
8
DEFAULT_255_2_778
10
18.7214002
20
33.1274543
11
18.2454002
21
33.1271543
0
LINE
8
DEFAULT_255_2_778
10
20.8143002
20
33.1660543
11
20.8143002
21
33.6428543
0
LINE
8
DEFAULT_255_2_778
10
22.3748002
20
35.5089543
11
22.4346002
21
35.4986543
0
LINE
8
DEFAULT_255_2_778
10
22.4346002
20
35.4986543
11
22.4346002
21
35.0395543
0
LINE
8
DEFAULT_255_2_778
10
20.8124002
20
33.1668543
11
20.8143002
21
33.1660543
0
LINE
8
DEFAULT_255_2_778
10
10.7156501
20
28.9718499
11
18.6531501
21
28.9718499
0
LINE
8
DEFAULT_255_2_778
10
18.6531501
20
28.9718499
11
18.6531501
21
21.0343499
0
LINE
8
DEFAULT_255_2_778
10
18.6531501
20
21.0343499
11
10.7156501
21
21.0343499
0
LINE
8
DEFAULT_255_2_778
10
10.7156501
20
21.0343499
11
10.7156501
21
28.9718499
0
LINE
8
DEFAULT_255_2_778
10
10.7156501
20
21.0343499
11
18.6531501
21
28.9718499
0
ARC
8
DEFAULT_255_2_778
10
14.1071114
20
26.0880807
40
2.9032284
50
151.5042733
51
153.4806603
0
ARC
8
DEFAULT_255_2_778
10
13.4582806
20
26.4409763
40
2.1646375
50
149.0139962
51
151.519903
0
ARC
8
DEFAULT_255_2_778
10
12.9467115
20
26.7487368
40
1.567629
50
145.9162939
51
149.0311909
0
ARC
8
DEFAULT_255_2_778
10
12.5619818
20
27.0097335
40
1.1027247
50
141.9200062
51
145.9453242
0
ARC
8
DEFAULT_255_2_778
10
12.281474
20
27.2304211
40
0.7458118
50
136.484805
51
141.9744057
0
ARC
8
DEFAULT_255_2_778
10
12.091706
20
27.4115808
40
0.4834572
50
128.8638593
51
136.5691139
0
ARC
8
DEFAULT_255_2_778
10
11.9797184
20
27.5516418
40
0.304132
50
117.7110364
51
128.9931649
0
ARC
8
DEFAULT_255_2_778
10
11.928338
20
27.6512194
40
0.1920847
50
98.9021051
51
117.9549066
0
ARC
8
DEFAULT_255_2_778
10
11.9212758
20
27.686491
40
0.1561525
50
90.0344408
51
98.3447638
0
ARC
8
DEFAULT_255_2_778
10
11.9160634
20
27.6603238
40
0.1823916
50
50.7117937
51
88.3918664
0
ARC
8
DEFAULT_255_2_778
10
11.7831308
20
27.4819057
40
0.4047836
50
38.9451112
51
52.1404787
0
ARC
8
DEFAULT_255_2_778
10
11.430408
20
27.1924907
40
0.8610391
50
31.5376489
51
39.1699631
0
ARC
8
DEFAULT_255_2_778
10
10.4861496
20
26.6087547
40
1.9711589
50
27.5029892
51
31.6426884
0
ARC
8
DEFAULT_255_2_778
10
5.9859457
20
24.2545708
40
7.0499372
50
26.3566909
51
27.5839254
0
ARC
8
DEFAULT_255_2_778
10
16.3878515
20
29.3833746
40
4.5476932
50
206.0760745
51
208.8893742
0
ARC
8
DEFAULT_255_2_778
10
13.5296207
20
27.8107384
40
1.2853914
50
209.0650167
51
214.9193276
0
ARC
8
DEFAULT_255_2_778
10
12.9617008
20
27.4129421
40
0.5920141
50
214.8141771
51
224.5237395
0
ARC
8
DEFAULT_255_2_778
10
12.7405911
20
27.1923149
40
0.279676
50
224.0617241
51
242.8344517
0
ARC
8
DEFAULT_255_2_778
10
12.6861767
20
27.089133
40
0.1630376
50
243.2923391
51
269.5752511
0
ARC
8
DEFAULT_255_2_778
10
12.6832992
20
27.0981104
40
0.1720185
50
270.5559033
51
293.8685481
0
ARC
8
DEFAULT_255_2_778
10
12.6460708
20
27.1853881
40
0.2668991
50
293.5955797
51
306.345121
0
ARC
8
DEFAULT_255_2_778
10
12.553147
20
27.3135986
40
0.4252403
50
306.1919045
51
314.6688826
0
ARC
8
DEFAULT_255_2_778
10
12.3908409
20
27.4794992
40
0.6573295
50
314.5642472
51
320.4128675
0
ARC
8
DEFAULT_255_2_778
10
12.1425104
20
27.6858069
40
0.980177
50
320.3694038
51
324.845255
0
ARC
8
DEFAULT_255_2_778
10
11.7897394
20
27.9354469
40
1.4123423
50
324.8053061
51
328.1530642
0
ARC
8
DEFAULT_255_2_778
10
11.3247883
20
28.2251419
40
1.9601584
50
328.1310763
51
330.7610809
0
ARC
8
DEFAULT_255_2_778
10
10.731881
20
28.5578279
40
2.640025
50
330.7460722
51
332.8554872
0
ARC
8
DEFAULT_255_2_778
10
10.2484419
20
28.808394
40
3.1845357
50
332.812199
51
333.437874
0
LINE
8
DEFAULT_255_2_778
10
16.27185
20
22.9394
11
17.85935
21
22.9394
0
LINE
8
DEFAULT_255_2_778
10
16.27185
20
22.3044
11
16.58935
21
22.3044
0
LINE
8
DEFAULT_255_2_778
10
16.90685
20
22.3044
11
17.22435
21
22.3044
0
LINE
8
DEFAULT_255_2_778
10
17.54185
20
22.3044
11
17.85935
21
22.3044
0
LINE
8
DEFAULT_255_1_234
10
6.7577835
20
1.1804243
11
6.7842882
21
1.1804243
0
LINE
8
DEFAULT_255_1_234
10
6.7842882
20
1.1804243
11
6.7842882
21
1.054326
0
LINE
8
DEFAULT_255_1_234
10
6.7842882
20
1.054326
11
6.7569803
21
1.054326
0
LINE
8
DEFAULT_255_1_234
10
6.2100189
20
0.4551583
11
6.2100189
21
0.5121836
0
LINE
8
DEFAULT_255_1_234
10
6.3594093
20
0.4929075
11
6.3594093
21
0.4382917
0
ARC
8
DEFAULT_255_1_234
10
6.7622151
20
0.5545455
40
0.4998079
50
90.6001036
51
104.514704
0
ARC
8
DEFAULT_255_1_234
10
6.7233667
20
0.6990131
40
0.3502176
50
104.2855254
51
133.862935
0
ARC
8
DEFAULT_255_1_234
10
6.7397424
20
0.688183
40
0.3693984
50
134.5302688
51
161.6210873
0
ARC
8
DEFAULT_255_1_234
10
6.9050613
20
0.6298895
40
0.5446739
50
161.2849839
51
174.2076652
0
ARC
8
DEFAULT_255_1_234
10
7.045755
20
0.6104787
40
0.6866274
50
173.7810589
51
174.9254635
0
ARC
8
DEFAULT_255_1_234
10
6.5907382
20
0.4721839
40
0.3033419
50
95.8330959
51
138.9954921
0
ARC
8
DEFAULT_255_1_234
10
6.6130738
20
0.3443375
40
0.4328947
50
89.8753725
51
97.0544009
0
ARC
8
DEFAULT_255_1_234
10
6.6178204
20
0.4278748
40
0.3493769
50
71.6407809
51
90.6240094
0
ARC
8
DEFAULT_255_1_234
10
6.6328777
20
0.4833082
40
0.2920396
50
39.6367836
51
71.019018
0
ARC
8
DEFAULT_255_1_234
10
6.569225
20
0.4282998
40
0.3761538
50
10.658731
51
39.9043955
0
ARC
8
DEFAULT_255_1_234
10
6.4144333
20
0.3946686
40
0.5345136
50
359.682601
51
11.132623
0
ARC
8
DEFAULT_255_1_234
10
6.4104464
20
0.387601
40
0.5385081
50
347.2486944
51
0.4369317
0
ARC
8
DEFAULT_255_1_234
10
6.5771941
20
0.3474807
40
0.3670249
50
318.1409698
51
347.6118597
0
ARC
8
DEFAULT_255_1_234
10
6.6096934
20
0.3207702
40
0.3250007
50
275.6342139
51
317.8248465
0
ARC
8
DEFAULT_255_1_234
10
6.5876045
20
0.4507219
40
0.4565864
50
269.8874292
51
276.7917694
0
ARC
8
DEFAULT_255_1_234
10
6.5821116
20
0.3481743
40
0.3540676
50
246.9140195
51
270.7437342
0
ARC
8
DEFAULT_255_1_234
10
6.5827506
20
0.3339384
40
0.3412781
50
218.1665114
51
245.878116
0
ARC
8
DEFAULT_255_1_234
10
6.6706967
20
0.4075279
40
0.455911
50
191.4115814
51
218.6077802
0
ARC
8
DEFAULT_255_1_234
10
6.8645056
20
0.4509833
40
0.6545001
50
179.6345085
51
191.7836486
0
ARC
8
DEFAULT_255_1_234
10
7.4227393
20
0.5188697
40
1.2127388
50
171.4525249
51
180.3158839
0
ARC
8
DEFAULT_255_1_234
10
6.9832269
20
0.5872608
40
0.7679464
50
157.9802646
51
171.6246686
0
ARC
8
DEFAULT_255_1_234
10
6.761829
20
0.6755421
40
0.5296008
50
141.4298019
51
157.854097
0
ARC
8
DEFAULT_255_1_234
10
6.697661
20
0.7209381
40
0.4511509
50
102.8715806
51
140.8564722
0
ARC
8
DEFAULT_255_1_234
10
6.7624226
20
0.4769552
40
0.7034845
50
90.3778349
51
103.5869322
0
ARC
8
DEFAULT_255_1_234
10
6.5886002
20
0.416473
40
0.2370698
50
89.8751008
51
126.2071704
0
ARC
8
DEFAULT_255_1_234
10
6.5931792
20
0.4010303
40
0.2522934
50
124.9745049
51
144.895901
0
ARC
8
DEFAULT_255_1_234
10
6.5755982
20
0.415356
40
0.2296779
50
145.2974905
51
160.2660252
0
ARC
8
DEFAULT_255_1_234
10
6.8828521
20
0.4351071
40
0.5234525
50
179.6514266
51
190.2855912
0
ARC
8
DEFAULT_255_1_234
10
6.7134658
20
0.4031786
40
0.3510893
50
190.0945431
51
207.5098196
0
ARC
8
DEFAULT_255_1_234
10
6.6568928
20
0.3762623
40
0.288489
50
207.9583163
51
216.3251085
0
ARC
8
DEFAULT_255_1_234
10
6.6229036
20
0.3483105
40
0.2445587
50
215.7661442
51
232.5456785
0
ARC
8
DEFAULT_255_1_234
10
6.5846019
20
0.2996482
40
0.1826382
50
232.8005391
51
270.6605633
0
ARC
8
DEFAULT_255_1_234
10
6.589172
20
0.3360612
40
0.2190529
50
269.35537
51
288.4744281
0
ARC
8
DEFAULT_255_1_234
10
6.5984617
20
0.3011118
40
0.1829749
50
289.1833337
51
322.9683818
0
ARC
8
DEFAULT_255_1_234
10
6.5373139
20
0.3493391
40
0.2608399
50
322.6007884
51
346.5182367
0
ARC
8
DEFAULT_255_1_234
10
6.4215735
20
0.3788616
40
0.3802777
50
346.2582162
51
358.7741648
0
ARC
8
DEFAULT_255_1_234
10
6.3197404
20
0.3843965
40
0.4822176
50
358.3755224
51
0.0098023
0
ARC
8
DEFAULT_255_1_234
10
6.3953591
20
0.3871657
40
0.4066078
50
359.6214041
51
11.2839074
0
ARC
8
DEFAULT_255_1_234
10
6.5230738
20
0.4138066
40
0.2761514
50
11.0482309
51
31.8146458
0
ARC
8
DEFAULT_255_1_234
10
6.5539781
20
0.4305584
40
0.2410679
50
32.3035391
51
38.082671
0
ARC
8
DEFAULT_255_1_234
10
6.5960441
20
0.4686662
40
0.1844966
50
36.825067
51
85.7415724
0
ARC
8
DEFAULT_255_1_234
10
6.5893274
20
0.4186301
40
0.2349122
50
85.0140713
51
90.0513278
0
LINE
8
DEFAULT_255_1_234
10
7.8243983
20
0.6768343
11
7.8243983
21
0.550736
0
LINE
8
DEFAULT_255_1_234
10
7.8243983
20
0.550736
11
7.3175957
21
0.550736
0
LINE
8
DEFAULT_255_1_234
10
7.3175957
20
0.550736
11
7.3175957
21
0.1362983
0
LINE
8
DEFAULT_255_1_234
10
7.3175957
20
0.1362983
11
7.9063221
21
0.1362983
0
LINE
8
DEFAULT_255_1_234
10
7.9063221
20
0.1362983
11
7.9063221
21
0.0102
0
LINE
8
DEFAULT_255_1_234
10
7.9063221
20
0.0102
11
7.1633863
21
0.0102
0
LINE
8
DEFAULT_255_1_234
10
7.1633863
20
0.0102
11
7.1633863
21
1.1796211
0
LINE
8
DEFAULT_255_1_234
10
7.1633863
20
1.1796211
11
7.8982903
21
1.1796211
0
LINE
8
DEFAULT_255_1_234
10
7.8982903
20
1.1796211
11
7.8982903
21
1.0527196
0
LINE
8
DEFAULT_255_1_234
10
7.8982903
20
1.0527196
11
7.3175957
21
1.0527196
0
LINE
8
DEFAULT_255_1_234
10
7.3175957
20
1.0527196
11
7.3175957
21
0.6768343
0
LINE
8
DEFAULT_255_1_234
10
7.3175957
20
0.6768343
11
7.8243983
21
0.6768343
0
LINE
8
DEFAULT_255_1_234
10
8.5279786
20
0.4680091
11
8.25249
21
0.4680091
0
LINE
8
DEFAULT_255_1_234
10
8.25249
20
0.4680091
11
8.25249
21
0.0102
0
LINE
8
DEFAULT_255_1_234
10
8.25249
20
0.0102
11
8.0982806
21
0.0102
0
LINE
8
DEFAULT_255_1_234
10
8.0982806
20
0.0102
11
8.0982806
21
1.1796211
0
LINE
8
DEFAULT_255_1_234
10
8.0982806
20
1.1796211
11
8.529585
21
1.1796211
0
LINE
8
DEFAULT_255_1_234
10
8.25249
20
1.0527196
11
8.25249
21
0.5941074
0
LINE
8
DEFAULT_255_1_234
10
8.25249
20
0.5941074
11
8.529585
21
0.5941074
0
LINE
8
DEFAULT_255_1_234
10
8.5384199
20
1.0527196
11
8.25249
21
1.0527196
0
ARC
8
DEFAULT_255_1_234
10
8.5337976
20
0.5737195
40
0.6059162
50
78.8378113
51
90.3983573
0
ARC
8
DEFAULT_255_1_234
10
8.575399
20
0.7757879
40
0.3996205
50
58.9632738
51
79.0810598
0
ARC
8
DEFAULT_255_1_234
10
8.6055532
20
0.8317721
40
0.3361177
50
48.0197965
51
58.447194
0
ARC
8
DEFAULT_255_1_234
10
8.6144393
20
0.8403225
40
0.3238191
50
3.3375044
51
48.1766626
0
ARC
8
DEFAULT_255_1_234
10
8.4914233
20
0.8226171
40
0.4477806
50
359.9477528
51
4.6829065
0
ARC
8
DEFAULT_255_1_234
10
8.503755
20
0.8183628
40
0.4354656
50
346.1877825
51
0.5060252
0
ARC
8
DEFAULT_255_1_234
10
8.6396417
20
0.7830731
40
0.295089
50
310.8831995
51
346.5426355
0
ARC
8
DEFAULT_255_1_234
10
8.6087837
20
0.8247695
40
0.3468331
50
286.6925341
51
310.2288297
0
ARC
8
DEFAULT_255_1_234
10
8.5518668
20
1.0037882
40
0.5346654
50
274.6850312
51
287.0245141
0
ARC
8
DEFAULT_255_1_234
10
8.5293391
20
1.2246932
40
0.7566852
50
269.8969846
51
275.018904
0
ARC
8
DEFAULT_255_1_234
10
8.5320982
20
1.0167707
40
0.4226708
50
269.6593078
51
279.4153575
0
ARC
8
DEFAULT_255_1_234
10
8.5578258
20
0.8677133
40
0.2714146
50
279.2049762
51
294.9900808
0
ARC
8
DEFAULT_255_1_234
10
8.5868583
20
0.8029508
40
0.2004525
50
295.2888114
51
311.2911209
0
ARC
8
DEFAULT_255_1_234
10
8.5939478
20
0.792422
40
0.1878703
50
311.7854996
51
347.2861051
0
ARC
8
DEFAULT_255_1_234
10
8.4955636
20
0.8177092
40
0.2894234
50
346.6893224
51
0.1059443
0
ARC
8
DEFAULT_255_1_234
10
8.4200531
20
0.8205685
40
0.3649409
50
359.6350983
51
0.0053152
0
ARC
8
DEFAULT_255_1_234
10
8.517086
20
0.8230937
40
0.2679199
50
359.4672059
51
15.5933957
0
ARC
8
DEFAULT_255_1_234
10
8.5795748
20
0.8399779
40
0.2031932
50
15.7442113
51
46.6203375
0
ARC
8
DEFAULT_255_1_234
10
8.5647969
20
0.8229484
40
0.2257226
50
46.8628658
51
75.6676503
0
ARC
8
DEFAULT_255_1_234
10
8.535379
20
0.7170718
40
0.3355939
50
75.276167
51
88.2915297
0
ARC
8
DEFAULT_255_1_234
10
8.5295496
20
0.6292524
40
0.4235602
50
87.8575022
51
88.8000139
0
LINE
8
DEFAULT_255_1_234
10
9.3134826
20
0.5459169
11
9.3134826
21
0.6671962
0
LINE
8
DEFAULT_255_1_234
10
9.3134826
20
0.6671962
11
9.4251238
21
0.6671962
0
LINE
8
DEFAULT_255_1_234
10
9.2347716
20
0.8728087
11
9.0861844
21
0.8728087
0
LINE
8
DEFAULT_255_1_234
10
9.0757432
20
0.3186187
11
9.2251335
21
0.3186187
0
LINE
8
DEFAULT_255_1_234
10
9.4251238
20
0.5459169
11
9.3134826
21
0.5459169
0
ARC
8
DEFAULT_255_1_234
10
9.4222104
20
1.0064713
40
0.3392876
50
270.4919872
51
281.8951556
0
ARC
8
DEFAULT_255_1_234
10
9.4463366
20
0.8962702
40
0.2264817
50
281.6691735
51
301.2943132
0
ARC
8
DEFAULT_255_1_234
10
9.4633576
20
0.8651304
40
0.1910381
50
301.7833094
51
311.7545298
0
ARC
8
DEFAULT_255_1_234
10
9.4725152
20
0.8549748
40
0.1773635
50
311.7323931
51
354.2802411
0
ARC
8
DEFAULT_255_1_234
10
9.3998777
20
0.8674722
40
0.2509385
50
353.0937916
51
0.1181479
0
ARC
8
DEFAULT_255_1_234
10
9.3537562
20
0.8722386
40
0.2970898
50
359.1805295
51
15.0453146
0
ARC
8
DEFAULT_255_1_234
10
9.4883399
20
0.9114992
40
0.1569564
50
13.9577229
51
77.6713066
0
ARC
8
DEFAULT_255_1_234
10
9.4496928
20
0.7729949
40
0.3006298
50
76.1116566
51
90.7026153
0
ARC
8
DEFAULT_255_1_234
10
9.4437766
20
0.8003545
40
0.2732568
50
89.5324876
51
103.531937
0
ARC
8
DEFAULT_255_1_234
10
9.4237211
20
0.8802884
40
0.1908508
50
103.2931773
51
133.5619022
0
ARC
8
DEFAULT_255_1_234
10
9.4192699
20
0.8862375
40
0.1834746
50
133.8349307
51
173.5344437
0
ARC
8
DEFAULT_255_1_234
10
9.4915742
20
0.8734213
40
0.2568033
50
172.5096846
51
180.1366907
0
ARC
8
DEFAULT_255_1_234
10
9.3964636
20
0.8768622
40
0.3103056
50
155.3484492
51
180.7484736
0
ARC
8
DEFAULT_255_1_234
10
9.3915725
20
0.8739846
40
0.3070957
50
131.5744599
51
154.4798489
0
ARC
8
DEFAULT_255_1_234
10
9.4228872
20
0.842331
40
0.3515643
50
96.9875458
51
131.9690667
0
ARC
8
DEFAULT_255_1_234
10
9.4448352
20
0.7177636
40
0.4779224
50
89.8596053
51
97.7825159
0
ARC
8
DEFAULT_255_1_234
10
9.4496415
20
0.6915616
40
0.5041361
50
78.3655447
51
90.4131539
0
ARC
8
DEFAULT_255_1_234
10
9.4854333
20
0.8574887
40
0.3344039
50
56.6229102
51
78.638727
0
ARC
8
DEFAULT_255_1_234
10
9.5069277
20
0.8950805
40
0.2912001
50
47.0253525
51
56.0854072
0
ARC
8
DEFAULT_255_1_234
10
9.5089057
20
0.8990223
40
0.2869704
50
10.9208013
51
46.7778124
0
ARC
8
DEFAULT_255_1_234
10
9.3725124
20
0.8674857
40
0.426899
50
359.6364486
51
11.6087304
0
ARC
8
DEFAULT_255_1_234
10
9.5559968
20
0.8659752
40
0.243409
50
332.3549906
51
359.7179418
0
ARC
8
DEFAULT_255_1_234
10
9.4909569
20
0.8968142
40
0.3153459
50
325.2333722
51
332.8745602
0
ARC
8
DEFAULT_255_1_234
10
9.5062193
20
0.8861828
40
0.2967456
50
292.9802137
51
325.2392345
0
ARC
8
DEFAULT_255_1_234
10
9.4787567
20
0.9395863
40
0.3566604
50
292.5402179
51
293.6924929
0
ARC
8
DEFAULT_255_1_234
10
9.5180163
20
0.2941091
40
0.3307468
50
57.6435486
51
72.8625112
0
ARC
8
DEFAULT_255_1_234
10
9.5534662
20
0.3515549
40
0.2632492
50
36.7248896
51
57.4697979
0
ARC
8
DEFAULT_255_1_234
10
9.5523295
20
0.352822
40
0.2634081
50
8.0545065
51
36.356114
0
ARC
8
DEFAULT_255_1_234
10
9.466048
20
0.3373174
40
0.3510261
50
359.8320645
51
8.5869982
0
ARC
8
DEFAULT_255_1_234
10
9.4285256
20
0.3325101
40
0.3885653
50
343.9829931
51
0.5571613
0
ARC
8
DEFAULT_255_1_234
10
9.5171454
20
0.3082438
40
0.2966924
50
311.6359546
51
343.7651759
0
ARC
8
DEFAULT_255_1_234
10
9.4793023
20
0.3509102
40
0.3537231
50
279.7829875
51
311.6255694
0
ARC
8
DEFAULT_255_1_234
10
9.4491799
20
0.494628
40
0.5004971
50
269.7286406
51
280.3856417
0
ARC
8
DEFAULT_255_1_234
10
9.4429872
20
0.4904996
40
0.4963778
50
256.6828919
51
270.4412052
0
ARC
8
DEFAULT_255_1_234
10
9.4091167
20
0.3520394
40
0.3538406
50
229.4223008
51
256.8556159
0
ARC
8
DEFAULT_255_1_234
10
9.367656
20
0.3053736
40
0.2914296
50
181.818294
51
229.6455059
0
ARC
8
DEFAULT_255_1_234
10
9.4716516
20
0.3184496
40
0.3959084
50
179.9755256
51
183.2323064
0
ARC
8
DEFAULT_255_1_234
10
9.4544262
20
0.3164037
40
0.2293034
50
179.4465117
51
196.2869258
0
ARC
8
DEFAULT_255_1_234
10
9.405667
20
0.3030651
40
0.1787621
50
196.5661473
51
227.705904
0
ARC
8
DEFAULT_255_1_234
10
9.4220765
20
0.3214155
40
0.2033784
50
227.7652068
51
257.8762805
0
ARC
8
DEFAULT_255_1_234
10
9.4445735
20
0.4157156
40
0.3003081
50
257.4584385
51
270.426602
0
ARC
8
DEFAULT_255_1_234
10
9.4491301
20
0.4446996
40
0.329292
50
269.5962073
51
280.8789248
0
ARC
8
DEFAULT_255_1_234
10
9.472083
20
0.3300685
40
0.2123908
50
280.6346389
51
299.8595945
0
ARC
8
DEFAULT_255_1_234
10
9.4911737
20
0.2938212
40
0.171457
50
300.3576302
51
314.5517981
0
ARC
8
DEFAULT_255_1_234
10
9.4828797
20
0.2998919
40
0.1816095
50
315.0728369
51
345.0431014
0
ARC
8
DEFAULT_255_1_234
10
9.3905611
20
0.3267841
40
0.2777492
50
344.5986631
51
357.9269593
0
ARC
8
DEFAULT_255_1_234
10
9.3009938
20
0.3329276
40
0.3674917
50
357.4748886
51
0.0231117
0
ARC
8
DEFAULT_255_1_234
10
9.4033047
20
0.3353679
40
0.2651907
50
359.5047933
51
13.4239635
0
ARC
8
DEFAULT_255_1_234
10
9.4899691
20
0.3575478
40
0.1757509
50
12.9498199
51
48.7551375
0
ARC
8
DEFAULT_255_1_234
10
9.4717425
20
0.33264
40
0.2065134
50
49.5088623
51
72.1836453
0
ARC
8
DEFAULT_255_1_234
10
9.4359577
20
0.2264291
40
0.3185836
50
71.9010081
51
84.3554254
0
ARC
8
DEFAULT_255_1_234
10
9.4198209
20
0.0903326
40
0.4556151
50
84.0193428
51
89.333121
0
LINE
8
DEFAULT_255_1_234
10
10.2371325
20
0.5459169
11
10.2371325
21
0.6671962
0
LINE
8
DEFAULT_255_1_234
10
10.2371325
20
0.6671962
11
10.3487737
21
0.6671962
0
LINE
8
DEFAULT_255_1_234
10
10.1584215
20
0.8728087
11
10.0098343
21
0.8728087
0
LINE
8
DEFAULT_255_1_234
10
9.9993931
20
0.3186187
11
10.1487834
21
0.3186187
0
LINE
8
DEFAULT_255_1_234
10
10.3487737
20
0.5459169
11
10.2371325
21
0.5459169
0
ARC
8
DEFAULT_255_1_234
10
10.3458603
20
1.0064713
40
0.3392876
50
270.4919872
51
281.8951556
0
ARC
8
DEFAULT_255_1_234
10
10.3699865
20
0.8962702
40
0.2264817
50
281.6691735
51
301.2943132
0
ARC
8
DEFAULT_255_1_234
10
10.3870075
20
0.8651304
40
0.1910381
50
301.7833094
51
311.7545298
0
ARC
8
DEFAULT_255_1_234
10
10.3961651
20
0.8549748
40
0.1773635
50
311.7323931
51
354.2802411
0
ARC
8
DEFAULT_255_1_234
10
10.3235276
20
0.8674722
40
0.2509385
50
353.0937916
51
0.1181479
0
ARC
8
DEFAULT_255_1_234
10
10.2774061
20
0.8722386
40
0.2970898
50
359.1805295
51
15.0453146
0
ARC
8
DEFAULT_255_1_234
10
10.4119898
20
0.9114992
40
0.1569564
50
13.9577229
51
77.6713066
0
ARC
8
DEFAULT_255_1_234
10
10.3733427
20
0.7729949
40
0.3006298
50
76.1116566
51
90.7026153
0
ARC
8
DEFAULT_255_1_234
10
10.3674266
20
0.8003545
40
0.2732568
50
89.5324876
51
103.531937
0
ARC
8
DEFAULT_255_1_234
10
10.347371
20
0.8802884
40
0.1908508
50
103.2931773
51
133.5619022
0
ARC
8
DEFAULT_255_1_234
10
10.3429198
20
0.8862375
40
0.1834746
50
133.8349307
51
173.5344437
0
ARC
8
DEFAULT_255_1_234
10
10.4152241
20
0.8734213
40
0.2568033
50
172.5096846
51
180.1366907
0
ARC
8
DEFAULT_255_1_234
10
10.3201135
20
0.8768622
40
0.3103056
50
155.3484492
51
180.7484736
0
ARC
8
DEFAULT_255_1_234
10
10.3152224
20
0.8739846
40
0.3070957
50
131.5744599
51
154.4798489
0
ARC
8
DEFAULT_255_1_234
10
10.3465371
20
0.842331
40
0.3515643
50
96.9875458
51
131.9690667
0
ARC
8
DEFAULT_255_1_234
10
10.3684851
20
0.7177636
40
0.4779224
50
89.8596053
51
97.7825159
0
ARC
8
DEFAULT_255_1_234
10
10.3732914
20
0.6915616
40
0.5041361
50
78.3655447
51
90.4131539
0
ARC
8
DEFAULT_255_1_234
10
10.4090832
20
0.8574887
40
0.3344039
50
56.6229102
51
78.638727
0
ARC
8
DEFAULT_255_1_234
10
10.4305776
20
0.8950805
40
0.2912001
50
47.0253525
51
56.0854072
0
ARC
8
DEFAULT_255_1_234
10
10.4325556
20
0.8990223
40
0.2869704
50
10.9208013
51
46.7778124
0
ARC
8
DEFAULT_255_1_234
10
10.2961623
20
0.8674857
40
0.426899
50
359.6364486
51
11.6087304
0
ARC
8
DEFAULT_255_1_234
10
10.4796467
20
0.8659752
40
0.243409
50
332.3549906
51
359.7179418
0
ARC
8
DEFAULT_255_1_234
10
10.4146068
20
0.8968142
40
0.3153459
50
325.2333722
51
332.8745602
0
ARC
8
DEFAULT_255_1_234
10
10.4298692
20
0.8861828
40
0.2967456
50
292.9802137
51
325.2392345
0
ARC
8
DEFAULT_255_1_234
10
10.4024066
20
0.9395863
40
0.3566604
50
292.5402179
51
293.6924929
0
ARC
8
DEFAULT_255_1_234
10
10.4416662
20
0.2941091
40
0.3307468
50
57.6435486
51
72.8625112
0
ARC
8
DEFAULT_255_1_234
10
10.4771161
20
0.3515549
40
0.2632492
50
36.7248896
51
57.4697979
0
ARC
8
DEFAULT_255_1_234
10
10.4759794
20
0.352822
40
0.2634081
50
8.0545065
51
36.356114
0
ARC
8
DEFAULT_255_1_234
10
10.3896979
20
0.3373174
40
0.3510261
50
359.8320645
51
8.5869982
0
ARC
8
DEFAULT_255_1_234
10
10.3521755
20
0.3325101
40
0.3885653
50
343.9829931
51
0.5571613
0
ARC
8
DEFAULT_255_1_234
10
10.4407953
20
0.3082438
40
0.2966924
50
311.6359546
51
343.7651759
0
ARC
8
DEFAULT_255_1_234
10
10.4029522
20
0.3509102
40
0.3537231
50
279.7829875
51
311.6255694
0
ARC
8
DEFAULT_255_1_234
10
10.3728298
20
0.494628
40
0.5004971
50
269.7286406
51
280.3856417
0
ARC
8
DEFAULT_255_1_234
10
10.3666371
20
0.4904996
40
0.4963778
50
256.6828919
51
270.4412052
0
ARC
8
DEFAULT_255_1_234
10
10.3327666
20
0.3520394
40
0.3538406
50
229.4223008
51
256.8556159
0
ARC
8
DEFAULT_255_1_234
10
10.2913059
20
0.3053736
40
0.2914296
50
181.818294
51
229.6455059
0
ARC
8
DEFAULT_255_1_234
10
10.3953016
20
0.3184496
40
0.3959084
50
179.9755256
51
183.2323064
0
ARC
8
DEFAULT_255_1_234
10
10.3780761
20
0.3164037
40
0.2293034
50
179.4465117
51
196.2869258
0
ARC
8
DEFAULT_255_1_234
10
10.3293169
20
0.3030651
40
0.1787621
50
196.5661473
51
227.705904
0
ARC
8
DEFAULT_255_1_234
10
10.3457264
20
0.3214155
40
0.2033784
50
227.7652068
51
257.8762805
0
ARC
8
DEFAULT_255_1_234
10
10.3682234
20
0.4157156
40
0.3003081
50
257.4584385
51
270.426602
0
ARC
8
DEFAULT_255_1_234
10
10.37278
20
0.4446996
40
0.329292
50
269.5962073
51
280.8789248
0
ARC
8
DEFAULT_255_1_234
10
10.3957329
20
0.3300685
40
0.2123908
50
280.6346389
51
299.8595945
0
ARC
8
DEFAULT_255_1_234
10
10.4148236
20
0.2938212
40
0.171457
50
300.3576302
51
314.5517981
0
ARC
8
DEFAULT_255_1_234
10
10.4065296
20
0.2998919
40
0.1816095
50
315.0728369
51
345.0431014
0
ARC
8
DEFAULT_255_1_234
10
10.314211
20
0.3267841
40
0.2777492
50
344.5986631
51
357.9269593
0
ARC
8
DEFAULT_255_1_234
10
10.2246437
20
0.3329276
40
0.3674917
50
357.4748886
51
0.0231117
0
ARC
8
DEFAULT_255_1_234
10
10.3269546
20
0.3353679
40
0.2651907
50
359.5047933
51
13.4239635
0
ARC
8
DEFAULT_255_1_234
10
10.413619
20
0.3575478
40
0.1757509
50
12.9498199
51
48.7551375
0
ARC
8
DEFAULT_255_1_234
10
10.3953924
20
0.33264
40
0.2065134
50
49.5088623
51
72.1836453
0
ARC
8
DEFAULT_255_1_234
10
10.3596076
20
0.2264291
40
0.3185836
50
71.9010081
51
84.3554254
0
ARC
8
DEFAULT_255_1_234
10
10.3434708
20
0.0903326
40
0.4556151
50
84.0193428
51
89.333121
0
LINE
8
DEFAULT_255_1_234
10
11.7109565
20
0.1314792
11
11.7109565
21
0.0102
0
LINE
8
DEFAULT_255_1_234
10
11.7109565
20
0.0102
11
10.9447287
21
0.0102
0
LINE
8
DEFAULT_255_1_234
10
10.9447287
20
0.0102
11
10.9447287
21
0.1170221
0
LINE
8
DEFAULT_255_1_234
10
10.9447287
20
0.1170221
11
11.3495283
21
0.5667995
0
LINE
8
DEFAULT_255_1_234
10
11.070827
20
0.8350595
11
10.9222398
21
0.8350595
0
LINE
8
DEFAULT_255_1_234
10
11.4370742
20
0.4712218
11
11.1238364
21
0.1314792
0
LINE
8
DEFAULT_255_1_234
10
11.1238364
20
0.1314792
11
11.7109565
21
0.1314792
0
ARC
8
DEFAULT_255_1_234
10
10.0005116
20
1.7597527
40
1.8008286
50
318.5132453
51
320.7828378
0
ARC
8
DEFAULT_255_1_234
10
10.529209
20
1.3294426
40
1.1191493
50
320.7372736
51
323.9737074
0
ARC
8
DEFAULT_255_1_234
10
10.9211947
20
1.0454361
40
0.6350923
50
323.8961724
51
328.6421089
0
ARC
8
DEFAULT_255_1_234
10
11.1258542
20
0.9192031
40
0.3946393
50
328.8299013
51
331.789948
0
ARC
8
DEFAULT_255_1_234
10
11.2255721
20
0.8677509
40
0.2824501
50
331.4255242
51
352.9364833
0
ARC
8
DEFAULT_255_1_234
10
11.2392221
20
0.8646976
40
0.2685315
50
353.2248685
51
0.0169286
0
ARC
8
DEFAULT_255_1_234
10
11.2602098
20
0.866995
40
0.2475536
50
359.4866256
51
15.9339782
0
ARC
8
DEFAULT_255_1_234
10
11.3109084
20
0.8806286
40
0.1950618
50
16.1714718
51
43.5284424
0
ARC
8
DEFAULT_255_1_234
10
11.3186392
20
0.8883573
40
0.184134
50
43.4415429
51
83.1661404
0
ARC
8
DEFAULT_255_1_234
10
11.305231
20
0.8146771
40
0.258926
50
82.160215
51
90.1505798
0
ARC
8
DEFAULT_255_1_234
10
11.3020738
20
0.7609865
40
0.3126255
50
89.5460705
51
102.5418777
0
ARC
8
DEFAULT_255_1_234
10
11.2777824
20
0.8640665
40
0.2067346
50
102.1739365
51
129.2061916
0
ARC
8
DEFAULT_255_1_234
10
11.2698896
20
0.8765094
40
0.1921118
50
129.7279328
51
135.7542026
0
ARC
8
DEFAULT_255_1_234
10
11.2820423
20
0.8668045
40
0.2075944
50
136.175737
51
166.3674722
0
ARC
8
DEFAULT_255_1_234
10
11.3827342
20
0.8398182
40
0.3118201
50
165.9092917
51
178.8683903
0
ARC
8
DEFAULT_255_1_234
10
11.4692204
20
0.8351179
40
0.3983935
50
178.438168
51
180.0083905
0
ARC
8
DEFAULT_255_1_234
10
11.3290806
20
0.8390231
40
0.4068601
50
163.2878735
51
180.5581814
0
ARC
8
DEFAULT_255_1_234
10
11.2489067
20
0.861084
40
0.3237344
50
133.454115
51
162.9470031
0
ARC
8
DEFAULT_255_1_234
10
11.2667609
20
0.8421
40
0.349795
50
100.7869394
51
133.4384016
0
ARC
8
DEFAULT_255_1_234
10
11.301538
20
0.6872319
40
0.5084616
50
89.6605301
51
101.3704185
0
ARC
8
DEFAULT_255_1_234
10
11.3081719
20
0.6933496
40
0.502348
50
78.2171172
51
90.4130393
0
ARC
8
DEFAULT_255_1_234
10
11.3436797
20
0.8557637
40
0.3361092
50
55.9268222
51
78.4888551
0
ARC
8
DEFAULT_255_1_234
10
11.3633237
20
0.8896324
40
0.2970617
50
47.9292255
51
55.4054003
0
ARC
8
DEFAULT_255_1_234
10
11.3734798
20
0.8999502
40
0.2825983
50
4.3347696
51
48.0560701
0
ARC
8
DEFAULT_255_1_234
10
11.2639192
20
0.8829601
40
0.393225
50
359.925209
51
5.5967654
0
ARC
8
DEFAULT_255_1_234
10
11.3068083
20
0.8885816
40
0.3503892
50
337.8914096
51
358.9967724
0
ARC
8
DEFAULT_255_1_234
10
11.0354495
20
0.9932706
40
0.6412172
50
326.9135351
51
338.3505194
0
ARC
8
DEFAULT_255_1_234
10
10.6368799
20
1.2487284
40
1.1146189
50
319.6472867
51
327.095818
0
ARC
8
DEFAULT_255_1_234
10
10.2535802
20
1.5649
40
1.6114559
50
317.2586784
51
319.9046139
0
LINE
8
DEFAULT_255_1_234
10
12.6346064
20
0.1314792
11
12.6346064
21
0.0102
0
LINE
8
DEFAULT_255_1_234
10
12.6346064
20
0.0102
11
11.8683786
21
0.0102
0
LINE
8
DEFAULT_255_1_234
10
11.8683786
20
0.0102
11
11.8683786
21
0.1170221
0
LINE
8
DEFAULT_255_1_234
10
11.8683786
20
0.1170221
11
12.2731782
21
0.5667995
0
LINE
8
DEFAULT_255_1_234
10
11.9944769
20
0.8350595
11
11.8458897
21
0.8350595
0
LINE
8
DEFAULT_255_1_234
10
12.3607241
20
0.4712218
11
12.0474863
21
0.1314792
0
LINE
8
DEFAULT_255_1_234
10
12.0474863
20
0.1314792
11
12.6346064
21
0.1314792
0
ARC
8
DEFAULT_255_1_234
10
10.9241615
20
1.7597527
40
1.8008286
50
318.5132453
51
320.7828378
0
ARC
8
DEFAULT_255_1_234
10
11.4528589
20
1.3294426
40
1.1191493
50
320.7372736
51
323.9737074
0
ARC
8
DEFAULT_255_1_234
10
11.8448446
20
1.0454361
40
0.6350923
50
323.8961724
51
328.6421089
0
ARC
8
DEFAULT_255_1_234
10
12.0495041
20
0.9192031
40
0.3946393
50
328.8299013
51
331.789948
0
ARC
8
DEFAULT_255_1_234
10
12.149222
20
0.8677509
40
0.2824501
50
331.4255242
51
352.9364833
0
ARC
8
DEFAULT_255_1_234
10
12.162872
20
0.8646976
40
0.2685315
50
353.2248685
51
0.0169286
0
ARC
8
DEFAULT_255_1_234
10
12.1838597
20
0.866995
40
0.2475536
50
359.4866256
51
15.9339782
0
ARC
8
DEFAULT_255_1_234
10
12.2345583
20
0.8806286
40
0.1950618
50
16.1714718
51
43.5284424
0
ARC
8
DEFAULT_255_1_234
10
12.2422891
20
0.8883573
40
0.184134
50
43.4415429
51
83.1661404
0
ARC
8
DEFAULT_255_1_234
10
12.2288809
20
0.8146771
40
0.258926
50
82.160215
51
90.1505798
0
ARC
8
DEFAULT_255_1_234
10
12.2257237
20
0.7609865
40
0.3126255
50
89.5460705
51
102.5418777
0
ARC
8
DEFAULT_255_1_234
10
12.2014323
20
0.8640665
40
0.2067346
50
102.1739365
51
129.2061916
0
ARC
8
DEFAULT_255_1_234
10
12.1935395
20
0.8765094
40
0.1921118
50
129.7279328
51
135.7542026
0
ARC
8
DEFAULT_255_1_234
10
12.2056922
20
0.8668045
40
0.2075944
50
136.175737
51
166.3674722
0
ARC
8
DEFAULT_255_1_234
10
12.3063841
20
0.8398182
40
0.3118201
50
165.9092917
51
178.8683903
0
ARC
8
DEFAULT_255_1_234
10
12.3928703
20
0.8351179
40
0.3983935
50
178.438168
51
180.0083905
0
ARC
8
DEFAULT_255_1_234
10
12.2527305
20
0.8390231
40
0.4068601
50
163.2878735
51
180.5581814
0
ARC
8
DEFAULT_255_1_234
10
12.1725566
20
0.861084
40
0.3237344
50
133.454115
51
162.9470031
0
ARC
8
DEFAULT_255_1_234
10
12.1904108
20
0.8421
40
0.349795
50
100.7869394
51
133.4384016
0
ARC
8
DEFAULT_255_1_234
10
12.2251879
20
0.6872319
40
0.5084616
50
89.6605301
51
101.3704185
0
ARC
8
DEFAULT_255_1_234
10
12.2318218
20
0.6933496
40
0.502348
50
78.2171172
51
90.4130393
0
ARC
8
DEFAULT_255_1_234
10
12.2673296
20
0.8557637
40
0.3361092
50
55.9268222
51
78.4888551
0
ARC
8
DEFAULT_255_1_234
10
12.2869736
20
0.8896324
40
0.2970617
50
47.9292255
51
55.4054003
0
ARC
8
DEFAULT_255_1_234
10
12.2971297
20
0.8999502
40
0.2825983
50
4.3347696
51
48.0560701
0
ARC
8
DEFAULT_255_1_234
10
12.1875691
20
0.8829601
40
0.393225
50
359.925209
51
5.5967654
0
ARC
8
DEFAULT_255_1_234
10
12.2304582
20
0.8885816
40
0.3503892
50
337.8914096
51
358.9967724
0
ARC
8
DEFAULT_255_1_234
10
11.9590994
20
0.9932706
40
0.6412172
50
326.9135351
51
338.3505194
0
ARC
8
DEFAULT_255_1_234
10
11.5605298
20
1.2487284
40
1.1146189
50
319.6472867
51
327.095818
0
ARC
8
DEFAULT_255_1_234
10
11.1772301
20
1.5649
40
1.6114559
50
317.2586784
51
319.9046139
0
LINE
8
DEFAULT_255_1_234
10
13.1165107
20
0.5676026
11
13.1165107
21
0.4463234
0
LINE
8
DEFAULT_255_1_234
10
13.1165107
20
0.4463234
11
12.7245619
21
0.4463234
0
LINE
8
DEFAULT_255_1_234
10
12.7245619
20
0.4463234
11
12.7245619
21
0.5676026
0
LINE
8
DEFAULT_255_1_234
10
12.7245619
20
0.5676026
11
13.1165107
21
0.5676026
0
LINE
8
DEFAULT_255_1_234
10
13.8024211
20
1.1804243
11
13.8289259
21
1.1804243
0
LINE
8
DEFAULT_255_1_234
10
13.8289259
20
1.1804243
11
13.8289259
21
1.054326
0
LINE
8
DEFAULT_255_1_234
10
13.8289259
20
1.054326
11
13.801618
21
1.054326
0
LINE
8
DEFAULT_255_1_234
10
13.2546566
20
0.4551583
11
13.2546566
21
0.5121836
0
LINE
8
DEFAULT_255_1_234
10
13.4040469
20
0.4929075
11
13.4040469
21
0.4382917
0
ARC
8
DEFAULT_255_1_234
10
13.8068528
20
0.5545455
40
0.4998079
50
90.6001036
51
104.514704
0
ARC
8
DEFAULT_255_1_234
10
13.7680043
20
0.6990131
40
0.3502176
50
104.2855254
51
133.862935
0
ARC
8
DEFAULT_255_1_234
10
13.7843801
20
0.688183
40
0.3693984
50
134.5302688
51
161.6210873
0
ARC
8
DEFAULT_255_1_234
10
13.9496989
20
0.6298895
40
0.5446739
50
161.2849839
51
174.2076652
0
ARC
8
DEFAULT_255_1_234
10
14.0903926
20
0.6104787
40
0.6866274
50
173.7810589
51
174.9254635
0
ARC
8
DEFAULT_255_1_234
10
13.6353758
20
0.4721839
40
0.3033419
50
95.8330959
51
138.9954921
0
ARC
8
DEFAULT_255_1_234
10
13.6577114
20
0.3443375
40
0.4328947
50
89.8753725
51
97.0544009
0
ARC
8
DEFAULT_255_1_234
10
13.662458
20
0.4278748
40
0.3493769
50
71.6407809
51
90.6240094
0
ARC
8
DEFAULT_255_1_234
10
13.6775154
20
0.4833082
40
0.2920396
50
39.6367836
51
71.019018
0
ARC
8
DEFAULT_255_1_234
10
13.6138627
20
0.4282998
40
0.3761538
50
10.658731
51
39.9043955
0
ARC
8
DEFAULT_255_1_234
10
13.459071
20
0.3946686
40
0.5345136
50
359.682601
51
11.132623
0
ARC
8
DEFAULT_255_1_234
10
13.455084
20
0.387601
40
0.5385081
50
347.2486944
51
0.4369317
0
ARC
8
DEFAULT_255_1_234
10
13.6218317
20
0.3474807
40
0.3670249
50
318.1409698
51
347.6118597
0
ARC
8
DEFAULT_255_1_234
10
13.654331
20
0.3207702
40
0.3250007
50
275.6342139
51
317.8248465
0
ARC
8
DEFAULT_255_1_234
10
13.6322422
20
0.4507219
40
0.4565864
50
269.8874292
51
276.7917694
0
ARC
8
DEFAULT_255_1_234
10
13.6267492
20
0.3481743
40
0.3540676
50
246.9140195
51
270.7437342
0
ARC
8
DEFAULT_255_1_234
10
13.6273883
20
0.3339384
40
0.3412781
50
218.1665114
51
245.878116
0
ARC
8
DEFAULT_255_1_234
10
13.7153343
20
0.4075279
40
0.455911
50
191.4115814
51
218.6077802
0
ARC
8
DEFAULT_255_1_234
10
13.9091433
20
0.4509833
40
0.6545001
50
179.6345085
51
191.7836486
0
ARC
8
DEFAULT_255_1_234
10
14.4673769
20
0.5188697
40
1.2127388
50
171.4525249
51
180.3158839
0
ARC
8
DEFAULT_255_1_234
10
14.0278645
20
0.5872608
40
0.7679464
50
157.9802646
51
171.6246686
0
ARC
8
DEFAULT_255_1_234
10
13.8064666
20
0.6755421
40
0.5296008
50
141.4298019
51
157.854097
0
ARC
8
DEFAULT_255_1_234
10
13.7422987
20
0.7209381
40
0.4511509
50
102.8715806
51
140.8564722
0
ARC
8
DEFAULT_255_1_234
10
13.8070602
20
0.4769552
40
0.7034845
50
90.3778349
51
103.5869322
0
ARC
8
DEFAULT_255_1_234
10
13.6332379
20
0.416473
40
0.2370698
50
89.8751008
51
126.2071704
0
ARC
8
DEFAULT_255_1_234
10
13.6378168
20
0.4010303
40
0.2522934
50
124.9745049
51
144.895901
0
ARC
8
DEFAULT_255_1_234
10
13.6202359
20
0.415356
40
0.2296779
50
145.2974905
51
160.2660252
0
ARC
8
DEFAULT_255_1_234
10
13.9274898
20
0.4351071
40
0.5234525
50
179.6514266
51
190.2855912
0
ARC
8
DEFAULT_255_1_234
10
13.7581035
20
0.4031786
40
0.3510893
50
190.0945431
51
207.5098196
0
ARC
8
DEFAULT_255_1_234
10
13.7015305
20
0.3762623
40
0.288489
50
207.9583163
51
216.3251085
0
ARC
8
DEFAULT_255_1_234
10
13.6675412
20
0.3483105
40
0.2445587
50
215.7661442
51
232.5456785
0
ARC
8
DEFAULT_255_1_234
10
13.6292395
20
0.2996482
40
0.1826382
50
232.8005391
51
270.6605633
0
ARC
8
DEFAULT_255_1_234
10
13.6338096
20
0.3360612
40
0.2190529
50
269.35537
51
288.4744281
0
ARC
8
DEFAULT_255_1_234
10
13.6430993
20
0.3011118
40
0.1829749
50
289.1833337
51
322.9683818
0
ARC
8
DEFAULT_255_1_234
10
13.5819516
20
0.3493391
40
0.2608399
50
322.6007884
51
346.5182367
0
ARC
8
DEFAULT_255_1_234
10
13.4662112
20
0.3788616
40
0.3802777
50
346.2582162
51
358.7741648
0
ARC
8
DEFAULT_255_1_234
10
13.364378
20
0.3843965
40
0.4822176
50
358.3755224
51
0.0098023
0
ARC
8
DEFAULT_255_1_234
10
13.4399968
20
0.3871657
40
0.4066078
50
359.6214041
51
11.2839074
0
ARC
8
DEFAULT_255_1_234
10
13.5677115
20
0.4138066
40
0.2761514
50
11.0482309
51
31.8146458
0
ARC
8
DEFAULT_255_1_234
10
13.5986157
20
0.4305584
40
0.2410679
50
32.3035391
51
38.082671
0
ARC
8
DEFAULT_255_1_234
10
13.6406817
20
0.4686662
40
0.1844966
50
36.825067
51
85.7415724
0
ARC
8
DEFAULT_255_1_234
10
13.6339651
20
0.4186301
40
0.2349122
50
85.0140713
51
90.0513278
0
LINE
8
DEFAULT_255_1_234
10
14.9838898
20
0.8414849
11
14.8288773
21
0.8414849
0
LINE
8
DEFAULT_255_1_234
10
14.1365415
20
0.3491394
11
14.291554
21
0.3491394
0
ARC
8
DEFAULT_255_1_234
10
14.8947586
20
1.7361768
40
1.252368
50
248.9199003
51
254.1439814
0
ARC
8
DEFAULT_255_1_234
10
14.7267081
20
1.3035234
40
0.788226
50
241.633709
51
249.0064503
0
ARC
8
DEFAULT_255_1_234
10
14.5738475
20
1.0234317
40
0.4691427
50
230.498225
51
241.8087113
0
ARC
8
DEFAULT_255_1_234
10
14.4954049
20
0.9234906
40
0.3421437
50
227.4064532
51
229.9881192
0
ARC
8
DEFAULT_255_1_234
10
14.446657
20
0.8759088
40
0.2741476
50
200.6781896
51
228.1763934
0
ARC
8
DEFAULT_255_1_234
10
14.4538881
20
0.8744077
40
0.2804109
50
179.5061581
51
199.8694617
0
ARC
8
DEFAULT_255_1_234
10
14.4529632
20
0.881821
40
0.2795204
50
132.4834203
51
181.0242172
0
ARC
8
DEFAULT_255_1_234
10
14.5125215
20
0.8255704
40
0.3612768
50
129.2532479
51
133.4242687
0
ARC
8
DEFAULT_255_1_234
10
14.5271664
20
0.8035965
40
0.3875675
50
101.98776
51
128.8742646
0
ARC
8
DEFAULT_255_1_234
10
14.5670275
20
0.6314741
40
0.5642249
50
89.5906553
51
102.3169264
0
ARC
8
DEFAULT_255_1_234
10
14.5740767
20
0.6633148
40
0.5323783
50
77.2360837
51
90.3248275
0
ARC
8
DEFAULT_255_1_234
10
14.5947846
20
0.76004
40
0.4334697
50
63.837784
51
77.0809408
0
ARC
8
DEFAULT_255_1_234
10
14.6225608
20
0.8117911
40
0.3747796
50
45.9864267
51
64.1607727
0
ARC
8
DEFAULT_255_1_234
10
14.6486489
20
0.8415866
40
0.3352302
50
32.2747395
51
45.6547121
0
ARC
8
DEFAULT_255_1_234
10
14.655293
20
0.843488
40
0.328603
50
359.6507365
51
32.6130309
0
ARC
8
DEFAULT_255_1_234
10
14.5610025
20
0.843966
40
0.2678863
50
359.469343
51
14.9832209
0
ARC
8
DEFAULT_255_1_234
10
14.6315088
20
0.8628539
40
0.1948938
50
14.9781179
51
48.2004265
0
ARC
8
DEFAULT_255_1_234
10
14.6150732
20
0.8421983
40
0.2212521
50
48.5927837
51
74.1241538
0
ARC
8
DEFAULT_255_1_234
10
14.5817221
20
0.7321248
40
0.3362561
50
73.7888341
51
86.6652678
0
ARC
8
DEFAULT_255_1_234
10
14.5714787
20
0.6113881
40
0.4573953
50
86.2640471
51
90.0526343
0
ARC
8
DEFAULT_255_1_234
10
14.5686499
20
0.6509192
40
0.4178709
50
89.6697524
51
99.2309573
0
ARC
8
DEFAULT_255_1_234
10
14.544395
20
0.7953964
40
0.2713749
50
99.069534
51
113.7658566
0
ARC
8
DEFAULT_255_1_234
10
14.5170141
20
0.8599677
40
0.2012469
50
114.0401004
51
127.9850673
0
ARC
8
DEFAULT_255_1_234
10
14.4929705
20
0.889573
40
0.1631167
50
127.7287463
51
176.7105154
0
ARC
8
DEFAULT_255_1_234
10
14.5608423
20
0.8794693
40
0.2315392
50
175.1779447
51
180.0581938
0
ARC
8
DEFAULT_255_1_234
10
14.4765269
20
0.8782428
40
0.1472271
50
179.6142195
51
228.1246017
0
ARC
8
DEFAULT_255_1_234
10
14.5206938
20
0.9191308
40
0.2072299
50
226.5779593
51
230.8800004
0
ARC
8
DEFAULT_255_1_234
10
14.5678017
20
0.9816636
40
0.2854818
50
231.4635071
51
241.9260842
0
ARC
8
DEFAULT_255_1_234
10
14.6875195
20
1.20198
40
0.53622
50
241.7178533
51
248.3259551
0
ARC
8
DEFAULT_255_1_234
10
14.8260567
20
1.5452064
40
0.9063478
50
248.2007737
51
252.4528373
0
ARC
8
DEFAULT_255_1_234
10
14.9464292
20
1.9173441
40
1.2974635
50
252.3391078
51
254.3469452
0
ARC
8
DEFAULT_255_1_234
10
14.1921994
20
-0.7803852
40
1.5037162
50
71.0197183
51
74.4087047
0
ARC
8
DEFAULT_255_1_234
10
14.3616679
20
-0.2911889
40
0.9859993
50
66.1847285
51
71.086374
0
ARC
8
DEFAULT_255_1_234
10
14.5172992
20
0.05922
40
0.6025855
50
59.3536294
51
66.2691831
0
ARC
8
DEFAULT_255_1_234
10
14.6061644
20
0.2095609
40
0.4279449
50
49.1020879
51
59.3293958
0
ARC
8
DEFAULT_255_1_234
10
14.6880384
20
0.3028834
40
0.3038015
50
32.7919921
51
49.2505539
0
ARC
8
DEFAULT_255_1_234
10
14.7201474
20
0.3257191
40
0.264448
50
31.1181161
51
32.4005348
0
ARC
8
DEFAULT_255_1_234
10
14.7113012
20
0.3221779
40
0.2738556
50
8.1116974
51
30.7958831
0
ARC
8
DEFAULT_255_1_234
10
14.630268
20
0.3083753
40
0.3560327
50
359.8389159
51
8.4706516
0
ARC
8
DEFAULT_255_1_234
10
14.6928471
20
0.3035137
40
0.2934776
50
337.4731098
51
0.7537279
0
ARC
8
DEFAULT_255_1_234
10
14.7107166
20
0.3015387
40
0.2762607
50
307.5917067
51
336.4315538
0
ARC
8
DEFAULT_255_1_234
10
14.6646994
20
0.3528102
40
0.3449979
50
307.6551545
51
308.4529766
0
ARC
8
DEFAULT_255_1_234
10
14.6416713
20
0.388325
40
0.3871988
50
284.3734338
51
307.1424381
0
ARC
8
DEFAULT_255_1_234
10
14.5921543
20
0.5704932
40
0.5759636
50
272.4382747
51
284.646547
0
ARC
8
DEFAULT_255_1_234
10
14.5794752
20
0.7504893
40
0.7563528
50
269.9708387
51
272.8178037
0
ARC
8
DEFAULT_255_1_234
10
14.5751791
20
0.5466716
40
0.5525489
50
248.2707594
51
270.4055579
0
ARC
8
DEFAULT_255_1_234
10
14.5697533
20
0.5276192
40
0.5328452
50
246.1383403
51
248.0542782
0
ARC
8
DEFAULT_255_1_234
10
14.5278912
20
0.4396843
40
0.4355005
50
233.1670131
51
246.4950969
0
ARC
8
DEFAULT_255_1_234
10
14.4724816
20
0.3648812
40
0.3424126
50
215.3403242
51
233.0843104
0
ARC
8
DEFAULT_255_1_234
10
14.4452248
20
0.3450549
40
0.3087104
50
179.2419209
51
215.2648451
0
ARC
8
DEFAULT_255_1_234
10
14.5219842
20
0.3464666
40
0.2304457
50
179.335461
51
199.1045811
0
ARC
8
DEFAULT_255_1_234
10
14.4887518
20
0.3377766
40
0.1962176
50
199.8828939
51
232.7063202
0
ARC
8
DEFAULT_255_1_234
10
14.5359787
20
0.3971788
40
0.2720938
50
232.3738199
51
255.5136649
0
ARC
8
DEFAULT_255_1_234
10
14.5700653
20
0.5215835
40
0.4010747
50
255.2446292
51
267.5320849
0
ARC
8
DEFAULT_255_1_234
10
14.5788277
20
0.6448702
40
0.5246356
50
267.1557994
51
270.0286766
0
ARC
8
DEFAULT_255_1_234
10
14.5816049
20
0.600495
40
0.4802668
50
269.7000017
51
278.1660162
0
ARC
8
DEFAULT_255_1_234
10
14.6072054
20
0.4274515
40
0.3053425
50
278.0231263
51
290.625471
0
ARC
8
DEFAULT_255_1_234
10
14.6419741
20
0.3347025
40
0.206291
50
290.6619762
51
307.0370976
0
ARC
8
DEFAULT_255_1_234
10
14.672013
20
0.2978504
40
0.1587906
50
306.3943566
51
355.3030547
0
ARC
8
DEFAULT_255_1_234
10
14.6208061
20
0.3055113
40
0.2104809
50
354.3660432
51
0.0698737
0
ARC
8
DEFAULT_255_1_234
10
14.6350407
20
0.3077617
40
0.1962563
50
359.417946
51
16.1971788
0
ARC
8
DEFAULT_255_1_234
10
14.6805717
20
0.3202418
40
0.149053
50
16.4723299
51
52.6262157
0
ARC
8
DEFAULT_255_1_234
10
14.5984771
20
0.2118433
40
0.2850296
50
52.7386432
51
62.4979148
0
ARC
8
DEFAULT_255_1_234
10
14.4599848
20
-0.0487717
40
0.5801521
50
62.2515216
51
68.1220564
0
ARC
8
DEFAULT_255_1_234
10
14.2879759
20
-0.4715128
40
1.0365451
50
68.0062803
51
71.8053402
0
ARC
8
DEFAULT_255_1_234
10
14.108413
20
-1.0100242
40
1.6042013
50
71.7183119
51
73.9258742
0
LINE
8
DEFAULT_255_1_234
10
15.5894829
20
0.0102
11
15.1838801
21
0.0102
0
LINE
8
DEFAULT_255_1_234
10
15.1838801
20
0.0102
11
15.1838801
21
1.1796211
0
LINE
8
DEFAULT_255_1_234
10
15.1838801
20
1.1796211
11
15.5661909
21
1.1796211
0
LINE
8
DEFAULT_255_1_234
10
15.5951051
20
0.5571614
11
15.3380895
21
0.5571614
0
LINE
8
DEFAULT_255_1_234
10
15.3380895
20
0.5571614
11
15.3380895
21
0.1362983
0
LINE
8
DEFAULT_255_1_234
10
15.3380895
20
0.1362983
11
15.5926956
21
0.1362983
0
LINE
8
DEFAULT_255_1_234
10
15.3380895
20
1.0527196
11
15.3380895
21
0.6808501
0
LINE
8
DEFAULT_255_1_234
10
15.3380895
20
0.6808501
11
15.5710099
21
0.6808501
0
LINE
8
DEFAULT_255_1_234
10
15.5661909
20
1.0527196
11
15.3380895
21
1.0527196
0
ARC
8
DEFAULT_255_1_234
10
15.5699617
20
0.4428901
40
0.7367406
50
82.1257326
51
90.2932599
0
ARC
8
DEFAULT_255_1_234
10
15.6088572
20
0.7147013
40
0.4621653
50
69.9044149
51
82.2857423
0
ARC
8
DEFAULT_255_1_234
10
15.665925
20
0.8689637
40
0.2976871
50
51.1838526
51
70.0181538
0
ARC
8
DEFAULT_255_1_234
10
15.6914216
20
0.906024
40
0.2528517
50
12.1017251
51
50.4214761
0
ARC
8
DEFAULT_255_1_234
10
15.553009
20
0.8712676
40
0.3955061
50
359.5251267
51
12.8211707
0
ARC
8
DEFAULT_255_1_234
10
15.7110017
20
0.8643344
40
0.2375281
50
323.4908128
51
0.8817314
0
ARC
8
DEFAULT_255_1_234
10
15.6691703
20
0.896655
40
0.2903817
50
298.6825083
51
323.2756573
0
ARC
8
DEFAULT_255_1_234
10
15.6330066
20
0.9567649
40
0.3604842
50
293.1999386
51
299.1396394
0
ARC
8
DEFAULT_255_1_234
10
15.7003039
20
0.3482126
40
0.2871098
50
54.0011765
51
74.9167975
0
ARC
8
DEFAULT_255_1_234
10
15.7119399
20
0.3679332
40
0.2643248
50
36.3580696
51
53.5291921
0
ARC
8
DEFAULT_255_1_234
10
15.6992641
20
0.3588998
40
0.2798884
50
4.8189881
51
36.3089977
0
ARC
8
DEFAULT_255_1_234
10
15.6213476
20
0.347927
40
0.358478
50
359.9370252
51
5.5204067
0
ARC
8
DEFAULT_255_1_234
10
15.5888997
20
0.3438667
40
0.3909429
50
344.7478609
51
0.5373281
0
ARC
8
DEFAULT_255_1_234
10
15.6879969
20
0.3171544
40
0.2883093
50
311.1786488
51
344.6886812
0
ARC
8
DEFAULT_255_1_234
10
15.6588016
20
0.3534987
40
0.3348923
50
286.0418249
51
310.8441291
0
ARC
8
DEFAULT_255_1_234
10
15.6080848
20
0.5181807
40
0.5071869
50
274.1042341
51
286.4071509
0
ARC
8
DEFAULT_255_1_234
10
15.5904103
20
0.7065229
40
0.6963234
50
269.9236873
51
274.445647
0
ARC
8
DEFAULT_255_1_234
10
15.5950104
20
0.4725537
40
0.3362634
50
269.6055768
51
281.3740047
0
ARC
8
DEFAULT_255_1_234
10
15.6180742
20
0.3632353
40
0.224546
50
281.1055983
51
302.5132223
0
ARC
8
DEFAULT_255_1_234
10
15.6327642
20
0.3368823
40
0.1944357
50
303.0368945
51
311.8811219
0
ARC
8
DEFAULT_255_1_234
10
15.6399048
20
0.328389
40
0.1833454
50
311.9916004
51
351.7143462
0
ARC
8
DEFAULT_255_1_234
10
15.5582278
20
0.344893
40
0.2665871
50
350.7339597
51
0.2221581
0
ARC
8
DEFAULT_255_1_234
10
15.5474724
20
0.3505467
40
0.2773789
50
359.0456241
51
17.2296242
0
ARC
8
DEFAULT_255_1_234
10
15.6513841
20
0.3814163
40
0.1689915
50
17.6685481
51
78.9940892
0
ARC
8
DEFAULT_255_1_234
10
15.5997005
20
0.1959224
40
0.3612658
50
76.5635957
51
90.6980921
0
LINE
8
DEFAULT_255_1_234
10
15.595299
20
0.5571613
11
15.5951051
21
0.5571614
0
ARC
8
DEFAULT_255_1_234
10
15.5732666
20
1.0094036
40
0.3285612
50
269.6064736
51
281.4533503
0
ARC
8
DEFAULT_255_1_234
10
15.5955485
20
0.9042688
40
0.2210975
50
281.2041486
51
302.5148063
0
ARC
8
DEFAULT_255_1_234
10
15.6092335
20
0.8796241
40
0.1929674
50
303.021671
51
309.8369575
0
ARC
8
DEFAULT_255_1_234
10
15.6275797
20
0.8590488
40
0.1654181
50
309.5228395
51
356.9509836
0
ARC
8
DEFAULT_255_1_234
10
15.5612379
20
0.8685932
40
0.2322512
50
355.4701227
51
0.0492546
0
ARC
8
DEFAULT_255_1_234
10
15.533347
20
0.8708094
40
0.2601498
50
359.5558597
51
11.2096359
0
ARC
8
DEFAULT_255_1_234
10
15.629076
20
0.890623
40
0.1623975
50
10.9182341
51
31.3230275
0
ARC
8
DEFAULT_255_1_234
10
15.6576494
20
0.9065214
40
0.1297302
50
31.8852677
51
52.1412565
0
ARC
8
DEFAULT_255_1_234
10
15.6302226
20
0.867775
40
0.1771663
50
52.8285564
51
71.9850297
0
ARC
8
DEFAULT_255_1_234
10
15.5926403
20
0.7571664
40
0.2939794
50
71.6863486
51
82.8455995
0
ARC
8
DEFAULT_255_1_234
10
15.5686939
20
0.5762149
40
0.476506
50
82.6984714
51
90.1729175
0
ARC
8
DEFAULT_255_1_234
10
15.5664574
20
0.6985623
40
0.3541573
50
89.8708275
51
90.0431131
0
LINE
8
DEFAULT_255_1_234
10
16.9026721
20
0.7017327
11
16.9026721
21
0.5089709
0
LINE
8
DEFAULT_255_1_234
10
16.1645554
20
0.4888916
11
16.1645554
21
0.6872755
0
LINE
8
DEFAULT_255_1_234
10
16.754085
20
0.4688123
11
16.754085
21
0.7121739
0
LINE
8
DEFAULT_255_1_234
10
16.3131425
20
0.7234184
11
16.3131425
21
0.4856789
0
ARC
8
DEFAULT_255_1_234
10
15.6779611
20
0.5040805
40
1.2247208
50
353.8441951
51
0.2287902
0
ARC
8
DEFAULT_255_1_234
10
16.1419114
20
0.4522806
40
0.7578929
50
344.4934747
51
353.9765454
0
ARC
8
DEFAULT_255_1_234
10
16.4411705
20
0.3671981
40
0.4467846
50
329.2803592
51
344.7472793
0
ARC
8
DEFAULT_255_1_234
10
16.5404529
20
0.3127018
40
0.3336173
50
324.9352394
51
328.6160465
0
ARC
8
DEFAULT_255_1_234
10
16.5781638
20
0.2863427
40
0.2876076
50
280.580143
51
324.9173126
0
ARC
8
DEFAULT_255_1_234
10
16.5380431
20
0.4534099
40
0.4592847
50
269.5977311
51
281.6734359
0
ARC
8
DEFAULT_255_1_234
10
16.5308336
20
0.4414173
40
0.4472986
50
256.6228859
51
270.51044
0
ARC
8
DEFAULT_255_1_234
10
16.4906314
20
0.2865877
40
0.2873874
50
215.8618325
51
257.2788573
0
ARC
8
DEFAULT_255_1_234
10
16.5927346
20
0.3550977
40
0.4102928
50
197.9693508
51
215.2623606
0
ARC
8
DEFAULT_255_1_234
10
16.8412461
20
0.4389709
40
0.6725652
50
187.8816417
51
198.2346507
0
ARC
8
DEFAULT_255_1_234
10
17.237067
20
0.4961079
40
1.0724845
50
180.8976217
51
188.0055519
0
ARC
8
DEFAULT_255_1_234
10
17.5170858
20
0.5064777
40
1.3526448
50
180.7449369
51
181.1510016
0
ARC
8
DEFAULT_255_1_234
10
17.3593587
20
0.6921042
40
1.1948131
50
173.7675579
51
180.231553
0
ARC
8
DEFAULT_255_1_234
10
16.9075733
20
0.7431666
40
0.7401564
50
164.3058563
51
173.9002247
0
ARC
8
DEFAULT_255_1_234
10
16.6163802
20
0.8270656
40
0.4371288
50
148.7922025
51
164.568378
0
ARC
8
DEFAULT_255_1_234
10
16.5212255
20
0.8801929
40
0.3282386
50
144.5883898
51
148.1176286
0
ARC
8
DEFAULT_255_1_234
10
16.4869152
20
0.9041315
40
0.2864044
50
101.6440918
51
144.514236
0
ARC
8
DEFAULT_255_1_234
10
16.5294219
20
0.7352069
40
0.4604934
50
89.5284041
51
102.5819763
0
ARC
8
DEFAULT_255_1_234
10
16.5373307
20
0.7313018
40
0.464401
50
77.0437873
51
90.5081339
0
ARC
8
DEFAULT_255_1_234
10
16.5775309
20
0.8955615
40
0.2953195
50
48.2778575
51
77.4994676
0
ARC
8
DEFAULT_255_1_234
10
16.584794
20
0.9084746
40
0.2808655
50
36.3142134
51
47.6305865
0
ARC
8
DEFAULT_255_1_234
10
16.4979247
20
0.8499515
40
0.3855453
50
18.2931786
51
35.6769206
0
ARC
8
DEFAULT_255_1_234
10
16.2436006
20
0.7626593
40
0.654423
50
8.024666
51
18.5605216
0
ARC
8
DEFAULT_255_1_234
10
15.8272926
20
0.7011792
40
1.0752407
50
1.1274072
51
8.1718305
0
ARC
8
DEFAULT_255_1_234
10
15.5037116
20
0.6884885
40
1.3990231
50
0.5424119
51
1.3863029
0
ARC
8
DEFAULT_255_1_234
10
15.6858494
20
0.7157342
40
1.0682415
50
359.8090433
51
4.9407866
0
ARC
8
DEFAULT_255_1_234
10
16.1068508
20
0.7533113
40
0.6455691
50
4.8362157
51
12.2904523
0
ARC
8
DEFAULT_255_1_234
10
16.3823623
20
0.8146965
40
0.3633074
50
12.0805627
51
23.8173984
0
ARC
8
DEFAULT_255_1_234
10
16.4997328
20
0.8643919
40
0.2358723
50
24.2871213
51
31.3935614
0
ARC
8
DEFAULT_255_1_234
10
16.5522026
20
0.8987233
40
0.1732111
50
30.7407893
51
82.4657128
0
ARC
8
DEFAULT_255_1_234
10
16.534216
20
0.8103691
40
0.263235
50
81.1060089
51
90.2184952
0
ARC
8
DEFAULT_255_1_234
10
16.5306459
20
0.8361924
40
0.2374236
50
89.3806855
51
105.6762551
0
ARC
8
DEFAULT_255_1_234
10
16.5123089
20
0.9028567
40
0.1682847
50
105.7981136
51
149.7388061
0
ARC
8
DEFAULT_255_1_234
10
16.6187168
20
0.838895
40
0.2924306
50
149.4208916
51
163.6286378
0
ARC
8
DEFAULT_255_1_234
10
16.8278056
20
0.775125
40
0.5110213
50
163.3763315
51
172.1410975
0
ARC
8
DEFAULT_255_1_234
10
17.1578775
20
0.7278518
40
0.8444586
50
172.0259487
51
178.0703232
0
ARC
8
DEFAULT_255_1_234
10
17.4608864
20
0.7134906
40
1.1477868
50
177.8631668
51
179.5044149
0
ARC
8
DEFAULT_255_1_234
10
17.3536269
20
0.4820389
40
1.0404907
50
179.7995573
51
185.2460446
0
ARC
8
DEFAULT_255_1_234
10
16.9493308
20
0.4437513
40
0.6343885
50
185.1411642
51
193.0079639
0
ARC
8
DEFAULT_255_1_234
10
16.684978
20
0.3812641
40
0.3627568
50
192.7897626
51
205.2507664
0
ARC
8
DEFAULT_255_1_234
10
16.5803328
20
0.3345415
40
0.2481908
50
205.8005384
51
211.2537509
0
ARC
8
DEFAULT_255_1_234
10
16.5279768
20
0.299458
40
0.1852521
50
210.3789793
51
238.4008143
0
ARC
8
DEFAULT_255_1_234
10
16.526029
20
0.3041376
40
0.1882621
50
239.6520629
51
265.9793761
0
ARC
8
DEFAULT_255_1_234
10
16.534549
20
0.3713427
40
0.2559272
50
265.1315437
51
270.060332
0
ARC
8
DEFAULT_255_1_234
10
16.5374269
20
0.3389534
40
0.2235528
50
269.3314664
51
287.2178029
0
ARC
8
DEFAULT_255_1_234
10
16.5512121
20
0.2886279
40
0.1714108
50
287.7958004
51
329.080874
0
ARC
8
DEFAULT_255_1_234
10
16.4554578
20
0.348393
40
0.2842745
50
328.6634704
51
343.3325132
0
ARC
8
DEFAULT_255_1_234
10
16.2381598
20
0.4160863
40
0.5118644
50
343.0499468
51
351.9393422
0
ARC
8
DEFAULT_255_1_234
10
15.8914898
20
0.4671949
40
0.8622784
50
351.8069023
51
357.7959224
0
ARC
8
DEFAULT_255_1_234
10
15.5679454
20
0.4839721
40
1.1862365
50
357.5871873
51
359.2677531
0
LINE
8
DEFAULT_255_1_234
10
17.826322
20
0.7017327
11
17.826322
21
0.5089709
0
LINE
8
DEFAULT_255_1_234
10
17.0882053
20
0.4888916
11
17.0882053
21
0.6872755
0
LINE
8
DEFAULT_255_1_234
10
17.6777349
20
0.4688123
11
17.6777349
21
0.7121739
0
LINE
8
DEFAULT_255_1_234
10
17.2367924
20
0.7234184
11
17.2367924
21
0.4856789
0
ARC
8
DEFAULT_255_1_234
10
16.601611
20
0.5040805
40
1.2247208
50
353.8441951
51
0.2287902
0
ARC
8
DEFAULT_255_1_234
10
17.0655613
20
0.4522806
40
0.7578929
50
344.4934747
51
353.9765454
0
ARC
8
DEFAULT_255_1_234
10
17.3648204
20
0.3671981
40
0.4467846
50
329.2803592
51
344.7472793
0
ARC
8
DEFAULT_255_1_234
10
17.4641028
20
0.3127018
40
0.3336173
50
324.9352394
51
328.6160465
0
ARC
8
DEFAULT_255_1_234
10
17.5018137
20
0.2863427
40
0.2876076
50
280.580143
51
324.9173126
0
ARC
8
DEFAULT_255_1_234
10
17.461693
20
0.4534099
40
0.4592847
50
269.5977311
51
281.6734359
0
ARC
8
DEFAULT_255_1_234
10
17.4544835
20
0.4414173
40
0.4472986
50
256.6228859
51
270.51044
0
ARC
8
DEFAULT_255_1_234
10
17.4142813
20
0.2865877
40
0.2873874
50
215.8618325
51
257.2788573
0
ARC
8
DEFAULT_255_1_234
10
17.5163845
20
0.3550977
40
0.4102928
50
197.9693508
51
215.2623606
0
ARC
8
DEFAULT_255_1_234
10
17.764896
20
0.4389709
40
0.6725652
50
187.8816417
51
198.2346507
0
ARC
8
DEFAULT_255_1_234
10
18.1607169
20
0.4961079
40
1.0724845
50
180.8976217
51
188.0055519
0
ARC
8
DEFAULT_255_1_234
10
18.4407357
20
0.5064777
40
1.3526448
50
180.7449369
51
181.1510016
0
ARC
8
DEFAULT_255_1_234
10
18.2830086
20
0.6921042
40
1.1948131
50
173.7675579
51
180.231553
0
ARC
8
DEFAULT_255_1_234
10
17.8312232
20
0.7431666
40
0.7401564
50
164.3058563
51
173.9002247
0
ARC
8
DEFAULT_255_1_234
10
17.5400301
20
0.8270656
40
0.4371288
50
148.7922025
51
164.568378
0
ARC
8
DEFAULT_255_1_234
10
17.4448754
20
0.8801929
40
0.3282386
50
144.5883898
51
148.1176286
0
ARC
8
DEFAULT_255_1_234
10
17.4105651
20
0.9041315
40
0.2864044
50
101.6440918
51
144.514236
0
ARC
8
DEFAULT_255_1_234
10
17.4530718
20
0.7352069
40
0.4604934
50
89.5284041
51
102.5819763
0
ARC
8
DEFAULT_255_1_234
10
17.4609806
20
0.7313018
40
0.464401
50
77.0437873
51
90.5081339
0
ARC
8
DEFAULT_255_1_234
10
17.5011808
20
0.8955615
40
0.2953195
50
48.2778575
51
77.4994676
0
ARC
8
DEFAULT_255_1_234
10
17.5084439
20
0.9084746
40
0.2808655
50
36.3142134
51
47.6305865
0
ARC
8
DEFAULT_255_1_234
10
17.4215746
20
0.8499515
40
0.3855453
50
18.2931786
51
35.6769206
0
ARC
8
DEFAULT_255_1_234
10
17.1672505
20
0.7626593
40
0.654423
50
8.024666
51
18.5605216
0
ARC
8
DEFAULT_255_1_234
10
16.7509425
20
0.7011792
40
1.0752407
50
1.1274072
51
8.1718305
0
ARC
8
DEFAULT_255_1_234
10
16.4273615
20
0.6884885
40
1.3990231
50
0.5424119
51
1.3863029
0
ARC
8
DEFAULT_255_1_234
10
16.6094993
20
0.7157342
40
1.0682415
50
359.8090433
51
4.9407866
0
ARC
8
DEFAULT_255_1_234
10
17.0305007
20
0.7533113
40
0.6455691
50
4.8362157
51
12.2904523
0
ARC
8
DEFAULT_255_1_234
10
17.3060122
20
0.8146965
40
0.3633074
50
12.0805627
51
23.8173984
0
ARC
8
DEFAULT_255_1_234
10
17.4233827
20
0.8643919
40
0.2358723
50
24.2871213
51
31.3935614
0
ARC
8
DEFAULT_255_1_234
10
17.4758525
20
0.8987233
40
0.1732111
50
30.7407893
51
82.4657128
0
ARC
8
DEFAULT_255_1_234
10
17.4578659
20
0.8103691
40
0.263235
50
81.1060089
51
90.2184952
0
ARC
8
DEFAULT_255_1_234
10
17.4542958
20
0.8361924
40
0.2374236
50
89.3806855
51
105.6762551
0
ARC
8
DEFAULT_255_1_234
10
17.4359588
20
0.9028567
40
0.1682847
50
105.7981136
51
149.7388061
0
ARC
8
DEFAULT_255_1_234
10
17.5423667
20
0.838895
40
0.2924306
50
149.4208916
51
163.6286378
0
ARC
8
DEFAULT_255_1_234
10
17.7514555
20
0.775125
40
0.5110213
50
163.3763315
51
172.1410975
0
ARC
8
DEFAULT_255_1_234
10
18.0815274
20
0.7278518
40
0.8444586
50
172.0259487
51
178.0703232
0
ARC
8
DEFAULT_255_1_234
10
18.3845363
20
0.7134906
40
1.1477868
50
177.8631668
51
179.5044149
0
ARC
8
DEFAULT_255_1_234
10
18.2772768
20
0.4820389
40
1.0404907
50
179.7995573
51
185.2460446
0
ARC
8
DEFAULT_255_1_234
10
17.8729807
20
0.4437513
40
0.6343885
50
185.1411642
51
193.0079639
0
ARC
8
DEFAULT_255_1_234
10
17.6086279
20
0.3812641
40
0.3627568
50
192.7897626
51
205.2507664
0
ARC
8
DEFAULT_255_1_234
10
17.5039827
20
0.3345415
40
0.2481908
50
205.8005384
51
211.2537509
0
ARC
8
DEFAULT_255_1_234
10
17.4516267
20
0.299458
40
0.1852521
50
210.3789793
51
238.4008143
0
ARC
8
DEFAULT_255_1_234
10
17.4496789
20
0.3041376
40
0.1882621
50
239.6520629
51
265.9793761
0
ARC
8
DEFAULT_255_1_234
10
17.4581989
20
0.3713427
40
0.2559272
50
265.1315437
51
270.060332
0
ARC
8
DEFAULT_255_1_234
10
17.4610768
20
0.3389534
40
0.2235528
50
269.3314664
51
287.2178029
0
ARC
8
DEFAULT_255_1_234
10
17.474862
20
0.2886279
40
0.1714108
50
287.7958004
51
329.080874
0
ARC
8
DEFAULT_255_1_234
10
17.3791077
20
0.348393
40
0.2842745
50
328.6634704
51
343.3325132
0
ARC
8
DEFAULT_255_1_234
10
17.1618097
20
0.4160863
40
0.5118644
50
343.0499468
51
351.9393422
0
ARC
8
DEFAULT_255_1_234
10
16.8151397
20
0.4671949
40
0.8622784
50
351.8069023
51
357.7959224
0
ARC
8
DEFAULT_255_1_234
10
16.4915953
20
0.4839721
40
1.1862365
50
357.5871873
51
359.2677531
0
LINE
8
DEFAULT_255_1_234
10
18.3411564
20
0.5676026
11
18.3411564
21
0.4463234
0
LINE
8
DEFAULT_255_1_234
10
18.3411564
20
0.4463234
11
17.9492076
21
0.4463234
0
LINE
8
DEFAULT_255_1_234
10
17.9492076
20
0.4463234
11
17.9492076
21
0.5676026
0
LINE
8
DEFAULT_255_1_234
10
17.9492076
20
0.5676026
11
18.3411564
21
0.5676026
0
LINE
8
DEFAULT_255_1_234
10
19.2037651
20
0.7017327
11
19.2037651
21
0.5089709
0
LINE
8
DEFAULT_255_1_234
10
18.4656484
20
0.4888916
11
18.4656484
21
0.6872755
0
LINE
8
DEFAULT_255_1_234
10
19.055178
20
0.4688123
11
19.055178
21
0.7121739
0
LINE
8
DEFAULT_255_1_234
10
18.6142355
20
0.7234184
11
18.6142355
21
0.4856789
0
ARC
8
DEFAULT_255_1_234
10
17.9790541
20
0.5040805
40
1.2247208
50
353.8441951
51
0.2287902
0
ARC
8
DEFAULT_255_1_234
10
18.4430045
20
0.4522806
40
0.7578929
50
344.4934747
51
353.9765454
0
ARC
8
DEFAULT_255_1_234
10
18.7422635
20
0.3671981
40
0.4467846
50
329.2803592
51
344.7472793
0
ARC
8
DEFAULT_255_1_234
10
18.841546
20
0.3127018
40
0.3336173
50
324.9352394
51
328.6160465
0
ARC
8
DEFAULT_255_1_234
10
18.8792568
20
0.2863427
40
0.2876076
50
280.580143
51
324.9173126
0
ARC
8
DEFAULT_255_1_234
10
18.8391361
20
0.4534099
40
0.4592847
50
269.5977311
51
281.6734359
0
ARC
8
DEFAULT_255_1_234
10
18.8319267
20
0.4414173
40
0.4472986
50
256.6228859
51
270.51044
0
ARC
8
DEFAULT_255_1_234
10
18.7917244
20
0.2865877
40
0.2873874
50
215.8618325
51
257.2788573
0
ARC
8
DEFAULT_255_1_234
10
18.8938276
20
0.3550977
40
0.4102928
50
197.9693508
51
215.2623606
0
ARC
8
DEFAULT_255_1_234
10
19.1423392
20
0.4389709
40
0.6725652
50
187.8816417
51
198.2346507
0
ARC
8
DEFAULT_255_1_234
10
19.53816
20
0.4961079
40
1.0724845
50
180.8976217
51
188.0055519
0
ARC
8
DEFAULT_255_1_234
10
19.8181788
20
0.5064777
40
1.3526448
50
180.7449369
51
181.1510016
0
ARC
8
DEFAULT_255_1_234
10
19.6604517
20
0.6921042
40
1.1948131
50
173.7675579
51
180.231553
0
ARC
8
DEFAULT_255_1_234
10
19.2086664
20
0.7431666
40
0.7401564
50
164.3058563
51
173.9002247
0
ARC
8
DEFAULT_255_1_234
10
18.9174733
20
0.8270656
40
0.4371288
50
148.7922025
51
164.568378
0
ARC
8
DEFAULT_255_1_234
10
18.8223185
20
0.8801929
40
0.3282386
50
144.5883898
51
148.1176286
0
ARC
8
DEFAULT_255_1_234
10
18.7880083
20
0.9041315
40
0.2864044
50
101.6440918
51
144.514236
0
ARC
8
DEFAULT_255_1_234
10
18.8305149
20
0.7352069
40
0.4604934
50
89.5284041
51
102.5819763
0
ARC
8
DEFAULT_255_1_234
10
18.8384237
20
0.7313018
40
0.464401
50
77.0437873
51
90.5081339
0
ARC
8
DEFAULT_255_1_234
10
18.8786239
20
0.8955615
40
0.2953195
50
48.2778575
51
77.4994676
0
ARC
8
DEFAULT_255_1_234
10
18.885887
20
0.9084746
40
0.2808655
50
36.3142134
51
47.6305865
0
ARC
8
DEFAULT_255_1_234
10
18.7990177
20
0.8499515
40
0.3855453
50
18.2931786
51
35.6769206
0
ARC
8
DEFAULT_255_1_234
10
18.5446936
20
0.7626593
40
0.654423
50
8.024666
51
18.5605216
0
ARC
8
DEFAULT_255_1_234
10
18.1283856
20
0.7011792
40
1.0752407
50
1.1274072
51
8.1718305
0
ARC
8
DEFAULT_255_1_234
10
17.8048047
20
0.6884885
40
1.3990231
50
0.5424119
51
1.3863029
0
ARC
8
DEFAULT_255_1_234
10
17.9869424
20
0.7157342
40
1.0682415
50
359.8090433
51
4.9407866
0
ARC
8
DEFAULT_255_1_234
10
18.4079438
20
0.7533113
40
0.6455691
50
4.8362157
51
12.2904523
0
ARC
8
DEFAULT_255_1_234
10
18.6834553
20
0.8146965
40
0.3633074
50
12.0805627
51
23.8173984
0
ARC
8
DEFAULT_255_1_234
10
18.8008259
20
0.8643919
40
0.2358723
50
24.2871213
51
31.3935614
0
ARC
8
DEFAULT_255_1_234
10
18.8532956
20
0.8987233
40
0.1732111
50
30.7407893
51
82.4657128
0
ARC
8
DEFAULT_255_1_234
10
18.835309
20
0.8103691
40
0.263235
50
81.1060089
51
90.2184952
0
ARC
8
DEFAULT_255_1_234
10
18.8317389
20
0.8361924
40
0.2374236
50
89.3806855
51
105.6762551
0
ARC
8
DEFAULT_255_1_234
10
18.813402
20
0.9028567
40
0.1682847
50
105.7981136
51
149.7388061
0
ARC
8
DEFAULT_255_1_234
10
18.9198098
20
0.838895
40
0.2924306
50
149.4208916
51
163.6286378
0
ARC
8
DEFAULT_255_1_234
10
19.1288986
20
0.775125
40
0.5110213
50
163.3763315
51
172.1410975
0
ARC
8
DEFAULT_255_1_234
10
19.4589705
20
0.7278518
40
0.8444586
50
172.0259487
51
178.0703232
0
ARC
8
DEFAULT_255_1_234
10
19.7619794
20
0.7134906
40
1.1477868
50
177.8631668
51
179.5044149
0
ARC
8
DEFAULT_255_1_234
10
19.6547199
20
0.4820389
40
1.0404907
50
179.7995573
51
185.2460446
0
ARC
8
DEFAULT_255_1_234
10
19.2504238
20
0.4437513
40
0.6343885
50
185.1411642
51
193.0079639
0
ARC
8
DEFAULT_255_1_234
10
18.9860711
20
0.3812641
40
0.3627568
50
192.7897626
51
205.2507664
0
ARC
8
DEFAULT_255_1_234
10
18.8814258
20
0.3345415
40
0.2481908
50
205.8005384
51
211.2537509
0
ARC
8
DEFAULT_255_1_234
10
18.8290698
20
0.299458
40
0.1852521
50
210.3789793
51
238.4008143
0
ARC
8
DEFAULT_255_1_234
10
18.827122
20
0.3041376
40
0.1882621
50
239.6520629
51
265.9793761
0
ARC
8
DEFAULT_255_1_234
10
18.835642
20
0.3713427
40
0.2559272
50
265.1315437
51
270.060332
0
ARC
8
DEFAULT_255_1_234
10
18.8385199
20
0.3389534
40
0.2235528
50
269.3314664
51
287.2178029
0
ARC
8
DEFAULT_255_1_234
10
18.8523051
20
0.2886279
40
0.1714108
50
287.7958004
51
329.080874
0
ARC
8
DEFAULT_255_1_234
10
18.7565508
20
0.348393
40
0.2842745
50
328.6634704
51
343.3325132
0
ARC
8
DEFAULT_255_1_234
10
18.5392528
20
0.4160863
40
0.5118644
50
343.0499468
51
351.9393422
0
ARC
8
DEFAULT_255_1_234
10
18.1925828
20
0.4671949
40
0.8622784
50
351.8069023
51
357.7959224
0
ARC
8
DEFAULT_255_1_234
10
17.8690384
20
0.4839721
40
1.1862365
50
357.5871873
51
359.2677531
0
LINE
8
DEFAULT_255_1_234
10
20.1900626
20
0.0102
11
20.0784214
21
0.3154061
0
LINE
8
DEFAULT_255_1_234
10
20.0784214
20
0.3154061
11
19.5884854
21
0.3154061
0
LINE
8
DEFAULT_255_1_234
10
19.5884854
20
0.3154061
11
19.4784506
21
0.0102
0
LINE
8
DEFAULT_255_1_234
10
19.4784506
20
0.0102
11
19.3194222
21
0.0102
0
LINE
8
DEFAULT_255_1_234
10
19.3194222
20
0.0102
11
19.7659868
21
1.1796211
0
LINE
8
DEFAULT_255_1_234
10
19.7659868
20
1.1796211
11
19.90092
21
1.1796211
0
LINE
8
DEFAULT_255_1_234
10
19.90092
20
1.1796211
11
20.3482878
21
0.0102
0
LINE
8
DEFAULT_255_1_234
10
20.3482878
20
0.0102
11
20.1900626
21
0.0102
0
LINE
8
DEFAULT_255_1_234
10
19.8334534
20
0.9892689
11
19.6350695
21
0.4423075
0
LINE
8
DEFAULT_255_1_234
10
19.6350695
20
0.4423075
11
20.0326405
21
0.4423075
0
LINE
8
DEFAULT_255_1_234
10
20.0326405
20
0.4423075
11
19.8334534
21
0.9892689
0
LINE
8
DEFAULT_255_1_234
10
20.483221
20
1.1796211
11
20.7868208
21
0.592501
0
LINE
8
DEFAULT_255_1_234
10
20.7868208
20
0.592501
11
21.0920268
21
1.1796211
0
LINE
8
DEFAULT_255_1_234
10
21.0920268
20
1.1796211
11
21.2671187
21
1.1796211
0
LINE
8
DEFAULT_255_1_234
10
21.2671187
20
1.1796211
11
20.8639254
21
0.4463234
0
LINE
8
DEFAULT_255_1_234
10
20.8639254
20
0.4463234
11
20.8639254
21
0.0102
0
LINE
8
DEFAULT_255_1_234
10
20.8639254
20
0.0102
11
20.7097161
21
0.0102
0
LINE
8
DEFAULT_255_1_234
10
20.7097161
20
0.0102
11
20.7097161
21
0.4463234
0
LINE
8
DEFAULT_255_1_234
10
20.7097161
20
0.4463234
11
20.3065228
21
1.1796211
0
LINE
8
DEFAULT_255_1_234
10
20.3065228
20
1.1796211
11
20.483221
21
1.1796211
0
LINE
8
DEFAULT_255_1_234
10
22.1128607
20
0.7017327
11
22.1128607
21
0.5089709
0
LINE
8
DEFAULT_255_1_234
10
21.374744
20
0.4888916
11
21.374744
21
0.6872755
0
LINE
8
DEFAULT_255_1_234
10
21.9642736
20
0.4688123
11
21.9642736
21
0.7121739
0
LINE
8
DEFAULT_255_1_234
10
21.5233312
20
0.7234184
11
21.5233312
21
0.4856789
0
ARC
8
DEFAULT_255_1_234
10
20.8881497
20
0.5040805
40
1.2247208
50
353.8441951
51
0.2287902
0
ARC
8
DEFAULT_255_1_234
10
21.3521001
20
0.4522806
40
0.7578929
50
344.4934747
51
353.9765454
0
ARC
8
DEFAULT_255_1_234
10
21.6513591
20
0.3671981
40
0.4467846
50
329.2803592
51
344.7472793
0
ARC
8
DEFAULT_255_1_234
10
21.7506416
20
0.3127018
40
0.3336173
50
324.9352394
51
328.6160465
0
ARC
8
DEFAULT_255_1_234
10
21.7883524
20
0.2863427
40
0.2876076
50
280.580143
51
324.9173126
0
ARC
8
DEFAULT_255_1_234
10
21.7482317
20
0.4534099
40
0.4592847
50
269.5977311
51
281.6734359
0
ARC
8
DEFAULT_255_1_234
10
21.7410223
20
0.4414173
40
0.4472986
50
256.6228859
51
270.51044
0
ARC
8
DEFAULT_255_1_234
10
21.7008201
20
0.2865877
40
0.2873874
50
215.8618325
51
257.2788573
0
ARC
8
DEFAULT_255_1_234
10
21.8029232
20
0.3550977
40
0.4102928
50
197.9693508
51
215.2623606
0
ARC
8
DEFAULT_255_1_234
10
22.0514348
20
0.4389709
40
0.6725652
50
187.8816417
51
198.2346507
0
ARC
8
DEFAULT_255_1_234
10
22.4472556
20
0.4961079
40
1.0724845
50
180.8976217
51
188.0055519
0
ARC
8
DEFAULT_255_1_234
10
22.7272744
20
0.5064777
40
1.3526448
50
180.7449369
51
181.1510016
0
ARC
8
DEFAULT_255_1_234
10
22.5695473
20
0.6921042
40
1.1948131
50
173.7675579
51
180.231553
0
ARC
8
DEFAULT_255_1_234
10
22.117762
20
0.7431666
40
0.7401564
50
164.3058563
51
173.9002247
0
ARC
8
DEFAULT_255_1_234
10
21.8265689
20
0.8270656
40
0.4371288
50
148.7922025
51
164.568378
0
ARC
8
DEFAULT_255_1_234
10
21.7314141
20
0.8801929
40
0.3282386
50
144.5883898
51
148.1176286
0
ARC
8
DEFAULT_255_1_234
10
21.6971039
20
0.9041315
40
0.2864044
50
101.6440918
51
144.514236
0
ARC
8
DEFAULT_255_1_234
10
21.7396105
20
0.7352069
40
0.4604934
50
89.5284041
51
102.5819763
0
ARC
8
DEFAULT_255_1_234
10
21.7475193
20
0.7313018
40
0.464401
50
77.0437873
51
90.5081339
0
ARC
8
DEFAULT_255_1_234
10
21.7877195
20
0.8955615
40
0.2953195
50
48.2778575
51
77.4994676
0
ARC
8
DEFAULT_255_1_234
10
21.7949826
20
0.9084746
40
0.2808655
50
36.3142134
51
47.6305865
0
ARC
8
DEFAULT_255_1_234
10
21.7081133
20
0.8499515
40
0.3855453
50
18.2931786
51
35.6769206
0
ARC
8
DEFAULT_255_1_234
10
21.4537892
20
0.7626593
40
0.654423
50
8.024666
51
18.5605216
0
ARC
8
DEFAULT_255_1_234
10
21.0374812
20
0.7011792
40
1.0752407
50
1.1274072
51
8.1718305
0
ARC
8
DEFAULT_255_1_234
10
20.7139003
20
0.6884885
40
1.3990231
50
0.5424119
51
1.3863029
0
ARC
8
DEFAULT_255_1_234
10
20.896038
20
0.7157342
40
1.0682415
50
359.8090433
51
4.9407866
0
ARC
8
DEFAULT_255_1_234
10
21.3170394
20
0.7533113
40
0.6455691
50
4.8362157
51
12.2904523
0
ARC
8
DEFAULT_255_1_234
10
21.5925509
20
0.8146965
40
0.3633074
50
12.0805627
51
23.8173984
0
ARC
8
DEFAULT_255_1_234
10
21.7099215
20
0.8643919
40
0.2358723
50
24.2871213
51
31.3935614
0
ARC
8
DEFAULT_255_1_234
10
21.7623912
20
0.8987233
40
0.1732111
50
30.7407893
51
82.4657128
0
ARC
8
DEFAULT_255_1_234
10
21.7444046
20
0.8103691
40
0.263235
50
81.1060089
51
90.2184952
0
ARC
8
DEFAULT_255_1_234
10
21.7408345
20
0.8361924
40
0.2374236
50
89.3806855
51
105.6762551
0
ARC
8
DEFAULT_255_1_234
10
21.7224976
20
0.9028567
40
0.1682847
50
105.7981136
51
149.7388061
0
ARC
8
DEFAULT_255_1_234
10
21.8289054
20
0.838895
40
0.2924306
50
149.4208916
51
163.6286378
0
ARC
8
DEFAULT_255_1_234
10
22.0379942
20
0.775125
40
0.5110213
50
163.3763315
51
172.1410975
0
ARC
8
DEFAULT_255_1_234
10
22.3680661
20
0.7278518
40
0.8444586
50
172.0259487
51
178.0703232
0
ARC
8
DEFAULT_255_1_234
10
22.6710751
20
0.7134906
40
1.1477868
50
177.8631668
51
179.5044149
0
ARC
8
DEFAULT_255_1_234
10
22.5638155
20
0.4820389
40
1.0404907
50
179.7995573
51
185.2460446
0
ARC
8
DEFAULT_255_1_234
10
22.1595194
20
0.4437513
40
0.6343885
50
185.1411642
51
193.0079639
0
ARC
8
DEFAULT_255_1_234
10
21.8951667
20
0.3812641
40
0.3627568
50
192.7897626
51
205.2507664
0
ARC
8
DEFAULT_255_1_234
10
21.7905214
20
0.3345415
40
0.2481908
50
205.8005384
51
211.2537509
0
ARC
8
DEFAULT_255_1_234
10
21.7381654
20
0.299458
40
0.1852521
50
210.3789793
51
238.4008143
0
ARC
8
DEFAULT_255_1_234
10
21.7362176
20
0.3041376
40
0.1882621
50
239.6520629
51
265.9793761
0
ARC
8
DEFAULT_255_1_234
10
21.7447376
20
0.3713427
40
0.2559272
50
265.1315437
51
270.060332
0
ARC
8
DEFAULT_255_1_234
10
21.7476155
20
0.3389534
40
0.2235528
50
269.3314664
51
287.2178029
0
ARC
8
DEFAULT_255_1_234
10
21.7614007
20
0.2886279
40
0.1714108
50
287.7958004
51
329.080874
0
ARC
8
DEFAULT_255_1_234
10
21.6656464
20
0.348393
40
0.2842745
50
328.6634704
51
343.3325132
0
ARC
8
DEFAULT_255_1_234
10
21.4483484
20
0.4160863
40
0.5118644
50
343.0499468
51
351.9393422
0
ARC
8
DEFAULT_255_1_234
10
21.1016784
20
0.4671949
40
0.8622784
50
351.8069023
51
357.7959224
0
ARC
8
DEFAULT_255_1_234
10
20.778134
20
0.4839721
40
1.1862365
50
357.5871873
51
359.2677531
0
LINE
8
DEFAULT_255_1_234
10
12.1267489
20
31.6066211
11
12.1267489
21
30.5632983
0
LINE
8
DEFAULT_255_1_234
10
12.1267489
20
30.5632983
11
12.6809389
21
30.5632983
0
LINE
8
DEFAULT_255_1_234
10
12.6809389
20
30.5632983
11
12.6809389
21
30.4372
0
LINE
8
DEFAULT_255_1_234
10
12.6809389
20
30.4372
11
11.9717364
21
30.4372
0
LINE
8
DEFAULT_255_1_234
10
11.9717364
20
30.4372
11
11.9717364
21
31.6066211
0
LINE
8
DEFAULT_255_1_234
10
11.9717364
20
31.6066211
11
12.1267489
21
31.6066211
0
LINE
8
DEFAULT_255_1_234
10
13.7041823
20
31.0580534
11
13.7041823
21
30.9841614
0
LINE
8
DEFAULT_255_1_234
10
12.7636658
20
30.9737201
11
12.7636658
21
31.0580534
0
LINE
8
DEFAULT_255_1_234
10
13.5507761
20
30.9729169
11
13.5507761
21
31.0596597
0
LINE
8
DEFAULT_255_1_234
10
12.917072
20
31.070101
11
12.917072
21
30.9841614
0
ARC
8
DEFAULT_255_1_234
10
12.839985
20
30.9802015
40
0.8642064
50
350.487711
51
0.2625388
0
ARC
8
DEFAULT_255_1_234
10
13.0693091
20
30.9407578
40
0.631518
50
336.0277639
51
350.5787438
0
ARC
8
DEFAULT_255_1_234
10
13.2037914
20
30.8799892
40
0.4839466
50
319.8877444
51
336.1328423
0
ARC
8
DEFAULT_255_1_234
10
13.2640555
20
30.831758
40
0.4067874
50
302.4806467
51
319.6143626
0
ARC
8
DEFAULT_255_1_234
10
13.2525566
20
30.8539202
40
0.4316636
50
275.8195682
51
302.1884709
0
ARC
8
DEFAULT_255_1_234
10
13.2359199
20
30.9681665
40
0.5470306
50
269.9171439
51
276.3397983
0
ARC
8
DEFAULT_255_1_234
10
13.2314409
20
30.8995681
40
0.4784458
50
252.5219675
51
270.4416499
0
ARC
8
DEFAULT_255_1_234
10
13.2170668
20
30.8456592
40
0.422716
50
237.5352116
51
252.1857531
0
ARC
8
DEFAULT_255_1_234
10
13.2259863
20
30.8570363
40
0.4371052
50
209.063312
51
237.3492538
0
ARC
8
DEFAULT_255_1_234
10
13.3129711
20
30.9116685
40
0.5397041
50
205.1183774
51
209.6470015
0
ARC
8
DEFAULT_255_1_234
10
13.3926748
20
30.945483
40
0.6262326
50
188.7215458
51
204.8240747
0
ARC
8
DEFAULT_255_1_234
10
13.5924277
20
30.9791067
40
0.8287794
50
180.3723947
51
188.9252049
0
ARC
8
DEFAULT_255_1_234
10
13.5897028
20
31.0620402
40
0.8260467
50
169.5253763
51
180.2765336
0
ARC
8
DEFAULT_255_1_234
10
13.3994477
20
31.0970309
40
0.6326007
50
155.8315255
51
169.5089989
0
ARC
8
DEFAULT_255_1_234
10
13.2713978
20
31.1564348
40
0.4914567
50
139.6258461
51
156.0379525
0
ARC
8
DEFAULT_255_1_234
10
13.2124312
20
31.2038799
40
0.4158054
50
122.6416387
51
139.3430715
0
ARC
8
DEFAULT_255_1_234
10
13.2224931
20
31.1855451
40
0.4366739
50
93.0223692
51
122.455762
0
ARC
8
DEFAULT_255_1_234
10
13.2332928
20
31.0890709
40
0.5336137
50
89.975342
51
93.6341897
0
ARC
8
DEFAULT_255_1_234
10
13.2371708
20
31.1289242
40
0.4937738
50
73.746375
51
90.4233405
0
ARC
8
DEFAULT_255_1_234
10
13.2547286
20
31.1969287
40
0.4235786
50
57.662753
51
73.4518111
0
ARC
8
DEFAULT_255_1_234
10
13.2539292
20
31.1990832
40
0.4221899
50
29.1440151
51
57.414694
0
ARC
8
DEFAULT_255_1_234
10
13.1604487
20
31.1407005
40
0.5322966
50
24.0982783
51
29.7323517
0
ARC
8
DEFAULT_255_1_234
10
13.0570762
20
31.0978399
40
0.6441673
50
8.6655297
51
23.8241346
0
ARC
8
DEFAULT_255_1_234
10
12.8336501
20
31.0613854
40
0.8705386
50
359.7806941
51
8.8218784
0
ARC
8
DEFAULT_255_1_234
10
12.7189499
20
31.0639345
40
0.8318373
50
359.7055579
51
8.036044
0
ARC
8
DEFAULT_255_1_234
10
13.0189505
20
31.1076239
40
0.5286768
50
7.8928306
51
20.2962107
0
ARC
8
DEFAULT_255_1_234
10
13.1817075
20
31.1676395
40
0.3552073
50
20.3231126
51
36.4992797
0
ARC
8
DEFAULT_255_1_234
10
13.2502621
20
31.2204402
40
0.2686974
50
36.1437156
51
85.6627023
0
ARC
8
DEFAULT_255_1_234
10
13.2340167
20
31.1164221
40
0.373739
50
84.3852322
51
90.0757696
0
ARC
8
DEFAULT_255_1_234
10
13.2297839
20
31.1824839
40
0.3076997
50
89.3038458
51
109.9045693
0
ARC
8
DEFAULT_255_1_234
10
13.220523
20
31.2207062
40
0.2686424
50
110.8228367
51
143.9179474
0
ARC
8
DEFAULT_255_1_234
10
13.3138891
20
31.1494236
40
0.3860887
50
143.5289163
51
163.2980757
0
ARC
8
DEFAULT_255_1_234
10
13.5046712
20
31.0894433
40
0.5860659
50
163.0418846
51
174.3140048
0
ARC
8
DEFAULT_255_1_234
10
13.7450824
20
31.0616854
40
0.8280531
50
174.0509143
51
179.4176892
0
ARC
8
DEFAULT_255_1_234
10
13.6946562
20
30.9799954
40
0.7775954
50
179.6930361
51
188.7906598
0
ARC
8
DEFAULT_255_1_234
10
13.4283041
20
30.9373935
40
0.5078633
50
188.6331305
51
202.5629587
0
ARC
8
DEFAULT_255_1_234
10
13.3028633
20
30.8869996
40
0.3726913
50
202.8081362
51
216.1193925
0
ARC
8
DEFAULT_255_1_234
10
13.2219204
20
30.8218676
40
0.2689577
50
215.0755913
51
264.6379694
0
ARC
8
DEFAULT_255_1_234
10
13.2346153
20
30.9049513
40
0.3528978
50
263.846392
51
270.0833719
0
ARC
8
DEFAULT_255_1_234
10
13.2387543
20
30.8791374
40
0.3271036
50
269.3649385
51
287.5152008
0
ARC
8
DEFAULT_255_1_234
10
13.2565701
20
30.8144238
40
0.2600406
50
288.0630309
51
323.8113348
0
ARC
8
DEFAULT_255_1_234
10
13.1694543
20
30.8794049
40
0.3687189
50
323.6547608
51
342.6590488
0
ARC
8
DEFAULT_255_1_234
10
12.9663158
20
30.9454952
40
0.5823286
50
342.4091907
51
353.6451149
0
ARC
8
DEFAULT_255_1_234
10
12.6831669
20
30.980719
40
0.8676442
50
353.4029884
51
359.4847795
0
LINE
8
DEFAULT_255_1_234
10
14.7989083
20
31.019501
11
14.7989083
21
30.5906062
0
LINE
8
DEFAULT_255_1_234
10
13.8977472
20
30.9656884
11
13.8977472
21
31.0676915
0
LINE
8
DEFAULT_255_1_234
10
14.7989083
20
31.2636659
11
14.6446989
21
31.2636659
0
LINE
8
DEFAULT_255_1_234
10
14.0527598
20
31.0717073
11
14.0527598
21
30.9761296
0
LINE
8
DEFAULT_255_1_234
10
14.6455021
20
30.6315681
11
14.6455021
21
30.8942059
0
LINE
8
DEFAULT_255_1_234
10
14.6455021
20
30.8942059
11
14.3748325
21
30.8942059
0
LINE
8
DEFAULT_255_1_234
10
14.3748325
20
30.8942059
11
14.3748325
21
31.019501
0
LINE
8
DEFAULT_255_1_234
10
14.3748325
20
31.019501
11
14.7989083
21
31.019501
0
ARC
8
DEFAULT_255_1_234
10
14.5157589
20
30.7899396
40
0.3462765
50
295.8437914
51
324.8549609
0
ARC
8
DEFAULT_255_1_234
10
14.4741556
20
30.8652567
40
0.4322211
50
291.5695085
51
296.4549398
0
ARC
8
DEFAULT_255_1_234
10
14.4230808
20
31.0017275
40
0.5779178
50
278.6622409
51
291.3045483
0
ARC
8
DEFAULT_255_1_234
10
14.3891299
20
31.2165408
40
0.7953952
50
270.020006
51
278.7494541
0
ARC
8
DEFAULT_255_1_234
10
14.3853223
20
31.3482036
40
0.927067
50
269.9969998
51
270.2524872
0
ARC
8
DEFAULT_255_1_234
10
14.3814936
20
30.9398589
40
0.5187361
50
253.5786322
51
270.4175299
0
ARC
8
DEFAULT_255_1_234
10
14.3641592
20
30.8727236
40
0.4494451
50
238.8203306
51
253.2788235
0
ARC
8
DEFAULT_255_1_234
10
14.3621965
20
30.8676231
40
0.4440665
50
206.7883783
51
238.6962764
0
ARC
8
DEFAULT_255_1_234
10
14.4395875
20
30.9140405
40
0.5341121
50
206.1129412
51
207.4916643
0
ARC
8
DEFAULT_255_1_234
10
14.499279
20
30.9394488
40
0.5989041
50
188.6921119
51
205.7821245
0
ARC
8
DEFAULT_255_1_234
10
14.6849152
20
30.971023
40
0.7871862
50
180.3882829
51
188.9219216
0
ARC
8
DEFAULT_255_1_234
10
14.8076966
20
31.0733464
40
0.909967
50
170.2024264
51
180.3560651
0
ARC
8
DEFAULT_255_1_234
10
14.4913484
20
31.1299237
40
0.5886083
50
154.2857445
51
170.3893044
0
ARC
8
DEFAULT_255_1_234
10
14.3631687
20
31.188595
40
0.4476743
50
139.8401567
51
153.9332699
0
ARC
8
DEFAULT_255_1_234
10
14.3272423
20
31.2173577
40
0.4016697
50
98.4190291
51
139.6707122
0
ARC
8
DEFAULT_255_1_234
10
14.3651941
20
31.0328328
40
0.5898566
50
89.7659205
51
99.4415478
0
ARC
8
DEFAULT_255_1_234
10
14.3717191
20
31.0393844
40
0.5833147
50
78.0551672
51
90.4042112
0
ARC
8
DEFAULT_255_1_234
10
14.41217
20
31.2212644
40
0.3970055
50
54.6380464
51
78.3339173
0
ARC
8
DEFAULT_255_1_234
10
14.4311756
20
31.2532795
40
0.3599102
50
50.031736
51
54.1558201
0
ARC
8
DEFAULT_255_1_234
10
14.4204544
20
31.2436766
40
0.3741624
50
18.1092409
51
49.7180913
0
ARC
8
DEFAULT_255_1_234
10
14.2747744
20
31.1903089
40
0.5292424
50
7.9672797
51
18.6984571
0
ARC
8
DEFAULT_255_1_234
10
14.2898222
20
31.2026504
40
0.3600838
50
9.7557294
51
27.3215714
0
ARC
8
DEFAULT_255_1_234
10
14.4025694
20
31.2589912
40
0.2340608
50
27.7361077
51
84.5257964
0
ARC
8
DEFAULT_255_1_234
10
14.3698081
20
31.094664
40
0.4011215
50
82.106034
51
90.2001166
0
ARC
8
DEFAULT_255_1_234
10
14.3648298
20
31.1454215
40
0.3503799
50
89.4150119
51
105.5823402
0
ARC
8
DEFAULT_255_1_234
10
14.3391296
20
31.2389867
40
0.2533503
50
105.6678618
51
144.2648758
0
ARC
8
DEFAULT_255_1_234
10
14.4284551
20
31.1754289
40
0.3629787
50
144.3561283
51
162.8564086
0
ARC
8
DEFAULT_255_1_234
10
14.6368461
20
31.1085017
40
0.5818441
50
162.6076014
51
173.6780284
0
ARC
8
DEFAULT_255_1_234
10
14.9429604
20
31.071289
40
0.8902007
50
173.4670142
51
179.9730753
0
ARC
8
DEFAULT_255_1_234
10
14.7521275
20
30.971926
40
0.6993804
50
179.6556203
51
190.0080463
0
ARC
8
DEFAULT_255_1_234
10
14.5205104
20
30.9294375
40
0.4639066
50
189.8116607
51
206.6796816
0
ARC
8
DEFAULT_255_1_234
10
14.4360256
20
30.8900503
40
0.3707421
50
207.1031645
51
217.7074368
0
ARC
8
DEFAULT_255_1_234
10
14.3725945
20
30.8348559
40
0.2868417
50
216.7345547
51
265.6812148
0
ARC
8
DEFAULT_255_1_234
10
14.3856736
20
30.9252855
40
0.3780509
50
264.7366618
51
270.0611241
0
ARC
8
DEFAULT_255_1_234
10
14.3879999
20
31.2093111
40
0.662079
50
269.8335834
51
276.0539546
0
ARC
8
DEFAULT_255_1_234
10
14.4087004
20
31.019156
40
0.4708016
50
275.9894168
51
284.4615085
0
ARC
8
DEFAULT_255_1_234
10
14.4285011
20
30.9358663
40
0.3852094
50
284.7034461
51
286.4953897
0
ARC
8
DEFAULT_255_1_234
10
14.4692024
20
30.8047965
40
0.2479842
50
286.0770838
51
304.2625829
0
ARC
8
DEFAULT_255_1_234
10
14.4825438
20
30.7829594
40
0.2224291
50
304.5891602
51
317.1073298
0
LINE
8
DEFAULT_255_1_234
10
15.9554786
20
31.0580534
11
15.9554786
21
30.9841614
0
LINE
8
DEFAULT_255_1_234
10
15.014962
20
30.9737201
11
15.014962
21
31.0580534
0
LINE
8
DEFAULT_255_1_234
10
15.8020724
20
30.9729169
11
15.8020724
21
31.0596597
0
LINE
8
DEFAULT_255_1_234
10
15.1683682
20
31.070101
11
15.1683682
21
30.9841614
0
ARC
8
DEFAULT_255_1_234
10
15.0912812
20
30.9802015
40
0.8642064
50
350.487711
51
0.2625388
0
ARC
8
DEFAULT_255_1_234
10
15.3206053
20
30.9407578
40
0.631518
50
336.0277639
51
350.5787438
0
ARC
8
DEFAULT_255_1_234
10
15.4550877
20
30.8799892
40
0.4839466
50
319.8877444
51
336.1328423
0
ARC
8
DEFAULT_255_1_234
10
15.5153518
20
30.831758
40
0.4067874
50
302.4806467
51
319.6143626
0
ARC
8
DEFAULT_255_1_234
10
15.5038528
20
30.8539202
40
0.4316636
50
275.8195682
51
302.1884709
0
ARC
8
DEFAULT_255_1_234
10
15.4872161
20
30.9681665
40
0.5470306
50
269.9171439
51
276.3397983
0
ARC
8
DEFAULT_255_1_234
10
15.4827371
20
30.8995681
40
0.4784458
50
252.5219675
51
270.4416499
0
ARC
8
DEFAULT_255_1_234
10
15.468363
20
30.8456592
40
0.422716
50
237.5352116
51
252.1857531
0
ARC
8
DEFAULT_255_1_234
10
15.4772826
20
30.8570363
40
0.4371052
50
209.063312
51
237.3492538
0
ARC
8
DEFAULT_255_1_234
10
15.5642674
20
30.9116685
40
0.5397041
50
205.1183774
51
209.6470015
0
ARC
8
DEFAULT_255_1_234
10
15.6439711
20
30.945483
40
0.6262326
50
188.7215458
51
204.8240747
0
ARC
8
DEFAULT_255_1_234
10
15.8437239
20
30.9791067
40
0.8287794
50
180.3723947
51
188.9252049
0
ARC
8
DEFAULT_255_1_234
10
15.8409991
20
31.0620402
40
0.8260467
50
169.5253763
51
180.2765336
0
ARC
8
DEFAULT_255_1_234
10
15.6507439
20
31.0970309
40
0.6326007
50
155.8315255
51
169.5089989
0
ARC
8
DEFAULT_255_1_234
10
15.5226941
20
31.1564348
40
0.4914567
50
139.6258461
51
156.0379525
0
ARC
8
DEFAULT_255_1_234
10
15.4637274
20
31.2038799
40
0.4158054
50
122.6416387
51
139.3430715
0
ARC
8
DEFAULT_255_1_234
10
15.4737894
20
31.1855451
40
0.4366739
50
93.0223692
51
122.455762
0
ARC
8
DEFAULT_255_1_234
10
15.4845891
20
31.0890709
40
0.5336137
50
89.975342
51
93.6341897
0
ARC
8
DEFAULT_255_1_234
10
15.488467
20
31.1289242
40
0.4937738
50
73.746375
51
90.4233405
0
ARC
8
DEFAULT_255_1_234
10
15.5060248
20
31.1969287
40
0.4235786
50
57.662753
51
73.4518111
0
ARC
8
DEFAULT_255_1_234
10
15.5052255
20
31.1990832
40
0.4221899
50
29.1440151
51
57.414694
0
ARC
8
DEFAULT_255_1_234
10
15.4117449
20
31.1407005
40
0.5322966
50
24.0982783
51
29.7323517
0
ARC
8
DEFAULT_255_1_234
10
15.3083725
20
31.0978399
40
0.6441673
50
8.6655297
51
23.8241346
0
ARC
8
DEFAULT_255_1_234
10
15.0849463
20
31.0613854
40
0.8705386
50
359.7806941
51
8.8218784
0
ARC
8
DEFAULT_255_1_234
10
14.9702461
20
31.0639345
40
0.8318373
50
359.7055579
51
8.036044
0
ARC
8
DEFAULT_255_1_234
10
15.2702467
20
31.1076239
40
0.5286768
50
7.8928306
51
20.2962107
0
ARC
8
DEFAULT_255_1_234
10
15.4330037
20
31.1676395
40
0.3552073
50
20.3231126
51
36.4992797
0
ARC
8
DEFAULT_255_1_234
10
15.5015583
20
31.2204402
40
0.2686974
50
36.1437156
51
85.6627023
0
ARC
8
DEFAULT_255_1_234
10
15.4853129
20
31.1164221
40
0.373739
50
84.3852322
51
90.0757696
0
ARC
8
DEFAULT_255_1_234
10
15.4810802
20
31.1824839
40
0.3076997
50
89.3038458
51
109.9045693
0
ARC
8
DEFAULT_255_1_234
10
15.4718193
20
31.2207062
40
0.2686424
50
110.8228367
51
143.9179474
0
ARC
8
DEFAULT_255_1_234
10
15.5651853
20
31.1494236
40
0.3860887
50
143.5289163
51
163.2980757
0
ARC
8
DEFAULT_255_1_234
10
15.7559674
20
31.0894433
40
0.5860659
50
163.0418846
51
174.3140048
0
ARC
8
DEFAULT_255_1_234
10
15.9963786
20
31.0616854
40
0.8280531
50
174.0509143
51
179.4176892
0
ARC
8
DEFAULT_255_1_234
10
15.9459525
20
30.9799954
40
0.7775954
50
179.6930361
51
188.7906598
0
ARC
8
DEFAULT_255_1_234
10
15.6796004
20
30.9373935
40
0.5078633
50
188.6331305
51
202.5629587
0
ARC
8
DEFAULT_255_1_234
10
15.5541596
20
30.8869996
40
0.3726913
50
202.8081362
51
216.1193925
0
ARC
8
DEFAULT_255_1_234
10
15.4732166
20
30.8218676
40
0.2689577
50
215.0755913
51
264.6379694
0
ARC
8
DEFAULT_255_1_234
10
15.4859115
20
30.9049513
40
0.3528978
50
263.846392
51
270.0833719
0
ARC
8
DEFAULT_255_1_234
10
15.4900506
20
30.8791374
40
0.3271036
50
269.3649385
51
287.5152008
0
ARC
8
DEFAULT_255_1_234
10
15.5078663
20
30.8144238
40
0.2600406
50
288.0630309
51
323.8113348
0
ARC
8
DEFAULT_255_1_234
10
15.4207505
20
30.8794049
40
0.3687189
50
323.6547608
51
342.6590488
0
ARC
8
DEFAULT_255_1_234
10
15.217612
20
30.9454952
40
0.5823286
50
342.4091907
51
353.6451149
0
ARC
8
DEFAULT_255_1_234
10
14.9344631
20
30.980719
40
0.8676442
50
353.4029884
51
359.4847795
0
LINE
8
DEFAULT_255_1_234
10
16.341002
20
31.6066211
11
16.3297576
21
30.7673044
0
LINE
8
DEFAULT_255_1_234
10
16.3297576
20
30.7673044
11
16.1956275
21
30.7673044
0
LINE
8
DEFAULT_255_1_234
10
16.1956275
20
30.7673044
11
16.1851863
21
31.6066211
0
LINE
8
DEFAULT_255_1_234
10
16.1851863
20
31.6066211
11
16.341002
21
31.6066211
0
ARC
8
DEFAULT_255_1_234
10
16.2772289
20
30.5128156
40
0.0976691
50
162.1584895
51
180.5399622
0
ARC
8
DEFAULT_255_1_234
10
16.2630718
20
30.5167022
40
0.0830046
50
137.728464
51
161.7182334
0
ARC
8
DEFAULT_255_1_234
10
16.2535217
20
30.5250242
40
0.0703406
50
105.057597
51
137.5118876
0
ARC
8
DEFAULT_255_1_234
10
16.2645566
20
30.4878557
40
0.1091042
50
92.0805836
51
105.5827737
0
ARC
8
DEFAULT_255_1_234
10
16.2670453
20
30.4519307
40
0.1451008
50
89.9744466
51
92.5476359
0
ARC
8
DEFAULT_255_1_234
10
16.2680541
20
30.4747095
40
0.1223258
50
78.2146798
51
90.4421891
0
ARC
8
DEFAULT_255_1_234
10
16.2773019
20
30.5170168
40
0.0790225
50
56.0837456
51
78.5132969
0
ARC
8
DEFAULT_255_1_234
10
16.2829256
20
30.5266385
40
0.0679038
50
42.5241188
51
55.4914579
0
ARC
8
DEFAULT_255_1_234
10
16.2705253
20
30.5151587
40
0.0848021
50
2.397718
51
42.5776288
0
ARC
8
DEFAULT_255_1_234
10
16.2444158
20
30.5119488
40
0.1110431
50
359.9723047
51
3.4889367
0
ARC
8
DEFAULT_255_1_234
10
16.260122
20
30.5109914
40
0.0953415
50
342.7087048
51
0.5431316
0
ARC
8
DEFAULT_255_1_234
10
16.2759655
20
30.5066415
40
0.078923
50
316.2433759
51
342.3051481
0
ARC
8
DEFAULT_255_1_234
10
16.2812921
20
30.5019433
40
0.0718269
50
285.532829
51
316.0116862
0
ARC
8
DEFAULT_255_1_234
10
16.2700751
20
30.538961
40
0.1105001
50
272.5953665
51
285.9965648
0
ARC
8
DEFAULT_255_1_234
10
16.2671951
20
30.5768567
40
0.1484917
50
269.9671508
51
273.0433633
0
ARC
8
DEFAULT_255_1_234
10
16.2662036
20
30.5550848
40
0.126723
50
259.0265948
51
270.4098411
0
ARC
8
DEFAULT_255_1_234
10
16.2571835
20
30.5105941
40
0.0813296
50
239.413751
51
259.2986253
0
ARC
8
DEFAULT_255_1_234
10
16.2498669
20
30.4970327
40
0.065935
50
223.0077841
51
238.8907076
0
ARC
8
DEFAULT_255_1_234
10
16.2613621
20
30.5075716
40
0.0815295
50
184.7848311
51
222.9135279
0
ARC
8
DEFAULT_255_1_234
10
16.2888995
20
30.5117526
40
0.1093355
50
179.925276
51
185.7644975
0
LINE
8
DEFAULT_255_1_234
10
4.2414489
20
29.6223211
11
4.2414489
21
28.5789983
0
LINE
8
DEFAULT_255_1_234
10
4.2414489
20
28.5789983
11
4.7956389
21
28.5789983
0
LINE
8
DEFAULT_255_1_234
10
4.7956389
20
28.5789983
11
4.7956389
21
28.4529
0
LINE
8
DEFAULT_255_1_234
10
4.7956389
20
28.4529
11
4.0864364
21
28.4529
0
LINE
8
DEFAULT_255_1_234
10
4.0864364
20
28.4529
11
4.0864364
21
29.6223211
0
LINE
8
DEFAULT_255_1_234
10
4.0864364
20
29.6223211
11
4.2414489
21
29.6223211
0
LINE
8
DEFAULT_255_1_234
10
5.4213113
20
29.6279433
11
5.4213113
21
28.4529
0
LINE
8
DEFAULT_255_1_234
10
5.4213113
20
28.4529
11
5.2719209
21
28.4529
0
LINE
8
DEFAULT_255_1_234
10
5.2719209
20
28.4529
11
5.2719209
21
29.4432133
0
LINE
8
DEFAULT_255_1_234
10
5.2719209
20
29.4432133
11
4.9723371
21
29.3331785
0
LINE
8
DEFAULT_255_1_234
10
4.9723371
20
29.3331785
11
4.9723371
21
29.4681117
0
LINE
8
DEFAULT_255_1_234
10
4.9723371
20
29.4681117
11
5.3980192
21
29.6279433
0
LINE
8
DEFAULT_255_1_234
10
5.3980192
20
29.6279433
11
5.4213113
21
29.6279433
0
LINE
8
DEFAULT_255_1_234
10
4.9462879
20
21.6848211
11
4.9462879
21
20.5154
0
LINE
8
DEFAULT_255_1_234
10
4.9462879
20
20.5154
11
4.7912753
21
20.5154
0
LINE
8
DEFAULT_255_1_234
10
4.7912753
20
20.5154
11
4.2025489
21
21.416561
0
LINE
8
DEFAULT_255_1_234
10
4.2025489
20
21.416561
11
4.2025489
21
20.5154
0
LINE
8
DEFAULT_255_1_234
10
4.2025489
20
20.5154
11
4.0475364
21
20.5154
0
LINE
8
DEFAULT_255_1_234
10
4.0475364
20
20.5154
11
4.0475364
21
21.6848211
0
LINE
8
DEFAULT_255_1_234
10
4.0475364
20
21.6848211
11
4.2025489
21
21.6848211
0
LINE
8
DEFAULT_255_1_234
10
4.2025489
20
21.6848211
11
4.7928817
21
20.7796442
0
LINE
8
DEFAULT_255_1_234
10
4.7928817
20
20.7796442
11
4.7928817
21
21.6848211
0
LINE
8
DEFAULT_255_1_234
10
4.7928817
20
21.6848211
11
4.9462879
21
21.6848211
0
LINE
8
DEFAULT_255_1_234
10
23.0386265
20
29.4215276
11
23.0386265
21
29.0801788
0
LINE
8
DEFAULT_255_1_234
10
23.0386265
20
29.0801788
11
23.364715
21
29.0801788
0
LINE
8
DEFAULT_255_1_234
10
23.364715
20
29.0801788
11
23.364715
21
28.9396233
0
LINE
8
DEFAULT_255_1_234
10
23.364715
20
28.9396233
11
23.0386265
21
28.9396233
0
LINE
8
DEFAULT_255_1_234
10
23.0386265
20
28.9396233
11
23.0386265
21
28.5701634
0
LINE
8
DEFAULT_255_1_234
10
23.0386265
20
28.5701634
11
22.8892361
21
28.5701634
0
LINE
8
DEFAULT_255_1_234
10
22.8892361
20
28.5701634
11
22.8892361
21
28.9396233
0
LINE
8
DEFAULT_255_1_234
10
22.8892361
20
28.9396233
11
22.5631476
21
28.9396233
0
LINE
8
DEFAULT_255_1_234
10
22.5631476
20
28.9396233
11
22.5631476
21
29.0801788
0
LINE
8
DEFAULT_255_1_234
10
22.5631476
20
29.0801788
11
22.8892361
21
29.0801788
0
LINE
8
DEFAULT_255_1_234
10
22.8892361
20
29.0801788
11
22.8892361
21
29.4215276
0
LINE
8
DEFAULT_255_1_234
10
22.8892361
20
29.4215276
11
23.0386265
21
29.4215276
0
LINE
8
DEFAULT_255_1_234
10
24.0184985
20
29.6279433
11
24.0184985
21
28.4529
0
LINE
8
DEFAULT_255_1_234
10
24.0184985
20
28.4529
11
23.8691082
21
28.4529
0
LINE
8
DEFAULT_255_1_234
10
23.8691082
20
28.4529
11
23.8691082
21
29.4432133
0
LINE
8
DEFAULT_255_1_234
10
23.8691082
20
29.4432133
11
23.5695244
21
29.3331785
0
LINE
8
DEFAULT_255_1_234
10
23.5695244
20
29.3331785
11
23.5695244
21
29.4681117
0
LINE
8
DEFAULT_255_1_234
10
23.5695244
20
29.4681117
11
23.9952065
21
29.6279433
0
LINE
8
DEFAULT_255_1_234
10
23.9952065
20
29.6279433
11
24.0184985
21
29.6279433
0
LINE
8
DEFAULT_255_1_234
10
23.8106119
20
4.7616792
11
23.8106119
21
4.6404
0
LINE
8
DEFAULT_255_1_234
10
23.8106119
20
4.6404
11
23.044384
21
4.6404
0
LINE
8
DEFAULT_255_1_234
10
23.044384
20
4.6404
11
23.044384
21
4.7472221
0
LINE
8
DEFAULT_255_1_234
10
23.044384
20
4.7472221
11
23.4491836
21
5.1969995
0
LINE
8
DEFAULT_255_1_234
10
23.1704823
20
5.4652595
11
23.0218952
21
5.4652595
0
LINE
8
DEFAULT_255_1_234
10
23.5367296
20
5.1014218
11
23.2234918
21
4.7616792
0
LINE
8
DEFAULT_255_1_234
10
23.2234918
20
4.7616792
11
23.8106119
21
4.7616792
0
ARC
8
DEFAULT_255_1_234
10
22.100167
20
6.3899527
40
1.8008286
50
318.5132453
51
320.7828378
0
ARC
8
DEFAULT_255_1_234
10
22.6288644
20
5.9596426
40
1.1191493
50
320.7372736
51
323.9737074
0
ARC
8
DEFAULT_255_1_234
10
23.0208501
20
5.6756361
40
0.6350923
50
323.8961724
51
328.6421089
0
ARC
8
DEFAULT_255_1_234
10
23.2255096
20
5.5494031
40
0.3946393
50
328.8299013
51
331.789948
0
ARC
8
DEFAULT_255_1_234
10
23.3252274
20
5.4979509
40
0.2824501
50
331.4255242
51
352.9364833
0
ARC
8
DEFAULT_255_1_234
10
23.3388775
20
5.4948976
40
0.2685315
50
353.2248685
51
0.0169286
0
ARC
8
DEFAULT_255_1_234
10
23.3598652
20
5.497195
40
0.2475536
50
359.4866256
51
15.9339782
0
ARC
8
DEFAULT_255_1_234
10
23.4105637
20
5.5108286
40
0.1950618
50
16.1714718
51
43.5284424
0
ARC
8
DEFAULT_255_1_234
10
23.4182946
20
5.5185573
40
0.184134
50
43.4415429
51
83.1661404
0
ARC
8
DEFAULT_255_1_234
10
23.4048864
20
5.4448771
40
0.258926
50
82.160215
51
90.1505798
0
ARC
8
DEFAULT_255_1_234
10
23.4017291
20
5.3911865
40
0.3126255
50
89.5460705
51
102.5418777
0
ARC
8
DEFAULT_255_1_234
10
23.3774377
20
5.4942665
40
0.2067346
50
102.1739365
51
129.2061916
0
ARC
8
DEFAULT_255_1_234
10
23.3695449
20
5.5067094
40
0.1921118
50
129.7279328
51
135.7542026
0
ARC
8
DEFAULT_255_1_234
10
23.3816977
20
5.4970045
40
0.2075944
50
136.175737
51
166.3674722
0
ARC
8
DEFAULT_255_1_234
10
23.4823896
20
5.4700182
40
0.3118201
50
165.9092917
51
178.8683903
0
ARC
8
DEFAULT_255_1_234
10
23.5688757
20
5.4653179
40
0.3983935
50
178.438168
51
180.0083905
0
ARC
8
DEFAULT_255_1_234
10
23.4287359
20
5.4692231
40
0.4068601
50
163.2878735
51
180.5581814
0
ARC
8
DEFAULT_255_1_234
10
23.3485621
20
5.491284
40
0.3237344
50
133.454115
51
162.9470031
0
ARC
8
DEFAULT_255_1_234
10
23.3664162
20
5.4723
40
0.349795
50
100.7869394
51
133.4384016
0
ARC
8
DEFAULT_255_1_234
10
23.4011934
20
5.3174319
40
0.5084616
50
89.6605301
51
101.3704185
0
ARC
8
DEFAULT_255_1_234
10
23.4078273
20
5.3235496
40
0.502348
50
78.2171172
51
90.4130393
0
ARC
8
DEFAULT_255_1_234
10
23.4433351
20
5.4859637
40
0.3361092
50
55.9268222
51
78.4888551
0
ARC
8
DEFAULT_255_1_234
10
23.4629791
20
5.5198324
40
0.2970617
50
47.9292255
51
55.4054003
0
ARC
8
DEFAULT_255_1_234
10
23.4731352
20
5.5301502
40
0.2825983
50
4.3347696
51
48.0560701
0
ARC
8
DEFAULT_255_1_234
10
23.3635745
20
5.5131601
40
0.393225
50
359.925209
51
5.5967654
0
ARC
8
DEFAULT_255_1_234
10
23.4064637
20
5.5187816
40
0.3503892
50
337.8914096
51
358.9967724
0
ARC
8
DEFAULT_255_1_234
10
23.1351049
20
5.6234706
40
0.6412172
50
326.9135351
51
338.3505194
0
ARC
8
DEFAULT_255_1_234
10
22.7365353
20
5.8789284
40
1.1146189
50
319.6472867
51
327.095818
0
ARC
8
DEFAULT_255_1_234
10
22.3532356
20
6.1951
40
1.6114559
50
317.2586784
51
319.9046139
0
LINE
8
DEFAULT_255_1_234
10
24.2925162
20
5.1978026
11
24.2925162
21
5.0765234
0
LINE
8
DEFAULT_255_1_234
10
24.2925162
20
5.0765234
11
23.9005673
21
5.0765234
0
LINE
8
DEFAULT_255_1_234
10
23.9005673
20
5.0765234
11
23.9005673
21
5.1978026
0
LINE
8
DEFAULT_255_1_234
10
23.9005673
20
5.1978026
11
24.2925162
21
5.1978026
0
LINE
8
DEFAULT_255_1_234
10
23.5327137
20
13.7529433
11
23.5327137
21
12.5779
0
LINE
8
DEFAULT_255_1_234
10
23.5327137
20
12.5779
11
23.3833234
21
12.5779
0
LINE
8
DEFAULT_255_1_234
10
23.3833234
20
12.5779
11
23.3833234
21
13.5682133
0
LINE
8
DEFAULT_255_1_234
10
23.3833234
20
13.5682133
11
23.0837396
21
13.4581785
0
LINE
8
DEFAULT_255_1_234
10
23.0837396
20
13.4581785
11
23.0837396
21
13.5931117
0
LINE
8
DEFAULT_255_1_234
10
23.0837396
20
13.5931117
11
23.5094217
21
13.7529433
0
LINE
8
DEFAULT_255_1_234
10
23.5094217
20
13.7529433
11
23.5327137
21
13.7529433
0
LINE
8
DEFAULT_255_1_234
10
24.2925162
20
13.1353026
11
24.2925162
21
13.0140234
0
LINE
8
DEFAULT_255_1_234
10
24.2925162
20
13.0140234
11
23.9005673
21
13.0140234
0
LINE
8
DEFAULT_255_1_234
10
23.9005673
20
13.0140234
11
23.9005673
21
13.1353026
0
LINE
8
DEFAULT_255_1_234
10
23.9005673
20
13.1353026
11
24.2925162
21
13.1353026
0
LINE
8
DEFAULT_255_1_234
10
23.3598119
20
20.6366792
11
23.3598119
21
20.5154
0
LINE
8
DEFAULT_255_1_234
10
23.3598119
20
20.5154
11
22.593584
21
20.5154
0
LINE
8
DEFAULT_255_1_234
10
22.593584
20
20.5154
11
22.593584
21
20.6222221
0
LINE
8
DEFAULT_255_1_234
10
22.593584
20
20.6222221
11
22.9983836
21
21.0719995
0
LINE
8
DEFAULT_255_1_234
10
22.7196823
20
21.3402595
11
22.5710952
21
21.3402595
0
LINE
8
DEFAULT_255_1_234
10
23.0859296
20
20.9764218
11
22.7726918
21
20.6366792
0
LINE
8
DEFAULT_255_1_234
10
22.7726918
20
20.6366792
11
23.3598119
21
20.6366792
0
ARC
8
DEFAULT_255_1_234
10
21.649367
20
22.2649527
40
1.8008286
50
318.5132453
51
320.7828378
0
ARC
8
DEFAULT_255_1_234
10
22.1780644
20
21.8346426
40
1.1191493
50
320.7372736
51
323.9737074
0
ARC
8
DEFAULT_255_1_234
10
22.5700501
20
21.5506361
40
0.6350923
50
323.8961724
51
328.6421089
0
ARC
8
DEFAULT_255_1_234
10
22.7747096
20
21.4244031
40
0.3946393
50
328.8299013
51
331.789948
0
ARC
8
DEFAULT_255_1_234
10
22.8744274
20
21.3729509
40
0.2824501
50
331.4255242
51
352.9364833
0
ARC
8
DEFAULT_255_1_234
10
22.8880775
20
21.3698976
40
0.2685315
50
353.2248685
51
0.0169286
0
ARC
8
DEFAULT_255_1_234
10
22.9090652
20
21.372195
40
0.2475536
50
359.4866256
51
15.9339782
0
ARC
8
DEFAULT_255_1_234
10
22.9597637
20
21.3858286
40
0.1950618
50
16.1714718
51
43.5284424
0
ARC
8
DEFAULT_255_1_234
10
22.9674946
20
21.3935573
40
0.184134
50
43.4415429
51
83.1661404
0
ARC
8
DEFAULT_255_1_234
10
22.9540864
20
21.3198771
40
0.258926
50
82.160215
51
90.1505798
0
ARC
8
DEFAULT_255_1_234
10
22.9509291
20
21.2661865
40
0.3126255
50
89.5460705
51
102.5418777
0
ARC
8
DEFAULT_255_1_234
10
22.9266377
20
21.3692665
40
0.2067346
50
102.1739365
51
129.2061916
0
ARC
8
DEFAULT_255_1_234
10
22.9187449
20
21.3817094
40
0.1921118
50
129.7279328
51
135.7542026
0
ARC
8
DEFAULT_255_1_234
10
22.9308977
20
21.3720045
40
0.2075944
50
136.175737
51
166.3674722
0
ARC
8
DEFAULT_255_1_234
10
23.0315896
20
21.3450182
40
0.3118201
50
165.9092917
51
178.8683903
0
ARC
8
DEFAULT_255_1_234
10
23.1180757
20
21.3403179
40
0.3983935
50
178.438168
51
180.0083905
0
ARC
8
DEFAULT_255_1_234
10
22.9779359
20
21.3442231
40
0.4068601
50
163.2878735
51
180.5581814
0
ARC
8
DEFAULT_255_1_234
10
22.8977621
20
21.366284
40
0.3237344
50
133.454115
51
162.9470031
0
ARC
8
DEFAULT_255_1_234
10
22.9156162
20
21.3473
40
0.349795
50
100.7869394
51
133.4384016
0
ARC
8
DEFAULT_255_1_234
10
22.9503934
20
21.1924319
40
0.5084616
50
89.6605301
51
101.3704185
0
ARC
8
DEFAULT_255_1_234
10
22.9570273
20
21.1985496
40
0.502348
50
78.2171172
51
90.4130393
0
ARC
8
DEFAULT_255_1_234
10
22.9925351
20
21.3609637
40
0.3361092
50
55.9268222
51
78.4888551
0
ARC
8
DEFAULT_255_1_234
10
23.0121791
20
21.3948324
40
0.2970617
50
47.9292255
51
55.4054003
0
ARC
8
DEFAULT_255_1_234
10
23.0223352
20
21.4051502
40
0.2825983
50
4.3347696
51
48.0560701
0
ARC
8
DEFAULT_255_1_234
10
22.9127745
20
21.3881601
40
0.393225
50
359.925209
51
5.5967654
0
ARC
8
DEFAULT_255_1_234
10
22.9556637
20
21.3937816
40
0.3503892
50
337.8914096
51
358.9967724
0
ARC
8
DEFAULT_255_1_234
10
22.6843049
20
21.4984706
40
0.6412172
50
326.9135351
51
338.3505194
0
ARC
8
DEFAULT_255_1_234
10
22.2857353
20
21.7539284
40
1.1146189
50
319.6472867
51
327.095818
0
ARC
8
DEFAULT_255_1_234
10
21.9024356
20
22.0701
40
1.6114559
50
317.2586784
51
319.9046139
0
LINE
8
DEFAULT_255_1_234
10
23.9581764
20
21.4840276
11
23.9581764
21
21.1426788
0
LINE
8
DEFAULT_255_1_234
10
23.9581764
20
21.1426788
11
24.2842649
21
21.1426788
0
LINE
8
DEFAULT_255_1_234
10
24.2842649
20
21.1426788
11
24.2842649
21
21.0021233
0
LINE
8
DEFAULT_255_1_234
10
24.2842649
20
21.0021233
11
23.9581764
21
21.0021233
0
LINE
8
DEFAULT_255_1_234
10
23.9581764
20
21.0021233
11
23.9581764
21
20.6326634
0
LINE
8
DEFAULT_255_1_234
10
23.9581764
20
20.6326634
11
23.808786
21
20.6326634
0
LINE
8
DEFAULT_255_1_234
10
23.808786
20
20.6326634
11
23.808786
21
21.0021233
0
LINE
8
DEFAULT_255_1_234
10
23.808786
20
21.0021233
11
23.4826975
21
21.0021233
0
LINE
8
DEFAULT_255_1_234
10
23.4826975
20
21.0021233
11
23.4826975
21
21.1426788
0
LINE
8
DEFAULT_255_1_234
10
23.4826975
20
21.1426788
11
23.808786
21
21.1426788
0
LINE
8
DEFAULT_255_1_234
10
23.808786
20
21.1426788
11
23.808786
21
21.4840276
0
LINE
8
DEFAULT_255_1_234
10
23.808786
20
21.4840276
11
23.9581764
21
21.4840276
0
ENDSEC
0
EOF