0
SECTION
2
HEADER
9
$MEASUREMENT
70
1
0
ENDSEC
0
SECTION
2
TABLES
0
TABLE
2
LTYPE
0
LTYPE
72
65
70
64
2
CONTINUOUS
3
______
73
0
40
0
0
ENDTAB
0
TABLE
2
LAYER
0
LAYER
2
DEFAULT_255_2_778
70
0
62
255
6
CONTINUOUS
0
LAYER
2
DEFAULT_255_1_234
70
0
62
255
6
CONTINUOUS
0
ENDTAB
0
ENDSEC
0
SECTION
2
ENTITIES
0
ARC
8
DEFAULT_255_2_778
10
3.5695693
20
20.2426538
40
0.7914215
50
129.1312896
51
180.1450914
0
ARC
8
DEFAULT_255_2_778
10
3.5698345
20
20.2431409
40
0.7912112
50
89.854026
51
129.1684493
0
ARC
8
DEFAULT_255_2_778
10
25.7988937
20
20.2428275
40
0.7915249
50
39.4792447
51
90.147911
0
ARC
8
DEFAULT_255_2_778
10
25.7994935
20
20.2426741
40
0.7911595
50
359.8533901
51
39.5154338
0
ARC
8
DEFAULT_255_2_778
10
25.7991693
20
-1.9863985
40
0.7914836
50
309.4761667
51
0.1482649
0
ARC
8
DEFAULT_255_2_778
10
25.798898
20
-1.9868295
40
0.7913235
50
269.8517415
51
309.511178
0
ARC
8
DEFAULT_255_2_778
10
3.569842
20
-1.9867714
40
0.7913815
50
219.1282118
51
270.1454017
0
ARC
8
DEFAULT_255_2_778
10
3.5695247
20
-1.9863889
40
0.7913769
50
179.8524075
51
219.1641908
0
LINE
8
DEFAULT_255_2_778
10
3.5718503
20
21.0343497
11
25.7968503
21
21.0343497
0
LINE
8
DEFAULT_255_2_778
10
26.5906503
20
20.2406497
11
26.5906503
21
-1.9843503
0
LINE
8
DEFAULT_255_2_778
10
25.7968503
20
-2.7781503
11
3.5718503
21
-2.7781503
0
LINE
8
DEFAULT_255_2_778
10
2.7781503
20
-1.9843503
11
2.7781503
21
20.2406497
0
LINE
8
DEFAULT_255_1_234
10
6.7590835
20
1.1804243
11
6.7855882
21
1.1804243
0
LINE
8
DEFAULT_255_1_234
10
6.7855882
20
1.1804243
11
6.7855882
21
1.054326
0
LINE
8
DEFAULT_255_1_234
10
6.7855882
20
1.054326
11
6.7582803
21
1.054326
0
LINE
8
DEFAULT_255_1_234
10
6.2113189
20
0.4551583
11
6.2113189
21
0.5121836
0
LINE
8
DEFAULT_255_1_234
10
6.3607093
20
0.4929075
11
6.3607093
21
0.4382917
0
ARC
8
DEFAULT_255_1_234
10
6.7635151
20
0.5545455
40
0.4998079
50
90.6001036
51
104.514704
0
ARC
8
DEFAULT_255_1_234
10
6.7246667
20
0.6990131
40
0.3502176
50
104.2855254
51
133.862935
0
ARC
8
DEFAULT_255_1_234
10
6.7410424
20
0.688183
40
0.3693984
50
134.5302688
51
161.6210873
0
ARC
8
DEFAULT_255_1_234
10
6.9063613
20
0.6298895
40
0.5446739
50
161.2849839
51
174.2076652
0
ARC
8
DEFAULT_255_1_234
10
7.047055
20
0.6104787
40
0.6866274
50
173.7810589
51
174.9254635
0
ARC
8
DEFAULT_255_1_234
10
6.5920382
20
0.4721839
40
0.3033419
50
95.8330959
51
138.9954921
0
ARC
8
DEFAULT_255_1_234
10
6.6143738
20
0.3443375
40
0.4328947
50
89.8753725
51
97.0544009
0
ARC
8
DEFAULT_255_1_234
10
6.6191204
20
0.4278748
40
0.3493769
50
71.6407809
51
90.6240094
0
ARC
8
DEFAULT_255_1_234
10
6.6341777
20
0.4833082
40
0.2920396
50
39.6367836
51
71.019018
0
ARC
8
DEFAULT_255_1_234
10
6.570525
20
0.4282998
40
0.3761538
50
10.658731
51
39.9043955
0
ARC
8
DEFAULT_255_1_234
10
6.4157333
20
0.3946686
40
0.5345136
50
359.682601
51
11.132623
0
ARC
8
DEFAULT_255_1_234
10
6.4117464
20
0.387601
40
0.5385081
50
347.2486944
51
0.4369317
0
ARC
8
DEFAULT_255_1_234
10
6.5784941
20
0.3474807
40
0.3670249
50
318.1409698
51
347.6118597
0
ARC
8
DEFAULT_255_1_234
10
6.6109934
20
0.3207702
40
0.3250007
50
275.6342139
51
317.8248465
0
ARC
8
DEFAULT_255_1_234
10
6.5889045
20
0.4507219
40
0.4565864
50
269.8874292
51
276.7917694
0
ARC
8
DEFAULT_255_1_234
10
6.5834116
20
0.3481743
40
0.3540676
50
246.9140195
51
270.7437342
0
ARC
8
DEFAULT_255_1_234
10
6.5840506
20
0.3339384
40
0.3412781
50
218.1665114
51
245.878116
0
ARC
8
DEFAULT_255_1_234
10
6.6719967
20
0.4075279
40
0.455911
50
191.4115814
51
218.6077802
0
ARC
8
DEFAULT_255_1_234
10
6.8658056
20
0.4509833
40
0.6545001
50
179.6345085
51
191.7836486
0
ARC
8
DEFAULT_255_1_234
10
7.4240393
20
0.5188697
40
1.2127388
50
171.4525249
51
180.3158839
0
ARC
8
DEFAULT_255_1_234
10
6.9845269
20
0.5872608
40
0.7679464
50
157.9802646
51
171.6246686
0
ARC
8
DEFAULT_255_1_234
10
6.763129
20
0.6755421
40
0.5296008
50
141.4298019
51
157.854097
0
ARC
8
DEFAULT_255_1_234
10
6.698961
20
0.7209381
40
0.4511509
50
102.8715806
51
140.8564722
0
ARC
8
DEFAULT_255_1_234
10
6.7637226
20
0.4769552
40
0.7034845
50
90.3778349
51
103.5869322
0
ARC
8
DEFAULT_255_1_234
10
6.5899002
20
0.416473
40
0.2370698
50
89.8751008
51
126.2071704
0
ARC
8
DEFAULT_255_1_234
10
6.5944792
20
0.4010303
40
0.2522934
50
124.9745049
51
144.895901
0
ARC
8
DEFAULT_255_1_234
10
6.5768982
20
0.415356
40
0.2296779
50
145.2974905
51
160.2660252
0
ARC
8
DEFAULT_255_1_234
10
6.8841521
20
0.4351071
40
0.5234525
50
179.6514266
51
190.2855912
0
ARC
8
DEFAULT_255_1_234
10
6.7147658
20
0.4031786
40
0.3510893
50
190.0945431
51
207.5098196
0
ARC
8
DEFAULT_255_1_234
10
6.6581928
20
0.3762623
40
0.288489
50
207.9583163
51
216.3251085
0
ARC
8
DEFAULT_255_1_234
10
6.6242036
20
0.3483105
40
0.2445587
50
215.7661442
51
232.5456785
0
ARC
8
DEFAULT_255_1_234
10
6.5859019
20
0.2996482
40
0.1826382
50
232.8005391
51
270.6605633
0
ARC
8
DEFAULT_255_1_234
10
6.590472
20
0.3360612
40
0.2190529
50
269.35537
51
288.4744281
0
ARC
8
DEFAULT_255_1_234
10
6.5997617
20
0.3011118
40
0.1829749
50
289.1833337
51
322.9683818
0
ARC
8
DEFAULT_255_1_234
10
6.5386139
20
0.3493391
40
0.2608399
50
322.6007884
51
346.5182367
0
ARC
8
DEFAULT_255_1_234
10
6.4228735
20
0.3788616
40
0.3802777
50
346.2582162
51
358.7741648
0
ARC
8
DEFAULT_255_1_234
10
6.3210404
20
0.3843965
40
0.4822176
50
358.3755224
51
0.0098023
0
ARC
8
DEFAULT_255_1_234
10
6.3966591
20
0.3871657
40
0.4066078
50
359.6214041
51
11.2839074
0
ARC
8
DEFAULT_255_1_234
10
6.5243738
20
0.4138066
40
0.2761514
50
11.0482309
51
31.8146458
0
ARC
8
DEFAULT_255_1_234
10
6.5552781
20
0.4305584
40
0.2410679
50
32.3035391
51
38.082671
0
ARC
8
DEFAULT_255_1_234
10
6.5973441
20
0.4686662
40
0.1844966
50
36.825067
51
85.7415724
0
ARC
8
DEFAULT_255_1_234
10
6.5906274
20
0.4186301
40
0.2349122
50
85.0140713
51
90.0513278
0
LINE
8
DEFAULT_255_1_234
10
7.8256983
20
0.6768343
11
7.8256983
21
0.550736
0
LINE
8
DEFAULT_255_1_234
10
7.8256983
20
0.550736
11
7.3188957
21
0.550736
0
LINE
8
DEFAULT_255_1_234
10
7.3188957
20
0.550736
11
7.3188957
21
0.1362983
0
LINE
8
DEFAULT_255_1_234
10
7.3188957
20
0.1362983
11
7.9076221
21
0.1362983
0
LINE
8
DEFAULT_255_1_234
10
7.9076221
20
0.1362983
11
7.9076221
21
0.0102
0
LINE
8
DEFAULT_255_1_234
10
7.9076221
20
0.0102
11
7.1646863
21
0.0102
0
LINE
8
DEFAULT_255_1_234
10
7.1646863
20
0.0102
11
7.1646863
21
1.1796211
0
LINE
8
DEFAULT_255_1_234
10
7.1646863
20
1.1796211
11
7.8995903
21
1.1796211
0
LINE
8
DEFAULT_255_1_234
10
7.8995903
20
1.1796211
11
7.8995903
21
1.0527196
0
LINE
8
DEFAULT_255_1_234
10
7.8995903
20
1.0527196
11
7.3188957
21
1.0527196
0
LINE
8
DEFAULT_255_1_234
10
7.3188957
20
1.0527196
11
7.3188957
21
0.6768343
0
LINE
8
DEFAULT_255_1_234
10
7.3188957
20
0.6768343
11
7.8256983
21
0.6768343
0
LINE
8
DEFAULT_255_1_234
10
8.5292786
20
0.4680091
11
8.25379
21
0.4680091
0
LINE
8
DEFAULT_255_1_234
10
8.25379
20
0.4680091
11
8.25379
21
0.0102
0
LINE
8
DEFAULT_255_1_234
10
8.25379
20
0.0102
11
8.0995806
21
0.0102
0
LINE
8
DEFAULT_255_1_234
10
8.0995806
20
0.0102
11
8.0995806
21
1.1796211
0
LINE
8
DEFAULT_255_1_234
10
8.0995806
20
1.1796211
11
8.530885
21
1.1796211
0
LINE
8
DEFAULT_255_1_234
10
8.25379
20
1.0527196
11
8.25379
21
0.5941074
0
LINE
8
DEFAULT_255_1_234
10
8.25379
20
0.5941074
11
8.530885
21
0.5941074
0
LINE
8
DEFAULT_255_1_234
10
8.5397199
20
1.0527196
11
8.25379
21
1.0527196
0
ARC
8
DEFAULT_255_1_234
10
8.5350976
20
0.5737195
40
0.6059162
50
78.8378113
51
90.3983573
0
ARC
8
DEFAULT_255_1_234
10
8.576699
20
0.7757879
40
0.3996205
50
58.9632738
51
79.0810598
0
ARC
8
DEFAULT_255_1_234
10
8.6068532
20
0.8317721
40
0.3361177
50
48.0197965
51
58.447194
0
ARC
8
DEFAULT_255_1_234
10
8.6157393
20
0.8403225
40
0.3238191
50
3.3375044
51
48.1766626
0
ARC
8
DEFAULT_255_1_234
10
8.4927233
20
0.8226171
40
0.4477806
50
359.9477528
51
4.6829065
0
ARC
8
DEFAULT_255_1_234
10
8.505055
20
0.8183628
40
0.4354656
50
346.1877825
51
0.5060252
0
ARC
8
DEFAULT_255_1_234
10
8.6409417
20
0.7830731
40
0.295089
50
310.8831995
51
346.5426355
0
ARC
8
DEFAULT_255_1_234
10
8.6100837
20
0.8247695
40
0.3468331
50
286.6925341
51
310.2288297
0
ARC
8
DEFAULT_255_1_234
10
8.5531668
20
1.0037882
40
0.5346654
50
274.6850312
51
287.0245141
0
ARC
8
DEFAULT_255_1_234
10
8.5306391
20
1.2246932
40
0.7566852
50
269.8969846
51
275.018904
0
ARC
8
DEFAULT_255_1_234
10
8.5333982
20
1.0167707
40
0.4226708
50
269.6593078
51
279.4153575
0
ARC
8
DEFAULT_255_1_234
10
8.5591258
20
0.8677133
40
0.2714146
50
279.2049762
51
294.9900808
0
ARC
8
DEFAULT_255_1_234
10
8.5881583
20
0.8029508
40
0.2004525
50
295.2888114
51
311.2911209
0
ARC
8
DEFAULT_255_1_234
10
8.5952478
20
0.792422
40
0.1878703
50
311.7854996
51
347.2861051
0
ARC
8
DEFAULT_255_1_234
10
8.4968636
20
0.8177092
40
0.2894234
50
346.6893224
51
0.1059443
0
ARC
8
DEFAULT_255_1_234
10
8.4213531
20
0.8205685
40
0.3649409
50
359.6350983
51
0.0053152
0
ARC
8
DEFAULT_255_1_234
10
8.518386
20
0.8230937
40
0.2679199
50
359.4672059
51
15.5933957
0
ARC
8
DEFAULT_255_1_234
10
8.5808748
20
0.8399779
40
0.2031932
50
15.7442113
51
46.6203375
0
ARC
8
DEFAULT_255_1_234
10
8.5660969
20
0.8229484
40
0.2257226
50
46.8628658
51
75.6676503
0
ARC
8
DEFAULT_255_1_234
10
8.536679
20
0.7170718
40
0.3355939
50
75.276167
51
88.2915297
0
ARC
8
DEFAULT_255_1_234
10
8.5308496
20
0.6292524
40
0.4235602
50
87.8575022
51
88.8000139
0
LINE
8
DEFAULT_255_1_234
10
9.3147826
20
0.5459169
11
9.3147826
21
0.6671962
0
LINE
8
DEFAULT_255_1_234
10
9.3147826
20
0.6671962
11
9.4264238
21
0.6671962
0
LINE
8
DEFAULT_255_1_234
10
9.2360716
20
0.8728087
11
9.0874844
21
0.8728087
0
LINE
8
DEFAULT_255_1_234
10
9.0770432
20
0.3186188
11
9.2264335
21
0.3186188
0
LINE
8
DEFAULT_255_1_234
10
9.4264238
20
0.5459169
11
9.3147826
21
0.5459169
0
ARC
8
DEFAULT_255_1_234
10
9.4235104
20
1.0064713
40
0.3392876
50
270.4919872
51
281.8951556
0
ARC
8
DEFAULT_255_1_234
10
9.4476366
20
0.8962702
40
0.2264817
50
281.6691735
51
301.2943132
0
ARC
8
DEFAULT_255_1_234
10
9.4646576
20
0.8651304
40
0.1910381
50
301.7833094
51
311.7545298
0
ARC
8
DEFAULT_255_1_234
10
9.4738152
20
0.8549748
40
0.1773635
50
311.7323931
51
354.2802411
0
ARC
8
DEFAULT_255_1_234
10
9.4011777
20
0.8674722
40
0.2509385
50
353.0937916
51
0.1181479
0
ARC
8
DEFAULT_255_1_234
10
9.3550562
20
0.8722386
40
0.2970898
50
359.1805295
51
15.0453146
0
ARC
8
DEFAULT_255_1_234
10
9.4896399
20
0.9114992
40
0.1569564
50
13.9577229
51
77.6713066
0
ARC
8
DEFAULT_255_1_234
10
9.4509928
20
0.7729949
40
0.3006298
50
76.1116566
51
90.7026153
0
ARC
8
DEFAULT_255_1_234
10
9.4450766
20
0.8003545
40
0.2732568
50
89.5324876
51
103.531937
0
ARC
8
DEFAULT_255_1_234
10
9.4250211
20
0.8802884
40
0.1908508
50
103.2931773
51
133.5619022
0
ARC
8
DEFAULT_255_1_234
10
9.4205699
20
0.8862375
40
0.1834746
50
133.8349307
51
173.5344437
0
ARC
8
DEFAULT_255_1_234
10
9.4928742
20
0.8734213
40
0.2568033
50
172.5096846
51
180.1366907
0
ARC
8
DEFAULT_255_1_234
10
9.3977636
20
0.8768622
40
0.3103056
50
155.3484492
51
180.7484736
0
ARC
8
DEFAULT_255_1_234
10
9.3928725
20
0.8739846
40
0.3070957
50
131.5744599
51
154.4798489
0
ARC
8
DEFAULT_255_1_234
10
9.4241872
20
0.842331
40
0.3515643
50
96.9875458
51
131.9690667
0
ARC
8
DEFAULT_255_1_234
10
9.4461352
20
0.7177636
40
0.4779224
50
89.8596053
51
97.7825159
0
ARC
8
DEFAULT_255_1_234
10
9.4509415
20
0.6915616
40
0.5041361
50
78.3655447
51
90.4131539
0
ARC
8
DEFAULT_255_1_234
10
9.4867333
20
0.8574887
40
0.3344039
50
56.6229102
51
78.638727
0
ARC
8
DEFAULT_255_1_234
10
9.5082277
20
0.8950805
40
0.2912001
50
47.0253525
51
56.0854072
0
ARC
8
DEFAULT_255_1_234
10
9.5102057
20
0.8990223
40
0.2869704
50
10.9208013
51
46.7778124
0
ARC
8
DEFAULT_255_1_234
10
9.3738124
20
0.8674857
40
0.426899
50
359.6364486
51
11.6087304
0
ARC
8
DEFAULT_255_1_234
10
9.5572968
20
0.8659752
40
0.243409
50
332.3549906
51
359.7179418
0
ARC
8
DEFAULT_255_1_234
10
9.4922569
20
0.8968142
40
0.3153459
50
325.2333722
51
332.8745602
0
ARC
8
DEFAULT_255_1_234
10
9.5075193
20
0.8861828
40
0.2967456
50
292.9802137
51
325.2392345
0
ARC
8
DEFAULT_255_1_234
10
9.4800567
20
0.9395863
40
0.3566604
50
292.5402179
51
293.6924929
0
ARC
8
DEFAULT_255_1_234
10
9.5193163
20
0.2941091
40
0.3307468
50
57.6435486
51
72.8625112
0
ARC
8
DEFAULT_255_1_234
10
9.5547662
20
0.3515549
40
0.2632492
50
36.7248896
51
57.4697979
0
ARC
8
DEFAULT_255_1_234
10
9.5536295
20
0.352822
40
0.2634081
50
8.0545065
51
36.356114
0
ARC
8
DEFAULT_255_1_234
10
9.467348
20
0.3373174
40
0.3510261
50
359.8320645
51
8.5869982
0
ARC
8
DEFAULT_255_1_234
10
9.4298256
20
0.3325101
40
0.3885653
50
343.9829931
51
0.5571613
0
ARC
8
DEFAULT_255_1_234
10
9.5184454
20
0.3082438
40
0.2966924
50
311.6359546
51
343.7651759
0
ARC
8
DEFAULT_255_1_234
10
9.4806023
20
0.3509102
40
0.3537231
50
279.7829875
51
311.6255694
0
ARC
8
DEFAULT_255_1_234
10
9.4504799
20
0.494628
40
0.5004971
50
269.7286406
51
280.3856417
0
ARC
8
DEFAULT_255_1_234
10
9.4442872
20
0.4904996
40
0.4963778
50
256.6828919
51
270.4412052
0
ARC
8
DEFAULT_255_1_234
10
9.4104167
20
0.3520394
40
0.3538406
50
229.4223008
51
256.8556159
0
ARC
8
DEFAULT_255_1_234
10
9.368956
20
0.3053736
40
0.2914296
50
181.818294
51
229.6455059
0
ARC
8
DEFAULT_255_1_234
10
9.4729516
20
0.3184496
40
0.3959084
50
179.9755256
51
183.2323064
0
ARC
8
DEFAULT_255_1_234
10
9.4557262
20
0.3164037
40
0.2293034
50
179.4465117
51
196.2869258
0
ARC
8
DEFAULT_255_1_234
10
9.406967
20
0.3030651
40
0.1787621
50
196.5661473
51
227.705904
0
ARC
8
DEFAULT_255_1_234
10
9.4233765
20
0.3214155
40
0.2033784
50
227.7652068
51
257.8762805
0
ARC
8
DEFAULT_255_1_234
10
9.4458735
20
0.4157156
40
0.3003081
50
257.4584385
51
270.426602
0
ARC
8
DEFAULT_255_1_234
10
9.4504301
20
0.4446996
40
0.329292
50
269.5962073
51
280.8789248
0
ARC
8
DEFAULT_255_1_234
10
9.473383
20
0.3300685
40
0.2123908
50
280.6346389
51
299.8595945
0
ARC
8
DEFAULT_255_1_234
10
9.4924737
20
0.2938212
40
0.171457
50
300.3576302
51
314.5517981
0
ARC
8
DEFAULT_255_1_234
10
9.4841797
20
0.2998919
40
0.1816095
50
315.0728369
51
345.0431014
0
ARC
8
DEFAULT_255_1_234
10
9.3918611
20
0.3267841
40
0.2777492
50
344.5986631
51
357.9269593
0
ARC
8
DEFAULT_255_1_234
10
9.3022938
20
0.3329276
40
0.3674917
50
357.4748886
51
0.0231117
0
ARC
8
DEFAULT_255_1_234
10
9.4046047
20
0.3353679
40
0.2651907
50
359.5047933
51
13.4239635
0
ARC
8
DEFAULT_255_1_234
10
9.4912691
20
0.3575478
40
0.1757509
50
12.9498199
51
48.7551375
0
ARC
8
DEFAULT_255_1_234
10
9.4730425
20
0.33264
40
0.2065134
50
49.5088623
51
72.1836453
0
ARC
8
DEFAULT_255_1_234
10
9.4372577
20
0.2264291
40
0.3185836
50
71.9010081
51
84.3554254
0
ARC
8
DEFAULT_255_1_234
10
9.4211209
20
0.0903326
40
0.4556151
50
84.0193428
51
89.333121
0
LINE
8
DEFAULT_255_1_234
10
10.2384325
20
0.5459169
11
10.2384325
21
0.6671962
0
LINE
8
DEFAULT_255_1_234
10
10.2384325
20
0.6671962
11
10.3500737
21
0.6671962
0
LINE
8
DEFAULT_255_1_234
10
10.1597215
20
0.8728087
11
10.0111343
21
0.8728087
0
LINE
8
DEFAULT_255_1_234
10
10.0006931
20
0.3186188
11
10.1500834
21
0.3186188
0
LINE
8
DEFAULT_255_1_234
10
10.3500737
20
0.5459169
11
10.2384325
21
0.5459169
0
ARC
8
DEFAULT_255_1_234
10
10.3471603
20
1.0064713
40
0.3392876
50
270.4919872
51
281.8951556
0
ARC
8
DEFAULT_255_1_234
10
10.3712865
20
0.8962702
40
0.2264817
50
281.6691735
51
301.2943132
0
ARC
8
DEFAULT_255_1_234
10
10.3883075
20
0.8651304
40
0.1910381
50
301.7833094
51
311.7545298
0
ARC
8
DEFAULT_255_1_234
10
10.3974651
20
0.8549748
40
0.1773635
50
311.7323931
51
354.2802411
0
ARC
8
DEFAULT_255_1_234
10
10.3248276
20
0.8674722
40
0.2509385
50
353.0937916
51
0.1181479
0
ARC
8
DEFAULT_255_1_234
10
10.2787061
20
0.8722386
40
0.2970898
50
359.1805295
51
15.0453146
0
ARC
8
DEFAULT_255_1_234
10
10.4132898
20
0.9114992
40
0.1569564
50
13.9577229
51
77.6713066
0
ARC
8
DEFAULT_255_1_234
10
10.3746427
20
0.7729949
40
0.3006298
50
76.1116566
51
90.7026153
0
ARC
8
DEFAULT_255_1_234
10
10.3687266
20
0.8003545
40
0.2732568
50
89.5324876
51
103.531937
0
ARC
8
DEFAULT_255_1_234
10
10.348671
20
0.8802884
40
0.1908508
50
103.2931773
51
133.5619022
0
ARC
8
DEFAULT_255_1_234
10
10.3442198
20
0.8862375
40
0.1834746
50
133.8349307
51
173.5344437
0
ARC
8
DEFAULT_255_1_234
10
10.4165241
20
0.8734213
40
0.2568033
50
172.5096846
51
180.1366907
0
ARC
8
DEFAULT_255_1_234
10
10.3214135
20
0.8768622
40
0.3103056
50
155.3484492
51
180.7484736
0
ARC
8
DEFAULT_255_1_234
10
10.3165224
20
0.8739846
40
0.3070957
50
131.5744599
51
154.4798489
0
ARC
8
DEFAULT_255_1_234
10
10.3478371
20
0.842331
40
0.3515643
50
96.9875458
51
131.9690667
0
ARC
8
DEFAULT_255_1_234
10
10.3697851
20
0.7177636
40
0.4779224
50
89.8596053
51
97.7825159
0
ARC
8
DEFAULT_255_1_234
10
10.3745914
20
0.6915616
40
0.5041361
50
78.3655447
51
90.4131539
0
ARC
8
DEFAULT_255_1_234
10
10.4103832
20
0.8574887
40
0.3344039
50
56.6229102
51
78.638727
0
ARC
8
DEFAULT_255_1_234
10
10.4318776
20
0.8950805
40
0.2912001
50
47.0253525
51
56.0854072
0
ARC
8
DEFAULT_255_1_234
10
10.4338556
20
0.8990223
40
0.2869704
50
10.9208013
51
46.7778124
0
ARC
8
DEFAULT_255_1_234
10
10.2974623
20
0.8674857
40
0.426899
50
359.6364486
51
11.6087304
0
ARC
8
DEFAULT_255_1_234
10
10.4809467
20
0.8659752
40
0.243409
50
332.3549906
51
359.7179418
0
ARC
8
DEFAULT_255_1_234
10
10.4159068
20
0.8968142
40
0.3153459
50
325.2333722
51
332.8745602
0
ARC
8
DEFAULT_255_1_234
10
10.4311692
20
0.8861828
40
0.2967456
50
292.9802137
51
325.2392345
0
ARC
8
DEFAULT_255_1_234
10
10.4037066
20
0.9395863
40
0.3566604
50
292.5402179
51
293.6924929
0
ARC
8
DEFAULT_255_1_234
10
10.4429662
20
0.2941091
40
0.3307468
50
57.6435486
51
72.8625112
0
ARC
8
DEFAULT_255_1_234
10
10.4784161
20
0.3515549
40
0.2632492
50
36.7248896
51
57.4697979
0
ARC
8
DEFAULT_255_1_234
10
10.4772794
20
0.352822
40
0.2634081
50
8.0545065
51
36.356114
0
ARC
8
DEFAULT_255_1_234
10
10.3909979
20
0.3373174
40
0.3510261
50
359.8320645
51
8.5869982
0
ARC
8
DEFAULT_255_1_234
10
10.3534755
20
0.3325101
40
0.3885653
50
343.9829931
51
0.5571613
0
ARC
8
DEFAULT_255_1_234
10
10.4420953
20
0.3082438
40
0.2966924
50
311.6359546
51
343.7651759
0
ARC
8
DEFAULT_255_1_234
10
10.4042522
20
0.3509102
40
0.3537231
50
279.7829875
51
311.6255694
0
ARC
8
DEFAULT_255_1_234
10
10.3741298
20
0.494628
40
0.5004971
50
269.7286406
51
280.3856417
0
ARC
8
DEFAULT_255_1_234
10
10.3679371
20
0.4904996
40
0.4963778
50
256.6828919
51
270.4412052
0
ARC
8
DEFAULT_255_1_234
10
10.3340666
20
0.3520394
40
0.3538406
50
229.4223008
51
256.8556159
0
ARC
8
DEFAULT_255_1_234
10
10.2926059
20
0.3053736
40
0.2914296
50
181.818294
51
229.6455059
0
ARC
8
DEFAULT_255_1_234
10
10.3966016
20
0.3184496
40
0.3959084
50
179.9755256
51
183.2323064
0
ARC
8
DEFAULT_255_1_234
10
10.3793761
20
0.3164037
40
0.2293034
50
179.4465117
51
196.2869258
0
ARC
8
DEFAULT_255_1_234
10
10.3306169
20
0.3030651
40
0.1787621
50
196.5661473
51
227.705904
0
ARC
8
DEFAULT_255_1_234
10
10.3470264
20
0.3214155
40
0.2033784
50
227.7652068
51
257.8762805
0
ARC
8
DEFAULT_255_1_234
10
10.3695234
20
0.4157156
40
0.3003081
50
257.4584385
51
270.426602
0
ARC
8
DEFAULT_255_1_234
10
10.37408
20
0.4446996
40
0.329292
50
269.5962073
51
280.8789248
0
ARC
8
DEFAULT_255_1_234
10
10.3970329
20
0.3300685
40
0.2123908
50
280.6346389
51
299.8595945
0
ARC
8
DEFAULT_255_1_234
10
10.4161236
20
0.2938212
40
0.171457
50
300.3576302
51
314.5517981
0
ARC
8
DEFAULT_255_1_234
10
10.4078296
20
0.2998919
40
0.1816095
50
315.0728369
51
345.0431014
0
ARC
8
DEFAULT_255_1_234
10
10.315511
20
0.3267841
40
0.2777492
50
344.5986631
51
357.9269593
0
ARC
8
DEFAULT_255_1_234
10
10.2259437
20
0.3329276
40
0.3674917
50
357.4748886
51
0.0231117
0
ARC
8
DEFAULT_255_1_234
10
10.3282546
20
0.3353679
40
0.2651907
50
359.5047933
51
13.4239635
0
ARC
8
DEFAULT_255_1_234
10
10.414919
20
0.3575478
40
0.1757509
50
12.9498199
51
48.7551375
0
ARC
8
DEFAULT_255_1_234
10
10.3966924
20
0.33264
40
0.2065134
50
49.5088623
51
72.1836453
0
ARC
8
DEFAULT_255_1_234
10
10.3609076
20
0.2264291
40
0.3185836
50
71.9010081
51
84.3554254
0
ARC
8
DEFAULT_255_1_234
10
10.3447708
20
0.0903326
40
0.4556151
50
84.0193428
51
89.333121
0
LINE
8
DEFAULT_255_1_234
10
11.1620824
20
0.5459169
11
11.1620824
21
0.6671962
0
LINE
8
DEFAULT_255_1_234
10
11.1620824
20
0.6671962
11
11.2737236
21
0.6671962
0
LINE
8
DEFAULT_255_1_234
10
11.0833714
20
0.8728087
11
10.9347842
21
0.8728087
0
LINE
8
DEFAULT_255_1_234
10
10.924343
20
0.3186188
11
11.0737333
21
0.3186188
0
LINE
8
DEFAULT_255_1_234
10
11.2737236
20
0.5459169
11
11.1620824
21
0.5459169
0
ARC
8
DEFAULT_255_1_234
10
11.2708102
20
1.0064713
40
0.3392876
50
270.4919872
51
281.8951556
0
ARC
8
DEFAULT_255_1_234
10
11.2949364
20
0.8962702
40
0.2264817
50
281.6691735
51
301.2943132
0
ARC
8
DEFAULT_255_1_234
10
11.3119574
20
0.8651304
40
0.1910381
50
301.7833094
51
311.7545298
0
ARC
8
DEFAULT_255_1_234
10
11.321115
20
0.8549748
40
0.1773635
50
311.7323931
51
354.2802411
0
ARC
8
DEFAULT_255_1_234
10
11.2484775
20
0.8674722
40
0.2509385
50
353.0937916
51
0.1181479
0
ARC
8
DEFAULT_255_1_234
10
11.202356
20
0.8722386
40
0.2970898
50
359.1805295
51
15.0453146
0
ARC
8
DEFAULT_255_1_234
10
11.3369397
20
0.9114992
40
0.1569564
50
13.9577229
51
77.6713066
0
ARC
8
DEFAULT_255_1_234
10
11.2982926
20
0.7729949
40
0.3006298
50
76.1116566
51
90.7026153
0
ARC
8
DEFAULT_255_1_234
10
11.2923765
20
0.8003545
40
0.2732568
50
89.5324876
51
103.531937
0
ARC
8
DEFAULT_255_1_234
10
11.2723209
20
0.8802884
40
0.1908508
50
103.2931773
51
133.5619022
0
ARC
8
DEFAULT_255_1_234
10
11.2678697
20
0.8862375
40
0.1834746
50
133.8349307
51
173.5344437
0
ARC
8
DEFAULT_255_1_234
10
11.340174
20
0.8734213
40
0.2568033
50
172.5096846
51
180.1366907
0
ARC
8
DEFAULT_255_1_234
10
11.2450634
20
0.8768622
40
0.3103056
50
155.3484492
51
180.7484736
0
ARC
8
DEFAULT_255_1_234
10
11.2401723
20
0.8739846
40
0.3070957
50
131.5744599
51
154.4798489
0
ARC
8
DEFAULT_255_1_234
10
11.271487
20
0.842331
40
0.3515643
50
96.9875458
51
131.9690667
0
ARC
8
DEFAULT_255_1_234
10
11.293435
20
0.7177636
40
0.4779224
50
89.8596053
51
97.7825159
0
ARC
8
DEFAULT_255_1_234
10
11.2982413
20
0.6915616
40
0.5041361
50
78.3655447
51
90.4131539
0
ARC
8
DEFAULT_255_1_234
10
11.3340331
20
0.8574887
40
0.3344039
50
56.6229102
51
78.638727
0
ARC
8
DEFAULT_255_1_234
10
11.3555275
20
0.8950805
40
0.2912001
50
47.0253525
51
56.0854072
0
ARC
8
DEFAULT_255_1_234
10
11.3575055
20
0.8990223
40
0.2869704
50
10.9208013
51
46.7778124
0
ARC
8
DEFAULT_255_1_234
10
11.2211122
20
0.8674857
40
0.426899
50
359.6364486
51
11.6087304
0
ARC
8
DEFAULT_255_1_234
10
11.4045966
20
0.8659752
40
0.243409
50
332.3549906
51
359.7179418
0
ARC
8
DEFAULT_255_1_234
10
11.3395567
20
0.8968142
40
0.3153459
50
325.2333722
51
332.8745602
0
ARC
8
DEFAULT_255_1_234
10
11.3548191
20
0.8861828
40
0.2967456
50
292.9802137
51
325.2392345
0
ARC
8
DEFAULT_255_1_234
10
11.3273565
20
0.9395863
40
0.3566604
50
292.5402179
51
293.6924929
0
ARC
8
DEFAULT_255_1_234
10
11.3666161
20
0.2941091
40
0.3307468
50
57.6435486
51
72.8625112
0
ARC
8
DEFAULT_255_1_234
10
11.402066
20
0.3515549
40
0.2632492
50
36.7248896
51
57.4697979
0
ARC
8
DEFAULT_255_1_234
10
11.4009293
20
0.352822
40
0.2634081
50
8.0545065
51
36.356114
0
ARC
8
DEFAULT_255_1_234
10
11.3146478
20
0.3373174
40
0.3510261
50
359.8320645
51
8.5869982
0
ARC
8
DEFAULT_255_1_234
10
11.2771254
20
0.3325101
40
0.3885653
50
343.9829931
51
0.5571613
0
ARC
8
DEFAULT_255_1_234
10
11.3657452
20
0.3082438
40
0.2966924
50
311.6359546
51
343.7651759
0
ARC
8
DEFAULT_255_1_234
10
11.3279021
20
0.3509102
40
0.3537231
50
279.7829875
51
311.6255694
0
ARC
8
DEFAULT_255_1_234
10
11.2977797
20
0.494628
40
0.5004971
50
269.7286406
51
280.3856417
0
ARC
8
DEFAULT_255_1_234
10
11.291587
20
0.4904996
40
0.4963778
50
256.6828919
51
270.4412052
0
ARC
8
DEFAULT_255_1_234
10
11.2577165
20
0.3520394
40
0.3538406
50
229.4223008
51
256.8556159
0
ARC
8
DEFAULT_255_1_234
10
11.2162558
20
0.3053736
40
0.2914296
50
181.818294
51
229.6455059
0
ARC
8
DEFAULT_255_1_234
10
11.3202515
20
0.3184496
40
0.3959084
50
179.9755256
51
183.2323064
0
ARC
8
DEFAULT_255_1_234
10
11.303026
20
0.3164037
40
0.2293034
50
179.4465117
51
196.2869258
0
ARC
8
DEFAULT_255_1_234
10
11.2542668
20
0.3030651
40
0.1787621
50
196.5661473
51
227.705904
0
ARC
8
DEFAULT_255_1_234
10
11.2706763
20
0.3214155
40
0.2033784
50
227.7652068
51
257.8762805
0
ARC
8
DEFAULT_255_1_234
10
11.2931733
20
0.4157156
40
0.3003081
50
257.4584385
51
270.426602
0
ARC
8
DEFAULT_255_1_234
10
11.2977299
20
0.4446996
40
0.329292
50
269.5962073
51
280.8789248
0
ARC
8
DEFAULT_255_1_234
10
11.3206828
20
0.3300685
40
0.2123908
50
280.6346389
51
299.8595945
0
ARC
8
DEFAULT_255_1_234
10
11.3397735
20
0.2938212
40
0.171457
50
300.3576302
51
314.5517981
0
ARC
8
DEFAULT_255_1_234
10
11.3314795
20
0.2998919
40
0.1816095
50
315.0728369
51
345.0431014
0
ARC
8
DEFAULT_255_1_234
10
11.2391609
20
0.3267841
40
0.2777492
50
344.5986631
51
357.9269593
0
ARC
8
DEFAULT_255_1_234
10
11.1495936
20
0.3329276
40
0.3674917
50
357.4748886
51
0.0231117
0
ARC
8
DEFAULT_255_1_234
10
11.2519045
20
0.3353679
40
0.2651907
50
359.5047933
51
13.4239635
0
ARC
8
DEFAULT_255_1_234
10
11.3385689
20
0.3575478
40
0.1757509
50
12.9498199
51
48.7551375
0
ARC
8
DEFAULT_255_1_234
10
11.3203423
20
0.33264
40
0.2065134
50
49.5088623
51
72.1836453
0
ARC
8
DEFAULT_255_1_234
10
11.2845575
20
0.2264291
40
0.3185836
50
71.9010081
51
84.3554254
0
ARC
8
DEFAULT_255_1_234
10
11.2684207
20
0.0903326
40
0.4556151
50
84.0193428
51
89.333121
0
LINE
8
DEFAULT_255_1_234
10
12.6029763
20
0.7017327
11
12.6029763
21
0.5089709
0
LINE
8
DEFAULT_255_1_234
10
11.8648595
20
0.4888916
11
11.8648595
21
0.6872755
0
LINE
8
DEFAULT_255_1_234
10
12.4543891
20
0.4688123
11
12.4543891
21
0.7121739
0
LINE
8
DEFAULT_255_1_234
10
12.0134467
20
0.7234184
11
12.0134467
21
0.4856789
0
ARC
8
DEFAULT_255_1_234
10
11.3782652
20
0.5040805
40
1.2247208
50
353.8441951
51
0.2287902
0
ARC
8
DEFAULT_255_1_234
10
11.8422156
20
0.4522806
40
0.7578929
50
344.4934747
51
353.9765454
0
ARC
8
DEFAULT_255_1_234
10
12.1414746
20
0.3671981
40
0.4467846
50
329.2803592
51
344.7472793
0
ARC
8
DEFAULT_255_1_234
10
12.2407571
20
0.3127018
40
0.3336173
50
324.9352394
51
328.6160465
0
ARC
8
DEFAULT_255_1_234
10
12.278468
20
0.2863427
40
0.2876076
50
280.580143
51
324.9173126
0
ARC
8
DEFAULT_255_1_234
10
12.2383472
20
0.4534099
40
0.4592847
50
269.5977311
51
281.6734359
0
ARC
8
DEFAULT_255_1_234
10
12.2311378
20
0.4414173
40
0.4472986
50
256.6228859
51
270.51044
0
ARC
8
DEFAULT_255_1_234
10
12.1909356
20
0.2865877
40
0.2873874
50
215.8618325
51
257.2788573
0
ARC
8
DEFAULT_255_1_234
10
12.2930387
20
0.3550977
40
0.4102928
50
197.9693508
51
215.2623606
0
ARC
8
DEFAULT_255_1_234
10
12.5415503
20
0.4389709
40
0.6725652
50
187.8816417
51
198.2346507
0
ARC
8
DEFAULT_255_1_234
10
12.9373711
20
0.4961079
40
1.0724845
50
180.8976217
51
188.0055519
0
ARC
8
DEFAULT_255_1_234
10
13.2173899
20
0.5064777
40
1.3526448
50
180.7449369
51
181.1510016
0
ARC
8
DEFAULT_255_1_234
10
13.0596628
20
0.6921042
40
1.1948131
50
173.7675579
51
180.231553
0
ARC
8
DEFAULT_255_1_234
10
12.6078775
20
0.7431666
40
0.7401564
50
164.3058563
51
173.9002247
0
ARC
8
DEFAULT_255_1_234
10
12.3166844
20
0.8270656
40
0.4371288
50
148.7922025
51
164.568378
0
ARC
8
DEFAULT_255_1_234
10
12.2215296
20
0.8801929
40
0.3282386
50
144.5883898
51
148.1176286
0
ARC
8
DEFAULT_255_1_234
10
12.1872194
20
0.9041315
40
0.2864044
50
101.6440918
51
144.514236
0
ARC
8
DEFAULT_255_1_234
10
12.2297261
20
0.7352069
40
0.4604934
50
89.5284041
51
102.5819763
0
ARC
8
DEFAULT_255_1_234
10
12.2376348
20
0.7313018
40
0.464401
50
77.0437873
51
90.5081339
0
ARC
8
DEFAULT_255_1_234
10
12.277835
20
0.8955615
40
0.2953195
50
48.2778575
51
77.4994676
0
ARC
8
DEFAULT_255_1_234
10
12.2850982
20
0.9084746
40
0.2808655
50
36.3142134
51
47.6305865
0
ARC
8
DEFAULT_255_1_234
10
12.1982288
20
0.8499515
40
0.3855453
50
18.2931786
51
35.6769206
0
ARC
8
DEFAULT_255_1_234
10
11.9439047
20
0.7626593
40
0.654423
50
8.024666
51
18.5605216
0
ARC
8
DEFAULT_255_1_234
10
11.5275967
20
0.7011792
40
1.0752407
50
1.1274072
51
8.1718305
0
ARC
8
DEFAULT_255_1_234
10
11.2040158
20
0.6884885
40
1.3990231
50
0.5424119
51
1.3863029
0
ARC
8
DEFAULT_255_1_234
10
11.3861536
20
0.7157342
40
1.0682415
50
359.8090433
51
4.9407866
0
ARC
8
DEFAULT_255_1_234
10
11.807155
20
0.7533113
40
0.6455691
50
4.8362157
51
12.2904523
0
ARC
8
DEFAULT_255_1_234
10
12.0826665
20
0.8146965
40
0.3633074
50
12.0805627
51
23.8173984
0
ARC
8
DEFAULT_255_1_234
10
12.200037
20
0.8643919
40
0.2358723
50
24.2871213
51
31.3935614
0
ARC
8
DEFAULT_255_1_234
10
12.2525067
20
0.8987233
40
0.1732111
50
30.7407893
51
82.4657128
0
ARC
8
DEFAULT_255_1_234
10
12.2345201
20
0.8103691
40
0.263235
50
81.1060089
51
90.2184952
0
ARC
8
DEFAULT_255_1_234
10
12.23095
20
0.8361924
40
0.2374236
50
89.3806855
51
105.6762551
0
ARC
8
DEFAULT_255_1_234
10
12.2126131
20
0.9028567
40
0.1682847
50
105.7981136
51
149.7388061
0
ARC
8
DEFAULT_255_1_234
10
12.3190209
20
0.838895
40
0.2924306
50
149.4208916
51
163.6286378
0
ARC
8
DEFAULT_255_1_234
10
12.5281097
20
0.775125
40
0.5110213
50
163.3763315
51
172.1410975
0
ARC
8
DEFAULT_255_1_234
10
12.8581816
20
0.7278518
40
0.8444586
50
172.0259487
51
178.0703232
0
ARC
8
DEFAULT_255_1_234
10
13.1611906
20
0.7134906
40
1.1477868
50
177.8631668
51
179.5044149
0
ARC
8
DEFAULT_255_1_234
10
13.053931
20
0.4820389
40
1.0404907
50
179.7995573
51
185.2460446
0
ARC
8
DEFAULT_255_1_234
10
12.649635
20
0.4437513
40
0.6343885
50
185.1411642
51
193.0079639
0
ARC
8
DEFAULT_255_1_234
10
12.3852822
20
0.3812641
40
0.3627568
50
192.7897626
51
205.2507664
0
ARC
8
DEFAULT_255_1_234
10
12.2806369
20
0.3345415
40
0.2481908
50
205.8005384
51
211.2537509
0
ARC
8
DEFAULT_255_1_234
10
12.228281
20
0.299458
40
0.1852521
50
210.3789793
51
238.4008143
0
ARC
8
DEFAULT_255_1_234
10
12.2263331
20
0.3041376
40
0.1882621
50
239.6520629
51
265.9793761
0
ARC
8
DEFAULT_255_1_234
10
12.2348532
20
0.3713427
40
0.2559272
50
265.1315437
51
270.060332
0
ARC
8
DEFAULT_255_1_234
10
12.237731
20
0.3389534
40
0.2235528
50
269.3314664
51
287.2178029
0
ARC
8
DEFAULT_255_1_234
10
12.2515162
20
0.2886279
40
0.1714108
50
287.7958004
51
329.080874
0
ARC
8
DEFAULT_255_1_234
10
12.1557619
20
0.348393
40
0.2842745
50
328.6634704
51
343.3325132
0
ARC
8
DEFAULT_255_1_234
10
11.9384639
20
0.4160863
40
0.5118644
50
343.0499468
51
351.9393422
0
ARC
8
DEFAULT_255_1_234
10
11.5917939
20
0.4671949
40
0.8622784
50
351.8069023
51
357.7959224
0
ARC
8
DEFAULT_255_1_234
10
11.2682495
20
0.4839721
40
1.1862365
50
357.5871873
51
359.2677531
0
LINE
8
DEFAULT_255_1_234
10
13.1178107
20
0.5676026
11
13.1178107
21
0.4463234
0
LINE
8
DEFAULT_255_1_234
10
13.1178107
20
0.4463234
11
12.7258619
21
0.4463234
0
LINE
8
DEFAULT_255_1_234
10
12.7258619
20
0.4463234
11
12.7258619
21
0.5676026
0
LINE
8
DEFAULT_255_1_234
10
12.7258619
20
0.5676026
11
13.1178107
21
0.5676026
0
LINE
8
DEFAULT_255_1_234
10
13.8037211
20
1.1804243
11
13.8302259
21
1.1804243
0
LINE
8
DEFAULT_255_1_234
10
13.8302259
20
1.1804243
11
13.8302259
21
1.054326
0
LINE
8
DEFAULT_255_1_234
10
13.8302259
20
1.054326
11
13.802918
21
1.054326
0
LINE
8
DEFAULT_255_1_234
10
13.2559566
20
0.4551583
11
13.2559566
21
0.5121836
0
LINE
8
DEFAULT_255_1_234
10
13.4053469
20
0.4929075
11
13.4053469
21
0.4382917
0
ARC
8
DEFAULT_255_1_234
10
13.8081528
20
0.5545455
40
0.4998079
50
90.6001036
51
104.514704
0
ARC
8
DEFAULT_255_1_234
10
13.7693043
20
0.6990131
40
0.3502176
50
104.2855254
51
133.862935
0
ARC
8
DEFAULT_255_1_234
10
13.7856801
20
0.688183
40
0.3693984
50
134.5302688
51
161.6210873
0
ARC
8
DEFAULT_255_1_234
10
13.9509989
20
0.6298895
40
0.5446739
50
161.2849839
51
174.2076652
0
ARC
8
DEFAULT_255_1_234
10
14.0916926
20
0.6104787
40
0.6866274
50
173.7810589
51
174.9254635
0
ARC
8
DEFAULT_255_1_234
10
13.6366758
20
0.4721839
40
0.3033419
50
95.8330959
51
138.9954921
0
ARC
8
DEFAULT_255_1_234
10
13.6590114
20
0.3443375
40
0.4328947
50
89.8753725
51
97.0544009
0
ARC
8
DEFAULT_255_1_234
10
13.663758
20
0.4278748
40
0.3493769
50
71.6407809
51
90.6240094
0
ARC
8
DEFAULT_255_1_234
10
13.6788154
20
0.4833082
40
0.2920396
50
39.6367836
51
71.019018
0
ARC
8
DEFAULT_255_1_234
10
13.6151627
20
0.4282998
40
0.3761538
50
10.658731
51
39.9043955
0
ARC
8
DEFAULT_255_1_234
10
13.460371
20
0.3946686
40
0.5345136
50
359.682601
51
11.132623
0
ARC
8
DEFAULT_255_1_234
10
13.456384
20
0.387601
40
0.5385081
50
347.2486944
51
0.4369317
0
ARC
8
DEFAULT_255_1_234
10
13.6231317
20
0.3474807
40
0.3670249
50
318.1409698
51
347.6118597
0
ARC
8
DEFAULT_255_1_234
10
13.655631
20
0.3207702
40
0.3250007
50
275.6342139
51
317.8248465
0
ARC
8
DEFAULT_255_1_234
10
13.6335422
20
0.4507219
40
0.4565864
50
269.8874292
51
276.7917694
0
ARC
8
DEFAULT_255_1_234
10
13.6280492
20
0.3481743
40
0.3540676
50
246.9140195
51
270.7437342
0
ARC
8
DEFAULT_255_1_234
10
13.6286883
20
0.3339384
40
0.3412781
50
218.1665114
51
245.878116
0
ARC
8
DEFAULT_255_1_234
10
13.7166343
20
0.4075279
40
0.455911
50
191.4115814
51
218.6077802
0
ARC
8
DEFAULT_255_1_234
10
13.9104433
20
0.4509833
40
0.6545001
50
179.6345085
51
191.7836486
0
ARC
8
DEFAULT_255_1_234
10
14.4686769
20
0.5188697
40
1.2127388
50
171.4525249
51
180.3158839
0
ARC
8
DEFAULT_255_1_234
10
14.0291645
20
0.5872608
40
0.7679464
50
157.9802646
51
171.6246686
0
ARC
8
DEFAULT_255_1_234
10
13.8077666
20
0.6755421
40
0.5296008
50
141.4298019
51
157.854097
0
ARC
8
DEFAULT_255_1_234
10
13.7435987
20
0.7209381
40
0.4511509
50
102.8715806
51
140.8564722
0
ARC
8
DEFAULT_255_1_234
10
13.8083602
20
0.4769552
40
0.7034845
50
90.3778349
51
103.5869322
0
ARC
8
DEFAULT_255_1_234
10
13.6345379
20
0.416473
40
0.2370698
50
89.8751008
51
126.2071704
0
ARC
8
DEFAULT_255_1_234
10
13.6391168
20
0.4010303
40
0.2522934
50
124.9745049
51
144.895901
0
ARC
8
DEFAULT_255_1_234
10
13.6215359
20
0.415356
40
0.2296779
50
145.2974905
51
160.2660252
0
ARC
8
DEFAULT_255_1_234
10
13.9287898
20
0.4351071
40
0.5234525
50
179.6514266
51
190.2855912
0
ARC
8
DEFAULT_255_1_234
10
13.7594035
20
0.4031786
40
0.3510893
50
190.0945431
51
207.5098196
0
ARC
8
DEFAULT_255_1_234
10
13.7028305
20
0.3762623
40
0.288489
50
207.9583163
51
216.3251085
0
ARC
8
DEFAULT_255_1_234
10
13.6688412
20
0.3483105
40
0.2445587
50
215.7661442
51
232.5456785
0
ARC
8
DEFAULT_255_1_234
10
13.6305395
20
0.2996482
40
0.1826382
50
232.8005391
51
270.6605633
0
ARC
8
DEFAULT_255_1_234
10
13.6351096
20
0.3360612
40
0.2190529
50
269.35537
51
288.4744281
0
ARC
8
DEFAULT_255_1_234
10
13.6443993
20
0.3011118
40
0.1829749
50
289.1833337
51
322.9683818
0
ARC
8
DEFAULT_255_1_234
10
13.5832516
20
0.3493391
40
0.2608399
50
322.6007884
51
346.5182367
0
ARC
8
DEFAULT_255_1_234
10
13.4675112
20
0.3788616
40
0.3802777
50
346.2582162
51
358.7741648
0
ARC
8
DEFAULT_255_1_234
10
13.365678
20
0.3843965
40
0.4822176
50
358.3755224
51
0.0098023
0
ARC
8
DEFAULT_255_1_234
10
13.4412968
20
0.3871657
40
0.4066078
50
359.6214041
51
11.2839074
0
ARC
8
DEFAULT_255_1_234
10
13.5690115
20
0.4138066
40
0.2761514
50
11.0482309
51
31.8146458
0
ARC
8
DEFAULT_255_1_234
10
13.5999157
20
0.4305584
40
0.2410679
50
32.3035391
51
38.082671
0
ARC
8
DEFAULT_255_1_234
10
13.6419817
20
0.4686662
40
0.1844966
50
36.825067
51
85.7415724
0
ARC
8
DEFAULT_255_1_234
10
13.6352651
20
0.4186301
40
0.2349122
50
85.0140713
51
90.0513278
0
LINE
8
DEFAULT_255_1_234
10
14.9851898
20
0.8414849
11
14.8301773
21
0.8414849
0
LINE
8
DEFAULT_255_1_234
10
14.1378415
20
0.3491394
11
14.292854
21
0.3491394
0
ARC
8
DEFAULT_255_1_234
10
14.8960586
20
1.7361768
40
1.252368
50
248.9199003
51
254.1439814
0
ARC
8
DEFAULT_255_1_234
10
14.7280081
20
1.3035234
40
0.788226
50
241.633709
51
249.0064503
0
ARC
8
DEFAULT_255_1_234
10
14.5751475
20
1.0234317
40
0.4691427
50
230.498225
51
241.8087113
0
ARC
8
DEFAULT_255_1_234
10
14.4967049
20
0.9234906
40
0.3421437
50
227.4064532
51
229.9881192
0
ARC
8
DEFAULT_255_1_234
10
14.447957
20
0.8759088
40
0.2741476
50
200.6781896
51
228.1763934
0
ARC
8
DEFAULT_255_1_234
10
14.4551881
20
0.8744077
40
0.2804109
50
179.5061581
51
199.8694617
0
ARC
8
DEFAULT_255_1_234
10
14.4542632
20
0.881821
40
0.2795204
50
132.4834203
51
181.0242172
0
ARC
8
DEFAULT_255_1_234
10
14.5138215
20
0.8255704
40
0.3612768
50
129.2532479
51
133.4242687
0
ARC
8
DEFAULT_255_1_234
10
14.5284664
20
0.8035965
40
0.3875675
50
101.98776
51
128.8742646
0
ARC
8
DEFAULT_255_1_234
10
14.5683275
20
0.6314741
40
0.5642249
50
89.5906553
51
102.3169264
0
ARC
8
DEFAULT_255_1_234
10
14.5753767
20
0.6633148
40
0.5323783
50
77.2360837
51
90.3248275
0
ARC
8
DEFAULT_255_1_234
10
14.5960846
20
0.76004
40
0.4334697
50
63.837784
51
77.0809408
0
ARC
8
DEFAULT_255_1_234
10
14.6238608
20
0.8117911
40
0.3747796
50
45.9864267
51
64.1607727
0
ARC
8
DEFAULT_255_1_234
10
14.6499489
20
0.8415866
40
0.3352302
50
32.2747395
51
45.6547121
0
ARC
8
DEFAULT_255_1_234
10
14.656593
20
0.843488
40
0.328603
50
359.6507365
51
32.6130309
0
ARC
8
DEFAULT_255_1_234
10
14.5623025
20
0.843966
40
0.2678863
50
359.469343
51
14.9832209
0
ARC
8
DEFAULT_255_1_234
10
14.6328088
20
0.8628539
40
0.1948938
50
14.9781179
51
48.2004265
0
ARC
8
DEFAULT_255_1_234
10
14.6163732
20
0.8421983
40
0.2212521
50
48.5927837
51
74.1241538
0
ARC
8
DEFAULT_255_1_234
10
14.5830221
20
0.7321248
40
0.3362561
50
73.7888341
51
86.6652678
0
ARC
8
DEFAULT_255_1_234
10
14.5727787
20
0.6113881
40
0.4573953
50
86.2640471
51
90.0526343
0
ARC
8
DEFAULT_255_1_234
10
14.5699499
20
0.6509192
40
0.4178709
50
89.6697524
51
99.2309573
0
ARC
8
DEFAULT_255_1_234
10
14.545695
20
0.7953964
40
0.2713749
50
99.069534
51
113.7658566
0
ARC
8
DEFAULT_255_1_234
10
14.5183141
20
0.8599677
40
0.2012469
50
114.0401004
51
127.9850673
0
ARC
8
DEFAULT_255_1_234
10
14.4942705
20
0.889573
40
0.1631167
50
127.7287463
51
176.7105154
0
ARC
8
DEFAULT_255_1_234
10
14.5621423
20
0.8794693
40
0.2315392
50
175.1779447
51
180.0581938
0
ARC
8
DEFAULT_255_1_234
10
14.4778269
20
0.8782428
40
0.1472271
50
179.6142195
51
228.1246017
0
ARC
8
DEFAULT_255_1_234
10
14.5219938
20
0.9191308
40
0.2072299
50
226.5779593
51
230.8800004
0
ARC
8
DEFAULT_255_1_234
10
14.5691017
20
0.9816636
40
0.2854818
50
231.4635071
51
241.9260842
0
ARC
8
DEFAULT_255_1_234
10
14.6888195
20
1.20198
40
0.53622
50
241.7178533
51
248.3259551
0
ARC
8
DEFAULT_255_1_234
10
14.8273567
20
1.5452064
40
0.9063478
50
248.2007737
51
252.4528373
0
ARC
8
DEFAULT_255_1_234
10
14.9477292
20
1.9173441
40
1.2974635
50
252.3391078
51
254.3469452
0
ARC
8
DEFAULT_255_1_234
10
14.1934994
20
-0.7803852
40
1.5037162
50
71.0197183
51
74.4087047
0
ARC
8
DEFAULT_255_1_234
10
14.3629679
20
-0.2911889
40
0.9859993
50
66.1847285
51
71.086374
0
ARC
8
DEFAULT_255_1_234
10
14.5185992
20
0.05922
40
0.6025855
50
59.3536294
51
66.2691831
0
ARC
8
DEFAULT_255_1_234
10
14.6074644
20
0.2095609
40
0.4279449
50
49.1020879
51
59.3293958
0
ARC
8
DEFAULT_255_1_234
10
14.6893384
20
0.3028834
40
0.3038015
50
32.7919921
51
49.2505539
0
ARC
8
DEFAULT_255_1_234
10
14.7214474
20
0.3257191
40
0.264448
50
31.1181161
51
32.4005348
0
ARC
8
DEFAULT_255_1_234
10
14.7126012
20
0.3221779
40
0.2738556
50
8.1116974
51
30.7958831
0
ARC
8
DEFAULT_255_1_234
10
14.631568
20
0.3083753
40
0.3560327
50
359.8389159
51
8.4706516
0
ARC
8
DEFAULT_255_1_234
10
14.6941471
20
0.3035137
40
0.2934776
50
337.4731098
51
0.7537279
0
ARC
8
DEFAULT_255_1_234
10
14.7120166
20
0.3015387
40
0.2762607
50
307.5917067
51
336.4315538
0
ARC
8
DEFAULT_255_1_234
10
14.6659994
20
0.3528102
40
0.3449979
50
307.6551545
51
308.4529766
0
ARC
8
DEFAULT_255_1_234
10
14.6429713
20
0.388325
40
0.3871988
50
284.3734338
51
307.1424381
0
ARC
8
DEFAULT_255_1_234
10
14.5934543
20
0.5704932
40
0.5759636
50
272.4382747
51
284.646547
0
ARC
8
DEFAULT_255_1_234
10
14.5807752
20
0.7504893
40
0.7563528
50
269.9708387
51
272.8178037
0
ARC
8
DEFAULT_255_1_234
10
14.5764791
20
0.5466716
40
0.5525489
50
248.2707594
51
270.4055579
0
ARC
8
DEFAULT_255_1_234
10
14.5710533
20
0.5276192
40
0.5328452
50
246.1383403
51
248.0542782
0
ARC
8
DEFAULT_255_1_234
10
14.5291912
20
0.4396843
40
0.4355005
50
233.1670131
51
246.4950969
0
ARC
8
DEFAULT_255_1_234
10
14.4737816
20
0.3648812
40
0.3424126
50
215.3403242
51
233.0843104
0
ARC
8
DEFAULT_255_1_234
10
14.4465248
20
0.3450549
40
0.3087104
50
179.2419209
51
215.2648451
0
ARC
8
DEFAULT_255_1_234
10
14.5232842
20
0.3464666
40
0.2304457
50
179.335461
51
199.1045811
0
ARC
8
DEFAULT_255_1_234
10
14.4900518
20
0.3377766
40
0.1962176
50
199.8828939
51
232.7063202
0
ARC
8
DEFAULT_255_1_234
10
14.5372787
20
0.3971788
40
0.2720938
50
232.3738199
51
255.5136649
0
ARC
8
DEFAULT_255_1_234
10
14.5713653
20
0.5215835
40
0.4010747
50
255.2446292
51
267.5320849
0
ARC
8
DEFAULT_255_1_234
10
14.5801277
20
0.6448702
40
0.5246356
50
267.1557994
51
270.0286766
0
ARC
8
DEFAULT_255_1_234
10
14.5829049
20
0.600495
40
0.4802668
50
269.7000017
51
278.1660162
0
ARC
8
DEFAULT_255_1_234
10
14.6085054
20
0.4274515
40
0.3053425
50
278.0231263
51
290.625471
0
ARC
8
DEFAULT_255_1_234
10
14.6432741
20
0.3347025
40
0.206291
50
290.6619762
51
307.0370976
0
ARC
8
DEFAULT_255_1_234
10
14.673313
20
0.2978504
40
0.1587906
50
306.3943566
51
355.3030547
0
ARC
8
DEFAULT_255_1_234
10
14.6221061
20
0.3055113
40
0.2104809
50
354.3660432
51
0.0698737
0
ARC
8
DEFAULT_255_1_234
10
14.6363407
20
0.3077617
40
0.1962563
50
359.417946
51
16.1971788
0
ARC
8
DEFAULT_255_1_234
10
14.6818717
20
0.3202418
40
0.149053
50
16.4723299
51
52.6262157
0
ARC
8
DEFAULT_255_1_234
10
14.5997771
20
0.2118433
40
0.2850296
50
52.7386432
51
62.4979148
0
ARC
8
DEFAULT_255_1_234
10
14.4612848
20
-0.0487717
40
0.5801521
50
62.2515216
51
68.1220564
0
ARC
8
DEFAULT_255_1_234
10
14.2892759
20
-0.4715128
40
1.0365451
50
68.0062803
51
71.8053402
0
ARC
8
DEFAULT_255_1_234
10
14.109713
20
-1.0100242
40
1.6042013
50
71.7183119
51
73.9258742
0
LINE
8
DEFAULT_255_1_234
10
15.5907829
20
0.0102
11
15.1851801
21
0.0102
0
LINE
8
DEFAULT_255_1_234
10
15.1851801
20
0.0102
11
15.1851801
21
1.1796211
0
LINE
8
DEFAULT_255_1_234
10
15.1851801
20
1.1796211
11
15.5674909
21
1.1796211
0
LINE
8
DEFAULT_255_1_234
10
15.5964051
20
0.5571614
11
15.3393895
21
0.5571614
0
LINE
8
DEFAULT_255_1_234
10
15.3393895
20
0.5571614
11
15.3393895
21
0.1362983
0
LINE
8
DEFAULT_255_1_234
10
15.3393895
20
0.1362983
11
15.5939956
21
0.1362983
0
LINE
8
DEFAULT_255_1_234
10
15.3393895
20
1.0527196
11
15.3393895
21
0.6808501
0
LINE
8
DEFAULT_255_1_234
10
15.3393895
20
0.6808501
11
15.5723099
21
0.6808501
0
LINE
8
DEFAULT_255_1_234
10
15.5674909
20
1.0527196
11
15.3393895
21
1.0527196
0
ARC
8
DEFAULT_255_1_234
10
15.5712617
20
0.4428901
40
0.7367406
50
82.1257326
51
90.2932599
0
ARC
8
DEFAULT_255_1_234
10
15.6101572
20
0.7147013
40
0.4621653
50
69.9044149
51
82.2857423
0
ARC
8
DEFAULT_255_1_234
10
15.667225
20
0.8689637
40
0.2976871
50
51.1838526
51
70.0181538
0
ARC
8
DEFAULT_255_1_234
10
15.6927216
20
0.906024
40
0.2528517
50
12.1017251
51
50.4214761
0
ARC
8
DEFAULT_255_1_234
10
15.554309
20
0.8712676
40
0.3955061
50
359.5251267
51
12.8211707
0
ARC
8
DEFAULT_255_1_234
10
15.7123017
20
0.8643344
40
0.2375281
50
323.4908128
51
0.8817314
0
ARC
8
DEFAULT_255_1_234
10
15.6704703
20
0.896655
40
0.2903817
50
298.6825083
51
323.2756573
0
ARC
8
DEFAULT_255_1_234
10
15.6343066
20
0.9567649
40
0.3604842
50
293.1999386
51
299.1396394
0
ARC
8
DEFAULT_255_1_234
10
15.7016039
20
0.3482126
40
0.2871098
50
54.0011765
51
74.9167975
0
ARC
8
DEFAULT_255_1_234
10
15.7132399
20
0.3679332
40
0.2643248
50
36.3580696
51
53.5291921
0
ARC
8
DEFAULT_255_1_234
10
15.7005641
20
0.3588998
40
0.2798884
50
4.8189881
51
36.3089977
0
ARC
8
DEFAULT_255_1_234
10
15.6226476
20
0.347927
40
0.358478
50
359.9370252
51
5.5204067
0
ARC
8
DEFAULT_255_1_234
10
15.5901997
20
0.3438667
40
0.3909429
50
344.7478609
51
0.5373281
0
ARC
8
DEFAULT_255_1_234
10
15.6892969
20
0.3171544
40
0.2883093
50
311.1786488
51
344.6886812
0
ARC
8
DEFAULT_255_1_234
10
15.6601016
20
0.3534987
40
0.3348923
50
286.0418249
51
310.8441291
0
ARC
8
DEFAULT_255_1_234
10
15.6093848
20
0.5181807
40
0.5071869
50
274.1042341
51
286.4071509
0
ARC
8
DEFAULT_255_1_234
10
15.5917103
20
0.7065229
40
0.6963234
50
269.9236873
51
274.445647
0
ARC
8
DEFAULT_255_1_234
10
15.5963104
20
0.4725537
40
0.3362634
50
269.6055768
51
281.3740047
0
ARC
8
DEFAULT_255_1_234
10
15.6193742
20
0.3632353
40
0.224546
50
281.1055983
51
302.5132223
0
ARC
8
DEFAULT_255_1_234
10
15.6340642
20
0.3368823
40
0.1944357
50
303.0368945
51
311.8811219
0
ARC
8
DEFAULT_255_1_234
10
15.6412048
20
0.328389
40
0.1833454
50
311.9916004
51
351.7143462
0
ARC
8
DEFAULT_255_1_234
10
15.5595278
20
0.344893
40
0.2665871
50
350.7339597
51
0.2221581
0
ARC
8
DEFAULT_255_1_234
10
15.5487724
20
0.3505467
40
0.2773789
50
359.0456241
51
17.2296242
0
ARC
8
DEFAULT_255_1_234
10
15.6526841
20
0.3814163
40
0.1689915
50
17.6685481
51
78.9940892
0
ARC
8
DEFAULT_255_1_234
10
15.6010005
20
0.1959224
40
0.3612658
50
76.5635957
51
90.6980921
0
LINE
8
DEFAULT_255_1_234
10
15.596599
20
0.5571613
11
15.5964051
21
0.5571614
0
ARC
8
DEFAULT_255_1_234
10
15.5745666
20
1.0094036
40
0.3285612
50
269.6064736
51
281.4533503
0
ARC
8
DEFAULT_255_1_234
10
15.5968485
20
0.9042688
40
0.2210975
50
281.2041486
51
302.5148063
0
ARC
8
DEFAULT_255_1_234
10
15.6105335
20
0.8796241
40
0.1929674
50
303.021671
51
309.8369575
0
ARC
8
DEFAULT_255_1_234
10
15.6288797
20
0.8590488
40
0.1654181
50
309.5228395
51
356.9509836
0
ARC
8
DEFAULT_255_1_234
10
15.5625379
20
0.8685932
40
0.2322512
50
355.4701227
51
0.0492546
0
ARC
8
DEFAULT_255_1_234
10
15.534647
20
0.8708094
40
0.2601498
50
359.5558597
51
11.2096359
0
ARC
8
DEFAULT_255_1_234
10
15.630376
20
0.890623
40
0.1623975
50
10.9182341
51
31.3230275
0
ARC
8
DEFAULT_255_1_234
10
15.6589494
20
0.9065214
40
0.1297302
50
31.8852677
51
52.1412565
0
ARC
8
DEFAULT_255_1_234
10
15.6315226
20
0.867775
40
0.1771663
50
52.8285564
51
71.9850297
0
ARC
8
DEFAULT_255_1_234
10
15.5939403
20
0.7571664
40
0.2939794
50
71.6863486
51
82.8455995
0
ARC
8
DEFAULT_255_1_234
10
15.5699939
20
0.5762149
40
0.476506
50
82.6984714
51
90.1729175
0
ARC
8
DEFAULT_255_1_234
10
15.5677574
20
0.6985623
40
0.3541573
50
89.8708275
51
90.0431131
0
LINE
8
DEFAULT_255_1_234
10
16.9039721
20
0.7017327
11
16.9039721
21
0.5089709
0
LINE
8
DEFAULT_255_1_234
10
16.1658554
20
0.4888916
11
16.1658554
21
0.6872755
0
LINE
8
DEFAULT_255_1_234
10
16.755385
20
0.4688123
11
16.755385
21
0.7121739
0
LINE
8
DEFAULT_255_1_234
10
16.3144425
20
0.7234184
11
16.3144425
21
0.4856789
0
ARC
8
DEFAULT_255_1_234
10
15.6792611
20
0.5040805
40
1.2247208
50
353.8441951
51
0.2287902
0
ARC
8
DEFAULT_255_1_234
10
16.1432114
20
0.4522806
40
0.7578929
50
344.4934747
51
353.9765454
0
ARC
8
DEFAULT_255_1_234
10
16.4424705
20
0.3671981
40
0.4467846
50
329.2803592
51
344.7472793
0
ARC
8
DEFAULT_255_1_234
10
16.5417529
20
0.3127018
40
0.3336173
50
324.9352394
51
328.6160465
0
ARC
8
DEFAULT_255_1_234
10
16.5794638
20
0.2863427
40
0.2876076
50
280.580143
51
324.9173126
0
ARC
8
DEFAULT_255_1_234
10
16.5393431
20
0.4534099
40
0.4592847
50
269.5977311
51
281.6734359
0
ARC
8
DEFAULT_255_1_234
10
16.5321336
20
0.4414173
40
0.4472986
50
256.6228859
51
270.51044
0
ARC
8
DEFAULT_255_1_234
10
16.4919314
20
0.2865877
40
0.2873874
50
215.8618325
51
257.2788573
0
ARC
8
DEFAULT_255_1_234
10
16.5940346
20
0.3550977
40
0.4102928
50
197.9693508
51
215.2623606
0
ARC
8
DEFAULT_255_1_234
10
16.8425461
20
0.4389709
40
0.6725652
50
187.8816417
51
198.2346507
0
ARC
8
DEFAULT_255_1_234
10
17.238367
20
0.4961079
40
1.0724845
50
180.8976217
51
188.0055519
0
ARC
8
DEFAULT_255_1_234
10
17.5183858
20
0.5064777
40
1.3526448
50
180.7449369
51
181.1510016
0
ARC
8
DEFAULT_255_1_234
10
17.3606587
20
0.6921042
40
1.1948131
50
173.7675579
51
180.231553
0
ARC
8
DEFAULT_255_1_234
10
16.9088733
20
0.7431666
40
0.7401564
50
164.3058563
51
173.9002247
0
ARC
8
DEFAULT_255_1_234
10
16.6176802
20
0.8270656
40
0.4371288
50
148.7922025
51
164.568378
0
ARC
8
DEFAULT_255_1_234
10
16.5225255
20
0.8801929
40
0.3282386
50
144.5883898
51
148.1176286
0
ARC
8
DEFAULT_255_1_234
10
16.4882152
20
0.9041315
40
0.2864044
50
101.6440918
51
144.514236
0
ARC
8
DEFAULT_255_1_234
10
16.5307219
20
0.7352069
40
0.4604934
50
89.5284041
51
102.5819763
0
ARC
8
DEFAULT_255_1_234
10
16.5386307
20
0.7313018
40
0.464401
50
77.0437873
51
90.5081339
0
ARC
8
DEFAULT_255_1_234
10
16.5788309
20
0.8955615
40
0.2953195
50
48.2778575
51
77.4994676
0
ARC
8
DEFAULT_255_1_234
10
16.586094
20
0.9084746
40
0.2808655
50
36.3142134
51
47.6305865
0
ARC
8
DEFAULT_255_1_234
10
16.4992247
20
0.8499515
40
0.3855453
50
18.2931786
51
35.6769206
0
ARC
8
DEFAULT_255_1_234
10
16.2449006
20
0.7626593
40
0.654423
50
8.024666
51
18.5605216
0
ARC
8
DEFAULT_255_1_234
10
15.8285926
20
0.7011792
40
1.0752407
50
1.1274072
51
8.1718305
0
ARC
8
DEFAULT_255_1_234
10
15.5050116
20
0.6884885
40
1.3990231
50
0.5424119
51
1.3863029
0
ARC
8
DEFAULT_255_1_234
10
15.6871494
20
0.7157342
40
1.0682415
50
359.8090433
51
4.9407866
0
ARC
8
DEFAULT_255_1_234
10
16.1081508
20
0.7533113
40
0.6455691
50
4.8362157
51
12.2904523
0
ARC
8
DEFAULT_255_1_234
10
16.3836623
20
0.8146965
40
0.3633074
50
12.0805627
51
23.8173984
0
ARC
8
DEFAULT_255_1_234
10
16.5010328
20
0.8643919
40
0.2358723
50
24.2871213
51
31.3935614
0
ARC
8
DEFAULT_255_1_234
10
16.5535026
20
0.8987233
40
0.1732111
50
30.7407893
51
82.4657128
0
ARC
8
DEFAULT_255_1_234
10
16.535516
20
0.8103691
40
0.263235
50
81.1060089
51
90.2184952
0
ARC
8
DEFAULT_255_1_234
10
16.5319459
20
0.8361924
40
0.2374236
50
89.3806855
51
105.6762551
0
ARC
8
DEFAULT_255_1_234
10
16.5136089
20
0.9028567
40
0.1682847
50
105.7981136
51
149.7388061
0
ARC
8
DEFAULT_255_1_234
10
16.6200168
20
0.838895
40
0.2924306
50
149.4208916
51
163.6286378
0
ARC
8
DEFAULT_255_1_234
10
16.8291056
20
0.775125
40
0.5110213
50
163.3763315
51
172.1410975
0
ARC
8
DEFAULT_255_1_234
10
17.1591775
20
0.7278518
40
0.8444586
50
172.0259487
51
178.0703232
0
ARC
8
DEFAULT_255_1_234
10
17.4621864
20
0.7134906
40
1.1477868
50
177.8631668
51
179.5044149
0
ARC
8
DEFAULT_255_1_234
10
17.3549269
20
0.4820389
40
1.0404907
50
179.7995573
51
185.2460446
0
ARC
8
DEFAULT_255_1_234
10
16.9506308
20
0.4437513
40
0.6343885
50
185.1411642
51
193.0079639
0
ARC
8
DEFAULT_255_1_234
10
16.686278
20
0.3812641
40
0.3627568
50
192.7897626
51
205.2507664
0
ARC
8
DEFAULT_255_1_234
10
16.5816328
20
0.3345415
40
0.2481908
50
205.8005384
51
211.2537509
0
ARC
8
DEFAULT_255_1_234
10
16.5292768
20
0.299458
40
0.1852521
50
210.3789793
51
238.4008143
0
ARC
8
DEFAULT_255_1_234
10
16.527329
20
0.3041376
40
0.1882621
50
239.6520629
51
265.9793761
0
ARC
8
DEFAULT_255_1_234
10
16.535849
20
0.3713427
40
0.2559272
50
265.1315437
51
270.060332
0
ARC
8
DEFAULT_255_1_234
10
16.5387269
20
0.3389534
40
0.2235528
50
269.3314664
51
287.2178029
0
ARC
8
DEFAULT_255_1_234
10
16.5525121
20
0.2886279
40
0.1714108
50
287.7958004
51
329.080874
0
ARC
8
DEFAULT_255_1_234
10
16.4567578
20
0.348393
40
0.2842745
50
328.6634704
51
343.3325132
0
ARC
8
DEFAULT_255_1_234
10
16.2394598
20
0.4160863
40
0.5118644
50
343.0499468
51
351.9393422
0
ARC
8
DEFAULT_255_1_234
10
15.8927898
20
0.4671949
40
0.8622784
50
351.8069023
51
357.7959224
0
ARC
8
DEFAULT_255_1_234
10
15.5692454
20
0.4839721
40
1.1862365
50
357.5871873
51
359.2677531
0
LINE
8
DEFAULT_255_1_234
10
17.827622
20
0.7017327
11
17.827622
21
0.5089709
0
LINE
8
DEFAULT_255_1_234
10
17.0895053
20
0.4888916
11
17.0895053
21
0.6872755
0
LINE
8
DEFAULT_255_1_234
10
17.6790349
20
0.4688123
11
17.6790349
21
0.7121739
0
LINE
8
DEFAULT_255_1_234
10
17.2380924
20
0.7234184
11
17.2380924
21
0.4856789
0
ARC
8
DEFAULT_255_1_234
10
16.602911
20
0.5040805
40
1.2247208
50
353.8441951
51
0.2287902
0
ARC
8
DEFAULT_255_1_234
10
17.0668613
20
0.4522806
40
0.7578929
50
344.4934747
51
353.9765454
0
ARC
8
DEFAULT_255_1_234
10
17.3661204
20
0.3671981
40
0.4467846
50
329.2803592
51
344.7472793
0
ARC
8
DEFAULT_255_1_234
10
17.4654028
20
0.3127018
40
0.3336173
50
324.9352394
51
328.6160465
0
ARC
8
DEFAULT_255_1_234
10
17.5031137
20
0.2863427
40
0.2876076
50
280.580143
51
324.9173126
0
ARC
8
DEFAULT_255_1_234
10
17.462993
20
0.4534099
40
0.4592847
50
269.5977311
51
281.6734359
0
ARC
8
DEFAULT_255_1_234
10
17.4557835
20
0.4414173
40
0.4472986
50
256.6228859
51
270.51044
0
ARC
8
DEFAULT_255_1_234
10
17.4155813
20
0.2865877
40
0.2873874
50
215.8618325
51
257.2788573
0
ARC
8
DEFAULT_255_1_234
10
17.5176845
20
0.3550977
40
0.4102928
50
197.9693508
51
215.2623606
0
ARC
8
DEFAULT_255_1_234
10
17.766196
20
0.4389709
40
0.6725652
50
187.8816417
51
198.2346507
0
ARC
8
DEFAULT_255_1_234
10
18.1620169
20
0.4961079
40
1.0724845
50
180.8976217
51
188.0055519
0
ARC
8
DEFAULT_255_1_234
10
18.4420357
20
0.5064777
40
1.3526448
50
180.7449369
51
181.1510016
0
ARC
8
DEFAULT_255_1_234
10
18.2843086
20
0.6921042
40
1.1948131
50
173.7675579
51
180.231553
0
ARC
8
DEFAULT_255_1_234
10
17.8325232
20
0.7431666
40
0.7401564
50
164.3058563
51
173.9002247
0
ARC
8
DEFAULT_255_1_234
10
17.5413301
20
0.8270656
40
0.4371288
50
148.7922025
51
164.568378
0
ARC
8
DEFAULT_255_1_234
10
17.4461754
20
0.8801929
40
0.3282386
50
144.5883898
51
148.1176286
0
ARC
8
DEFAULT_255_1_234
10
17.4118651
20
0.9041315
40
0.2864044
50
101.6440918
51
144.514236
0
ARC
8
DEFAULT_255_1_234
10
17.4543718
20
0.7352069
40
0.4604934
50
89.5284041
51
102.5819763
0
ARC
8
DEFAULT_255_1_234
10
17.4622806
20
0.7313018
40
0.464401
50
77.0437873
51
90.5081339
0
ARC
8
DEFAULT_255_1_234
10
17.5024808
20
0.8955615
40
0.2953195
50
48.2778575
51
77.4994676
0
ARC
8
DEFAULT_255_1_234
10
17.5097439
20
0.9084746
40
0.2808655
50
36.3142134
51
47.6305865
0
ARC
8
DEFAULT_255_1_234
10
17.4228746
20
0.8499515
40
0.3855453
50
18.2931786
51
35.6769206
0
ARC
8
DEFAULT_255_1_234
10
17.1685505
20
0.7626593
40
0.654423
50
8.024666
51
18.5605216
0
ARC
8
DEFAULT_255_1_234
10
16.7522425
20
0.7011792
40
1.0752407
50
1.1274072
51
8.1718305
0
ARC
8
DEFAULT_255_1_234
10
16.4286615
20
0.6884885
40
1.3990231
50
0.5424119
51
1.3863029
0
ARC
8
DEFAULT_255_1_234
10
16.6107993
20
0.7157342
40
1.0682415
50
359.8090433
51
4.9407866
0
ARC
8
DEFAULT_255_1_234
10
17.0318007
20
0.7533113
40
0.6455691
50
4.8362157
51
12.2904523
0
ARC
8
DEFAULT_255_1_234
10
17.3073122
20
0.8146965
40
0.3633074
50
12.0805627
51
23.8173984
0
ARC
8
DEFAULT_255_1_234
10
17.4246827
20
0.8643919
40
0.2358723
50
24.2871213
51
31.3935614
0
ARC
8
DEFAULT_255_1_234
10
17.4771525
20
0.8987233
40
0.1732111
50
30.7407893
51
82.4657128
0
ARC
8
DEFAULT_255_1_234
10
17.4591659
20
0.8103691
40
0.263235
50
81.1060089
51
90.2184952
0
ARC
8
DEFAULT_255_1_234
10
17.4555958
20
0.8361924
40
0.2374236
50
89.3806855
51
105.6762551
0
ARC
8
DEFAULT_255_1_234
10
17.4372588
20
0.9028567
40
0.1682847
50
105.7981136
51
149.7388061
0
ARC
8
DEFAULT_255_1_234
10
17.5436667
20
0.838895
40
0.2924306
50
149.4208916
51
163.6286378
0
ARC
8
DEFAULT_255_1_234
10
17.7527555
20
0.775125
40
0.5110213
50
163.3763315
51
172.1410975
0
ARC
8
DEFAULT_255_1_234
10
18.0828274
20
0.7278518
40
0.8444586
50
172.0259487
51
178.0703232
0
ARC
8
DEFAULT_255_1_234
10
18.3858363
20
0.7134906
40
1.1477868
50
177.8631668
51
179.5044149
0
ARC
8
DEFAULT_255_1_234
10
18.2785768
20
0.4820389
40
1.0404907
50
179.7995573
51
185.2460446
0
ARC
8
DEFAULT_255_1_234
10
17.8742807
20
0.4437513
40
0.6343885
50
185.1411642
51
193.0079639
0
ARC
8
DEFAULT_255_1_234
10
17.6099279
20
0.3812641
40
0.3627568
50
192.7897626
51
205.2507664
0
ARC
8
DEFAULT_255_1_234
10
17.5052827
20
0.3345415
40
0.2481908
50
205.8005384
51
211.2537509
0
ARC
8
DEFAULT_255_1_234
10
17.4529267
20
0.299458
40
0.1852521
50
210.3789793
51
238.4008143
0
ARC
8
DEFAULT_255_1_234
10
17.4509789
20
0.3041376
40
0.1882621
50
239.6520629
51
265.9793761
0
ARC
8
DEFAULT_255_1_234
10
17.4594989
20
0.3713427
40
0.2559272
50
265.1315437
51
270.060332
0
ARC
8
DEFAULT_255_1_234
10
17.4623768
20
0.3389534
40
0.2235528
50
269.3314664
51
287.2178029
0
ARC
8
DEFAULT_255_1_234
10
17.476162
20
0.2886279
40
0.1714108
50
287.7958004
51
329.080874
0
ARC
8
DEFAULT_255_1_234
10
17.3804077
20
0.348393
40
0.2842745
50
328.6634704
51
343.3325132
0
ARC
8
DEFAULT_255_1_234
10
17.1631097
20
0.4160863
40
0.5118644
50
343.0499468
51
351.9393422
0
ARC
8
DEFAULT_255_1_234
10
16.8164397
20
0.4671949
40
0.8622784
50
351.8069023
51
357.7959224
0
ARC
8
DEFAULT_255_1_234
10
16.4928953
20
0.4839721
40
1.1862365
50
357.5871873
51
359.2677531
0
LINE
8
DEFAULT_255_1_234
10
18.3424564
20
0.5676026
11
18.3424564
21
0.4463234
0
LINE
8
DEFAULT_255_1_234
10
18.3424564
20
0.4463234
11
17.9505076
21
0.4463234
0
LINE
8
DEFAULT_255_1_234
10
17.9505076
20
0.4463234
11
17.9505076
21
0.5676026
0
LINE
8
DEFAULT_255_1_234
10
17.9505076
20
0.5676026
11
18.3424564
21
0.5676026
0
LINE
8
DEFAULT_255_1_234
10
19.2050651
20
0.7017327
11
19.2050651
21
0.5089709
0
LINE
8
DEFAULT_255_1_234
10
18.4669484
20
0.4888916
11
18.4669484
21
0.6872755
0
LINE
8
DEFAULT_255_1_234
10
19.056478
20
0.4688123
11
19.056478
21
0.7121739
0
LINE
8
DEFAULT_255_1_234
10
18.6155355
20
0.7234184
11
18.6155355
21
0.4856789
0
ARC
8
DEFAULT_255_1_234
10
17.9803541
20
0.5040805
40
1.2247208
50
353.8441951
51
0.2287902
0
ARC
8
DEFAULT_255_1_234
10
18.4443045
20
0.4522806
40
0.7578929
50
344.4934747
51
353.9765454
0
ARC
8
DEFAULT_255_1_234
10
18.7435635
20
0.3671981
40
0.4467846
50
329.2803592
51
344.7472793
0
ARC
8
DEFAULT_255_1_234
10
18.842846
20
0.3127018
40
0.3336173
50
324.9352394
51
328.6160465
0
ARC
8
DEFAULT_255_1_234
10
18.8805568
20
0.2863427
40
0.2876076
50
280.580143
51
324.9173126
0
ARC
8
DEFAULT_255_1_234
10
18.8404361
20
0.4534099
40
0.4592847
50
269.5977311
51
281.6734359
0
ARC
8
DEFAULT_255_1_234
10
18.8332267
20
0.4414173
40
0.4472986
50
256.6228859
51
270.51044
0
ARC
8
DEFAULT_255_1_234
10
18.7930244
20
0.2865877
40
0.2873874
50
215.8618325
51
257.2788573
0
ARC
8
DEFAULT_255_1_234
10
18.8951276
20
0.3550977
40
0.4102928
50
197.9693508
51
215.2623606
0
ARC
8
DEFAULT_255_1_234
10
19.1436392
20
0.4389709
40
0.6725652
50
187.8816417
51
198.2346507
0
ARC
8
DEFAULT_255_1_234
10
19.53946
20
0.4961079
40
1.0724845
50
180.8976217
51
188.0055519
0
ARC
8
DEFAULT_255_1_234
10
19.8194788
20
0.5064777
40
1.3526448
50
180.7449369
51
181.1510016
0
ARC
8
DEFAULT_255_1_234
10
19.6617517
20
0.6921042
40
1.1948131
50
173.7675579
51
180.231553
0
ARC
8
DEFAULT_255_1_234
10
19.2099664
20
0.7431666
40
0.7401564
50
164.3058563
51
173.9002247
0
ARC
8
DEFAULT_255_1_234
10
18.9187733
20
0.8270656
40
0.4371288
50
148.7922025
51
164.568378
0
ARC
8
DEFAULT_255_1_234
10
18.8236185
20
0.8801929
40
0.3282386
50
144.5883898
51
148.1176286
0
ARC
8
DEFAULT_255_1_234
10
18.7893083
20
0.9041315
40
0.2864044
50
101.6440918
51
144.514236
0
ARC
8
DEFAULT_255_1_234
10
18.8318149
20
0.7352069
40
0.4604934
50
89.5284041
51
102.5819763
0
ARC
8
DEFAULT_255_1_234
10
18.8397237
20
0.7313018
40
0.464401
50
77.0437873
51
90.5081339
0
ARC
8
DEFAULT_255_1_234
10
18.8799239
20
0.8955615
40
0.2953195
50
48.2778575
51
77.4994676
0
ARC
8
DEFAULT_255_1_234
10
18.887187
20
0.9084746
40
0.2808655
50
36.3142134
51
47.6305865
0
ARC
8
DEFAULT_255_1_234
10
18.8003177
20
0.8499515
40
0.3855453
50
18.2931786
51
35.6769206
0
ARC
8
DEFAULT_255_1_234
10
18.5459936
20
0.7626593
40
0.654423
50
8.024666
51
18.5605216
0
ARC
8
DEFAULT_255_1_234
10
18.1296856
20
0.7011792
40
1.0752407
50
1.1274072
51
8.1718305
0
ARC
8
DEFAULT_255_1_234
10
17.8061047
20
0.6884885
40
1.3990231
50
0.5424119
51
1.3863029
0
ARC
8
DEFAULT_255_1_234
10
17.9882424
20
0.7157342
40
1.0682415
50
359.8090433
51
4.9407866
0
ARC
8
DEFAULT_255_1_234
10
18.4092438
20
0.7533113
40
0.6455691
50
4.8362157
51
12.2904523
0
ARC
8
DEFAULT_255_1_234
10
18.6847553
20
0.8146965
40
0.3633074
50
12.0805627
51
23.8173984
0
ARC
8
DEFAULT_255_1_234
10
18.8021259
20
0.8643919
40
0.2358723
50
24.2871213
51
31.3935614
0
ARC
8
DEFAULT_255_1_234
10
18.8545956
20
0.8987233
40
0.1732111
50
30.7407893
51
82.4657128
0
ARC
8
DEFAULT_255_1_234
10
18.836609
20
0.8103691
40
0.263235
50
81.1060089
51
90.2184952
0
ARC
8
DEFAULT_255_1_234
10
18.8330389
20
0.8361924
40
0.2374236
50
89.3806855
51
105.6762551
0
ARC
8
DEFAULT_255_1_234
10
18.814702
20
0.9028567
40
0.1682847
50
105.7981136
51
149.7388061
0
ARC
8
DEFAULT_255_1_234
10
18.9211098
20
0.838895
40
0.2924306
50
149.4208916
51
163.6286378
0
ARC
8
DEFAULT_255_1_234
10
19.1301986
20
0.775125
40
0.5110213
50
163.3763315
51
172.1410975
0
ARC
8
DEFAULT_255_1_234
10
19.4602705
20
0.7278518
40
0.8444586
50
172.0259487
51
178.0703232
0
ARC
8
DEFAULT_255_1_234
10
19.7632794
20
0.7134906
40
1.1477868
50
177.8631668
51
179.5044149
0
ARC
8
DEFAULT_255_1_234
10
19.6560199
20
0.4820389
40
1.0404907
50
179.7995573
51
185.2460446
0
ARC
8
DEFAULT_255_1_234
10
19.2517238
20
0.4437513
40
0.6343885
50
185.1411642
51
193.0079639
0
ARC
8
DEFAULT_255_1_234
10
18.9873711
20
0.3812641
40
0.3627568
50
192.7897626
51
205.2507664
0
ARC
8
DEFAULT_255_1_234
10
18.8827258
20
0.3345415
40
0.2481908
50
205.8005384
51
211.2537509
0
ARC
8
DEFAULT_255_1_234
10
18.8303698
20
0.299458
40
0.1852521
50
210.3789793
51
238.4008143
0
ARC
8
DEFAULT_255_1_234
10
18.828422
20
0.3041376
40
0.1882621
50
239.6520629
51
265.9793761
0
ARC
8
DEFAULT_255_1_234
10
18.836942
20
0.3713427
40
0.2559272
50
265.1315437
51
270.060332
0
ARC
8
DEFAULT_255_1_234
10
18.8398199
20
0.3389534
40
0.2235528
50
269.3314664
51
287.2178029
0
ARC
8
DEFAULT_255_1_234
10
18.8536051
20
0.2886279
40
0.1714108
50
287.7958004
51
329.080874
0
ARC
8
DEFAULT_255_1_234
10
18.7578508
20
0.348393
40
0.2842745
50
328.6634704
51
343.3325132
0
ARC
8
DEFAULT_255_1_234
10
18.5405528
20
0.4160863
40
0.5118644
50
343.0499468
51
351.9393422
0
ARC
8
DEFAULT_255_1_234
10
18.1938828
20
0.4671949
40
0.8622784
50
351.8069023
51
357.7959224
0
ARC
8
DEFAULT_255_1_234
10
17.8703384
20
0.4839721
40
1.1862365
50
357.5871873
51
359.2677531
0
LINE
8
DEFAULT_255_1_234
10
20.1913626
20
0.0102
11
20.0797214
21
0.3154061
0
LINE
8
DEFAULT_255_1_234
10
20.0797214
20
0.3154061
11
19.5897854
21
0.3154061
0
LINE
8
DEFAULT_255_1_234
10
19.5897854
20
0.3154061
11
19.4797506
21
0.0102
0
LINE
8
DEFAULT_255_1_234
10
19.4797506
20
0.0102
11
19.3207222
21
0.0102
0
LINE
8
DEFAULT_255_1_234
10
19.3207222
20
0.0102
11
19.7672868
21
1.1796211
0
LINE
8
DEFAULT_255_1_234
10
19.7672868
20
1.1796211
11
19.90222
21
1.1796211
0
LINE
8
DEFAULT_255_1_234
10
19.90222
20
1.1796211
11
20.3495878
21
0.0102
0
LINE
8
DEFAULT_255_1_234
10
20.3495878
20
0.0102
11
20.1913626
21
0.0102
0
LINE
8
DEFAULT_255_1_234
10
19.8347534
20
0.9892689
11
19.6363695
21
0.4423075
0
LINE
8
DEFAULT_255_1_234
10
19.6363695
20
0.4423075
11
20.0339405
21
0.4423075
0
LINE
8
DEFAULT_255_1_234
10
20.0339405
20
0.4423075
11
19.8347534
21
0.9892689
0
LINE
8
DEFAULT_255_1_234
10
20.484521
20
1.1796211
11
20.7881208
21
0.592501
0
LINE
8
DEFAULT_255_1_234
10
20.7881208
20
0.592501
11
21.0933268
21
1.1796211
0
LINE
8
DEFAULT_255_1_234
10
21.0933268
20
1.1796211
11
21.2684187
21
1.1796211
0
LINE
8
DEFAULT_255_1_234
10
21.2684187
20
1.1796211
11
20.8652254
21
0.4463234
0
LINE
8
DEFAULT_255_1_234
10
20.8652254
20
0.4463234
11
20.8652254
21
0.0102
0
LINE
8
DEFAULT_255_1_234
10
20.8652254
20
0.0102
11
20.7110161
21
0.0102
0
LINE
8
DEFAULT_255_1_234
10
20.7110161
20
0.0102
11
20.7110161
21
0.4463234
0
LINE
8
DEFAULT_255_1_234
10
20.7110161
20
0.4463234
11
20.3078228
21
1.1796211
0
LINE
8
DEFAULT_255_1_234
10
20.3078228
20
1.1796211
11
20.484521
21
1.1796211
0
LINE
8
DEFAULT_255_1_234
10
22.1141607
20
0.7017327
11
22.1141607
21
0.5089709
0
LINE
8
DEFAULT_255_1_234
10
21.376044
20
0.4888916
11
21.376044
21
0.6872755
0
LINE
8
DEFAULT_255_1_234
10
21.9655736
20
0.4688123
11
21.9655736
21
0.7121739
0
LINE
8
DEFAULT_255_1_234
10
21.5246312
20
0.7234184
11
21.5246312
21
0.4856789
0
ARC
8
DEFAULT_255_1_234
10
20.8894497
20
0.5040805
40
1.2247208
50
353.8441951
51
0.2287902
0
ARC
8
DEFAULT_255_1_234
10
21.3534001
20
0.4522806
40
0.7578929
50
344.4934747
51
353.9765454
0
ARC
8
DEFAULT_255_1_234
10
21.6526591
20
0.3671981
40
0.4467846
50
329.2803592
51
344.7472793
0
ARC
8
DEFAULT_255_1_234
10
21.7519416
20
0.3127018
40
0.3336173
50
324.9352394
51
328.6160465
0
ARC
8
DEFAULT_255_1_234
10
21.7896524
20
0.2863427
40
0.2876076
50
280.580143
51
324.9173126
0
ARC
8
DEFAULT_255_1_234
10
21.7495317
20
0.4534099
40
0.4592847
50
269.5977311
51
281.6734359
0
ARC
8
DEFAULT_255_1_234
10
21.7423223
20
0.4414173
40
0.4472986
50
256.6228859
51
270.51044
0
ARC
8
DEFAULT_255_1_234
10
21.7021201
20
0.2865877
40
0.2873874
50
215.8618325
51
257.2788573
0
ARC
8
DEFAULT_255_1_234
10
21.8042232
20
0.3550977
40
0.4102928
50
197.9693508
51
215.2623606
0
ARC
8
DEFAULT_255_1_234
10
22.0527348
20
0.4389709
40
0.6725652
50
187.8816417
51
198.2346507
0
ARC
8
DEFAULT_255_1_234
10
22.4485556
20
0.4961079
40
1.0724845
50
180.8976217
51
188.0055519
0
ARC
8
DEFAULT_255_1_234
10
22.7285744
20
0.5064777
40
1.3526448
50
180.7449369
51
181.1510016
0
ARC
8
DEFAULT_255_1_234
10
22.5708473
20
0.6921042
40
1.1948131
50
173.7675579
51
180.231553
0
ARC
8
DEFAULT_255_1_234
10
22.119062
20
0.7431666
40
0.7401564
50
164.3058563
51
173.9002247
0
ARC
8
DEFAULT_255_1_234
10
21.8278689
20
0.8270656
40
0.4371288
50
148.7922025
51
164.568378
0
ARC
8
DEFAULT_255_1_234
10
21.7327141
20
0.8801929
40
0.3282386
50
144.5883898
51
148.1176286
0
ARC
8
DEFAULT_255_1_234
10
21.6984039
20
0.9041315
40
0.2864044
50
101.6440918
51
144.514236
0
ARC
8
DEFAULT_255_1_234
10
21.7409105
20
0.7352069
40
0.4604934
50
89.5284041
51
102.5819763
0
ARC
8
DEFAULT_255_1_234
10
21.7488193
20
0.7313018
40
0.464401
50
77.0437873
51
90.5081339
0
ARC
8
DEFAULT_255_1_234
10
21.7890195
20
0.8955615
40
0.2953195
50
48.2778575
51
77.4994676
0
ARC
8
DEFAULT_255_1_234
10
21.7962826
20
0.9084746
40
0.2808655
50
36.3142134
51
47.6305865
0
ARC
8
DEFAULT_255_1_234
10
21.7094133
20
0.8499515
40
0.3855453
50
18.2931786
51
35.6769206
0
ARC
8
DEFAULT_255_1_234
10
21.4550892
20
0.7626593
40
0.654423
50
8.024666
51
18.5605216
0
ARC
8
DEFAULT_255_1_234
10
21.0387812
20
0.7011792
40
1.0752407
50
1.1274072
51
8.1718305
0
ARC
8
DEFAULT_255_1_234
10
20.7152003
20
0.6884885
40
1.3990231
50
0.5424119
51
1.3863029
0
ARC
8
DEFAULT_255_1_234
10
20.897338
20
0.7157342
40
1.0682415
50
359.8090433
51
4.9407866
0
ARC
8
DEFAULT_255_1_234
10
21.3183394
20
0.7533113
40
0.6455691
50
4.8362157
51
12.2904523
0
ARC
8
DEFAULT_255_1_234
10
21.5938509
20
0.8146965
40
0.3633074
50
12.0805627
51
23.8173984
0
ARC
8
DEFAULT_255_1_234
10
21.7112215
20
0.8643919
40
0.2358723
50
24.2871213
51
31.3935614
0
ARC
8
DEFAULT_255_1_234
10
21.7636912
20
0.8987233
40
0.1732111
50
30.7407893
51
82.4657128
0
ARC
8
DEFAULT_255_1_234
10
21.7457046
20
0.8103691
40
0.263235
50
81.1060089
51
90.2184952
0
ARC
8
DEFAULT_255_1_234
10
21.7421345
20
0.8361924
40
0.2374236
50
89.3806855
51
105.6762551
0
ARC
8
DEFAULT_255_1_234
10
21.7237976
20
0.9028567
40
0.1682847
50
105.7981136
51
149.7388061
0
ARC
8
DEFAULT_255_1_234
10
21.8302054
20
0.838895
40
0.2924306
50
149.4208916
51
163.6286378
0
ARC
8
DEFAULT_255_1_234
10
22.0392942
20
0.775125
40
0.5110213
50
163.3763315
51
172.1410975
0
ARC
8
DEFAULT_255_1_234
10
22.3693661
20
0.7278518
40
0.8444586
50
172.0259487
51
178.0703232
0
ARC
8
DEFAULT_255_1_234
10
22.6723751
20
0.7134906
40
1.1477868
50
177.8631668
51
179.5044149
0
ARC
8
DEFAULT_255_1_234
10
22.5651155
20
0.4820389
40
1.0404907
50
179.7995573
51
185.2460446
0
ARC
8
DEFAULT_255_1_234
10
22.1608194
20
0.4437513
40
0.6343885
50
185.1411642
51
193.0079639
0
ARC
8
DEFAULT_255_1_234
10
21.8964667
20
0.3812641
40
0.3627568
50
192.7897626
51
205.2507664
0
ARC
8
DEFAULT_255_1_234
10
21.7918214
20
0.3345415
40
0.2481908
50
205.8005384
51
211.2537509
0
ARC
8
DEFAULT_255_1_234
10
21.7394654
20
0.299458
40
0.1852521
50
210.3789793
51
238.4008143
0
ARC
8
DEFAULT_255_1_234
10
21.7375176
20
0.3041376
40
0.1882621
50
239.6520629
51
265.9793761
0
ARC
8
DEFAULT_255_1_234
10
21.7460376
20
0.3713427
40
0.2559272
50
265.1315437
51
270.060332
0
ARC
8
DEFAULT_255_1_234
10
21.7489155
20
0.3389534
40
0.2235528
50
269.3314664
51
287.2178029
0
ARC
8
DEFAULT_255_1_234
10
21.7627007
20
0.2886279
40
0.1714108
50
287.7958004
51
329.080874
0
ARC
8
DEFAULT_255_1_234
10
21.6669464
20
0.348393
40
0.2842745
50
328.6634704
51
343.3325132
0
ARC
8
DEFAULT_255_1_234
10
21.4496484
20
0.4160863
40
0.5118644
50
343.0499468
51
351.9393422
0
ARC
8
DEFAULT_255_1_234
10
21.1029784
20
0.4671949
40
0.8622784
50
351.8069023
51
357.7959224
0
ARC
8
DEFAULT_255_1_234
10
20.779434
20
0.4839721
40
1.1862365
50
357.5871873
51
359.2677531
0
ARC
8
DEFAULT_255_2_778
10
7.7485909
20
20.75644
40
3.1367904
50
252.3172038
51
259.0807113
0
ARC
8
DEFAULT_255_2_778
10
7.5374166
20
19.6408974
40
2.0014467
50
258.9672958
51
268.7384557
0
ARC
8
DEFAULT_255_2_778
10
7.5171807
20
19.2048713
40
1.5651169
50
269.127651
51
269.9970552
0
ARC
8
DEFAULT_255_2_778
10
7.5282369
20
18.742189
40
1.1024909
50
269.4212235
51
279.304757
0
ARC
8
DEFAULT_255_2_778
10
7.6424456
20
18.0860933
40
0.4366123
50
278.4353852
51
299.11427
0
ARC
8
DEFAULT_255_2_778
10
7.7687045
20
17.8642277
40
0.1813628
50
298.3696866
51
1.556618
0
ARC
8
DEFAULT_255_2_778
10
7.7607731
20
17.8719056
40
0.1892471
50
359.167
51
359.999679
0
ARC
8
DEFAULT_255_2_778
10
7.7621256
20
17.8718928
40
0.1878948
50
0.0035752
51
48.4707938
0
ARC
8
DEFAULT_255_2_778
10
7.6241179
20
17.713326
40
0.3981044
50
48.732028
51
61.7680099
0
ARC
8
DEFAULT_255_2_778
10
7.0282641
20
16.6652023
40
1.6036722
50
60.7260073
51
65.6921054
0
ARC
8
DEFAULT_255_2_778
10
6.1077612
20
14.6717982
40
3.7993142
50
65.4156409
51
67.5847818
0
ARC
8
DEFAULT_255_2_778
10
9.6066473
20
23.234153
40
5.4503761
50
245.128515
51
247.9047275
0
ARC
8
DEFAULT_255_2_778
10
8.5259656
20
20.9111079
40
2.8882696
50
241.1320633
51
245.1962756
0
ARC
8
DEFAULT_255_2_778
10
7.7630454
20
19.5382163
40
1.3176592
50
234.2113748
51
241.3622699
0
ARC
8
DEFAULT_255_2_778
10
7.3438693
20
18.9527113
40
0.5975813
50
226.7214828
51
233.9837466
0
ARC
8
DEFAULT_255_2_778
10
7.3610966
20
18.9595728
40
0.6144367
50
178.3976213
51
225.9905587
0
ARC
8
DEFAULT_255_2_778
10
7.4479133
20
18.9908454
40
0.7011547
50
154.8735925
51
181.1515496
0
ARC
8
DEFAULT_255_2_778
10
7.3604049
20
19.0162792
40
0.6112906
50
123.8165102
51
153.54904
0
ARC
8
DEFAULT_255_2_778
10
7.5901921
20
18.6785388
40
1.0197826
50
100.5304332
51
123.982159
0
ARC
8
DEFAULT_255_2_778
10
7.6990249
20
18.1556706
40
1.5537767
50
89.6287661
51
100.9523483
0
ARC
8
DEFAULT_255_2_778
10
7.7090926
20
17.7885161
40
1.9208984
50
89.5463873
51
90.0000125
0
ARC
8
DEFAULT_255_2_778
10
7.7099768
20
17.710193
40
1.9992127
50
84.1426129
51
89.5894994
0
ARC
8
DEFAULT_255_2_778
10
7.5078054
20
15.6312453
40
4.0879532
50
81.0724968
51
84.2974367
0
ARC
8
DEFAULT_255_2_778
10
7.0237164
20
12.5056832
40
7.250777
50
78.9261702
51
81.1263461
0
ARC
8
DEFAULT_255_2_778
10
7.6683034
20
17.3227967
40
1.9859479
50
67.8708824
51
78.7622215
0
ARC
8
DEFAULT_255_2_778
10
7.7856122
20
17.8954165
40
1.4014502
50
78.9039563
51
89.7592781
0
ARC
8
DEFAULT_255_2_778
10
7.7793524
20
18.3192116
40
0.9777183
50
89.2881014
51
100.1843776
0
ARC
8
DEFAULT_255_2_778
10
7.6658995
20
18.9128799
40
0.3734036
50
99.1570246
51
122.7347563
0
ARC
8
DEFAULT_255_2_778
10
7.5618036
20
19.0793312
40
0.1771147
50
123.5257165
51
182.0309683
0
ARC
8
DEFAULT_255_2_778
10
7.5428899
20
19.0749308
40
0.1581008
50
180.6800447
51
241.1486722
0
ARC
8
DEFAULT_255_2_778
10
7.9232305
20
19.6911089
40
0.8820514
50
238.822493
51
243.6821447
0
ARC
8
DEFAULT_255_2_778
10
9.3821709
20
22.5649759
40
4.1049967
50
243.2133286
51
244.8806059
0
ARC
8
DEFAULT_255_2_778
10
12.2927158
20
28.7372378
40
10.9290718
50
244.8013453
51
245.6369449
0
ARC
8
DEFAULT_255_2_778
10
15.2578722
20
35.2482332
40
18.0834464
50
245.588748
51
245.787665
0
ARC
8
DEFAULT_255_2_778
10
5.8891596
20
14.3264306
40
4.8403276
50
63.1117553
51
66.2123
0
ARC
8
DEFAULT_255_2_778
10
6.9466095
20
16.4005717
40
2.5121927
50
58.2727928
51
63.2279679
0
ARC
8
DEFAULT_255_2_778
10
7.6960396
20
17.6024803
40
1.0958018
50
49.8218374
51
58.5541977
0
ARC
8
DEFAULT_255_2_778
10
8.0252396
20
18.0028219
40
0.5775748
50
45.4118875
51
49.1507981
0
ARC
8
DEFAULT_255_2_778
10
8.0078546
20
17.9958809
40
0.5947698
50
359.8266002
51
44.6885537
0
ARC
8
DEFAULT_255_2_778
10
7.7567553
20
17.9687699
40
0.8462449
50
359.9921763
51
1.7139588
0
ARC
8
DEFAULT_255_2_778
10
7.9236841
20
17.9529488
40
0.6794977
50
328.8434326
51
1.3244197
0
ARC
8
DEFAULT_255_2_778
10
7.9038875
20
17.9890073
40
0.7153916
50
299.9830705
51
327.1921484
0
ARC
8
DEFAULT_255_2_778
10
7.7012555
20
18.3210429
40
1.1042976
50
281.4942083
51
300.4802073
0
ARC
8
DEFAULT_255_2_778
10
7.5665306
20
18.944865
40
1.7424723
50
270.5625225
51
281.7478816
0
ARC
8
DEFAULT_255_2_778
10
7.5455157
20
19.4519548
40
2.2498011
50
269.996365
51
270.9709017
0
LINE
8
DEFAULT_255_2_778
10
7.545373
20
17.2021538
11
7.5438002
21
17.2021543
0
ARC
8
DEFAULT_255_2_778
10
7.5505417
20
20.4942647
40
3.2921172
50
256.7144726
51
269.882672
0
ARC
8
DEFAULT_255_2_778
10
21.7504516
20
20.6810513
40
3.0599176
50
252.185271
51
259.1427573
0
ARC
8
DEFAULT_255_2_778
10
21.5517839
20
19.6228255
40
1.9832175
50
259.0208764
51
269.2247582
0
ARC
8
DEFAULT_255_2_778
10
21.5355123
20
19.224243
40
1.5844885
50
269.6180891
51
269.9995636
0
ARC
8
DEFAULT_255_2_778
10
21.5474133
20
18.745367
40
1.1056768
50
269.3826571
51
279.2415406
0
ARC
8
DEFAULT_255_2_778
10
21.6613199
20
18.0866939
40
0.4373106
50
278.3705839
51
299.0156343
0
ARC
8
DEFAULT_255_2_778
10
21.7879297
20
17.8635004
40
0.1807355
50
298.2360606
51
1.5389494
0
ARC
8
DEFAULT_255_2_778
10
21.7603652
20
17.8725667
40
0.2082776
50
358.8411392
51
0.0020684
0
ARC
8
DEFAULT_255_2_778
10
21.7866933
20
17.8756628
40
0.1819759
50
359.027495
51
48.4049054
0
ARC
8
DEFAULT_255_2_778
10
21.6426988
20
17.707691
40
0.4032051
50
48.948177
51
62.1095173
0
ARC
8
DEFAULT_255_2_778
10
21.0553488
20
16.6613768
40
1.6030099
50
61.0487088
51
66.0223331
0
ARC
8
DEFAULT_255_2_778
10
20.1651728
20
14.7037609
40
3.7534838
50
65.750311
51
67.9399335
0
ARC
8
DEFAULT_255_2_778
10
23.5885642
20
23.1436293
40
5.35426
50
245.0886904
51
247.9085292
0
ARC
8
DEFAULT_255_2_778
10
22.5327748
20
20.8782301
40
2.8549193
50
241.0445351
51
245.1557194
0
ARC
8
DEFAULT_255_2_778
10
21.7833134
20
19.5344017
40
1.3162482
50
234.0878076
51
241.2704023
0
ARC
8
DEFAULT_255_2_778
10
21.3685041
20
18.9574995
40
0.6057061
50
226.6350428
51
233.8590908
0
ARC
8
DEFAULT_255_2_778
10
21.3797041
20
18.9595701
40
0.6149385
50
178.1097058
51
226.0088463
0
ARC
8
DEFAULT_255_2_778
10
21.4585606
20
18.9940802
40
0.6936062
50
154.5307055
51
181.1752148
0
ARC
8
DEFAULT_255_2_778
10
21.3749435
20
19.0179859
40
0.6080053
50
123.6088607
51
153.1759302
0
ARC
8
DEFAULT_255_2_778
10
21.5988489
20
18.7017393
40
0.9953885
50
101.9261307
51
124.2666527
0
ARC
8
DEFAULT_255_2_778
10
21.7271622
20
18.134577
40
1.5768466
50
89.8677607
51
102.2291486
0
ARC
8
DEFAULT_255_2_778
10
21.7427185
20
17.682695
40
2.0287594
50
90.0005168
51
90.3365569
0
ARC
8
DEFAULT_255_2_778
10
21.7283083
20
17.5208185
40
2.1906831
50
83.5560006
51
89.6235862
0
ARC
8
DEFAULT_255_2_778
10
21.5238767
20
15.6340102
40
4.0885236
50
79.7361676
51
83.6768054
0
ARC
8
DEFAULT_255_2_778
10
21.2079482
20
13.7994099
40
5.9500801
50
78.6906041
51
79.8904129
0
ARC
8
DEFAULT_255_2_778
10
21.6896179
20
17.332229
40
1.9779825
50
67.8744446
51
78.9030929
0
ARC
8
DEFAULT_255_2_778
10
21.8016885
20
17.8841175
40
1.4148476
50
79.0551066
51
89.7767944
0
ARC
8
DEFAULT_255_2_778
10
21.7951063
20
18.3279565
40
0.9710732
50
89.2864107
51
100.2116886
0
ARC
8
DEFAULT_255_2_778
10
21.681801
20
18.9184677
40
0.3698916
50
99.1550036
51
123.0119564
0
ARC
8
DEFAULT_255_2_778
10
21.579009
20
19.0818297
40
0.176923
50
123.920376
51
182.0550514
0
ARC
8
DEFAULT_255_2_778
10
21.5390366
20
19.0754025
40
0.1368366
50
179.9653657
51
180.1039286
0
ARC
8
DEFAULT_255_2_778
10
21.5595115
20
19.0766104
40
0.157318
50
180.5303168
51
241.2736447
0
ARC
8
DEFAULT_255_2_778
10
21.9257678
20
19.67239
40
0.8565132
50
238.9429609
51
243.884641
0
ARC
8
DEFAULT_255_2_778
10
23.4342946
20
22.6657722
40
4.2084849
50
243.3823468
51
245.0163422
0
ARC
8
DEFAULT_255_2_778
10
26.5083187
20
29.2248925
40
11.4522123
50
244.9359232
51
245.7429141
0
ARC
8
DEFAULT_255_2_778
10
29.6927214
20
36.2534377
40
19.1684757
50
245.6959642
51
245.8864146
0
ARC
8
DEFAULT_255_2_778
10
19.9154971
20
14.3683834
40
4.8013152
50
62.9050538
51
66.089679
0
ARC
8
DEFAULT_255_2_778
10
20.9733939
20
16.4262652
40
2.4874475
50
58.0771566
51
63.0087022
0
ARC
8
DEFAULT_255_2_778
10
21.7200156
20
17.6136496
40
1.0848613
50
49.460189
51
58.3856987
0
ARC
8
DEFAULT_255_2_778
10
22.0420624
20
18.0014693
40
0.5808595
50
45.5403682
51
48.7368826
0
ARC
8
DEFAULT_255_2_778
10
22.0276279
20
17.9974376
40
0.5938943
50
359.8498367
51
44.8188382
0
ARC
8
DEFAULT_255_2_778
10
21.7783019
20
17.9705631
40
0.8435982
50
359.9926129
51
1.719814
0
ARC
8
DEFAULT_255_2_778
10
21.9395402
20
17.9548337
40
0.6825388
50
329.2212416
51
1.3113892
0
ARC
8
DEFAULT_255_2_778
10
21.9246155
20
17.9876294
40
0.7124399
50
300.0989301
51
327.5692204
0
ARC
8
DEFAULT_255_2_778
10
21.7224438
20
18.3214907
40
1.102697
50
281.4434856
51
300.4876618
0
ARC
8
DEFAULT_255_2_778
10
21.5850721
20
18.9590991
40
1.7549039
50
270.5536601
51
281.7092007
0
ARC
8
DEFAULT_255_2_778
10
21.5637113
20
19.475588
40
2.271634
50
269.9960451
51
270.9665268
0
LINE
8
DEFAULT_255_2_778
10
21.5635545
20
17.2039541
11
21.5625002
21
17.2039543
0
ARC
8
DEFAULT_255_2_778
10
21.5691776
20
20.505398
40
3.3014504
50
256.7485089
51
269.8841161
0
LINE
8
DEFAULT_255_2_778
10
6.7958002
20
17.2910543
11
6.7958002
21
17.7678543
0
LINE
8
DEFAULT_255_2_778
10
8.4164002
20
19.6214543
11
8.4164002
21
19.1624543
0
LINE
8
DEFAULT_255_2_778
10
6.7940002
20
17.2902543
11
6.7958002
21
17.2910543
0
LINE
8
DEFAULT_255_2_778
10
8.9866002
20
19.6685543
11
9.6629002
21
19.6685543
0
LINE
8
DEFAULT_255_2_778
10
9.6629002
20
19.6685543
11
9.6629002
21
17.2521543
0
LINE
8
DEFAULT_255_2_778
10
9.6629002
20
17.2521543
11
8.9866002
21
17.2521543
0
LINE
8
DEFAULT_255_2_778
10
8.9866002
20
17.2521543
11
8.9866002
21
19.6685543
0
LINE
8
DEFAULT_255_2_778
10
10.2809002
20
17.2521543
11
10.2809002
21
19.6688543
0
LINE
8
DEFAULT_255_2_778
10
10.2809002
20
19.6688543
11
12.0132002
21
19.6688543
0
LINE
8
DEFAULT_255_2_778
10
12.0132002
20
19.6688543
11
12.0132002
21
19.2317543
0
LINE
8
DEFAULT_255_2_778
10
12.0132002
20
19.2317543
11
10.9321002
21
19.2317543
0
LINE
8
DEFAULT_255_2_778
10
10.9321002
20
19.2317543
11
10.9321002
21
18.6861543
0
LINE
8
DEFAULT_255_2_778
10
10.9321002
20
18.6861543
11
11.8735002
21
18.6861543
0
LINE
8
DEFAULT_255_2_778
10
11.8735002
20
18.6861543
11
11.8735002
21
18.2877543
0
LINE
8
DEFAULT_255_2_778
10
11.8735002
20
18.2877543
11
10.9321002
21
18.2877543
0
LINE
8
DEFAULT_255_2_778
10
10.9321002
20
18.2877543
11
10.9321002
21
17.7141543
0
LINE
8
DEFAULT_255_2_778
10
10.9321002
20
17.7141543
11
12.0412002
21
17.7141543
0
LINE
8
DEFAULT_255_2_778
10
12.0412002
20
17.7141543
11
12.0412002
21
17.2513543
0
LINE
8
DEFAULT_255_2_778
10
12.0412002
20
17.2513543
11
10.2809002
21
17.2521543
0
LINE
8
DEFAULT_255_2_778
10
12.4817002
20
17.2521543
11
12.4817002
21
19.6688543
0
LINE
8
DEFAULT_255_2_778
10
12.4817002
20
19.6688543
11
13.3575002
21
19.6688543
0
LINE
8
DEFAULT_255_2_778
10
13.3575002
20
19.6688543
11
13.9671002
21
18.1247543
0
LINE
8
DEFAULT_255_2_778
10
13.9671002
20
18.1247543
11
14.5897002
21
19.6688543
0
LINE
8
DEFAULT_255_2_778
10
14.5897002
20
19.6688543
11
15.4215002
21
19.6688543
0
LINE
8
DEFAULT_255_2_778
10
15.4215002
20
19.6688543
11
15.4215002
21
17.2524543
0
LINE
8
DEFAULT_255_2_778
10
15.4215002
20
17.2524543
11
14.7812002
21
17.2524543
0
LINE
8
DEFAULT_255_2_778
10
14.7812002
20
17.2524543
11
14.7812002
21
18.9640543
0
LINE
8
DEFAULT_255_2_778
10
14.7812002
20
18.9640543
11
14.0724002
21
17.2291543
0
LINE
8
DEFAULT_255_2_778
10
14.0724002
20
17.2291543
11
13.6515002
21
17.2291543
0
LINE
8
DEFAULT_255_2_778
10
13.6515002
20
17.2291543
11
12.9559002
21
18.9640543
0
LINE
8
DEFAULT_255_2_778
10
12.9559002
20
18.9640543
11
12.9559002
21
17.2524543
0
LINE
8
DEFAULT_255_2_778
10
12.9559002
20
17.2524543
11
12.4817002
21
17.2521543
0
LINE
8
DEFAULT_255_2_778
10
16.0409002
20
17.2521543
11
16.0409002
21
19.6688543
0
LINE
8
DEFAULT_255_2_778
10
16.0409002
20
19.6688543
11
17.7731002
21
19.6688543
0
LINE
8
DEFAULT_255_2_778
10
17.7731002
20
19.6688543
11
17.7731002
21
19.2317543
0
LINE
8
DEFAULT_255_2_778
10
17.7731002
20
19.2317543
11
16.6921002
21
19.2317543
0
LINE
8
DEFAULT_255_2_778
10
16.6921002
20
19.2317543
11
16.6921002
21
18.6861543
0
LINE
8
DEFAULT_255_2_778
10
16.6921002
20
18.6861543
11
17.6334002
21
18.6861543
0
LINE
8
DEFAULT_255_2_778
10
17.6334002
20
18.6861543
11
17.6334002
21
18.2877543
0
LINE
8
DEFAULT_255_2_778
10
17.6334002
20
18.2877543
11
16.6921002
21
18.2877543
0
LINE
8
DEFAULT_255_2_778
10
16.6921002
20
18.2877543
11
16.6921002
21
17.7141543
0
LINE
8
DEFAULT_255_2_778
10
16.6921002
20
17.7141543
11
17.8030002
21
17.7141543
0
LINE
8
DEFAULT_255_2_778
10
17.8030002
20
17.7141543
11
17.8030002
21
17.2513543
0
LINE
8
DEFAULT_255_2_778
10
17.8030002
20
17.2513543
11
16.0409002
21
17.2521543
0
LINE
8
DEFAULT_255_2_778
10
18.2454002
20
17.2521543
11
18.2454002
21
19.6688543
0
LINE
8
DEFAULT_255_2_778
10
18.2454002
20
19.6688543
11
19.0283002
21
19.6688543
0
LINE
8
DEFAULT_255_2_778
10
19.0283002
20
19.6688543
11
19.8586002
21
18.0509543
0
LINE
8
DEFAULT_255_2_778
10
19.8586002
20
18.0509543
11
19.8586002
21
19.6688543
0
LINE
8
DEFAULT_255_2_778
10
19.8586002
20
19.6688543
11
20.3343002
21
19.6688543
0
LINE
8
DEFAULT_255_2_778
10
20.3343002
20
19.6688543
11
20.3343002
21
17.2524543
0
LINE
8
DEFAULT_255_2_778
10
20.3343002
20
17.2524543
11
19.5739002
21
17.2524543
0
LINE
8
DEFAULT_255_2_778
10
19.5739002
20
17.2524543
11
18.7214002
21
18.8917543
0
LINE
8
DEFAULT_255_2_778
10
18.7214002
20
18.8917543
11
18.7214002
21
17.2524543
0
LINE
8
DEFAULT_255_2_778
10
18.7214002
20
17.2524543
11
18.2454002
21
17.2521543
0
LINE
8
DEFAULT_255_2_778
10
20.8143002
20
17.2910543
11
20.8143002
21
17.7678543
0
LINE
8
DEFAULT_255_2_778
10
22.3748002
20
19.6339543
11
22.4346002
21
19.6236543
0
LINE
8
DEFAULT_255_2_778
10
22.4346002
20
19.6236543
11
22.4346002
21
19.1645543
0
LINE
8
DEFAULT_255_2_778
10
20.8124002
20
17.2918543
11
20.8143002
21
17.2910543
0
LINE
8
DEFAULT_255_2_778
10
10.7156501
20
13.0968499
11
18.6531501
21
13.0968499
0
LINE
8
DEFAULT_255_2_778
10
18.6531501
20
13.0968499
11
18.6531501
21
5.1593499
0
LINE
8
DEFAULT_255_2_778
10
18.6531501
20
5.1593499
11
10.7156501
21
5.1593499
0
LINE
8
DEFAULT_255_2_778
10
10.7156501
20
5.1593499
11
10.7156501
21
13.0968499
0
LINE
8
DEFAULT_255_2_778
10
10.7156501
20
5.1593499
11
18.6531501
21
13.0968499
0
ARC
8
DEFAULT_255_2_778
10
14.1071114
20
10.2130807
40
2.9032284
50
151.5042733
51
153.4806603
0
ARC
8
DEFAULT_255_2_778
10
13.4582806
20
10.5659763
40
2.1646375
50
149.0139962
51
151.519903
0
ARC
8
DEFAULT_255_2_778
10
12.9467115
20
10.8737368
40
1.567629
50
145.9162939
51
149.0311909
0
ARC
8
DEFAULT_255_2_778
10
12.5619818
20
11.1347335
40
1.1027247
50
141.9200062
51
145.9453242
0
ARC
8
DEFAULT_255_2_778
10
12.281474
20
11.3554211
40
0.7458118
50
136.484805
51
141.9744057
0
ARC
8
DEFAULT_255_2_778
10
12.091706
20
11.5365808
40
0.4834572
50
128.8638593
51
136.5691139
0
ARC
8
DEFAULT_255_2_778
10
11.9797184
20
11.6766418
40
0.304132
50
117.7110364
51
128.9931649
0
ARC
8
DEFAULT_255_2_778
10
11.928338
20
11.7762194
40
0.1920847
50
98.9021051
51
117.9549066
0
ARC
8
DEFAULT_255_2_778
10
11.9212758
20
11.811491
40
0.1561525
50
90.0344408
51
98.3447638
0
ARC
8
DEFAULT_255_2_778
10
11.9160634
20
11.7853238
40
0.1823916
50
50.7117937
51
88.3918664
0
ARC
8
DEFAULT_255_2_778
10
11.7831308
20
11.6069057
40
0.4047836
50
38.9451112
51
52.1404787
0
ARC
8
DEFAULT_255_2_778
10
11.430408
20
11.3174907
40
0.8610391
50
31.5376489
51
39.1699631
0
ARC
8
DEFAULT_255_2_778
10
10.4861496
20
10.7337547
40
1.9711589
50
27.5029892
51
31.6426884
0
ARC
8
DEFAULT_255_2_778
10
5.9859457
20
8.3795708
40
7.0499372
50
26.3566909
51
27.5839254
0
ARC
8
DEFAULT_255_2_778
10
16.3878515
20
13.5083746
40
4.5476932
50
206.0760745
51
208.8893742
0
ARC
8
DEFAULT_255_2_778
10
13.5296207
20
11.9357384
40
1.2853914
50
209.0650167
51
214.9193276
0
ARC
8
DEFAULT_255_2_778
10
12.9617008
20
11.5379421
40
0.5920141
50
214.8141771
51
224.5237395
0
ARC
8
DEFAULT_255_2_778
10
12.7405911
20
11.3173149
40
0.279676
50
224.0617241
51
242.8344517
0
ARC
8
DEFAULT_255_2_778
10
12.6861767
20
11.214133
40
0.1630376
50
243.2923391
51
269.5752511
0
ARC
8
DEFAULT_255_2_778
10
12.6832992
20
11.2231104
40
0.1720185
50
270.5559033
51
293.8685481
0
ARC
8
DEFAULT_255_2_778
10
12.6460708
20
11.3103881
40
0.2668991
50
293.5955797
51
306.345121
0
ARC
8
DEFAULT_255_2_778
10
12.553147
20
11.4385986
40
0.4252403
50
306.1919045
51
314.6688826
0
ARC
8
DEFAULT_255_2_778
10
12.3908409
20
11.6044992
40
0.6573295
50
314.5642472
51
320.4128675
0
ARC
8
DEFAULT_255_2_778
10
12.1425104
20
11.8108069
40
0.980177
50
320.3694038
51
324.845255
0
ARC
8
DEFAULT_255_2_778
10
11.7897394
20
12.0604469
40
1.4123423
50
324.8053061
51
328.1530642
0
ARC
8
DEFAULT_255_2_778
10
11.3247883
20
12.3501419
40
1.9601584
50
328.1310763
51
330.7610809
0
ARC
8
DEFAULT_255_2_778
10
10.731881
20
12.6828279
40
2.640025
50
330.7460722
51
332.8554872
0
ARC
8
DEFAULT_255_2_778
10
10.2484419
20
12.933394
40
3.1845357
50
332.812199
51
333.437874
0
LINE
8
DEFAULT_255_2_778
10
16.27185
20
7.0644
11
17.85935
21
7.0644
0
LINE
8
DEFAULT_255_2_778
10
16.27185
20
6.4294
11
16.58935
21
6.4294
0
LINE
8
DEFAULT_255_2_778
10
16.90685
20
6.4294
11
17.22435
21
6.4294
0
LINE
8
DEFAULT_255_2_778
10
17.54185
20
6.4294
11
17.85935
21
6.4294
0
LINE
8
DEFAULT_255_1_234
10
12.1269489
20
15.7316211
11
12.1269489
21
14.6882983
0
LINE
8
DEFAULT_255_1_234
10
12.1269489
20
14.6882983
11
12.6811389
21
14.6882983
0
LINE
8
DEFAULT_255_1_234
10
12.6811389
20
14.6882983
11
12.6811389
21
14.5622
0
LINE
8
DEFAULT_255_1_234
10
12.6811389
20
14.5622
11
11.9719364
21
14.5622
0
LINE
8
DEFAULT_255_1_234
10
11.9719364
20
14.5622
11
11.9719364
21
15.7316211
0
LINE
8
DEFAULT_255_1_234
10
11.9719364
20
15.7316211
11
12.1269489
21
15.7316211
0
LINE
8
DEFAULT_255_1_234
10
13.7043823
20
15.1830534
11
13.7043823
21
15.1091614
0
LINE
8
DEFAULT_255_1_234
10
12.7638658
20
15.0987201
11
12.7638658
21
15.1830534
0
LINE
8
DEFAULT_255_1_234
10
13.5509761
20
15.0979169
11
13.5509761
21
15.1846597
0
LINE
8
DEFAULT_255_1_234
10
12.917272
20
15.195101
11
12.917272
21
15.1091614
0
ARC
8
DEFAULT_255_1_234
10
12.840185
20
15.1052015
40
0.8642064
50
350.487711
51
0.2625388
0
ARC
8
DEFAULT_255_1_234
10
13.0695091
20
15.0657578
40
0.631518
50
336.0277639
51
350.5787438
0
ARC
8
DEFAULT_255_1_234
10
13.2039914
20
15.0049892
40
0.4839466
50
319.8877444
51
336.1328423
0
ARC
8
DEFAULT_255_1_234
10
13.2642555
20
14.956758
40
0.4067874
50
302.4806467
51
319.6143626
0
ARC
8
DEFAULT_255_1_234
10
13.2527566
20
14.9789202
40
0.4316636
50
275.8195682
51
302.1884709
0
ARC
8
DEFAULT_255_1_234
10
13.2361199
20
15.0931665
40
0.5470306
50
269.9171439
51
276.3397983
0
ARC
8
DEFAULT_255_1_234
10
13.2316409
20
15.0245681
40
0.4784458
50
252.5219675
51
270.4416499
0
ARC
8
DEFAULT_255_1_234
10
13.2172668
20
14.9706592
40
0.422716
50
237.5352116
51
252.1857531
0
ARC
8
DEFAULT_255_1_234
10
13.2261863
20
14.9820363
40
0.4371052
50
209.063312
51
237.3492538
0
ARC
8
DEFAULT_255_1_234
10
13.3131711
20
15.0366685
40
0.5397041
50
205.1183774
51
209.6470015
0
ARC
8
DEFAULT_255_1_234
10
13.3928748
20
15.070483
40
0.6262326
50
188.7215458
51
204.8240747
0
ARC
8
DEFAULT_255_1_234
10
13.5926277
20
15.1041067
40
0.8287794
50
180.3723947
51
188.9252049
0
ARC
8
DEFAULT_255_1_234
10
13.5899028
20
15.1870402
40
0.8260467
50
169.5253763
51
180.2765336
0
ARC
8
DEFAULT_255_1_234
10
13.3996477
20
15.2220309
40
0.6326007
50
155.8315255
51
169.5089989
0
ARC
8
DEFAULT_255_1_234
10
13.2715978
20
15.2814348
40
0.4914567
50
139.6258461
51
156.0379525
0
ARC
8
DEFAULT_255_1_234
10
13.2126312
20
15.3288799
40
0.4158054
50
122.6416387
51
139.3430715
0
ARC
8
DEFAULT_255_1_234
10
13.2226931
20
15.3105451
40
0.4366739
50
93.0223692
51
122.455762
0
ARC
8
DEFAULT_255_1_234
10
13.2334928
20
15.2140709
40
0.5336137
50
89.975342
51
93.6341897
0
ARC
8
DEFAULT_255_1_234
10
13.2373708
20
15.2539242
40
0.4937738
50
73.746375
51
90.4233405
0
ARC
8
DEFAULT_255_1_234
10
13.2549286
20
15.3219287
40
0.4235786
50
57.662753
51
73.4518111
0
ARC
8
DEFAULT_255_1_234
10
13.2541292
20
15.3240832
40
0.4221899
50
29.1440151
51
57.414694
0
ARC
8
DEFAULT_255_1_234
10
13.1606487
20
15.2657005
40
0.5322966
50
24.0982783
51
29.7323517
0
ARC
8
DEFAULT_255_1_234
10
13.0572762
20
15.2228399
40
0.6441673
50
8.6655297
51
23.8241346
0
ARC
8
DEFAULT_255_1_234
10
12.8338501
20
15.1863854
40
0.8705386
50
359.7806941
51
8.8218784
0
ARC
8
DEFAULT_255_1_234
10
12.7191499
20
15.1889345
40
0.8318373
50
359.7055579
51
8.036044
0
ARC
8
DEFAULT_255_1_234
10
13.0191505
20
15.2326239
40
0.5286768
50
7.8928306
51
20.2962107
0
ARC
8
DEFAULT_255_1_234
10
13.1819075
20
15.2926395
40
0.3552073
50
20.3231126
51
36.4992797
0
ARC
8
DEFAULT_255_1_234
10
13.2504621
20
15.3454402
40
0.2686974
50
36.1437156
51
85.6627023
0
ARC
8
DEFAULT_255_1_234
10
13.2342167
20
15.2414221
40
0.373739
50
84.3852322
51
90.0757696
0
ARC
8
DEFAULT_255_1_234
10
13.2299839
20
15.3074839
40
0.3076997
50
89.3038458
51
109.9045693
0
ARC
8
DEFAULT_255_1_234
10
13.220723
20
15.3457062
40
0.2686424
50
110.8228367
51
143.9179474
0
ARC
8
DEFAULT_255_1_234
10
13.3140891
20
15.2744236
40
0.3860887
50
143.5289163
51
163.2980757
0
ARC
8
DEFAULT_255_1_234
10
13.5048712
20
15.2144433
40
0.5860659
50
163.0418846
51
174.3140048
0
ARC
8
DEFAULT_255_1_234
10
13.7452824
20
15.1866854
40
0.8280531
50
174.0509143
51
179.4176892
0
ARC
8
DEFAULT_255_1_234
10
13.6948562
20
15.1049954
40
0.7775954
50
179.6930361
51
188.7906598
0
ARC
8
DEFAULT_255_1_234
10
13.4285041
20
15.0623935
40
0.5078633
50
188.6331305
51
202.5629587
0
ARC
8
DEFAULT_255_1_234
10
13.3030633
20
15.0119996
40
0.3726913
50
202.8081362
51
216.1193925
0
ARC
8
DEFAULT_255_1_234
10
13.2221204
20
14.9468676
40
0.2689577
50
215.0755913
51
264.6379694
0
ARC
8
DEFAULT_255_1_234
10
13.2348153
20
15.0299513
40
0.3528978
50
263.846392
51
270.0833719
0
ARC
8
DEFAULT_255_1_234
10
13.2389543
20
15.0041374
40
0.3271036
50
269.3649385
51
287.5152008
0
ARC
8
DEFAULT_255_1_234
10
13.2567701
20
14.9394238
40
0.2600406
50
288.0630309
51
323.8113348
0
ARC
8
DEFAULT_255_1_234
10
13.1696543
20
15.0044049
40
0.3687189
50
323.6547608
51
342.6590488
0
ARC
8
DEFAULT_255_1_234
10
12.9665158
20
15.0704952
40
0.5823286
50
342.4091907
51
353.6451149
0
ARC
8
DEFAULT_255_1_234
10
12.6833669
20
15.105719
40
0.8676442
50
353.4029884
51
359.4847795
0
LINE
8
DEFAULT_255_1_234
10
14.7991083
20
15.144501
11
14.7991083
21
14.7156062
0
LINE
8
DEFAULT_255_1_234
10
13.8979472
20
15.0906884
11
13.8979472
21
15.1926915
0
LINE
8
DEFAULT_255_1_234
10
14.7991083
20
15.3886659
11
14.6448989
21
15.3886659
0
LINE
8
DEFAULT_255_1_234
10
14.0529598
20
15.1967073
11
14.0529598
21
15.1011296
0
LINE
8
DEFAULT_255_1_234
10
14.6457021
20
14.7565681
11
14.6457021
21
15.0192059
0
LINE
8
DEFAULT_255_1_234
10
14.6457021
20
15.0192059
11
14.3750325
21
15.0192059
0
LINE
8
DEFAULT_255_1_234
10
14.3750325
20
15.0192059
11
14.3750325
21
15.144501
0
LINE
8
DEFAULT_255_1_234
10
14.3750325
20
15.144501
11
14.7991083
21
15.144501
0
ARC
8
DEFAULT_255_1_234
10
14.5159589
20
14.9149396
40
0.3462765
50
295.8437914
51
324.8549609
0
ARC
8
DEFAULT_255_1_234
10
14.4743556
20
14.9902567
40
0.4322211
50
291.5695085
51
296.4549398
0
ARC
8
DEFAULT_255_1_234
10
14.4232808
20
15.1267275
40
0.5779178
50
278.6622409
51
291.3045483
0
ARC
8
DEFAULT_255_1_234
10
14.3893299
20
15.3415408
40
0.7953952
50
270.020006
51
278.7494541
0
ARC
8
DEFAULT_255_1_234
10
14.3855223
20
15.4732036
40
0.927067
50
269.9969998
51
270.2524872
0
ARC
8
DEFAULT_255_1_234
10
14.3816936
20
15.0648589
40
0.5187361
50
253.5786322
51
270.4175299
0
ARC
8
DEFAULT_255_1_234
10
14.3643592
20
14.9977236
40
0.4494451
50
238.8203306
51
253.2788235
0
ARC
8
DEFAULT_255_1_234
10
14.3623965
20
14.9926231
40
0.4440665
50
206.7883783
51
238.6962764
0
ARC
8
DEFAULT_255_1_234
10
14.4397875
20
15.0390405
40
0.5341121
50
206.1129412
51
207.4916643
0
ARC
8
DEFAULT_255_1_234
10
14.499479
20
15.0644488
40
0.5989041
50
188.6921119
51
205.7821245
0
ARC
8
DEFAULT_255_1_234
10
14.6851152
20
15.096023
40
0.7871862
50
180.3882829
51
188.9219216
0
ARC
8
DEFAULT_255_1_234
10
14.8078966
20
15.1983464
40
0.909967
50
170.2024264
51
180.3560651
0
ARC
8
DEFAULT_255_1_234
10
14.4915484
20
15.2549237
40
0.5886083
50
154.2857445
51
170.3893044
0
ARC
8
DEFAULT_255_1_234
10
14.3633687
20
15.313595
40
0.4476743
50
139.8401567
51
153.9332699
0
ARC
8
DEFAULT_255_1_234
10
14.3274423
20
15.3423577
40
0.4016697
50
98.4190291
51
139.6707122
0
ARC
8
DEFAULT_255_1_234
10
14.3653941
20
15.1578328
40
0.5898566
50
89.7659205
51
99.4415478
0
ARC
8
DEFAULT_255_1_234
10
14.3719191
20
15.1643844
40
0.5833147
50
78.0551672
51
90.4042112
0
ARC
8
DEFAULT_255_1_234
10
14.41237
20
15.3462644
40
0.3970055
50
54.6380464
51
78.3339173
0
ARC
8
DEFAULT_255_1_234
10
14.4313756
20
15.3782795
40
0.3599102
50
50.031736
51
54.1558201
0
ARC
8
DEFAULT_255_1_234
10
14.4206544
20
15.3686766
40
0.3741624
50
18.1092409
51
49.7180913
0
ARC
8
DEFAULT_255_1_234
10
14.2749744
20
15.3153089
40
0.5292424
50
7.9672797
51
18.6984571
0
ARC
8
DEFAULT_255_1_234
10
14.2900222
20
15.3276504
40
0.3600838
50
9.7557294
51
27.3215714
0
ARC
8
DEFAULT_255_1_234
10
14.4027694
20
15.3839912
40
0.2340608
50
27.7361077
51
84.5257964
0
ARC
8
DEFAULT_255_1_234
10
14.3700081
20
15.219664
40
0.4011215
50
82.106034
51
90.2001166
0
ARC
8
DEFAULT_255_1_234
10
14.3650298
20
15.2704215
40
0.3503799
50
89.4150119
51
105.5823402
0
ARC
8
DEFAULT_255_1_234
10
14.3393296
20
15.3639867
40
0.2533503
50
105.6678618
51
144.2648758
0
ARC
8
DEFAULT_255_1_234
10
14.4286551
20
15.3004289
40
0.3629787
50
144.3561283
51
162.8564086
0
ARC
8
DEFAULT_255_1_234
10
14.6370461
20
15.2335017
40
0.5818441
50
162.6076014
51
173.6780284
0
ARC
8
DEFAULT_255_1_234
10
14.9431604
20
15.196289
40
0.8902007
50
173.4670142
51
179.9730753
0
ARC
8
DEFAULT_255_1_234
10
14.7523275
20
15.096926
40
0.6993804
50
179.6556203
51
190.0080463
0
ARC
8
DEFAULT_255_1_234
10
14.5207104
20
15.0544375
40
0.4639066
50
189.8116607
51
206.6796816
0
ARC
8
DEFAULT_255_1_234
10
14.4362256
20
15.0150503
40
0.3707421
50
207.1031645
51
217.7074368
0
ARC
8
DEFAULT_255_1_234
10
14.3727945
20
14.9598559
40
0.2868417
50
216.7345547
51
265.6812148
0
ARC
8
DEFAULT_255_1_234
10
14.3858736
20
15.0502855
40
0.3780509
50
264.7366618
51
270.0611241
0
ARC
8
DEFAULT_255_1_234
10
14.3881999
20
15.3343111
40
0.662079
50
269.8335834
51
276.0539546
0
ARC
8
DEFAULT_255_1_234
10
14.4089004
20
15.144156
40
0.4708016
50
275.9894168
51
284.4615085
0
ARC
8
DEFAULT_255_1_234
10
14.4287011
20
15.0608663
40
0.3852094
50
284.7034461
51
286.4953897
0
ARC
8
DEFAULT_255_1_234
10
14.4694024
20
14.9297965
40
0.2479842
50
286.0770838
51
304.2625829
0
ARC
8
DEFAULT_255_1_234
10
14.4827438
20
14.9079594
40
0.2224291
50
304.5891602
51
317.1073298
0
LINE
8
DEFAULT_255_1_234
10
15.9556786
20
15.1830534
11
15.9556786
21
15.1091614
0
LINE
8
DEFAULT_255_1_234
10
15.015162
20
15.0987201
11
15.015162
21
15.1830534
0
LINE
8
DEFAULT_255_1_234
10
15.8022724
20
15.0979169
11
15.8022724
21
15.1846597
0
LINE
8
DEFAULT_255_1_234
10
15.1685682
20
15.195101
11
15.1685682
21
15.1091614
0
ARC
8
DEFAULT_255_1_234
10
15.0914812
20
15.1052015
40
0.8642064
50
350.487711
51
0.2625388
0
ARC
8
DEFAULT_255_1_234
10
15.3208053
20
15.0657578
40
0.631518
50
336.0277639
51
350.5787438
0
ARC
8
DEFAULT_255_1_234
10
15.4552877
20
15.0049892
40
0.4839466
50
319.8877444
51
336.1328423
0
ARC
8
DEFAULT_255_1_234
10
15.5155518
20
14.956758
40
0.4067874
50
302.4806467
51
319.6143626
0
ARC
8
DEFAULT_255_1_234
10
15.5040528
20
14.9789202
40
0.4316636
50
275.8195682
51
302.1884709
0
ARC
8
DEFAULT_255_1_234
10
15.4874161
20
15.0931665
40
0.5470306
50
269.9171439
51
276.3397983
0
ARC
8
DEFAULT_255_1_234
10
15.4829371
20
15.0245681
40
0.4784458
50
252.5219675
51
270.4416499
0
ARC
8
DEFAULT_255_1_234
10
15.468563
20
14.9706592
40
0.422716
50
237.5352116
51
252.1857531
0
ARC
8
DEFAULT_255_1_234
10
15.4774826
20
14.9820363
40
0.4371052
50
209.063312
51
237.3492538
0
ARC
8
DEFAULT_255_1_234
10
15.5644674
20
15.0366685
40
0.5397041
50
205.1183774
51
209.6470015
0
ARC
8
DEFAULT_255_1_234
10
15.6441711
20
15.070483
40
0.6262326
50
188.7215458
51
204.8240747
0
ARC
8
DEFAULT_255_1_234
10
15.8439239
20
15.1041067
40
0.8287794
50
180.3723947
51
188.9252049
0
ARC
8
DEFAULT_255_1_234
10
15.8411991
20
15.1870402
40
0.8260467
50
169.5253763
51
180.2765336
0
ARC
8
DEFAULT_255_1_234
10
15.6509439
20
15.2220309
40
0.6326007
50
155.8315255
51
169.5089989
0
ARC
8
DEFAULT_255_1_234
10
15.5228941
20
15.2814348
40
0.4914567
50
139.6258461
51
156.0379525
0
ARC
8
DEFAULT_255_1_234
10
15.4639274
20
15.3288799
40
0.4158054
50
122.6416387
51
139.3430715
0
ARC
8
DEFAULT_255_1_234
10
15.4739894
20
15.3105451
40
0.4366739
50
93.0223692
51
122.455762
0
ARC
8
DEFAULT_255_1_234
10
15.4847891
20
15.2140709
40
0.5336137
50
89.975342
51
93.6341897
0
ARC
8
DEFAULT_255_1_234
10
15.488667
20
15.2539242
40
0.4937738
50
73.746375
51
90.4233405
0
ARC
8
DEFAULT_255_1_234
10
15.5062248
20
15.3219287
40
0.4235786
50
57.662753
51
73.4518111
0
ARC
8
DEFAULT_255_1_234
10
15.5054255
20
15.3240832
40
0.4221899
50
29.1440151
51
57.414694
0
ARC
8
DEFAULT_255_1_234
10
15.4119449
20
15.2657005
40
0.5322966
50
24.0982783
51
29.7323517
0
ARC
8
DEFAULT_255_1_234
10
15.3085725
20
15.2228399
40
0.6441673
50
8.6655297
51
23.8241346
0
ARC
8
DEFAULT_255_1_234
10
15.0851463
20
15.1863854
40
0.8705386
50
359.7806941
51
8.8218784
0
ARC
8
DEFAULT_255_1_234
10
14.9704461
20
15.1889345
40
0.8318373
50
359.7055579
51
8.036044
0
ARC
8
DEFAULT_255_1_234
10
15.2704467
20
15.2326239
40
0.5286768
50
7.8928306
51
20.2962107
0
ARC
8
DEFAULT_255_1_234
10
15.4332037
20
15.2926395
40
0.3552073
50
20.3231126
51
36.4992797
0
ARC
8
DEFAULT_255_1_234
10
15.5017583
20
15.3454402
40
0.2686974
50
36.1437156
51
85.6627023
0
ARC
8
DEFAULT_255_1_234
10
15.4855129
20
15.2414221
40
0.373739
50
84.3852322
51
90.0757696
0
ARC
8
DEFAULT_255_1_234
10
15.4812802
20
15.3074839
40
0.3076997
50
89.3038458
51
109.9045693
0
ARC
8
DEFAULT_255_1_234
10
15.4720193
20
15.3457062
40
0.2686424
50
110.8228367
51
143.9179474
0
ARC
8
DEFAULT_255_1_234
10
15.5653853
20
15.2744236
40
0.3860887
50
143.5289163
51
163.2980757
0
ARC
8
DEFAULT_255_1_234
10
15.7561674
20
15.2144433
40
0.5860659
50
163.0418846
51
174.3140048
0
ARC
8
DEFAULT_255_1_234
10
15.9965786
20
15.1866854
40
0.8280531
50
174.0509143
51
179.4176892
0
ARC
8
DEFAULT_255_1_234
10
15.9461525
20
15.1049954
40
0.7775954
50
179.6930361
51
188.7906598
0
ARC
8
DEFAULT_255_1_234
10
15.6798004
20
15.0623935
40
0.5078633
50
188.6331305
51
202.5629587
0
ARC
8
DEFAULT_255_1_234
10
15.5543596
20
15.0119996
40
0.3726913
50
202.8081362
51
216.1193925
0
ARC
8
DEFAULT_255_1_234
10
15.4734166
20
14.9468676
40
0.2689577
50
215.0755913
51
264.6379694
0
ARC
8
DEFAULT_255_1_234
10
15.4861115
20
15.0299513
40
0.3528978
50
263.846392
51
270.0833719
0
ARC
8
DEFAULT_255_1_234
10
15.4902506
20
15.0041374
40
0.3271036
50
269.3649385
51
287.5152008
0
ARC
8
DEFAULT_255_1_234
10
15.5080663
20
14.9394238
40
0.2600406
50
288.0630309
51
323.8113348
0
ARC
8
DEFAULT_255_1_234
10
15.4209505
20
15.0044049
40
0.3687189
50
323.6547608
51
342.6590488
0
ARC
8
DEFAULT_255_1_234
10
15.217812
20
15.0704952
40
0.5823286
50
342.4091907
51
353.6451149
0
ARC
8
DEFAULT_255_1_234
10
14.9346631
20
15.105719
40
0.8676442
50
353.4029884
51
359.4847795
0
LINE
8
DEFAULT_255_1_234
10
16.341202
20
15.7316211
11
16.3299576
21
14.8923044
0
LINE
8
DEFAULT_255_1_234
10
16.3299576
20
14.8923044
11
16.1958275
21
14.8923044
0
LINE
8
DEFAULT_255_1_234
10
16.1958275
20
14.8923044
11
16.1853863
21
15.7316211
0
LINE
8
DEFAULT_255_1_234
10
16.1853863
20
15.7316211
11
16.341202
21
15.7316211
0
ARC
8
DEFAULT_255_1_234
10
16.2774289
20
14.6378156
40
0.0976691
50
162.1584895
51
180.5399622
0
ARC
8
DEFAULT_255_1_234
10
16.2632718
20
14.6417022
40
0.0830046
50
137.728464
51
161.7182334
0
ARC
8
DEFAULT_255_1_234
10
16.2537217
20
14.6500242
40
0.0703406
50
105.057597
51
137.5118876
0
ARC
8
DEFAULT_255_1_234
10
16.2647566
20
14.6128557
40
0.1091042
50
92.0805836
51
105.5827737
0
ARC
8
DEFAULT_255_1_234
10
16.2672453
20
14.5769307
40
0.1451008
50
89.9744466
51
92.5476359
0
ARC
8
DEFAULT_255_1_234
10
16.2682541
20
14.5997095
40
0.1223258
50
78.2146798
51
90.4421891
0
ARC
8
DEFAULT_255_1_234
10
16.2775019
20
14.6420168
40
0.0790225
50
56.0837456
51
78.5132969
0
ARC
8
DEFAULT_255_1_234
10
16.2831256
20
14.6516385
40
0.0679038
50
42.5241188
51
55.4914579
0
ARC
8
DEFAULT_255_1_234
10
16.2707253
20
14.6401587
40
0.0848021
50
2.397718
51
42.5776288
0
ARC
8
DEFAULT_255_1_234
10
16.2446158
20
14.6369488
40
0.1110431
50
359.9723047
51
3.4889367
0
ARC
8
DEFAULT_255_1_234
10
16.260322
20
14.6359914
40
0.0953415
50
342.7087048
51
0.5431316
0
ARC
8
DEFAULT_255_1_234
10
16.2761655
20
14.6316415
40
0.078923
50
316.2433759
51
342.3051481
0
ARC
8
DEFAULT_255_1_234
10
16.2814921
20
14.6269433
40
0.0718269
50
285.532829
51
316.0116862
0
ARC
8
DEFAULT_255_1_234
10
16.2702751
20
14.663961
40
0.1105001
50
272.5953665
51
285.9965648
0
ARC
8
DEFAULT_255_1_234
10
16.2673951
20
14.7018567
40
0.1484917
50
269.9671508
51
273.0433633
0
ARC
8
DEFAULT_255_1_234
10
16.2664036
20
14.6800848
40
0.126723
50
259.0265948
51
270.4098411
0
ARC
8
DEFAULT_255_1_234
10
16.2573835
20
14.6355941
40
0.0813296
50
239.413751
51
259.2986253
0
ARC
8
DEFAULT_255_1_234
10
16.2500669
20
14.6220327
40
0.065935
50
223.0077841
51
238.8907076
0
ARC
8
DEFAULT_255_1_234
10
16.2615621
20
14.6325716
40
0.0815295
50
184.7848311
51
222.9135279
0
ARC
8
DEFAULT_255_1_234
10
16.2890995
20
14.6367526
40
0.1093355
50
179.925276
51
185.7644975
0
LINE
8
DEFAULT_255_1_234
10
4.2415489
20
13.7473211
11
4.2415489
21
12.7039983
0
LINE
8
DEFAULT_255_1_234
10
4.2415489
20
12.7039983
11
4.7957389
21
12.7039983
0
LINE
8
DEFAULT_255_1_234
10
4.7957389
20
12.7039983
11
4.7957389
21
12.5779
0
LINE
8
DEFAULT_255_1_234
10
4.7957389
20
12.5779
11
4.0865364
21
12.5779
0
LINE
8
DEFAULT_255_1_234
10
4.0865364
20
12.5779
11
4.0865364
21
13.7473211
0
LINE
8
DEFAULT_255_1_234
10
4.0865364
20
13.7473211
11
4.2415489
21
13.7473211
0
LINE
8
DEFAULT_255_1_234
10
5.4214113
20
13.7529433
11
5.4214113
21
12.5779
0
LINE
8
DEFAULT_255_1_234
10
5.4214113
20
12.5779
11
5.2720209
21
12.5779
0
LINE
8
DEFAULT_255_1_234
10
5.2720209
20
12.5779
11
5.2720209
21
13.5682133
0
LINE
8
DEFAULT_255_1_234
10
5.2720209
20
13.5682133
11
4.9724371
21
13.4581785
0
LINE
8
DEFAULT_255_1_234
10
4.9724371
20
13.4581785
11
4.9724371
21
13.5931117
0
LINE
8
DEFAULT_255_1_234
10
4.9724371
20
13.5931117
11
5.3981192
21
13.7529433
0
LINE
8
DEFAULT_255_1_234
10
5.3981192
20
13.7529433
11
5.4214113
21
13.7529433
0
LINE
8
DEFAULT_255_1_234
10
4.9461879
20
5.8098211
11
4.9461879
21
4.6404
0
LINE
8
DEFAULT_255_1_234
10
4.9461879
20
4.6404
11
4.7911753
21
4.6404
0
LINE
8
DEFAULT_255_1_234
10
4.7911753
20
4.6404
11
4.2024489
21
5.541561
0
LINE
8
DEFAULT_255_1_234
10
4.2024489
20
5.541561
11
4.2024489
21
4.6404
0
LINE
8
DEFAULT_255_1_234
10
4.2024489
20
4.6404
11
4.0474364
21
4.6404
0
LINE
8
DEFAULT_255_1_234
10
4.0474364
20
4.6404
11
4.0474364
21
5.8098211
0
LINE
8
DEFAULT_255_1_234
10
4.0474364
20
5.8098211
11
4.2024489
21
5.8098211
0
LINE
8
DEFAULT_255_1_234
10
4.2024489
20
5.8098211
11
4.7927817
21
4.9046442
0
LINE
8
DEFAULT_255_1_234
10
4.7927817
20
4.9046442
11
4.7927817
21
5.8098211
0
LINE
8
DEFAULT_255_1_234
10
4.7927817
20
5.8098211
11
4.9461879
21
5.8098211
0
LINE
8
DEFAULT_255_1_234
10
24.0163265
20
13.5465276
11
24.0163265
21
13.2051788
0
LINE
8
DEFAULT_255_1_234
10
24.0163265
20
13.2051788
11
24.342415
21
13.2051788
0
LINE
8
DEFAULT_255_1_234
10
24.342415
20
13.2051788
11
24.342415
21
13.0646233
0
LINE
8
DEFAULT_255_1_234
10
24.342415
20
13.0646233
11
24.0163265
21
13.0646233
0
LINE
8
DEFAULT_255_1_234
10
24.0163265
20
13.0646233
11
24.0163265
21
12.6951634
0
LINE
8
DEFAULT_255_1_234
10
24.0163265
20
12.6951634
11
23.8669361
21
12.6951634
0
LINE
8
DEFAULT_255_1_234
10
23.8669361
20
12.6951634
11
23.8669361
21
13.0646233
0
LINE
8
DEFAULT_255_1_234
10
23.8669361
20
13.0646233
11
23.5408476
21
13.0646233
0
LINE
8
DEFAULT_255_1_234
10
23.5408476
20
13.0646233
11
23.5408476
21
13.2051788
0
LINE
8
DEFAULT_255_1_234
10
23.5408476
20
13.2051788
11
23.8669361
21
13.2051788
0
LINE
8
DEFAULT_255_1_234
10
23.8669361
20
13.2051788
11
23.8669361
21
13.5465276
0
LINE
8
DEFAULT_255_1_234
10
23.8669361
20
13.5465276
11
24.0163265
21
13.5465276
0
LINE
8
DEFAULT_255_1_234
10
24.2449663
20
5.1978026
11
24.2449663
21
5.0765234
0
LINE
8
DEFAULT_255_1_234
10
24.2449663
20
5.0765234
11
23.8530174
21
5.0765234
0
LINE
8
DEFAULT_255_1_234
10
23.8530174
20
5.0765234
11
23.8530174
21
5.1978026
0
LINE
8
DEFAULT_255_1_234
10
23.8530174
20
5.1978026
11
24.2449663
21
5.1978026
0
ENDSEC
0
EOF