0
SECTION
2
HEADER
9
$MEASUREMENT
70
1
0
ENDSEC
0
SECTION
2
TABLES
0
TABLE
2
LTYPE
0
LTYPE
72
65
70
64
2
CONTINUOUS
3
______
73
0
40
0
0
ENDTAB
0
TABLE
2
LAYER
0
LAYER
2
DEFAULT_255_2_778
70
0
62
255
6
CONTINUOUS
0
ENDTAB
0
ENDSEC
0
SECTION
2
ENTITIES
0
ARC
8
DEFAULT_255_2_778
10
57.0659463
20
66.4053036
40
0.5001427
50
3.560937
51
87.4929866
0
ARC
8
DEFAULT_255_2_778
10
49.5064357
20
67.7366149
40
0.5001321
50
183.8346422
51
267.4774236
0
ARC
8
DEFAULT_255_2_778
10
47.6323729
20
78.268188
40
0.5000549
50
5.6210376
51
88.4816045
0
ARC
8
DEFAULT_255_2_778
10
32.1373444
20
79.6743977
40
0.500105
50
186.1561143
51
268.485126
0
ARC
8
DEFAULT_255_2_778
10
29.9514266
20
89.2562728
40
0.5001949
50
7.8590231
51
89.9774573
0
ARC
8
DEFAULT_255_2_778
10
1.1871676
20
78.4478973
40
1.0001443
50
113.7462129
51
180.0017084
0
ARC
8
DEFAULT_255_2_778
10
1.1875052
20
60.1474753
40
1.000501
50
242.9187388
51
266.9759361
0
ARC
8
DEFAULT_255_2_778
10
2.1861113
20
25.7985882
40
1.9983928
50
119.9930987
51
164.5942357
0
ARC
8
DEFAULT_255_2_778
10
1.1875987
20
0.77481
40
1.0010426
50
249.8782162
51
269.9727914
0
ARC
8
DEFAULT_255_2_778
10
29.9516316
20
0.2563746
40
0.5000071
50
269.9990599
51
352.1250073
0
ARC
8
DEFAULT_255_2_778
10
32.1375567
20
9.8387351
40
0.5000073
50
91.5165898
51
173.8539514
0
ARC
8
DEFAULT_255_2_778
10
47.63258
20
11.2449496
40
0.5001575
50
271.5172793
51
354.3683079
0
ARC
8
DEFAULT_255_2_778
10
-292.5720162
20
44.6857664
40
342.3442935
50
354.4704487
51
356.1685653
0
ARC
8
DEFAULT_255_2_778
10
49.5060776
20
21.7764749
40
0.5000704
50
92.5047615
51
176.1711776
0
ARC
8
DEFAULT_255_2_778
10
57.0658102
20
23.1076711
40
0.4999753
50
272.4890532
51
356.4447939
0
ARC
8
DEFAULT_255_2_778
10
-292.474858
20
44.754902
40
350.710256
50
356.5384
51
359.9999881
0
ARC
8
DEFAULT_255_2_778
10
-292.4609817
20
44.7548411
40
350.6963797
50
359.9999981
51
0.3762378
0
ARC
8
DEFAULT_255_2_778
10
-292.4687854
20
44.7548103
40
350.7041834
50
0.3762344
51
1.2928284
0
LINE
8
DEFAULT_255_2_778
10
58.0575234
20
58.7261675
11
58.0561234
21
58.7565675
0
LINE
8
DEFAULT_255_2_778
10
58.0561234
20
58.7565675
11
57.9963234
21
60.1831675
0
LINE
8
DEFAULT_255_2_778
10
57.9963234
20
60.1831675
11
57.9744234
21
60.6758675
0
LINE
8
DEFAULT_255_2_778
10
57.9744234
20
60.6758675
11
57.7834234
21
64.4376675
0
LINE
8
DEFAULT_255_2_778
10
57.7834234
20
64.4376675
11
57.7355234
21
65.2721675
0
LINE
8
DEFAULT_255_2_778
10
57.7355234
20
65.2721675
11
57.6352234
21
65.2721675
0
LINE
8
DEFAULT_255_2_778
10
57.6352234
20
65.2721675
11
57.5958234
21
65.9338675
0
LINE
8
DEFAULT_255_2_778
10
57.5958234
20
65.9338675
11
57.5741234
21
66.2884675
0
LINE
8
DEFAULT_255_2_778
10
57.5741234
20
66.2884675
11
57.5651234
21
66.4363675
0
LINE
8
DEFAULT_255_2_778
10
57.0878234
20
66.9049675
11
49.4844234
21
67.2369675
0
LINE
8
DEFAULT_255_2_778
10
49.0074234
20
67.7031675
11
48.3801234
21
75.7361675
0
LINE
8
DEFAULT_255_2_778
10
48.3801234
20
75.7361675
11
48.4639234
21
75.7345675
0
LINE
8
DEFAULT_255_2_778
10
48.4639234
20
75.7345675
11
48.4621234
21
75.7554675
0
LINE
8
DEFAULT_255_2_778
10
48.4621234
20
75.7554675
11
48.4560234
21
75.8237675
0
LINE
8
DEFAULT_255_2_778
10
48.4560234
20
75.8237675
11
48.4541234
21
75.8446675
0
LINE
8
DEFAULT_255_2_778
10
48.4541234
20
75.8446675
11
48.4377234
21
76.0171675
0
LINE
8
DEFAULT_255_2_778
10
48.4377234
20
76.0171675
11
48.2806234
21
77.7867675
0
LINE
8
DEFAULT_255_2_778
10
48.2806234
20
77.7867675
11
48.2808234
21
77.8248675
0
LINE
8
DEFAULT_255_2_778
10
48.2808234
20
77.8248675
11
48.1782234
21
77.8248675
0
LINE
8
DEFAULT_255_2_778
10
48.1782234
20
77.8248675
11
48.1300234
21
78.3171675
0
LINE
8
DEFAULT_255_2_778
10
47.6456234
20
78.7680675
11
32.1241234
21
79.1744675
0
LINE
8
DEFAULT_255_2_778
10
31.6401234
20
79.6207675
11
30.7919234
21
86.7529675
0
LINE
8
DEFAULT_255_2_778
10
30.7919234
20
86.7529675
11
30.9506234
21
86.7539675
0
LINE
8
DEFAULT_255_2_778
10
30.9506234
20
86.7539675
11
30.7567234
21
88.4562675
0
LINE
8
DEFAULT_255_2_778
10
30.7567234
20
88.4562675
11
30.5659234
21
88.4552675
0
LINE
8
DEFAULT_255_2_778
10
30.5659234
20
88.4552675
11
30.5157234
21
88.8240675
0
LINE
8
DEFAULT_255_2_778
10
30.5157234
20
88.8240675
11
30.4672234
21
89.1770675
0
LINE
8
DEFAULT_255_2_778
10
30.4672234
20
89.1770675
11
30.4469234
21
89.3246675
0
LINE
8
DEFAULT_255_2_778
10
29.9516234
20
89.7564675
11
10.7370234
21
89.7564675
0
LINE
8
DEFAULT_255_2_778
10
10.7370234
20
89.7564675
11
10.7370234
21
89.6564675
0
LINE
8
DEFAULT_255_2_778
10
10.7370234
20
89.6564675
11
9.8369234
21
89.6564675
0
LINE
8
DEFAULT_255_2_778
10
9.8369234
20
89.6564675
11
9.8369234
21
89.7564675
0
LINE
8
DEFAULT_255_2_778
10
9.8369234
20
89.7564675
11
2.2357234
21
89.6900675
0
LINE
8
DEFAULT_255_2_778
10
2.2357234
20
89.6900675
11
2.0949234
21
88.6888675
0
LINE
8
DEFAULT_255_2_778
10
2.0949234
20
88.6888675
11
0.7844234
21
79.3633675
0
LINE
8
DEFAULT_255_2_778
10
0.1870234
20
78.4478675
11
0.1870234
21
75.1120675
0
LINE
8
DEFAULT_255_2_778
10
0.1870234
20
75.1120675
11
0.1370234
21
74.7564675
0
LINE
8
DEFAULT_255_2_778
10
0.1370234
20
74.7564675
11
0.1370234
21
62.3564675
0
LINE
8
DEFAULT_255_2_778
10
0.1370234
20
62.3564675
11
0.1370234
21
59.2566675
0
LINE
8
DEFAULT_255_2_778
10
0.1370234
20
59.2566675
11
0.7320234
21
59.2566675
0
LINE
8
DEFAULT_255_2_778
10
1.1347234
20
59.1483675
11
2.6878234
21
59.0669675
0
LINE
8
DEFAULT_255_2_778
10
2.6878234
20
59.0669675
11
2.8871234
21
59.0565675
0
LINE
8
DEFAULT_255_2_778
10
2.8871234
20
59.0565675
11
3.1443234
21
59.0430675
0
LINE
8
DEFAULT_255_2_778
10
3.1443234
20
59.0430675
11
4.0245234
21
62.1371675
0
LINE
8
DEFAULT_255_2_778
10
4.0245234
20
62.1371675
11
5.1368234
21
62.1564675
0
LINE
8
DEFAULT_255_2_778
10
5.1368234
20
62.1564675
11
5.1368234
21
28.2564675
0
LINE
8
DEFAULT_255_2_778
10
5.1368234
20
28.2564675
11
5.1368234
21
27.6563675
0
LINE
8
DEFAULT_255_2_778
10
5.1368234
20
27.6563675
11
4.1370234
21
27.6738675
0
LINE
8
DEFAULT_255_2_778
10
4.1370234
20
27.6738675
11
3.9774234
21
28.2696675
0
LINE
8
DEFAULT_255_2_778
10
3.9774234
20
28.2696675
11
3.8454234
21
28.7625675
0
LINE
8
DEFAULT_255_2_778
10
3.8454234
20
28.7625675
11
3.3149234
21
28.7578675
0
LINE
8
DEFAULT_255_2_778
10
3.3149234
20
28.7578675
11
2.8871234
21
28.5109675
0
LINE
8
DEFAULT_255_2_778
10
2.8871234
20
28.5109675
11
1.1871234
21
27.5293675
0
LINE
8
DEFAULT_255_2_778
10
0.2595234
20
26.3294675
11
0.1373234
21
26.3188675
0
LINE
8
DEFAULT_255_2_778
10
0.1373234
20
26.3188675
11
0.1373234
21
0.8408675
0
LINE
8
DEFAULT_255_2_778
10
0.1373234
20
0.8408675
11
0.1373234
21
-0.1590325
0
LINE
8
DEFAULT_255_2_778
10
0.1373234
20
-0.1590325
11
0.8432234
21
-0.1651325
0
LINE
8
DEFAULT_255_2_778
10
1.1871234
20
-0.2262325
11
2.6876234
21
-0.2262325
0
LINE
8
DEFAULT_255_2_778
10
2.6876234
20
-0.2262325
11
2.8868234
21
-0.2262325
0
LINE
8
DEFAULT_255_2_778
10
2.8868234
20
-0.2262325
11
3.0850234
21
-0.2262325
0
LINE
8
DEFAULT_255_2_778
10
3.0850234
20
-0.2262325
11
5.1368234
21
-0.2026325
0
LINE
8
DEFAULT_255_2_778
10
5.1368234
20
-0.2026325
11
9.8369234
21
-0.2436325
0
LINE
8
DEFAULT_255_2_778
10
9.8369234
20
-0.2436325
11
9.8369234
21
-0.1436325
0
LINE
8
DEFAULT_255_2_778
10
9.8369234
20
-0.1436325
11
10.7370234
21
-0.1436325
0
LINE
8
DEFAULT_255_2_778
10
10.7370234
20
-0.1436325
11
10.7370234
21
-0.2436325
0
LINE
8
DEFAULT_255_2_778
10
10.7370234
20
-0.2436325
11
29.9516234
21
-0.2436325
0
LINE
8
DEFAULT_255_2_778
10
30.4469234
20
0.1878675
11
30.4672234
21
0.3354675
0
LINE
8
DEFAULT_255_2_778
10
30.4672234
20
0.3354675
11
30.5157234
21
0.6887675
0
LINE
8
DEFAULT_255_2_778
10
30.5157234
20
0.6887675
11
31.6404234
21
9.8922675
0
LINE
8
DEFAULT_255_2_778
10
32.1243234
20
10.3385675
11
47.6458234
21
10.7449675
0
LINE
8
DEFAULT_255_2_778
10
48.1303234
20
11.1958675
11
48.1449234
21
11.3434675
0
LINE
8
DEFAULT_255_2_778
10
48.1449234
20
11.3434675
11
48.1792234
21
11.6977675
0
LINE
8
DEFAULT_255_2_778
10
49.4842234
20
22.2760675
11
57.0875234
21
22.6081675
0
LINE
8
DEFAULT_255_2_778
10
57.5648234
20
23.0766675
11
57.5738234
21
23.2243675
0
LINE
8
DEFAULT_255_2_778
10
57.5738234
20
23.2243675
11
57.5955234
21
23.5791675
0
LINE
8
DEFAULT_255_2_778
10
58.1461234
20
52.6674675
11
58.1030234
21
54.3888675
0
LINE
8
DEFAULT_255_2_778
10
58.1030234
20
54.3888675
11
57.9569234
21
58.7261675
0
LINE
8
DEFAULT_255_2_778
10
57.9569234
20
58.7261675
11
58.0569234
21
58.7261675
0
LINE
8
DEFAULT_255_2_778
10
58.0569234
20
58.7261675
11
58.0569234
21
58.7261675
0
ARC
8
DEFAULT_255_2_778
10
48.983034
20
-105.4852822
40
129.3487197
50
86.514423
51
86.6250058
0
ARC
8
DEFAULT_255_2_778
10
50.1504084
20
-86.3173383
40
110.1452606
50
86.3844691
51
86.5143482
0
LINE
8
DEFAULT_255_2_778
10
57.096284
20
23.6086972
11
56.597884
21
23.6390972
0
LINE
8
DEFAULT_255_2_778
10
57.096284
20
23.6086972
11
57.096284
21
23.6086972
0
LINE
8
DEFAULT_255_2_778
10
10.737084
20
1.6265972
11
10.737084
21
35.7562972
0
LINE
8
DEFAULT_255_2_778
10
10.737084
20
53.7563972
11
10.737084
21
35.7562972
0
LINE
8
DEFAULT_255_2_778
10
10.7371
20
35.7563
11
10.7371
21
35.7563
0
LINE
8
DEFAULT_255_2_778
10
10.737045
20
53.7563649
11
23.236745
21
52.2564649
0
LINE
8
DEFAULT_255_2_778
10
23.236745
20
52.2564649
11
23.236745
21
37.2564649
0
LINE
8
DEFAULT_255_2_778
10
23.236745
20
37.2564649
11
10.737045
21
35.7565649
0
LINE
8
DEFAULT_255_2_778
10
10.737045
20
87.8860649
11
10.737045
21
53.7563649
0
LINE
8
DEFAULT_255_2_778
10
10.7370138
20
53.7563943
11
10.7370138
21
53.7563943
0
LINE
8
DEFAULT_255_2_778
10
10.7370138
20
88.6861943
11
10.7370138
21
88.7565943
0
LINE
8
DEFAULT_255_2_778
10
10.7370138
20
89.6563943
11
10.7370138
21
88.7565943
0
LINE
8
DEFAULT_255_2_778
10
30.0249138
20
88.7562943
11
10.7370138
21
88.7562943
0
LINE
8
DEFAULT_255_2_778
10
10.7370138
20
87.8860943
11
10.7370138
21
88.6861943
0
LINE
8
DEFAULT_255_2_778
10
9.8369138
20
88.7017943
11
10.7370138
21
88.6861943
0
LINE
8
DEFAULT_255_2_778
10
9.8369138
20
87.9016943
11
10.7370138
21
87.8860943
0
ARC
8
DEFAULT_255_2_778
10
14.4522593
20
203.5132983
40
115.808768
50
277.7279401
51
277.9731582
0
ARC
8
DEFAULT_255_2_778
10
11.8751046
20
-132.6915615
40
134.6765994
50
82.044019
51
82.2548827
0
ARC
8
DEFAULT_255_2_778
10
29.7667047
20
-0.2133154
40
0.1874332
50
350.7435147
51
356.6739648
0
ARC
8
DEFAULT_255_2_778
10
24.9727102
20
0.2135415
40
5.0003085
50
354.9778498
51
355.6323215
0
LINE
8
DEFAULT_255_2_778
10
30.0246972
20
88.7563352
11
29.9516972
21
89.7564352
0
LINE
8
DEFAULT_255_2_778
10
31.1472972
20
79.5668352
11
30.0249972
21
88.7563352
0
LINE
8
DEFAULT_255_2_778
10
31.1472972
20
9.9459352
11
30.0249972
21
0.7564352
0
LINE
8
DEFAULT_255_2_778
10
10.7370972
20
0.7564352
11
30.0249972
21
0.7564352
0
LINE
8
DEFAULT_255_2_778
10
29.9584972
20
-0.1672648
11
29.9749972
21
0.0494352
0
LINE
8
DEFAULT_255_2_778
10
29.9749972
20
0.0494352
11
30.0246972
21
0.7564352
0
LINE
8
DEFAULT_255_2_778
10
31.6404972
20
9.8922352
11
31.1470972
21
9.9459352
0
ARC
8
DEFAULT_255_2_778
10
32.1144875
20
10.5107679
40
0.8266218
50
90.4924028
51
116.358723
0
ARC
8
DEFAULT_255_2_778
10
32.0727901
20
10.6172288
40
0.7127851
50
117.1549694
51
131.0508678
0
ARC
8
DEFAULT_255_2_778
10
32.3383982
20
10.3693036
40
1.0748384
50
133.0493343
51
144.1592008
0
ARC
8
DEFAULT_255_2_778
10
32.6524321
20
10.2370148
40
1.4089546
50
147.277271
51
155.6134407
0
ARC
8
DEFAULT_255_2_778
10
33.2836645
20
9.953471
40
2.1009428
50
155.6784506
51
163.1148497
0
ARC
8
DEFAULT_255_2_778
10
34.3215221
20
9.6221861
40
3.1903184
50
162.835534
51
165.5819543
0
ARC
8
DEFAULT_255_2_778
10
34.7940654
20
9.5327321
40
3.6703835
50
166.0662578
51
173.5404091
0
ARC
8
DEFAULT_255_2_778
10
34.6000567
20
-124.7053172
40
137.0775597
50
84.3146943
51
84.5218246
0
ARC
8
DEFAULT_255_2_778
10
47.4623131
20
10.7693118
40
0.1851788
50
352.4432398
51
358.4171624
0
ARC
8
DEFAULT_255_2_778
10
42.540701
20
11.0583533
40
5.115185
50
356.7032995
51
357.3422087
0
LINE
8
DEFAULT_255_2_778
10
47.6860836
20
11.7461592
11
32.1068836
21
11.3381592
0
LINE
8
DEFAULT_255_2_778
10
32.1243836
20
10.3385592
11
32.1068836
21
11.3381592
0
LINE
8
DEFAULT_255_2_778
10
48.5128836
20
21.8431592
11
47.6860836
21
11.7458592
0
LINE
8
DEFAULT_255_2_778
10
47.6503836
20
10.8211592
11
47.6595836
21
11.0380592
0
LINE
8
DEFAULT_255_2_778
10
47.6595836
20
11.0380592
11
47.6860836
21
11.7461592
0
LINE
8
DEFAULT_255_2_778
10
49.0073836
20
21.8098592
11
48.5128836
21
21.8431592
0
ARC
8
DEFAULT_255_2_778
10
49.4711546
20
22.4442955
40
0.8313553
50
91.4913986
51
117.5892531
0
ARC
8
DEFAULT_255_2_778
10
49.4302529
20
22.5440471
40
0.7240719
50
118.3763937
51
132.3028244
0
ARC
8
DEFAULT_255_2_778
10
49.5412838
20
22.4419174
40
0.8744385
50
133.1795532
51
147.0001198
0
ARC
8
DEFAULT_255_2_778
10
50.1607797
20
22.0752949
40
1.5939493
50
148.0758483
51
155.5286657
0
ARC
8
DEFAULT_255_2_778
10
50.5983466
20
21.9383361
40
2.0497241
50
157.1110364
51
165.0294345
0
ARC
8
DEFAULT_255_2_778
10
51.5480792
20
21.6683418
40
3.0370068
50
164.7371481
51
167.5038879
0
ARC
8
DEFAULT_255_2_778
10
52.067231
20
21.5627631
40
3.5667167
50
167.6525282
51
175.4780089
0
ARC
8
DEFAULT_255_2_778
10
-291.5033459
20
44.7976576
40
349.242703
50
0.0021274
51
3.4647043
0
ARC
8
DEFAULT_255_2_778
10
-155.2691636
20
44.8008343
40
213.0085205
50
359.9991222
51
0.0026335
0
ARC
8
DEFAULT_255_2_778
10
-291.5221297
20
44.797673
40
349.2614867
50
356.5218425
51
359.9999832
0
ARC
8
DEFAULT_255_2_778
10
57.5079723
20
22.4297385
40
1.1523837
50
85.6281753
51
86.7424538
0
ARC
8
DEFAULT_255_2_778
10
55.4459525
20
-10.468195
40
34.1148586
50
86.4245461
51
86.5414835
0
ARC
8
DEFAULT_255_2_778
10
50.555669
20
-91.0870954
40
114.8819426
50
86.5325196
51
86.5945832
0
ARC
8
DEFAULT_255_2_778
10
46.2335088
20
-163.6284768
40
187.5519714
50
86.5928981
51
86.6559853
0
ARC
8
DEFAULT_255_2_778
10
45.4691679
20
-176.6485999
40
200.5945099
50
86.6549675
51
86.6771625
0
ARC
8
DEFAULT_255_2_778
10
56.9008009
20
22.6268911
40
0.1879911
50
354.1619461
51
0.0352327
0
ARC
8
DEFAULT_255_2_778
10
50.4952362
20
22.8204529
40
6.5963929
50
358.3194998
51
358.8144282
0
LINE
8
DEFAULT_255_2_778
10
57.096017
20
23.6086692
11
49.449517
21
23.2753692
0
LINE
8
DEFAULT_255_2_778
10
49.484517
20
22.2759692
11
49.449517
21
23.2753692
0
LINE
8
DEFAULT_255_2_778
10
57.090217
20
22.6839692
11
57.093617
21
22.9009692
0
LINE
8
DEFAULT_255_2_778
10
57.093617
20
22.9009692
11
57.096017
21
23.6086692
0
ARC
8
DEFAULT_255_2_778
10
67.1430908
20
192.2916036
40
168.9817918
50
266.4221177
51
266.5067907
0
ARC
8
DEFAULT_255_2_778
10
73.3843616
20
294.5352432
40
271.4157476
50
266.5068023
51
266.5595153
0
ARC
8
DEFAULT_255_2_778
10
57.5090156
20
67.0783605
40
1.1477888
50
273.2415036
51
274.3482785
0
ARC
8
DEFAULT_255_2_778
10
54.7401586
20
111.4500253
40
45.6057416
50
273.4758689
51
273.5624254
0
ARC
8
DEFAULT_255_2_778
10
35.8054712
20
422.3124868
40
357.0443262
50
273.4645821
51
273.4843481
0
ARC
8
DEFAULT_255_2_778
10
184.7822628
20
-2037.7684586
40
2107.5433354
50
93.4656173
51
93.4711768
0
ARC
8
DEFAULT_255_2_778
10
98.0844087
20
-608.2198595
40
675.3681666
50
93.4724697
51
93.4790004
0
LINE
8
DEFAULT_255_2_778
10
57.0962397
20
23.6086754
11
56.5977397
21
23.6391754
0
LINE
8
DEFAULT_255_2_778
10
49.4495397
20
66.2378754
11
57.1010397
21
65.9036754
0
LINE
8
DEFAULT_255_2_778
10
57.0878397
20
66.9048754
11
57.1010397
21
65.9036754
0
LINE
8
DEFAULT_255_2_778
10
49.4495385
20
66.2387
11
49.4508385
21
66.2387
0
ARC
8
DEFAULT_255_2_778
10
49.4800476
20
67.2346347
40
0.0049727
50
354.580246
51
26.8017367
0
ARC
8
DEFAULT_255_2_778
10
49.3586967
20
67.2261222
40
0.1265573
50
0.8093406
51
3.6436686
0
ARC
8
DEFAULT_255_2_778
10
48.9844438
20
67.2189132
40
0.5008783
50
359.9111176
51
1.0291818
0
ARC
8
DEFAULT_255_2_778
10
47.0681678
20
67.2278762
40
2.4171733
50
358.631523
51
359.7691259
0
ARC
8
DEFAULT_255_2_778
10
38.1315619
20
67.4272545
40
11.3560006
50
358.1824854
51
358.702684
0
ARC
8
DEFAULT_255_2_778
10
16.9298292
20
68.0853017
40
32.5679411
50
357.9329511
51
358.2083892
0
ARC
8
DEFAULT_255_2_778
10
-15.5322847
20
69.2492385
40
65.0509145
50
357.7437531
51
357.9397296
0
ARC
8
DEFAULT_255_2_778
10
-46.6603254
20
70.4671001
40
96.2027693
50
357.620637
51
357.7488482
0
ARC
8
DEFAULT_255_2_778
10
-65.8765199
20
71.2631808
40
115.4354465
50
357.5048785
51
357.6218188
0
ARC
8
DEFAULT_255_2_778
10
52.06788
20
67.9515765
40
3.5674651
50
184.5354358
51
192.3513103
0
ARC
8
DEFAULT_255_2_778
10
51.1663928
20
67.7508181
40
2.643902
50
192.2802545
51
198.8093977
0
ARC
8
DEFAULT_255_2_778
10
50.3373186
20
67.4752509
40
1.7702667
50
199.0184776
51
203.1821011
0
ARC
8
DEFAULT_255_2_778
10
49.6694821
20
67.1752612
40
1.0383399
50
202.4718616
51
213.9236244
0
ARC
8
DEFAULT_255_2_778
10
49.4473183
20
66.9934589
40
0.7530103
50
211.8787129
51
227.9416141
0
ARC
8
DEFAULT_255_2_778
10
49.4509801
20
67.0023399
40
0.7620639
50
228.1845006
51
265.9874758
0
ARC
8
DEFAULT_255_2_778
10
49.4949763
20
67.2779374
40
1.0403556
50
264.6323471
51
267.4939015
0
ARC
8
DEFAULT_255_2_778
10
-288.7161604
20
45.181979
40
337.9766863
50
3.8150302
51
5.5325587
0
ARC
8
DEFAULT_255_2_778
10
48.1558259
20
77.8595629
40
0.0418487
50
270.9502556
51
302.891485
0
ARC
8
DEFAULT_255_2_778
10
47.9399873
20
79.0989237
40
1.2993727
50
276.5430178
51
279.5927514
0
ARC
8
DEFAULT_255_2_778
10
47.246479
20
84.8456959
40
7.0878208
50
275.8237225
51
276.8190876
0
ARC
8
DEFAULT_255_2_778
10
44.7805381
20
108.8112874
40
31.1799426
50
275.4881248
51
275.863172
0
ARC
8
DEFAULT_255_2_778
10
32.2951116
20
237.4842366
40
160.4572061
50
275.5042672
51
275.5316828
0
ARC
8
DEFAULT_255_2_778
10
32.1183612
20
79.1715257
40
0.0066369
50
355.6134188
51
25.562021
0
ARC
8
DEFAULT_255_2_778
10
31.8981003
20
79.1556588
40
0.2273977
50
0.9567687
51
3.8729164
0
ARC
8
DEFAULT_255_2_778
10
31.093454
20
79.1363639
40
1.0322706
50
0.4122259
51
1.2818142
0
ARC
8
DEFAULT_255_2_778
10
29.5967236
20
79.1240948
40
2.5290508
50
359.9722582
51
0.4462179
0
ARC
8
DEFAULT_255_2_778
10
25.3983003
20
79.1295513
40
6.7274771
50
359.4264066
51
359.9430996
0
ARC
8
DEFAULT_255_2_778
10
13.3941484
20
79.2461237
40
18.7321948
50
359.0992637
51
359.4374366
0
ARC
8
DEFAULT_255_2_778
10
-8.7453328
20
79.5869615
40
40.8742989
50
358.8927952
51
359.1094133
0
ARC
8
DEFAULT_255_2_778
10
-38.0737174
20
80.1495112
40
70.208078
50
358.7248781
51
358.8962821
0
ARC
8
DEFAULT_255_2_778
10
-68.6847963
20
80.8285892
40
100.8266883
50
358.5532608
51
358.726177
0
ARC
8
DEFAULT_255_2_778
10
-82.7054494
20
81.1763367
40
114.8516521
50
358.5019555
51
358.5564298
0
ARC
8
DEFAULT_255_2_778
10
34.862105
20
79.987243
40
3.7385409
50
186.4527836
51
193.810835
0
ARC
8
DEFAULT_255_2_778
10
34.0086779
20
79.8083664
40
2.8672434
50
194.410781
51
200.4910558
0
ARC
8
DEFAULT_255_2_778
10
33.1362956
20
79.4897696
40
1.9385437
50
200.6964402
51
204.2818921
0
ARC
8
DEFAULT_255_2_778
10
32.7066257
20
79.3158236
40
1.4754656
50
204.986098
51
212.8537163
0
ARC
8
DEFAULT_255_2_778
10
32.1204163
20
78.9525397
40
0.7860402
50
213.7894387
51
229.0020262
0
ARC
8
DEFAULT_255_2_778
10
32.0977931
20
78.9274379
40
0.7522538
50
229.0482449
51
267.6844308
0
ARC
8
DEFAULT_255_2_778
10
32.133907
20
79.1965831
40
1.0229489
50
266.2722617
51
268.4898641
0
ARC
8
DEFAULT_255_2_778
10
29.5773191
20
97.6235983
40
18.120641
50
276.3086632
51
276.5375997
0
ARC
8
DEFAULT_255_2_778
10
29.6946835
20
96.5616848
40
17.0522617
50
276.0656089
51
276.3087783
0
LINE
8
DEFAULT_255_2_778
10
49.0074485
20
67.7028894
11
48.5116485
21
67.6692894
0
LINE
8
DEFAULT_255_2_778
10
32.1069485
20
78.1737894
11
47.6861485
21
77.7665894
0
LINE
8
DEFAULT_255_2_778
10
47.6459485
20
78.7679894
11
47.6861485
21
77.7668894
0
LINE
8
DEFAULT_255_2_778
10
31.4965485
20
79.6048894
11
31.1472485
21
79.5670894
0
LINE
8
DEFAULT_255_2_778
10
10.7370485
20
-0.1437106
11
10.7370485
21
0.7561894
0
LINE
8
DEFAULT_255_2_778
10
10.7370485
20
0.8267894
11
10.7370485
21
0.7563894
0
LINE
8
DEFAULT_255_2_778
10
10.7370485
20
0.8264894
11
10.7370485
21
1.6265894
0
LINE
8
DEFAULT_255_2_778
10
9.8369485
20
1.6109894
11
10.7370485
21
1.6265894
0
LINE
8
DEFAULT_255_2_778
10
9.8369485
20
0.8111894
11
10.7370485
21
0.8267894
0
LINE
8
DEFAULT_255_2_778
10
30.7512485
20
87.0671894
11
30.5662485
21
88.4538894
0
LINE
8
DEFAULT_255_2_778
10
30.7919485
20
86.7528894
11
30.7512485
21
87.0653894
0
LINE
8
DEFAULT_255_2_778
10
30.7919284
20
86.7528436
11
30.7509284
21
87.0674436
0
LINE
8
DEFAULT_255_2_778
10
48.1824284
20
77.7821436
11
48.1785284
21
77.8244436
0
LINE
8
DEFAULT_255_2_778
10
48.1795833
20
77.8149718
11
48.1784833
21
77.8244718
0
LINE
8
DEFAULT_255_2_778
10
48.3461833
20
76.0448718
11
48.3639833
21
75.8496718
0
LINE
8
DEFAULT_255_2_778
10
48.3657833
20
75.8284718
11
48.3639833
21
75.8496718
0
LINE
8
DEFAULT_255_2_778
10
48.3718833
20
75.7601718
11
48.3657833
21
75.8284718
0
LINE
8
DEFAULT_255_2_778
10
48.4541833
20
75.8445718
11
48.3644833
21
75.8445718
0
LINE
8
DEFAULT_255_2_778
10
48.4559833
20
75.8236718
11
48.3663833
21
75.8236718
0
LINE
8
DEFAULT_255_2_778
10
48.3663833
20
75.8236718
11
48.3644833
21
75.8445718
0
LINE
8
DEFAULT_255_2_778
10
48.3721833
20
75.7601718
11
48.3739833
21
75.7390718
0
LINE
8
DEFAULT_255_2_778
10
48.3726833
20
75.7554718
11
48.3745833
21
75.7345718
0
LINE
8
DEFAULT_255_2_778
10
48.4620833
20
75.7554718
11
48.3726833
21
75.7554718
0
LINE
8
DEFAULT_255_2_778
10
48.3112833
20
76.4224718
11
48.3448833
21
76.0591718
0
LINE
8
DEFAULT_255_2_778
10
48.3462167
20
76.0449104
11
48.3449167
21
76.0592104
0
LINE
8
DEFAULT_255_2_778
10
48.3468167
20
76.0375104
11
48.3454167
21
76.0528104
0
LINE
8
DEFAULT_255_2_778
10
48.2494167
20
77.0847104
11
48.3454167
21
76.0528104
0
LINE
8
DEFAULT_255_2_778
10
48.3427719
20
76.081925
11
48.3453719
21
76.052825
0
LINE
8
DEFAULT_255_2_778
10
48.4372719
20
76.039625
11
48.3469719
21
76.037525
0
LINE
8
DEFAULT_255_2_778
10
48.4362615
20
76.0539687
11
48.3470615
21
76.0375687
0
LINE
8
DEFAULT_255_2_778
10
48.3433615
20
76.0761687
11
48.3467615
21
76.0375687
0
LINE
8
DEFAULT_255_2_778
10
48.1896615
20
77.7080687
11
48.1846615
21
77.7612687
0
LINE
8
DEFAULT_255_2_778
10
48.2856615
20
77.7726687
11
48.1835615
21
77.7726687
0
LINE
8
DEFAULT_255_2_778
10
48.1906063
20
77.6993583
11
48.1835063
21
77.7726583
0
LINE
8
DEFAULT_255_2_778
10
48.2867063
20
77.7588583
11
48.1835063
21
77.7726583
0
LINE
8
DEFAULT_255_2_778
10
48.2391063
20
77.1948583
11
48.1906063
21
77.6996583
0
LINE
8
DEFAULT_255_2_778
10
48.2494063
20
77.0847583
11
48.1906063
21
77.6996583
0
LINE
8
DEFAULT_255_2_778
10
48.1898865
20
77.7081
11
48.2419865
21
77.1641
0
LINE
8
DEFAULT_255_2_778
10
48.2456865
20
77.1239
11
48.2419865
21
77.1639
0
LINE
8
DEFAULT_255_2_778
10
48.2393146
20
77.1894562
11
48.2425146
21
77.1561562
0
LINE
8
DEFAULT_255_2_778
10
48.2491146
20
77.0894562
11
48.2464146
21
77.1164562
0
LINE
8
DEFAULT_255_2_778
10
48.2546146
20
77.0296562
11
48.2957146
21
76.5936562
0
LINE
8
DEFAULT_255_2_778
10
48.3023146
20
76.5179562
11
48.2954146
21
76.5933562
0
LINE
8
DEFAULT_255_2_778
10
48.2936042
20
76.6156083
11
48.2962042
21
76.5870083
0
LINE
8
DEFAULT_255_2_778
10
48.3116042
20
76.4230083
11
48.2962042
21
76.5870083
0
LINE
8
DEFAULT_255_2_778
10
48.3026095
20
76.5182539
11
48.3116095
21
76.4224539
0
LINE
8
DEFAULT_255_2_778
10
48.3118095
20
76.4164539
11
48.3113095
21
76.4230539
0
LINE
8
DEFAULT_255_2_778
10
48.3431095
20
76.0819539
11
48.3367095
21
76.1510539
0
LINE
8
DEFAULT_255_2_778
10
48.3367095
20
76.1510539
11
48.3121095
21
76.4164539
0
LINE
8
DEFAULT_255_2_778
10
48.2505095
20
77.0741539
11
48.2544095
21
77.0320539
0
LINE
8
DEFAULT_255_2_778
10
48.2494095
20
77.0847539
11
48.2534095
21
77.0416539
0
LINE
8
DEFAULT_255_2_778
10
48.2933095
20
76.6156539
11
48.2552095
21
77.0220539
0
LINE
8
DEFAULT_255_2_778
10
57.6352095
20
65.2721539
11
57.8744095
21
60.6755539
0
LINE
8
DEFAULT_255_2_778
10
57.9564095
20
58.7565539
11
57.8744095
21
60.6758539
0
LINE
8
DEFAULT_255_2_778
10
57.9744095
20
60.6758539
11
57.8744095
21
60.6758539
0
LINE
8
DEFAULT_255_2_778
10
57.9567095
20
58.7411539
11
57.9562095
21
58.7565539
0
LINE
8
DEFAULT_255_2_778
10
57.9575095
20
58.7258539
11
57.9570095
21
58.7409539
0
LINE
8
DEFAULT_255_2_778
10
58.0562095
20
58.7565539
11
57.9562095
21
58.7565539
0
LINE
8
DEFAULT_255_2_778
10
57.9572966
20
58.72608
11
57.9572966
21
58.72608
0
LINE
8
DEFAULT_255_2_778
10
58.1466966
20
52.66738
11
58.3358966
21
52.85648
0
LINE
8
DEFAULT_255_2_778
10
58.3358966
20
52.85648
11
58.3358966
21
54.15638
0
LINE
8
DEFAULT_255_2_778
10
58.3358966
20
54.15638
11
58.1035966
21
54.38878
0
LINE
8
DEFAULT_255_2_778
10
30.7567966
20
88.45648
11
30.7567966
21
88.45648
0
LINE
8
DEFAULT_255_2_778
10
30.9506966
20
86.75388
11
30.9506966
21
86.75388
0
LINE
8
DEFAULT_255_2_778
10
48.2494966
20
77.08468
11
48.2393966
21
77.18948
0
LINE
8
DEFAULT_255_2_778
10
48.2390966
20
77.19478
11
48.2396966
21
77.18948
0
LINE
8
DEFAULT_255_2_778
10
48.1893966
20
77.71338
11
48.2390966
21
77.19448
0
LINE
8
DEFAULT_255_2_778
10
48.2457966
20
77.12408
11
48.2504966
21
77.07438
0
LINE
8
DEFAULT_255_2_778
10
48.2933966
20
76.61558
11
48.2488966
21
77.08918
0
LINE
8
DEFAULT_255_2_778
10
48.3436966
20
76.07608
11
48.3380966
21
76.13748
0
LINE
8
DEFAULT_255_2_778
10
48.3380966
20
76.13748
11
48.2938966
21
76.61558
0
LINE
8
DEFAULT_255_2_778
10
57.7834966
20
64.43758
11
57.7844966
21
64.43758
0
LINE
8
DEFAULT_255_2_778
10
57.9963966
20
60.18308
11
57.9966966
21
60.18308
0
LINE
8
DEFAULT_255_2_778
10
0.1370966
20
0.84108
11
9.8369966
21
0.75638
0
LINE
8
DEFAULT_255_2_778
10
9.8369966
20
-0.14352
11
9.8369966
21
0.75638
0
LINE
8
DEFAULT_255_2_778
10
9.8368949
20
0.8108833
11
9.8368949
21
0.7560833
0
LINE
8
DEFAULT_255_2_778
10
5.1370949
20
-0.2027167
11
3.0852949
21
-0.1847167
0
LINE
8
DEFAULT_255_2_778
10
2.8870949
20
-0.1829167
11
3.0852949
21
-0.1847167
0
LINE
8
DEFAULT_255_2_778
10
3.0852949
20
-0.2263167
11
3.0852949
21
-0.1847167
0
LINE
8
DEFAULT_255_2_778
10
5.1371262
20
-0.20237
11
5.1371262
21
-0.20237
0
LINE
8
DEFAULT_255_2_778
10
2.6876262
20
-0.18127
11
2.8868262
21
-0.18307
0
LINE
8
DEFAULT_255_2_778
10
2.8871262
20
-0.22597
11
2.8871262
21
-0.18287
0
LINE
8
DEFAULT_255_2_778
10
0.8432262
20
-0.16507
11
2.6878262
21
-0.18127
0
LINE
8
DEFAULT_255_2_778
10
2.6876262
20
-0.22627
11
2.6876262
21
-0.18127
0
LINE
8
DEFAULT_255_2_778
10
9.8371262
20
88.75663
11
2.0952262
21
88.68913
0
LINE
8
DEFAULT_255_2_778
10
0.1870262
20
75.11203
11
0.7844262
21
79.36333
0
LINE
8
DEFAULT_255_2_778
10
9.8369262
20
89.65643
11
9.8369262
21
88.75663
0
LINE
8
DEFAULT_255_2_778
10
9.8369262
20
88.70183
11
9.8369262
21
88.75663
0
LINE
8
DEFAULT_255_2_778
10
9.8369262
20
87.90173
11
9.8369262
21
88.70183
0
LINE
8
DEFAULT_255_2_778
10
9.3371262
20
46.75633
11
9.8371262
21
46.75633
0
LINE
8
DEFAULT_255_2_778
10
9.8371262
20
46.75633
11
9.8371262
21
87.90173
0
LINE
8
DEFAULT_255_2_778
10
9.3371262
20
42.75643
11
9.3371262
21
46.75633
0
ARC
8
DEFAULT_255_2_778
10
8.5952371
20
58.3087709
40
3.8486591
50
198.3718369
51
205.3177125
0
ARC
8
DEFAULT_255_2_778
10
8.5945131
20
58.3304173
40
3.8548505
50
189.8459256
51
198.6805684
0
ARC
8
DEFAULT_255_2_778
10
8.0905418
20
58.2281856
40
3.3408522
50
188.1809108
51
189.5964398
0
ARC
8
DEFAULT_255_2_778
10
10.4190395
20
58.5166507
40
5.6868873
50
183.3353089
51
187.7193296
0
ARC
8
DEFAULT_255_2_778
10
27.4247065
20
59.7062164
40
22.733821
50
183.6645311
51
183.8347701
0
ARC
8
DEFAULT_255_2_778
10
35.4725907
20
60.2277152
40
30.7985822
50
183.6691867
51
183.6757969
0
ARC
8
DEFAULT_255_2_778
10
8.5767957
20
58.1791704
40
3.8381025
50
164.9846041
51
171.9470897
0
ARC
8
DEFAULT_255_2_778
10
8.5840829
20
58.1992788
40
3.8399906
50
156.4305208
51
165.3025647
0
ARC
8
DEFAULT_255_2_778
10
22.4334731
20
38.3322998
40
0.3529718
50
359.9998694
51
0.2988016
0
ARC
8
DEFAULT_255_2_778
10
22.369256
20
38.3355169
40
0.4172014
50
342.1573265
51
359.5580777
0
ARC
8
DEFAULT_255_2_778
10
22.2828953
20
38.3628237
40
0.5077755
50
312.7077925
51
342.210117
0
ARC
8
DEFAULT_255_2_778
10
22.2785819
20
38.3662861
40
0.513246
50
311.7944896
51
312.7994684
0
ARC
8
DEFAULT_255_2_778
10
22.2765924
20
38.368496
40
0.5162195
50
290.7359139
51
311.7956393
0
ARC
8
DEFAULT_255_2_778
10
22.3046724
20
38.2850585
40
0.4282574
50
270.7708731
51
291.1748735
0
ARC
8
DEFAULT_255_2_778
10
22.3102607
20
38.0574409
40
0.2006011
50
269.8513359
51
270.0495338
0
LINE
8
DEFAULT_255_2_778
10
9.3371402
20
42.7564406
11
7.8372402
21
42.7564406
0
LINE
8
DEFAULT_255_2_778
10
7.8372402
20
42.7564406
11
7.8372402
21
46.7563406
0
LINE
8
DEFAULT_255_2_778
10
7.8372402
20
46.7563406
11
9.3371402
21
46.7563406
0
LINE
8
DEFAULT_255_2_778
10
9.8372402
20
1.6110406
11
9.8372402
21
42.7564406
0
LINE
8
DEFAULT_255_2_778
10
9.8372402
20
42.7564406
11
9.3371402
21
42.7564406
0
LINE
8
DEFAULT_255_2_778
10
9.8369402
20
0.8109406
11
9.8369402
21
1.6110406
0
LINE
8
DEFAULT_255_2_778
10
48.3415402
20
77.1358406
11
48.3420402
21
77.1358406
0
LINE
8
DEFAULT_255_2_778
10
5.1353402
20
56.6237406
11
5.1162402
21
56.6629406
0
LINE
8
DEFAULT_255_2_778
10
4.7371402
20
58.2567406
11
4.7765402
21
58.7168406
0
LINE
8
DEFAULT_255_2_778
10
5.0644402
20
59.7347406
11
5.1313402
21
59.8773406
0
LINE
8
DEFAULT_255_2_778
10
22.2255402
20
37.9410406
11
22.3094402
21
37.8571406
0
LINE
8
DEFAULT_255_2_778
10
18.1367402
20
37.8568406
11
22.3097402
21
37.8568406
0
LINE
8
DEFAULT_255_2_778
10
18.1367
20
37.9409365
11
18.1367
21
37.8570365
0
ARC
8
DEFAULT_255_2_778
10
18.1368528
20
38.3570195
40
0.5000016
50
180.8090505
51
264.3355063
0
LINE
8
DEFAULT_255_2_778
10
18.087501
20
37.8594594
11
18.130101
21
37.8570594
0
LINE
8
DEFAULT_255_2_778
10
18.130101
20
37.8570594
11
18.136701
21
37.8570594
0
LINE
8
DEFAULT_255_2_778
10
22.2257323
20
37.9409
11
18.1366323
21
37.9409
0
ARC
8
DEFAULT_255_2_778
10
18.1368528
20
38.4409195
40
0.5000016
50
180.8090505
51
264.3355063
0
LINE
8
DEFAULT_255_2_778
10
18.087501
20
37.9433594
11
18.130101
21
37.9409594
0
LINE
8
DEFAULT_255_2_778
10
18.130101
20
37.9409594
11
18.136701
21
37.9409594
0
ARC
8
DEFAULT_255_2_778
10
22.3334524
20
38.4164201
40
0.3688593
50
359.9999078
51
0.2386701
0
ARC
8
DEFAULT_255_2_778
10
22.284365
20
38.4196637
40
0.4179595
50
342.11016
51
359.5552639
0
ARC
8
DEFAULT_255_2_778
10
22.1978588
20
38.4470594
40
0.5086988
50
312.7342148
51
342.1667704
0
ARC
8
DEFAULT_255_2_778
10
22.1932477
20
38.450832
40
0.5145997
50
311.8244271
51
312.826273
0
ARC
8
DEFAULT_255_2_778
10
22.192022
20
38.4524553
40
0.5166267
50
290.7589986
51
311.8056736
0
ARC
8
DEFAULT_255_2_778
10
22.2214433
20
38.365712
40
0.425099
50
270.7791861
51
291.1948625
0
ARC
8
DEFAULT_255_2_778
10
22.2272619
20
38.2746448
40
0.3339926
50
269.69921
51
269.9935307
0
LINE
8
DEFAULT_255_2_778
10
22.7864635
20
38.3341551
11
22.7025635
21
38.4180551
0
LINE
8
DEFAULT_255_2_778
10
22.7025635
20
43.5948551
11
22.7025635
21
38.4180551
0
ARC
8
DEFAULT_255_2_778
10
22.2887674
20
43.6598723
40
0.496615
50
48.0718716
51
87.5837152
0
ARC
8
DEFAULT_255_2_778
10
22.2811091
20
43.6489685
40
0.509847
50
18.7578744
51
48.250363
0
ARC
8
DEFAULT_255_2_778
10
22.3186699
20
43.6640034
40
0.4694514
50
17.5333383
51
18.4944971
0
ARC
8
DEFAULT_255_2_778
10
22.3685609
20
43.6770386
40
0.4179595
50
0.4447361
51
17.88984
0
ARC
8
DEFAULT_255_2_778
10
22.4176483
20
43.6802823
40
0.3688594
50
359.7613299
51
0.0000922
0
ARC
8
DEFAULT_255_2_778
10
22.2281421
20
43.747783
40
0.3243692
50
89.9997186
51
90.3599233
0
ARC
8
DEFAULT_255_2_778
10
22.2221673
20
43.6494643
40
0.4227301
50
68.7388775
51
89.1899435
0
ARC
8
DEFAULT_255_2_778
10
22.1998497
20
43.5783201
40
0.4971498
50
69.0169915
51
69.3150943
0
ARC
8
DEFAULT_255_2_778
10
22.1908537
20
43.5579604
40
0.519382
50
48.2494405
51
68.8946732
0
ARC
8
DEFAULT_255_2_778
10
22.1978561
20
43.5654389
40
0.5091399
50
18.7408806
51
48.2769253
0
ARC
8
DEFAULT_255_2_778
10
22.2348639
20
43.5802451
40
0.469342
50
17.5194256
51
18.4807324
0
ARC
8
DEFAULT_255_2_778
10
22.2843495
20
43.593164
40
0.4182707
50
0.4412937
51
17.8724224
0
ARC
8
DEFAULT_255_2_778
10
22.3324312
20
43.5963849
40
0.3701765
50
359.7617641
51
0.0000919
0
LINE
8
DEFAULT_255_2_778
10
22.7865045
20
38.3341458
11
22.7865045
21
43.6790458
0
LINE
8
DEFAULT_255_2_778
10
22.7026045
20
43.5951458
11
22.7865045
21
43.6790458
0
LINE
8
DEFAULT_255_2_778
10
22.3097045
20
44.1560458
11
18.1367045
21
44.1560458
0
LINE
8
DEFAULT_255_2_778
10
18.1367045
20
44.0719458
11
18.1367045
21
44.1557458
0
ARC
8
DEFAULT_255_2_778
10
18.1368527
20
43.6560994
40
0.5000015
50
95.664488
51
179.1909637
0
LINE
8
DEFAULT_255_2_778
10
18.087501
20
44.1536594
11
18.130101
21
44.1560594
0
LINE
8
DEFAULT_255_2_778
10
18.130101
20
44.1560594
11
18.136701
21
44.1560594
0
LINE
8
DEFAULT_255_2_778
10
22.2260282
20
44.0721365
11
22.3093282
21
44.1560365
0
LINE
8
DEFAULT_255_2_778
10
22.2263282
20
44.0721365
11
18.1366282
21
44.0721365
0
ARC
8
DEFAULT_255_2_778
10
18.136785
20
43.5718994
40
0.5000015
50
95.664488
51
179.1909637
0
LINE
8
DEFAULT_255_2_778
10
18.0874333
20
44.0694594
11
18.1297333
21
44.0718594
0
LINE
8
DEFAULT_255_2_778
10
18.1297333
20
44.0718594
11
18.1363333
21
44.0718594
0
LINE
8
DEFAULT_255_2_778
10
17.6369
20
38.4337791
11
17.6369
21
43.5788791
0
LINE
8
DEFAULT_255_2_778
10
17.6369
20
43.6545791
11
17.6369
21
43.5791791
0
LINE
8
DEFAULT_255_2_778
10
17.6368125
20
43.5704489
11
17.6368125
21
43.5789489
0
LINE
8
DEFAULT_255_2_778
10
17.6368125
20
43.6630489
11
17.6368125
21
43.6545489
0
LINE
8
DEFAULT_255_2_778
10
17.6368125
20
38.3584489
11
17.6368125
21
38.4338489
0
LINE
8
DEFAULT_255_2_778
10
17.6368125
20
38.4422489
11
17.6368125
21
38.4338489
0
LINE
8
DEFAULT_255_2_778
10
17.6368125
20
38.3584489
11
17.6368125
21
38.3499489
0
LINE
8
DEFAULT_255_2_778
10
19.0370125
20
42.9814489
11
19.0370125
21
39.0815489
0
LINE
8
DEFAULT_255_2_778
10
19.0371032
20
42.9815301
11
22.0806032
21
42.9815301
0
LINE
8
DEFAULT_255_2_778
10
22.0806032
20
42.9815301
11
22.0806032
21
39.0815301
0
LINE
8
DEFAULT_255_2_778
10
22.0806032
20
39.0815301
11
19.0371032
21
39.0815301
0
LINE
8
DEFAULT_255_2_778
10
19.0368032
20
42.9815301
11
17.7369032
21
42.9815301
0
LINE
8
DEFAULT_255_2_778
10
17.7369032
20
42.9815301
11
17.7369032
21
39.0815301
0
LINE
8
DEFAULT_255_2_778
10
17.7369032
20
39.0815301
11
19.0368032
21
39.0815301
0
LINE
8
DEFAULT_255_2_778
10
22.2256032
20
45.4408301
11
22.3094032
21
45.3567301
0
LINE
8
DEFAULT_255_2_778
10
18.1367032
20
45.3569301
11
22.3097032
21
45.3569301
0
ARC
8
DEFAULT_255_2_778
10
22.4176524
20
45.8324201
40
0.3688593
50
359.9999078
51
0.2386701
0
ARC
8
DEFAULT_255_2_778
10
22.368565
20
45.8356637
40
0.4179595
50
342.11016
51
359.5552639
0
ARC
8
DEFAULT_255_2_778
10
22.2820588
20
45.8630594
40
0.5086988
50
312.7342148
51
342.1667704
0
ARC
8
DEFAULT_255_2_778
10
22.2774477
20
45.866832
40
0.5145997
50
311.8244271
51
312.826273
0
ARC
8
DEFAULT_255_2_778
10
22.276222
20
45.8684553
40
0.5166267
50
290.7589986
51
311.8056736
0
ARC
8
DEFAULT_255_2_778
10
22.3056433
20
45.781712
40
0.425099
50
270.7791861
51
291.1948625
0
ARC
8
DEFAULT_255_2_778
10
22.3114619
20
45.6906448
40
0.3339926
50
269.69921
51
269.9935307
0
ARC
8
DEFAULT_255_2_778
10
18.1367851
20
45.8569195
40
0.5000016
50
180.8090505
51
264.3355063
0
LINE
8
DEFAULT_255_2_778
10
18.1366334
20
45.4408594
11
18.1366334
21
45.3569594
0
LINE
8
DEFAULT_255_2_778
10
18.0874334
20
45.3593594
11
18.1300334
21
45.3569594
0
LINE
8
DEFAULT_255_2_778
10
18.1300334
20
45.3569594
11
18.1363334
21
45.3569594
0
LINE
8
DEFAULT_255_2_778
10
22.2257334
20
45.4408594
11
18.1366334
21
45.4408594
0
ARC
8
DEFAULT_255_2_778
10
18.1368528
20
45.9411195
40
0.5000016
50
180.8090505
51
264.3355063
0
LINE
8
DEFAULT_255_2_778
10
18.087501
20
45.4435594
11
18.130101
21
45.4411594
0
LINE
8
DEFAULT_255_2_778
10
18.130101
20
45.4411594
11
18.136701
21
45.4411594
0
ARC
8
DEFAULT_255_2_778
10
22.3334855
20
45.9165734
40
0.3688593
50
359.9999078
51
0.2386701
0
ARC
8
DEFAULT_255_2_778
10
22.2843981
20
45.919817
40
0.4179595
50
342.11016
51
359.5552639
0
ARC
8
DEFAULT_255_2_778
10
22.1978919
20
45.9472127
40
0.5086988
50
312.7342148
51
342.1667704
0
ARC
8
DEFAULT_255_2_778
10
22.1932808
20
45.9509853
40
0.5145997
50
311.8244271
51
312.826273
0
ARC
8
DEFAULT_255_2_778
10
22.1925875
20
45.9521165
40
0.515905
50
290.7261495
51
311.7980319
0
ARC
8
DEFAULT_255_2_778
10
22.2208387
20
45.8682527
40
0.427483
50
270.7695798
51
291.1626506
0
ARC
8
DEFAULT_255_2_778
10
22.2263207
20
45.6655856
40
0.2247774
50
269.8014145
51
270.0661615
0
LINE
8
DEFAULT_255_2_778
10
22.7025417
20
45.9181099
11
22.7864417
21
45.8342099
0
LINE
8
DEFAULT_255_2_778
10
22.7864417
20
51.1788099
11
22.7864417
21
45.8340099
0
ARC
8
DEFAULT_255_2_778
10
22.290814
20
51.1672643
40
0.4897895
50
47.685552
51
85.6528399
0
ARC
8
DEFAULT_255_2_778
10
22.2816914
20
51.1494378
40
0.5091399
50
18.7408806
51
48.2769253
0
ARC
8
DEFAULT_255_2_778
10
22.3186992
20
51.164244
40
0.469342
50
17.5194256
51
18.4807324
0
ARC
8
DEFAULT_255_2_778
10
22.3681849
20
51.177163
40
0.4182707
50
0.4412937
51
17.8724224
0
ARC
8
DEFAULT_255_2_778
10
22.4162666
20
51.1803839
40
0.3701765
50
359.7617641
51
0.0000919
0
ARC
8
DEFAULT_255_2_778
10
22.2272932
20
51.2380565
40
0.3339928
50
90.0064693
51
90.30079
0
ARC
8
DEFAULT_255_2_778
10
22.2214746
20
51.1469893
40
0.4250991
50
68.8051375
51
89.2208139
0
ARC
8
DEFAULT_255_2_778
10
22.1920532
20
51.060246
40
0.5166267
50
48.1943264
51
69.2410014
0
ARC
8
DEFAULT_255_2_778
10
22.1969445
20
51.0649675
40
0.509847
50
18.7578744
51
48.250363
0
ARC
8
DEFAULT_255_2_778
10
22.2345053
20
51.0800024
40
0.4694514
50
17.5333383
51
18.4944971
0
ARC
8
DEFAULT_255_2_778
10
22.2843962
20
51.0930376
40
0.4179595
50
0.4447361
51
17.88984
0
ARC
8
DEFAULT_255_2_778
10
22.3334837
20
51.0962812
40
0.3688594
50
359.7613299
51
0.0000922
0
LINE
8
DEFAULT_255_2_778
10
22.7025398
20
51.0949447
11
22.7864398
21
51.1788447
0
LINE
8
DEFAULT_255_2_778
10
22.7025398
20
51.0949447
11
22.7025398
21
45.9181447
0
LINE
8
DEFAULT_255_2_778
10
22.2255355
20
51.5722365
11
22.3099355
21
51.6561365
0
LINE
8
DEFAULT_255_2_778
10
18.1366355
20
51.6561365
11
22.3101355
21
51.6561365
0
LINE
8
DEFAULT_255_2_778
10
22.3281355
20
51.6556365
11
22.3104355
21
51.6558365
0
LINE
8
DEFAULT_255_2_778
10
18.1366355
20
51.5722365
11
18.1366355
21
51.6561365
0
ARC
8
DEFAULT_255_2_778
10
18.136785
20
51.1558994
40
0.5000015
50
95.664488
51
179.1909637
0
LINE
8
DEFAULT_255_2_778
10
18.0874333
20
51.6534594
11
18.1297333
21
51.6558594
0
LINE
8
DEFAULT_255_2_778
10
18.1297333
20
51.6558594
11
18.1363333
21
51.6558594
0
LINE
8
DEFAULT_255_2_778
10
22.2257323
20
51.572
11
18.1366323
21
51.572
0
ARC
8
DEFAULT_255_2_778
10
18.1368527
20
51.0720994
40
0.5000015
50
95.664488
51
179.1909637
0
LINE
8
DEFAULT_255_2_778
10
18.087501
20
51.5696594
11
18.130101
21
51.5720594
0
LINE
8
DEFAULT_255_2_778
10
18.130101
20
51.5720594
11
18.136701
21
51.5720594
0
LINE
8
DEFAULT_255_2_778
10
17.6369
20
45.8586468
11
17.6369
21
45.9340468
0
LINE
8
DEFAULT_255_2_778
10
17.6369
20
51.0791468
11
17.6369
21
45.9340468
0
LINE
8
DEFAULT_255_2_778
10
17.6368125
20
45.9424489
11
17.6368125
21
45.9339489
0
LINE
8
DEFAULT_255_2_778
10
17.6368125
20
45.8583489
11
17.6368125
21
45.8498489
0
LINE
8
DEFAULT_255_2_778
10
17.6368125
20
51.1544489
11
17.6368125
21
51.0790489
0
LINE
8
DEFAULT_255_2_778
10
17.6368125
20
51.0790489
11
17.6368125
21
51.0706489
0
LINE
8
DEFAULT_255_2_778
10
17.6368125
20
51.1629489
11
17.6368125
21
51.1544489
0
LINE
8
DEFAULT_255_2_778
10
19.0370125
20
50.4313489
11
19.0370125
21
46.5314489
0
ARC
8
DEFAULT_255_2_778
10
2.7498937
20
27.1429665
40
0.1373658
50
357.0488558
51
55.003132
0
ARC
8
DEFAULT_255_2_778
10
2.7779507
20
27.166678
40
0.1022816
50
60.2674786
51
90.7838286
0
ARC
8
DEFAULT_255_2_778
10
2.7820714
20
27.0935266
40
0.1755101
50
91.8023011
51
119.2260742
0
ARC
8
DEFAULT_255_2_778
10
3.0841437
20
28.353115
40
0.0872325
50
265.1558847
51
270.9416953
0
ARC
8
DEFAULT_255_2_778
10
3.0838896
20
28.4618173
40
0.1957523
50
224.9194462
51
267.9178168
0
ARC
8
DEFAULT_255_2_778
10
3.0858227
20
28.4644126
40
0.1989542
50
182.6268573
51
225.0555971
0
LINE
8
DEFAULT_255_2_778
10
19.0369774
20
50.4313943
11
22.0804774
21
50.4313943
0
LINE
8
DEFAULT_255_2_778
10
22.0804774
20
50.4313943
11
22.0804774
21
46.5313943
0
LINE
8
DEFAULT_255_2_778
10
22.0804774
20
46.5313943
11
19.0369774
21
46.5313943
0
LINE
8
DEFAULT_255_2_778
10
19.0367774
20
50.4313943
11
17.7368774
21
50.4313943
0
LINE
8
DEFAULT_255_2_778
10
17.7368774
20
50.4313943
11
17.7368774
21
46.5313943
0
LINE
8
DEFAULT_255_2_778
10
17.7368774
20
46.5313943
11
19.0367774
21
46.5313943
0
LINE
8
DEFAULT_255_2_778
10
2.6963774
20
27.2466943
11
2.6878774
21
27.2419943
0
LINE
8
DEFAULT_255_2_778
10
2.8873774
20
27.1260943
11
2.8873774
21
27.1358943
0
LINE
8
DEFAULT_255_2_778
10
2.8870774
20
28.4637943
11
2.8873774
21
28.4550943
0
LINE
8
DEFAULT_255_2_778
10
2.8870774
20
28.4552943
11
2.8870774
21
28.5108943
0
LINE
8
DEFAULT_255_2_778
10
3.9774774
20
28.2695943
11
3.0852774
21
28.2663943
0
LINE
8
DEFAULT_255_2_778
10
3.0852774
20
28.2663943
11
3.0852774
21
27.0768943
0
LINE
8
DEFAULT_255_2_778
10
2.6875774
20
26.9709943
11
2.6875774
21
27.2419943
0
LINE
8
DEFAULT_255_2_778
10
2.6875774
20
27.2419943
11
1.8046774
21
26.7357943
0
LINE
8
DEFAULT_255_2_778
10
2.8868774
20
27.0238943
11
2.8868774
21
27.1358943
0
LINE
8
DEFAULT_255_2_778
10
2.8868774
20
27.1358943
11
2.8868774
21
28.4550943
0
LINE
8
DEFAULT_255_2_778
10
5.1368774
20
27.6559943
11
5.1368774
21
27.6229943
0
LINE
8
DEFAULT_255_2_778
10
5.1368774
20
28.2560943
11
5.6369774
21
28.2560943
0
LINE
8
DEFAULT_255_2_778
10
5.6369774
20
28.2560943
11
5.6369774
21
27.7559943
0
LINE
8
DEFAULT_255_2_778
10
0.2592774
20
26.3293943
11
0.2891774
21
26.3320943
0
LINE
8
DEFAULT_255_2_778
10
0.2891774
20
26.3320943
11
5.6369774
21
27.7562943
0
LINE
8
DEFAULT_255_2_778
10
5.6369774
20
27.7562943
11
5.6369774
21
26.7561943
0
LINE
8
DEFAULT_255_2_778
10
5.6369774
20
26.7561943
11
5.1368774
21
26.7561943
0
LINE
8
DEFAULT_255_2_778
10
5.1368774
20
26.7561943
11
0.2891774
21
26.3320943
0
LINE
8
DEFAULT_255_2_778
10
4.0869774
20
62.3563943
11
5.1368774
21
62.3563943
0
LINE
8
DEFAULT_255_2_778
10
5.1368774
20
62.3563943
11
5.1368774
21
62.1563943
0
LINE
8
DEFAULT_255_2_778
10
4.0870178
20
62.3564416
11
0.1370178
21
62.3564416
0
LINE
8
DEFAULT_255_2_778
10
4.0245178
20
62.1371416
11
4.0870178
21
62.3564416
0
LINE
8
DEFAULT_255_2_778
10
3.2734178
20
59.4952416
11
3.2054178
21
59.2563416
0
LINE
8
DEFAULT_255_2_778
10
3.2054178
20
59.2563416
11
2.8868178
21
59.2563416
0
LINE
8
DEFAULT_255_2_778
10
2.8871178
20
59.0565416
11
2.8871178
21
59.2565416
0
LINE
8
DEFAULT_255_2_778
10
2.6876178
20
59.0671416
11
2.6876178
21
59.2565416
0
LINE
8
DEFAULT_255_2_778
10
2.886874
20
59.2565271
11
2.687574
21
59.2565271
0
LINE
8
DEFAULT_255_2_778
10
2.687874
20
59.2565271
11
0.732074
21
59.2565271
0
LINE
8
DEFAULT_255_2_778
10
3.273374
20
59.4952271
11
3.273974
21
59.4952271
0
ENDSEC
0
EOF