0
SECTION
2
HEADER
9
$MEASUREMENT
70
1
0
ENDSEC
0
SECTION
2
TABLES
0
TABLE
2
LTYPE
0
LTYPE
72
65
70
64
2
CONTINUOUS
3
______
73
0
40
0
0
ENDTAB
0
TABLE
2
LAYER
0
LAYER
2
DEFAULT_255_2_778
70
0
62
255
6
CONTINUOUS
0
ENDTAB
0
ENDSEC
0
SECTION
2
ENTITIES
0
ARC
8
DEFAULT_255_2_778
10
1.2584435
20
88.7559941
40
1.0001736
50
89.8932212
51
112.7039131
0
ARC
8
DEFAULT_255_2_778
10
1.2640057
20
88.7538189
40
1.0043362
50
112.9487429
51
135.058539
0
ARC
8
DEFAULT_255_2_778
10
1.2561043
20
88.7567942
40
0.9966478
50
134.8587429
51
174.8750585
0
ARC
8
DEFAULT_255_2_778
10
1.2621702
20
88.7559738
40
1.0027628
50
174.8593305
51
180.0004512
0
ARC
8
DEFAULT_255_2_778
10
1.2663709
20
0.756659
40
1.0069635
50
180.0280563
51
202.6259922
0
ARC
8
DEFAULT_255_2_778
10
1.2637341
20
0.7615275
40
1.0064178
50
202.9395795
51
225.0819195
0
ARC
8
DEFAULT_255_2_778
10
1.2615751
20
0.754957
40
1.0002454
50
224.9037424
51
246.7607955
0
ARC
8
DEFAULT_255_2_778
10
1.2583656
20
0.7586012
40
1.0023372
50
247.0115665
51
270.1110048
0
ARC
8
DEFAULT_255_2_778
10
17.2684082
20
0.7136253
40
0.957392
50
269.5271707
51
269.9985405
0
ARC
8
DEFAULT_255_2_778
10
17.2664825
20
0.7371884
40
0.9809569
50
270.1110516
51
293.0974104
0
ARC
8
DEFAULT_255_2_778
10
17.2618084
20
0.7553646
40
0.9995136
50
292.9351246
51
350.4284222
0
ARC
8
DEFAULT_255_2_778
10
17.2349003
20
0.7581342
40
1.0265091
50
350.5257245
51
359.890137
0
ARC
8
DEFAULT_255_2_778
10
17.2516666
20
88.7559053
40
1.0097409
50
0.0034359
51
9.5520848
0
ARC
8
DEFAULT_255_2_778
10
17.263449
20
88.7559872
40
0.99811
50
9.659689
51
45.1225919
0
ARC
8
DEFAULT_255_2_778
10
17.2565778
20
88.7541679
40
1.0042537
50
44.9180366
51
67.0844828
0
ARC
8
DEFAULT_255_2_778
10
17.2671899
20
88.7782978
40
0.9778961
50
67.1066941
51
89.9611385
0
ARC
8
DEFAULT_255_2_778
10
17.2677814
20
88.8277316
40
0.9284622
50
89.9955682
51
90.1551168
0
ARC
8
DEFAULT_255_2_778
10
17.2677274
20
88.8119546
40
0.9442389
50
90.1492465
51
90.4381008
0
LINE
8
DEFAULT_255_2_778
10
1.4281075
20
89.7561659
11
1.2603075
21
89.7561659
0
LINE
8
DEFAULT_255_2_778
10
0.2594075
20
88.7559659
11
0.2594075
21
0.7561659
0
LINE
8
DEFAULT_255_2_778
10
1.2603075
20
-0.2437341
11
1.4281075
21
-0.2437341
0
LINE
8
DEFAULT_255_2_778
10
1.4281075
20
-0.2437341
11
17.0927075
21
-0.2437341
0
LINE
8
DEFAULT_255_2_778
10
17.0927075
20
-0.2437341
11
17.2605075
21
-0.2437341
0
LINE
8
DEFAULT_255_2_778
10
18.2614075
20
0.7561659
11
18.2614075
21
88.7559659
0
LINE
8
DEFAULT_255_2_778
10
17.2605075
20
89.7561659
11
17.0927075
21
89.7561659
0
LINE
8
DEFAULT_255_2_778
10
17.0927075
20
89.7561659
11
1.4281075
21
89.7561659
0
LINE
8
DEFAULT_255_2_778
10
18.0914878
20
0.7221333
11
18.2610878
21
0.7560333
0
ARC
8
DEFAULT_255_2_778
10
17.2577163
20
0.7562914
40
1.0018743
50
293.1156121
51
315.1045402
0
ARC
8
DEFAULT_255_2_778
10
17.2644499
20
0.755629
40
0.9966459
50
314.8582869
51
354.5259345
0
ARC
8
DEFAULT_255_2_778
10
17.2591448
20
0.7563413
40
1.001995
50
354.5143281
51
0.0006676
0
ARC
8
DEFAULT_255_2_778
10
1.2597422
20
0.7561624
40
1.0006313
50
202.7471635
51
246.8864588
0
LINE
8
DEFAULT_255_2_778
10
0.4290398
20
0.723053
11
0.2594398
21
0.756153
0
LINE
8
DEFAULT_255_2_778
10
1.2603398
20
-0.243747
11
1.2603398
21
-0.243747
0
LINE
8
DEFAULT_255_2_778
10
15.9420398
20
10.715553
11
15.9420398
21
9.891353
0
LINE
8
DEFAULT_255_2_778
10
16.0743398
20
9.891353
11
15.9420398
21
9.891353
0
LINE
8
DEFAULT_255_2_778
10
13.3692398
20
9.891353
11
15.9420398
21
9.891353
0
LINE
8
DEFAULT_255_2_778
10
16.0743698
20
10.7154885
11
15.9420698
21
10.7154885
0
LINE
8
DEFAULT_255_2_778
10
13.3713698
20
10.3381885
11
13.4464698
21
10.7154885
0
LINE
8
DEFAULT_255_2_778
10
13.4464698
20
10.7154885
11
15.9417698
21
10.7154885
0
LINE
8
DEFAULT_255_2_778
10
16.0743698
20
10.7154885
11
16.0743698
21
9.9714885
0
LINE
8
DEFAULT_255_2_778
10
16.0743698
20
9.8912885
11
16.0743698
21
9.9714885
0
LINE
8
DEFAULT_255_2_778
10
16.3778698
20
9.9714885
11
16.0745698
21
9.9714885
0
LINE
8
DEFAULT_255_2_778
10
16.3735615
20
10.3381885
11
16.2479615
21
10.7154885
0
LINE
8
DEFAULT_255_2_778
10
16.2479615
20
10.7154885
11
16.0743615
21
10.7154885
0
LINE
8
DEFAULT_255_2_778
10
16.3778615
20
9.8912885
11
16.0743615
21
9.8912885
0
ARC
8
DEFAULT_255_2_778
10
16.0548533
20
10.3084688
40
0.3201224
50
359.8654789
51
5.3318069
0
ARC
8
DEFAULT_255_2_778
10
9.2627272
20
10.1557711
40
7.1138708
50
0.5026064
51
1.2238812
0
ARC
8
DEFAULT_255_2_778
10
-5.9610729
20
9.9962161
40
22.3384998
50
0.2850891
51
0.5693071
0
ARC
8
DEFAULT_255_2_778
10
-19.8795236
20
9.922119
40
36.2571473
50
0.0775855
51
0.2927405
0
LINE
8
DEFAULT_255_2_778
10
16.3775907
20
9.8911156
11
16.3775907
21
9.9710156
0
LINE
8
DEFAULT_255_2_778
10
18.2182907
20
10.0061156
11
18.1803907
21
10.0061156
0
LINE
8
DEFAULT_255_2_778
10
18.2253907
20
10.0061156
11
18.2182907
21
10.0061156
0
LINE
8
DEFAULT_255_2_778
10
18.2221907
20
9.8596156
11
18.2253907
21
10.0061156
0
LINE
8
DEFAULT_255_2_778
10
18.2222031
20
9.8595896
11
18.2230031
21
10.0061896
0
ARC
8
DEFAULT_255_2_778
10
16.9083535
20
10.0325067
40
1.3149689
50
359.9997734
51
3.4349613
0
ARC
8
DEFAULT_255_2_778
10
16.9034808
20
10.0325107
40
1.3198416
50
358.8574743
51
359.9996012
0
LINE
8
DEFAULT_255_2_778
10
18.21676
20
9.6095937
11
18.22096
21
10.1112937
0
LINE
8
DEFAULT_255_2_778
10
5.10556
20
10.5562937
11
2.26026
21
10.5562937
0
LINE
8
DEFAULT_255_2_778
10
2.26026
20
10.2562937
11
2.26026
21
10.5562937
0
LINE
8
DEFAULT_255_2_778
10
2.26026
20
10.6779937
11
2.26026
21
10.5559937
0
LINE
8
DEFAULT_255_2_778
10
5.14896
20
10.3382937
11
5.10556
21
10.5562937
0
LINE
8
DEFAULT_255_2_778
10
2.260249
20
10.6778885
11
2.272649
21
10.7154885
0
LINE
8
DEFAULT_255_2_778
10
2.272649
20
10.7154885
11
5.073549
21
10.7154885
0
LINE
8
DEFAULT_255_2_778
10
5.073549
20
10.7154885
11
5.105349
21
10.5559885
0
LINE
8
DEFAULT_255_2_778
10
5.150249
20
10.2561885
11
2.260249
21
10.2561885
0
LINE
8
DEFAULT_255_2_778
10
2.260249
20
9.8912885
11
2.260249
21
10.2561885
0
LINE
8
DEFAULT_255_2_778
10
5.151349
20
9.8912885
11
5.150249
21
10.2561885
0
LINE
8
DEFAULT_255_2_778
10
5.1489678
20
10.3382583
11
5.1500678
21
10.2562583
0
LINE
8
DEFAULT_255_2_778
10
9.8148678
20
10.5562583
11
12.2101678
21
10.5562583
0
LINE
8
DEFAULT_255_2_778
10
12.2104678
20
10.2562583
11
12.2104678
21
10.5562583
0
LINE
8
DEFAULT_255_2_778
10
12.2104678
20
10.7155583
11
12.2104678
21
10.5562583
0
LINE
8
DEFAULT_255_2_778
10
9.7714678
20
10.3382583
11
9.8148678
21
10.5562583
0
LINE
8
DEFAULT_255_2_778
10
12.210174
20
10.7154885
11
9.846674
21
10.7154885
0
LINE
8
DEFAULT_255_2_778
10
9.846674
20
10.7154885
11
9.814874
21
10.5559885
0
LINE
8
DEFAULT_255_2_778
10
9.770174
20
10.2561885
11
12.210174
21
10.2561885
0
LINE
8
DEFAULT_255_2_778
10
12.210474
20
9.8912885
11
12.210474
21
10.2561885
0
LINE
8
DEFAULT_255_2_778
10
9.7713782
20
10.3382406
11
9.7703782
21
10.2562406
0
LINE
8
DEFAULT_255_2_778
10
9.7692782
20
9.8913406
11
9.7705782
21
10.2562406
0
LINE
8
DEFAULT_255_2_778
10
8.7503782
20
10.2562406
11
6.1701782
21
10.2562406
0
LINE
8
DEFAULT_255_2_778
10
6.1715657
20
10.3382489
11
6.1704657
21
10.2562489
0
LINE
8
DEFAULT_255_2_778
10
6.1691657
20
9.8913489
11
6.1704657
21
10.2562489
0
LINE
8
DEFAULT_255_2_778
10
8.7512657
20
9.8913489
11
8.7501657
21
10.2562489
0
LINE
8
DEFAULT_255_2_778
10
8.7491657
20
10.3382489
11
8.7501657
21
10.2562489
0
LINE
8
DEFAULT_255_2_778
10
6.2149657
20
10.5562489
11
8.7054657
21
10.5562489
0
LINE
8
DEFAULT_255_2_778
10
8.7488585
20
10.3381885
11
8.7054585
21
10.5561885
0
LINE
8
DEFAULT_255_2_778
10
6.2149585
20
10.5559885
11
6.2467585
21
10.7154885
0
LINE
8
DEFAULT_255_2_778
10
6.2467585
20
10.7154885
11
8.6737585
21
10.7154885
0
LINE
8
DEFAULT_255_2_778
10
8.6737585
20
10.7154885
11
8.7054585
21
10.5559885
0
LINE
8
DEFAULT_255_2_778
10
6.1715585
20
10.3381885
11
6.2149585
21
10.5561885
0
LINE
8
DEFAULT_255_2_778
10
5.1513585
20
9.8912885
11
2.2602585
21
9.8912885
0
LINE
8
DEFAULT_255_2_778
10
2.1427585
20
9.8912885
11
2.2602585
21
9.8912885
0
LINE
8
DEFAULT_255_2_778
10
12.3514585
20
9.8912885
11
12.2104585
21
9.8912885
0
LINE
8
DEFAULT_255_2_778
10
9.7693585
20
9.8912885
11
12.2104585
21
9.8912885
0
ARC
8
DEFAULT_255_2_778
10
36.6293381
20
9.5095439
40
18.4491972
50
180.0072189
51
181.2391528
0
ARC
8
DEFAULT_255_2_778
10
35.8527627
20
9.507353
40
17.6726216
50
179.6582334
51
180.0004331
0
LINE
8
DEFAULT_255_2_778
10
12.3492554
20
10.3382687
11
12.2741554
21
10.7155687
0
LINE
8
DEFAULT_255_2_778
10
12.2741554
20
10.7155687
11
12.2106554
21
10.7155687
0
LINE
8
DEFAULT_255_2_778
10
2.1469554
20
10.3379687
11
2.2601554
21
10.6779687
0
LINE
8
DEFAULT_255_2_778
10
18.2166554
20
9.6095687
11
18.1804554
21
9.6127687
0
LINE
8
DEFAULT_255_2_778
10
18.2164554
20
9.6095687
11
18.2206554
21
9.1074687
0
LINE
8
DEFAULT_255_2_778
10
18.2206554
20
9.1074687
11
18.1844554
21
9.1074687
0
LINE
8
DEFAULT_255_2_778
10
18.2222554
20
9.8596687
11
18.2166554
21
9.6098687
0
LINE
8
DEFAULT_255_2_778
10
18.2223127
20
9.8596239
11
18.2167127
21
9.6099239
0
LINE
8
DEFAULT_255_2_778
10
16.9383127
20
11.1955239
11
16.9383127
21
10.7447239
0
LINE
8
DEFAULT_255_2_778
10
17.0737127
20
10.3383239
11
16.9383127
21
10.7447239
0
LINE
8
DEFAULT_255_2_778
10
1.5821127
20
10.7447239
11
16.9383127
21
10.7447239
0
ARC
8
DEFAULT_255_2_778
10
17.5836053
20
14.1420947
40
4.2502617
50
269.9810168
51
273.1864176
0
ARC
8
DEFAULT_255_2_778
10
17.7029008
20
12.0929502
40
2.1976603
50
273.0505919
51
276.997602
0
ARC
8
DEFAULT_255_2_778
10
17.9084577
20
10.4746314
40
0.5663949
50
276.302678
51
285.0177905
0
ARC
8
DEFAULT_255_2_778
10
18.0528218
20
9.9614688
40
0.0339724
50
274.0504484
51
328.5295368
0
LINE
8
DEFAULT_255_2_778
10
1.5820971
20
11.1954332
11
16.9382971
21
11.1954332
0
LINE
8
DEFAULT_255_2_778
10
18.0912971
20
0.7221332
11
18.0817971
21
9.9437332
0
LINE
8
DEFAULT_255_2_778
10
16.3778971
20
9.8913332
11
17.5821971
21
9.8918332
0
LINE
8
DEFAULT_255_2_778
10
17.5914971
20
0.7385332
11
17.5821971
21
9.8918332
0
ARC
8
DEFAULT_255_2_778
10
17.1196782
20
9.7539091
40
0.5210777
50
42.5694141
51
66.1551012
0
ARC
8
DEFAULT_255_2_778
10
17.284756
20
9.9102744
40
0.293747
50
19.0413059
51
41.8897937
0
ARC
8
DEFAULT_255_2_778
10
17.0539198
20
9.8594767
40
0.5292296
50
3.6391802
51
16.0852834
0
LINE
8
DEFAULT_255_2_778
10
17.5820821
20
9.8930685
11
17.5822302
21
9.8916092
0
ARC
8
DEFAULT_255_2_778
10
17.5865768
20
4.7557965
40
4.0671903
50
270.0697811
51
272.7761215
0
ARC
8
DEFAULT_255_2_778
10
17.5860484
20
4.8055257
40
4.1168873
50
272.7499452
51
274.5829076
0
ARC
8
DEFAULT_255_2_778
10
17.6194245
20
4.3808505
40
3.6909032
50
274.5931968
51
275.2693932
0
ARC
8
DEFAULT_255_2_778
10
17.6937574
20
3.598007
40
2.9045421
50
275.2275056
51
276.6676466
0
ARC
8
DEFAULT_255_2_778
10
17.8760511
20
2.0567725
40
1.3525675
50
276.5783444
51
278.4316198
0
ARC
8
DEFAULT_255_2_778
10
18.0595856
20
0.8430411
40
0.1250944
50
276.7905047
51
284.6546362
0
ARC
8
DEFAULT_255_2_778
10
18.0910314
20
0.7226518
40
0.0006668
50
287.6405071
51
318.4246957
0
LINE
8
DEFAULT_255_2_778
10
17.0980302
20
10.3244092
11
17.1565302
21
10.3006092
0
LINE
8
DEFAULT_255_2_778
10
17.1565302
20
10.3006092
11
17.2377302
21
10.2699092
0
LINE
8
DEFAULT_255_2_778
10
17.2377302
20
10.2699092
11
17.3303302
21
10.2305092
0
LINE
8
DEFAULT_255_2_778
10
16.3778302
20
9.8913092
11
16.3778302
21
9.8913092
0
LINE
8
DEFAULT_255_2_778
10
17.0740302
20
10.3382092
11
16.3736302
21
10.3382092
0
ARC
8
DEFAULT_255_2_778
10
17.0924641
20
0.7560014
40
0.9998046
50
270.0018681
51
315.0051877
0
ARC
8
DEFAULT_255_2_778
10
17.0791813
20
0.7690625
40
1.0184326
50
315.013915
51
344.1676479
0
ARC
8
DEFAULT_255_2_778
10
17.1687779
20
0.7391524
40
0.9240849
50
344.436206
51
347.6000329
0
ARC
8
DEFAULT_255_2_778
10
17.2559703
20
0.7224153
40
0.8353359
50
347.437023
51
359.8050082
0
ARC
8
DEFAULT_255_2_778
10
17.308882
20
0.7195133
40
0.7824193
50
0.0043343
51
0.1965161
0
LINE
8
DEFAULT_255_2_778
10
17.0924721
20
0.1877677
11
17.0924721
21
-0.2437323
0
LINE
8
DEFAULT_255_2_778
10
1.4280721
20
0.1877677
11
17.0927721
21
0.1877677
0
ARC
8
DEFAULT_255_2_778
10
17.0936866
20
0.6859155
40
0.4975683
50
315.0404609
51
357.467517
0
ARC
8
DEFAULT_255_2_778
10
17.0917314
20
0.6875048
40
0.500075
50
270.0615883
51
315.0699007
0
ARC
8
DEFAULT_255_2_778
10
1.997053
20
9.7957455
40
1.0628069
50
171.4399015
51
174.5964496
0
ARC
8
DEFAULT_255_2_778
10
1.2877127
20
9.9023009
40
0.3455082
50
162.4595129
51
171.4043091
0
ARC
8
DEFAULT_255_2_778
10
1.2394467
20
9.9083369
40
0.2977972
50
138.2511519
51
160.7678896
0
ARC
8
DEFAULT_255_2_778
10
1.3382423
20
9.8256486
40
0.4265846
50
124.2807753
51
138.8009517
0
ARC
8
DEFAULT_255_2_778
10
1.4686339
20
9.6349866
40
0.6575693
50
115.0446311
51
124.3113411
0
ARC
8
DEFAULT_255_2_778
10
1.382065
20
10.4252741
40
0.108396
50
291.9419275
51
306.2975669
0
ARC
8
DEFAULT_255_2_778
10
0.5895988
20
11.5123062
40
1.4536245
50
306.1094091
51
306.1292707
0
ARC
8
DEFAULT_255_2_778
10
0.4521734
20
9.9482104
40
0.0140386
50
198.6114509
51
253.1643774
0
ARC
8
DEFAULT_255_2_778
10
0.5314632
20
10.1301232
40
0.2123902
50
246.8920472
51
260.9162209
0
ARC
8
DEFAULT_255_2_778
10
0.6884559
20
10.9363683
40
1.0336818
50
259.3787194
51
264.3377747
0
ARC
8
DEFAULT_255_2_778
10
0.8539807
20
12.6131803
40
2.7186437
50
264.3530163
51
270.0109995
0
ARC
8
DEFAULT_255_2_778
10
0.8544498
20
12.6571238
40
2.762587
50
270.0010964
51
271.7531934
0
ARC
8
DEFAULT_255_2_778
10
0.9354706
20
4.7546636
40
4.0661384
50
267.176426
51
269.9112045
0
ARC
8
DEFAULT_255_2_778
10
0.9329022
20
4.7413889
40
4.0527538
50
265.3284376
51
267.2034483
0
ARC
8
DEFAULT_255_2_778
10
0.8930011
20
4.2428062
40
3.5525779
50
264.6101936
51
265.3149229
0
ARC
8
DEFAULT_255_2_778
10
0.8112448
20
3.4007526
40
2.7065686
50
263.1465732
51
264.6588772
0
ARC
8
DEFAULT_255_2_778
10
0.6249078
20
1.8702517
40
1.1647705
50
261.1336589
51
263.26321
0
ARC
8
DEFAULT_255_2_778
10
0.4562129
20
0.8119187
40
0.0931509
50
253.2023067
51
263.3228103
0
ARC
8
DEFAULT_255_2_778
10
0.4295135
20
0.7232324
40
0.0005375
50
214.2291389
51
245.7712917
0
ARC
8
DEFAULT_255_2_778
10
1.426537
20
0.685755
40
0.4973744
50
180.2908708
51
224.9231848
0
ARC
8
DEFAULT_255_2_778
10
1.4282667
20
0.6877086
40
0.4999787
50
224.9417246
51
269.9544255
0
LINE
8
DEFAULT_255_2_778
10
17.073769
20
10.33823
11
17.0740374
21
10.3380301
0
LINE
8
DEFAULT_255_2_778
10
17.0740374
20
10.3380301
11
17.074196
21
10.3379121
0
ARC
8
DEFAULT_255_2_778
10
17.1365901
20
10.4218211
40
0.1045646
50
233.3658129
51
248.2063859
0
LINE
8
DEFAULT_255_2_778
10
17.591269
20
0.68833
11
17.590769
21
0.66393
0
LINE
8
DEFAULT_255_2_778
10
17.260269
20
-0.24387
11
17.260269
21
-0.24387
0
LINE
8
DEFAULT_255_2_778
10
1.582169
20
10.74463
11
1.446669
21
10.33823
0
LINE
8
DEFAULT_255_2_778
10
2.146969
20
10.33823
11
1.446669
21
10.33823
0
LINE
8
DEFAULT_255_2_778
10
1.190269
20
10.23073
11
1.282869
21
10.27023
0
LINE
8
DEFAULT_255_2_778
10
1.282869
20
10.27023
11
1.364069
21
10.30083
0
LINE
8
DEFAULT_255_2_778
10
1.364069
20
10.30083
11
1.422569
21
10.32473
0
LINE
8
DEFAULT_255_2_778
10
0.929169
20
0.67953
11
0.938669
21
9.89583
0
LINE
8
DEFAULT_255_2_778
10
2.142769
20
9.89133
11
0.938969
21
9.89583
0
LINE
8
DEFAULT_255_2_778
10
0.429069
20
0.72273
11
0.438869
21
9.94373
0
LINE
8
DEFAULT_255_2_778
10
1.582169
20
11.19543
11
1.582169
21
10.74463
0
LINE
8
DEFAULT_255_2_778
10
1.428169
20
0.18773
11
1.428169
21
-0.24387
0
LINE
8
DEFAULT_255_2_778
10
2.142769
20
9.89133
11
2.146969
21
10.33823
0
LINE
8
DEFAULT_255_2_778
10
6.171369
20
10.33823
11
5.148969
21
10.33823
0
LINE
8
DEFAULT_255_2_778
10
17.591569
20
0.73853
11
17.591569
21
0.68883
0
LINE
8
DEFAULT_255_2_778
10
13.369269
20
9.89183
11
13.369269
21
9.89133
0
LINE
8
DEFAULT_255_2_778
10
13.3715927
20
10.3382406
11
13.3691927
21
9.8913406
0
LINE
8
DEFAULT_255_2_778
10
12.3513927
20
9.8913406
11
13.3691927
21
9.8913406
0
LINE
8
DEFAULT_255_2_778
10
12.3489927
20
10.3382406
11
13.3712927
21
10.3382406
0
LINE
8
DEFAULT_255_2_778
10
12.3514
20
9.8913
11
12.3514
21
9.8913
0
LINE
8
DEFAULT_255_2_778
10
12.3489941
20
10.3382406
11
12.3513941
21
9.8913406
0
LINE
8
DEFAULT_255_2_778
10
9.7692941
20
9.8918406
11
9.7692941
21
9.8913406
0
LINE
8
DEFAULT_255_2_778
10
8.7511941
20
9.8913406
11
9.7690941
21
9.8913406
0
LINE
8
DEFAULT_255_2_778
10
8.7512
20
9.8913
11
8.7512
21
9.8913
0
LINE
8
DEFAULT_255_2_778
10
6.1691657
20
9.8913
11
8.7512657
21
9.8913
0
LINE
8
DEFAULT_255_2_778
10
6.1692
20
9.8918646
11
6.1692
21
9.8913646
0
LINE
8
DEFAULT_255_2_778
10
5.151274
20
9.8913
11
6.169174
21
9.8913
0
ARC
8
DEFAULT_255_2_778
10
1.428086
20
0.7564831
40
1.0002976
50
225.0065109
51
269.986433
0
ARC
8
DEFAULT_255_2_778
10
1.4403944
20
0.7683973
40
1.0174257
50
195.5441519
51
224.990703
0
ARC
8
DEFAULT_255_2_778
10
1.3501235
20
0.7386993
40
0.9225085
50
192.0701444
51
195.2695728
0
ARC
8
DEFAULT_255_2_778
10
1.266101
20
0.7229859
40
0.8370606
50
180.1802843
51
192.220997
0
ARC
8
DEFAULT_255_2_778
10
1.2167282
20
0.7202928
40
0.7876836
50
179.8041365
51
179.9956917
0
ARC
8
DEFAULT_255_2_778
10
9.4338661
20
3.539736
40
3.8191345
50
323.8455716
51
339.1012831
0
ARC
8
DEFAULT_255_2_778
10
12.4024374
20
2.3632024
40
0.6274571
50
342.7739257
51
0.0004387
0
ARC
8
DEFAULT_255_2_778
10
12.4036943
20
2.3632181
40
0.6262003
50
359.9990011
51
0.987475
0
ARC
8
DEFAULT_255_2_778
10
12.4026637
20
2.363217
40
0.6272307
50
0.9859519
51
10.5710573
0
ARC
8
DEFAULT_255_2_778
10
12.7476856
20
2.4247355
40
0.276793
50
11.1551109
51
32.0664248
0
ARC
8
DEFAULT_255_2_778
10
12.8321016
20
2.4754671
40
0.1783319
50
32.652802
51
65.1483959
0
ARC
8
DEFAULT_255_2_778
10
12.8287966
20
2.4453376
40
0.2072859
50
67.8204483
51
89.9614271
0
ARC
8
DEFAULT_255_2_778
10
12.8289335
20
2.447779
40
0.2048445
50
89.9992649
51
92.9377137
0
ARC
8
DEFAULT_255_2_778
10
12.8289117
20
2.4483146
40
0.2043084
50
92.939299
51
95.776287
0
ARC
8
DEFAULT_255_2_778
10
12.8271357
20
2.3853663
40
0.2668813
50
94.0365609
51
97.6627804
0
ARC
8
DEFAULT_255_2_778
10
12.8001081
20
2.5314585
40
0.1187146
50
94.1344375
51
134.7378932
0
ARC
8
DEFAULT_255_2_778
10
12.9021312
20
2.4662191
40
0.2383502
50
141.1335772
51
169.6636355
0
ARC
8
DEFAULT_255_2_778
10
13.2250181
20
2.3606366
40
0.6970455
50
158.5281866
51
165.345195
0
ARC
8
DEFAULT_255_2_778
10
12.7917769
20
2.5381781
40
0.2289804
50
150.7721584
51
160.1885459
0
ARC
8
DEFAULT_255_2_778
10
12.7949605
20
2.5341695
40
0.2337241
50
130.9917096
51
150.2956494
0
ARC
8
DEFAULT_255_2_778
10
12.7962609
20
2.5311321
40
0.236872
50
111.6555274
51
130.7472262
0
ARC
8
DEFAULT_255_2_778
10
12.8244319
20
2.4468814
40
0.325609
50
90.3137011
51
110.7918515
0
ARC
8
DEFAULT_255_2_778
10
12.8313516
20
2.4257724
40
0.3468224
50
89.9975534
51
91.4378195
0
ARC
8
DEFAULT_255_2_778
10
12.8312434
20
2.42108
40
0.3515148
50
75.8207469
51
89.9799426
0
ARC
8
DEFAULT_255_2_778
10
12.8444761
20
2.4824994
40
0.2887336
50
54.6450062
51
75.3811061
0
ARC
8
DEFAULT_255_2_778
10
12.8313459
20
2.46753
40
0.3085469
50
33.0905788
51
54.2649202
0
ARC
8
DEFAULT_255_2_778
10
12.7987838
20
2.4485519
40
0.3461941
50
14.0309867
51
32.7797991
0
ARC
8
DEFAULT_255_2_778
10
12.6084
20
2.4080306
40
0.5407653
50
0.4955112
51
13.3056564
0
ARC
8
DEFAULT_255_2_778
10
11.5089278
20
2.37185
40
1.6407261
50
359.8615554
51
1.4269238
0
ARC
8
DEFAULT_255_2_778
10
12.355429
20
2.3693505
40
0.7942215
50
343.4252088
51
359.8943172
0
ARC
8
DEFAULT_255_2_778
10
9.3084574
20
3.6030407
40
4.0785622
50
324.4702783
51
339.0206247
0
LINE
8
DEFAULT_255_2_778
10
5.1513491
20
9.8913855
11
5.1513491
21
9.8913855
0
LINE
8
DEFAULT_255_2_778
10
2.1427491
20
9.8918855
11
2.1427491
21
9.8913855
0
LINE
8
DEFAULT_255_2_778
10
8.7491491
20
10.3381855
11
9.7714491
21
10.3381855
0
LINE
8
DEFAULT_255_2_778
10
0.2811491
20
64.0060855
11
0.2811491
21
67.5059855
0
LINE
8
DEFAULT_255_2_778
10
0.2811491
20
20.5061855
11
0.2811491
21
24.0060855
0
LINE
8
DEFAULT_255_2_778
10
0.3401491
20
20.5061855
11
0.3401491
21
24.0060855
0
LINE
8
DEFAULT_255_2_778
10
0.3401491
20
63.6128855
11
0.3401491
21
67.8993855
0
LINE
8
DEFAULT_255_2_778
10
12.6676491
20
2.5089855
11
12.5506491
21
2.5369855
0
LINE
8
DEFAULT_255_2_778
10
12.6276491
20
1.2328855
11
12.6276491
21
1.1785855
0
LINE
8
DEFAULT_255_2_778
10
12.6276491
20
1.1785855
11
13.1798491
21
1.1785855
0
LINE
8
DEFAULT_255_2_778
10
13.1798491
20
1.1785855
11
13.1798491
21
1.0584855
0
LINE
8
DEFAULT_255_2_778
10
13.1798491
20
1.0584855
11
12.5080491
21
1.0584855
0
LINE
8
DEFAULT_255_2_778
10
12.5080491
20
1.0584855
11
12.5175491
21
1.2865855
0
ARC
8
DEFAULT_255_2_778
10
9.1618716
20
2.9887707
40
0.7784421
50
321.7959272
51
334.4828207
0
ARC
8
DEFAULT_255_2_778
10
9.547096
20
2.6897844
40
0.2908342
50
307.5588202
51
321.1457357
0
ARC
8
DEFAULT_255_2_778
10
9.3950152
20
2.8371008
40
0.6203058
50
309.80029
51
334.2623187
0
ARC
8
DEFAULT_255_2_778
10
12.3717362
20
2.0487845
40
3.9889188
50
176.8664607
51
180.2318658
0
ARC
8
DEFAULT_255_2_778
10
21.9966805
20
2.0605632
40
13.6138592
50
180.1175097
51
180.8214186
0
ARC
8
DEFAULT_255_2_778
10
-6.2312319
20
1.6598487
40
14.6168975
50
0.194359
51
0.805735
0
ARC
8
DEFAULT_255_2_778
10
11.4495188
20
1.7070289
40
3.0639383
50
179.9550601
51
181.311418
0
ARC
8
DEFAULT_255_2_778
10
10.0147893
20
1.6609942
40
1.6285844
50
180.8474908
51
189.2278757
0
ARC
8
DEFAULT_255_2_778
10
9.1272903
20
1.5100164
40
0.728391
50
188.7005801
51
203.9243371
0
ARC
8
DEFAULT_255_2_778
10
8.8080353
20
1.3732205
40
0.3811166
50
204.5895647
51
216.7794562
0
ARC
8
DEFAULT_255_2_778
10
8.6892529
20
1.2782045
40
0.229143
50
215.5332949
51
236.7697428
0
ARC
8
DEFAULT_255_2_778
10
8.7050568
20
1.296404
40
0.2530479
50
236.0347428
51
251.9335092
0
ARC
8
DEFAULT_255_2_778
10
8.7138657
20
1.3329271
40
0.2905171
50
252.5156972
51
264.5318127
0
ARC
8
DEFAULT_255_2_778
10
8.7298926
20
1.3529778
40
0.3123197
50
261.9546722
51
267.2049135
0
ARC
8
DEFAULT_255_2_778
10
8.7298702
20
1.3526987
40
0.3120397
50
267.206513
51
270.0002929
0
ARC
8
DEFAULT_255_2_778
10
8.7298612
20
1.3526134
40
0.3119545
50
270.0019559
51
292.8464313
0
ARC
8
DEFAULT_255_2_778
10
8.7084949
20
1.3670312
40
0.3338345
50
295.2657757
51
333.2421615
0
ARC
8
DEFAULT_255_2_778
10
8.5982807
20
1.4343324
40
0.4626655
50
331.9450025
51
346.1950111
0
ARC
8
DEFAULT_255_2_778
10
8.609991
20
1.4118509
40
0.3261419
50
331.8597315
51
349.4134728
0
ARC
8
DEFAULT_255_2_778
10
8.7026553
20
1.3613702
40
0.220624
50
314.0244716
51
332.0701385
0
ARC
8
DEFAULT_255_2_778
10
8.7580317
20
1.305815
40
0.1421979
50
293.5213007
51
313.5373319
0
ARC
8
DEFAULT_255_2_778
10
8.7436558
20
1.3514669
40
0.1898607
50
277.0265738
51
292.0008207
0
ARC
8
DEFAULT_255_2_778
10
8.7409249
20
1.3866699
40
0.2251391
50
272.7853604
51
276.620414
0
ARC
8
DEFAULT_255_2_778
10
8.7410591
20
1.3841846
40
0.2226502
50
270.0012226
51
272.7819468
0
ARC
8
DEFAULT_255_2_778
10
8.7409282
20
1.3795124
40
0.2179781
50
257.1045448
51
270.0356565
0
ARC
8
DEFAULT_255_2_778
10
8.7299714
20
1.3388617
40
0.1759146
50
238.5859732
51
257.628388
0
ARC
8
DEFAULT_255_2_778
10
8.7271208
20
1.3325296
40
0.1690271
50
218.359648
51
238.2918646
0
ARC
8
DEFAULT_255_2_778
10
8.8107513
20
1.3938288
40
0.2726734
50
200.0977172
51
217.5539648
0
ARC
8
DEFAULT_255_2_778
10
9.2353143
20
1.5442281
40
0.7230795
50
183.9038901
51
199.7294035
0
ARC
8
DEFAULT_255_2_778
10
10.4439506
20
1.6734191
40
1.9382674
50
184.1564856
51
185.2816417
0
ARC
8
DEFAULT_255_2_778
10
11.6119625
20
1.7430428
40
3.1082906
50
179.6296151
51
183.8759706
0
ARC
8
DEFAULT_255_2_778
10
16.2954864
20
1.762012
40
7.7917497
50
179.7366886
51
179.9917353
0
ARC
8
DEFAULT_255_2_778
10
27.8547114
20
1.6999052
40
19.3511401
50
179.4996984
51
179.7100877
0
ARC
8
DEFAULT_255_2_778
10
-4.5124217
20
1.9921995
40
13.017315
50
359.4571807
51
359.9222369
0
ARC
8
DEFAULT_255_2_778
10
-2.262901
20
1.9629601
40
10.7677887
50
0.0615749
51
0.4275673
0
ARC
8
DEFAULT_255_2_778
10
22.3233869
20
2.1406276
40
13.8191416
50
180.1811189
51
180.4034788
0
ARC
8
DEFAULT_255_2_778
10
14.5539438
20
2.1125028
40
6.0496494
50
180.0030078
51
180.1473597
0
ARC
8
DEFAULT_255_2_778
10
10.3919124
20
2.1395597
40
1.8878163
50
173.1985496
51
180.8308514
0
ARC
8
DEFAULT_255_2_778
10
9.8345971
20
2.1887686
40
1.328706
50
170.8444369
51
172.4594398
0
ARC
8
DEFAULT_255_2_778
10
8.9599596
20
2.3444624
40
0.4406782
50
151.8845332
51
172.7354672
0
ARC
8
DEFAULT_255_2_778
10
8.7413205
20
2.4527805
40
0.1969366
50
130.0952527
51
149.7028238
0
ARC
8
DEFAULT_255_2_778
10
8.7291515
20
2.4636641
40
0.180788
50
107.8679171
51
129.366536
0
ARC
8
DEFAULT_255_2_778
10
8.7463899
20
2.4041276
40
0.2427491
50
89.9536552
51
107.4288436
0
ARC
8
DEFAULT_255_2_778
10
8.7465748
20
2.3985016
40
0.2483751
50
88.9141891
51
89.9973437
0
ARC
8
DEFAULT_255_2_778
10
8.7513716
20
2.4112875
40
0.2355445
50
86.6779228
51
90.0219258
0
ARC
8
DEFAULT_255_2_778
10
8.7547351
20
2.4516427
40
0.195065
50
73.4556118
51
86.9773213
0
ARC
8
DEFAULT_255_2_778
10
8.7704829
20
2.5087477
40
0.1358451
50
54.4933387
51
72.9641655
0
ARC
8
DEFAULT_255_2_778
10
8.7712396
20
2.5141886
40
0.1310012
50
34.2052223
51
53.3805398
0
ARC
8
DEFAULT_255_2_778
10
8.659537
20
2.4392163
40
0.2655301
50
17.4252147
51
34.034693
0
ARC
8
DEFAULT_255_2_778
10
8.4245221
20
2.3597741
40
0.5135781
50
9.8160844
51
18.0297468
0
ARC
8
DEFAULT_255_2_778
10
8.5572789
20
2.4026402
40
0.4940939
50
7.1024683
51
25.1637288
0
ARC
8
DEFAULT_255_2_778
10
8.751482
20
2.493642
40
0.2796268
50
25.2069564
51
57.5592351
0
ARC
8
DEFAULT_255_2_778
10
8.7605755
20
2.4824643
40
0.2845108
50
60.3133116
51
88.7420124
0
ARC
8
DEFAULT_255_2_778
10
8.7511734
20
2.3940248
40
0.3732098
50
87.5969352
51
90.0079867
0
ARC
8
DEFAULT_255_2_778
10
8.7510698
20
2.3971166
40
0.3701182
50
89.9920154
51
90.21492
0
ARC
8
DEFAULT_255_2_778
10
8.7500845
20
2.3928871
40
0.3743452
50
90.0616973
51
114.2755981
0
ARC
8
DEFAULT_255_2_778
10
8.7732932
20
2.4270741
40
0.3544759
50
119.9764444
51
162.1496864
0
ARC
8
DEFAULT_255_2_778
10
9.2380679
20
2.2621167
40
0.8475663
50
161.1661601
51
175.6612702
0
ARC
8
DEFAULT_255_2_778
10
10.1077068
20
2.1682705
40
1.7220369
50
174.7367088
51
176.7255217
0
ARC
8
DEFAULT_255_2_778
10
4.7616242
20
1.4895159
40
0.9797608
50
357.2683571
51
0.1529919
0
ARC
8
DEFAULT_255_2_778
10
5.3217454
20
1.453654
40
0.4186663
50
339.6895466
51
358.5174931
0
ARC
8
DEFAULT_255_2_778
10
5.437408
20
1.4170316
40
0.2975397
50
323.3042759
51
338.5722512
0
ARC
8
DEFAULT_255_2_778
10
5.5111175
20
1.3588972
40
0.2037152
50
301.4087081
51
324.0263044
0
ARC
8
DEFAULT_255_2_778
10
5.5246162
20
1.3432521
40
0.1833587
50
278.5515233
51
300.3563427
0
ARC
8
DEFAULT_255_2_778
10
5.5203074
20
1.3628089
40
0.2033431
50
270.050498
51
278.9327323
0
ARC
8
DEFAULT_255_2_778
10
5.5204875
20
1.353904
40
0.1944381
50
268.5577
51
269.9997391
0
ARC
8
DEFAULT_255_2_778
10
5.5200393
20
1.3436957
40
0.1842221
50
261.0191572
51
268.617144
0
ARC
8
DEFAULT_255_2_778
10
5.5224141
20
1.3480015
40
0.1888532
50
243.9510882
51
260.5114141
0
ARC
8
DEFAULT_255_2_778
10
5.5581176
20
1.400444
40
0.2518099
50
196.2614135
51
241.8920825
0
ARC
8
DEFAULT_255_2_778
10
5.8194138
20
1.474348
40
0.5233522
50
177.4309293
51
196.0182796
0
ARC
8
DEFAULT_255_2_778
10
10.8289911
20
1.5059884
40
5.5324097
50
179.9922984
51
180.0847344
0
ARC
8
DEFAULT_255_2_778
10
5.6924636
20
1.4554467
40
0.5148786
50
184.0667692
51
200.369414
0
ARC
8
DEFAULT_255_2_778
10
5.6116274
20
1.4230791
40
0.4278367
50
200.0738793
51
219.8321907
0
ARC
8
DEFAULT_255_2_778
10
5.5327926
20
1.3622531
40
0.3283578
50
220.4930418
51
239.0215009
0
ARC
8
DEFAULT_255_2_778
10
5.5166171
20
1.3413446
40
0.3021219
50
239.6105919
51
259.8704148
0
ARC
8
DEFAULT_255_2_778
10
5.5192562
20
1.3620769
40
0.3229968
50
260.0563808
51
269.9911744
0
ARC
8
DEFAULT_255_2_778
10
5.5192515
20
1.3626952
40
0.323615
50
269.9920216
51
270.7510499
0
ARC
8
DEFAULT_255_2_778
10
5.5192093
20
1.3631284
40
0.3240486
50
270.7575048
51
277.87026
0
ARC
8
DEFAULT_255_2_778
10
5.5233166
20
1.3351392
40
0.2957608
50
277.8245357
51
298.7074001
0
ARC
8
DEFAULT_255_2_778
10
5.5137164
20
1.3518695
40
0.3150462
50
298.7772377
51
316.8814146
0
ARC
8
DEFAULT_255_2_778
10
5.4696397
20
1.3939609
40
0.37599
50
316.790398
51
332.9772665
0
ARC
8
DEFAULT_255_2_778
10
5.3628916
20
1.451154
40
0.4970753
50
332.6949997
51
351.7971349
0
ARC
8
DEFAULT_255_2_778
10
4.1247086
20
1.6149011
40
1.7460148
50
352.2759212
51
0.5287174
0
ARC
8
DEFAULT_255_2_778
10
0.3070226
20
1.5988967
40
5.563719
50
0.3307369
51
2.400828
0
LINE
8
DEFAULT_255_2_778
10
5.865858
20
1.8319614
11
5.8656652
21
1.8372877
0
ARC
8
DEFAULT_255_2_778
10
11.567244
20
2.0782461
40
5.7066682
50
180.3485365
51
182.4199771
0
ARC
8
DEFAULT_255_2_778
10
9.3122087
20
3.6003701
40
4.074131
50
324.4675494
51
339.0331358
0
ARC
8
DEFAULT_255_2_778
10
12.3548377
20
2.3695269
40
0.794846
50
343.4062772
51
359.8634157
0
ARC
8
DEFAULT_255_2_778
10
11.5414665
20
2.3717941
40
1.6082203
50
359.8517198
51
1.5020248
0
ARC
8
DEFAULT_255_2_778
10
12.6172119
20
2.4085414
40
0.5319499
50
0.5824833
51
13.4456703
0
ARC
8
DEFAULT_255_2_778
10
12.7916228
20
2.4455165
40
0.3537516
50
14.1895837
51
32.5278422
0
ARC
8
DEFAULT_255_2_778
10
12.8290498
20
2.4650532
40
0.3117121
50
33.1993043
51
54.1561948
0
ARC
8
DEFAULT_255_2_778
10
12.8453222
20
2.4839918
40
0.286839
50
54.5757909
51
75.4503807
0
ARC
8
DEFAULT_255_2_778
10
12.8312757
20
2.4208265
40
0.3515147
50
75.8207469
51
89.9799426
0
ARC
8
DEFAULT_255_2_778
10
12.8313839
20
2.4255189
40
0.3468224
50
89.9975534
51
91.4378195
0
ARC
8
DEFAULT_255_2_778
10
12.8244642
20
2.446628
40
0.325609
50
90.3137011
51
110.7918515
0
ARC
8
DEFAULT_255_2_778
10
12.7962934
20
2.5308777
40
0.236873
50
111.6554771
51
130.7471011
0
ARC
8
DEFAULT_255_2_778
10
12.7982089
20
2.531279
40
0.2378252
50
131.1598199
51
150.1277719
0
ARC
8
DEFAULT_255_2_778
10
12.790854
20
2.5375049
40
0.2283533
50
150.5632103
51
159.9931158
0
ARC
8
DEFAULT_255_2_778
10
13.2528106
20
2.3525214
40
0.7258919
50
158.7483183
51
165.2991959
0
ARC
8
DEFAULT_255_2_778
10
12.9045036
20
2.4648139
40
0.2409583
50
141.2509758
51
169.4982944
0
ARC
8
DEFAULT_255_2_778
10
12.8006586
20
2.5305497
40
0.1196159
50
93.5679007
51
134.6595444
0
ARC
8
DEFAULT_255_2_778
10
12.8238973
20
2.4000701
40
0.2517405
50
93.5336326
51
97.0007193
0
ARC
8
DEFAULT_255_2_778
10
12.8287885
20
2.4436053
40
0.2087268
50
93.5538255
51
95.6107216
0
ARC
8
DEFAULT_255_2_778
10
12.8287632
20
2.4441158
40
0.2082155
50
89.9989367
51
93.5556053
0
ARC
8
DEFAULT_255_2_778
10
12.8287524
20
2.4441693
40
0.2081621
50
67.8960407
51
89.9959653
0
ARC
8
DEFAULT_255_2_778
10
12.8317052
20
2.4749521
40
0.1787498
50
32.6665277
51
65.058937
0
ARC
8
DEFAULT_255_2_778
10
12.7513977
20
2.4256927
40
0.2729489
50
11.0552427
51
32.2723199
0
ARC
8
DEFAULT_255_2_778
10
12.402696
20
2.3629636
40
0.6272307
50
0.9859519
51
10.5710573
0
ARC
8
DEFAULT_255_2_778
10
12.4037266
20
2.3629647
40
0.6262003
50
359.9990011
51
0.987475
0
ARC
8
DEFAULT_255_2_778
10
12.4024697
20
2.362949
40
0.6274571
50
342.7739257
51
0.0004387
0
ARC
8
DEFAULT_255_2_778
10
9.4273431
20
3.5430458
40
3.8265297
50
323.8604009
51
339.0864538
0
ARC
8
DEFAULT_255_2_778
10
4.5469801
20
2.2014365
40
0.30608
50
268.7272452
51
296.3388787
0
ARC
8
DEFAULT_255_2_778
10
4.4972238
20
2.2554434
40
0.3771206
50
299.4746159
51
347.9839171
0
ARC
8
DEFAULT_255_2_778
10
4.285388
20
2.3203123
40
0.5981327
50
346.1303972
51
359.6391084
0
ARC
8
DEFAULT_255_2_778
10
4.2787751
20
2.3203228
40
0.6047456
50
359.6420565
51
359.996939
0
ARC
8
DEFAULT_255_2_778
10
4.2865844
20
2.3203231
40
0.5969362
50
359.9968746
51
16.6872841
0
ARC
8
DEFAULT_255_2_778
10
4.4355359
20
2.369418
40
0.4401808
50
16.1332623
51
39.4198653
0
ARC
8
DEFAULT_255_2_778
10
4.535258
20
2.449104
40
0.3125486
50
39.7434014
51
72.5887264
0
ARC
8
DEFAULT_255_2_778
10
4.5337071
20
2.391869
40
0.367958
50
75.0258343
51
91.6574969
0
ARC
8
DEFAULT_255_2_778
10
4.5254937
20
1.3213577
40
1.4383173
50
90.0967866
51
91.1290539
0
ARC
8
DEFAULT_255_2_778
10
4.621025
20
-4.0089403
40
6.7694696
50
91.0484967
51
91.13443
0
ARC
8
DEFAULT_255_2_778
10
4.4449218
20
4.6020473
40
1.8433251
50
270.1883496
51
271.3080648
0
ARC
8
DEFAULT_255_2_778
10
4.5517939
20
2.4774357
40
0.1612715
50
51.0931818
51
71.2318164
0
ARC
8
DEFAULT_255_2_778
10
4.511768
20
2.426153
40
0.226319
50
32.7639232
51
51.3619129
0
ARC
8
DEFAULT_255_2_778
10
4.394008
20
2.3550938
40
0.3638218
50
14.4747101
51
32.1379058
0
ARC
8
DEFAULT_255_2_778
10
4.2531201
20
2.316047
40
0.5100041
50
0.0091032
51
14.7659192
0
ARC
8
DEFAULT_255_2_778
10
4.2551135
20
2.3161298
40
0.5080107
50
358.4511651
51
359.9997991
0
ARC
8
DEFAULT_255_2_778
10
4.2563553
20
2.3160944
40
0.5067684
50
355.9873096
51
358.4513705
0
ARC
8
DEFAULT_255_2_778
10
4.2679413
20
2.3152494
40
0.4951517
50
354.1904385
51
355.991038
0
ARC
8
DEFAULT_255_2_778
10
4.3772664
20
2.3002841
40
0.3848924
50
338.5018287
51
354.7594325
0
ARC
8
DEFAULT_255_2_778
10
4.465871
20
2.2654904
40
0.2897011
50
321.4961761
51
338.4824526
0
ARC
8
DEFAULT_255_2_778
10
4.5409561
20
2.2056252
40
0.193672
50
302.9097212
51
321.5266535
0
ARC
8
DEFAULT_255_2_778
10
4.5539968
20
2.1878053
40
0.1716313
50
281.3524652
51
302.4870036
0
ARC
8
DEFAULT_255_2_778
10
4.5133057
20
2.4144091
40
0.4018389
50
269.192857
51
280.6808011
0
ARC
8
DEFAULT_255_2_778
10
4.5174711
20
3.4143673
40
1.4017917
50
267.2236177
51
269.5983734
0
LINE
8
DEFAULT_255_2_778
10
4.449571
20
2.014221
11
4.4478733
21
2.0142915
0
ARC
8
DEFAULT_255_2_778
10
4.3824888
20
0.6536376
40
1.362224
50
87.2488404
51
89.621762
0
ARC
8
DEFAULT_255_2_778
10
4.5478004
20
2.437539
40
0.2012931
50
87.1659424
51
90.0054082
0
ARC
8
DEFAULT_255_2_778
10
4.5500523
20
2.4637484
40
0.175007
50
72.2583514
51
87.4780382
0
LINE
8
DEFAULT_255_2_778
10
12.0190814
20
1.6133321
11
12.3656814
21
1.6133321
0
LINE
8
DEFAULT_255_2_778
10
12.3656814
20
1.6133321
11
12.3656814
21
1.7334321
0
LINE
8
DEFAULT_255_2_778
10
12.3656814
20
1.7334321
11
12.0190814
21
1.7334321
0
LINE
8
DEFAULT_255_2_778
10
12.0190814
20
1.7334321
11
12.0190814
21
1.6133321
0
LINE
8
DEFAULT_255_2_778
10
9.9114814
20
2.7582321
11
9.8947814
21
2.7227321
0
LINE
8
DEFAULT_255_2_778
10
9.8947814
20
2.7227321
11
9.8643814
21
2.6534321
0
LINE
8
DEFAULT_255_2_778
10
9.7243814
20
2.4592321
11
9.7920814
21
2.3605321
0
LINE
8
DEFAULT_255_2_778
10
9.9537814
20
2.5677321
11
9.9537814
21
1.0558321
0
LINE
8
DEFAULT_255_2_778
10
9.9537814
20
1.0558321
11
10.0733814
21
1.0558321
0
LINE
8
DEFAULT_255_2_778
10
10.0733814
20
1.0558321
11
10.0733814
21
2.7579321
0
LINE
8
DEFAULT_255_2_778
10
10.0733814
20
2.7579321
11
9.9114814
21
2.7582321
0
LINE
8
DEFAULT_255_2_778
10
15.2689814
20
1.0561321
11
15.4446814
21
1.0561321
0
LINE
8
DEFAULT_255_2_778
10
15.4446814
20
1.0561321
11
15.7602814
21
2.7370321
0
LINE
8
DEFAULT_255_2_778
10
15.7602814
20
2.7370321
11
15.6433814
21
2.7582321
0
LINE
8
DEFAULT_255_2_778
10
15.6433814
20
2.7582321
11
15.3578814
21
1.2368321
0
LINE
8
DEFAULT_255_2_778
10
15.3578814
20
1.2368321
11
15.0747814
21
2.7608321
0
LINE
8
DEFAULT_255_2_778
10
15.0747814
20
2.7608321
11
14.9578814
21
2.7370321
0
LINE
8
DEFAULT_255_2_778
10
14.9578814
20
2.7370321
11
15.2689814
21
1.0561321
0
LINE
8
DEFAULT_255_2_778
10
9.0475814
20
1.3239321
11
8.9305814
21
1.3519321
0
LINE
8
DEFAULT_255_2_778
10
8.9305814
20
2.4473321
11
9.0475814
21
2.4637321
0
LINE
8
DEFAULT_255_2_778
10
8.3884814
20
2.2666321
11
8.3887814
21
2.2668321
0
LINE
8
DEFAULT_255_2_778
10
6.0596814
20
2.6312321
11
6.3543814
21
2.6312321
0
LINE
8
DEFAULT_255_2_778
10
6.3543814
20
2.6312321
11
6.3543814
21
1.0513321
0
LINE
8
DEFAULT_255_2_778
10
6.3543814
20
1.0513321
11
6.4739814
21
1.0513321
0
LINE
8
DEFAULT_255_2_778
10
6.4739814
20
1.0513321
11
6.4739814
21
2.6312321
0
LINE
8
DEFAULT_255_2_778
10
6.4739814
20
2.6312321
11
6.7782814
21
2.6312321
0
LINE
8
DEFAULT_255_2_778
10
6.7782814
20
2.6312321
11
6.7782814
21
2.7513321
0
LINE
8
DEFAULT_255_2_778
10
6.7782814
20
2.7513321
11
6.0596814
21
2.7513321
0
LINE
8
DEFAULT_255_2_778
10
6.0596814
20
2.7513321
11
6.0596814
21
2.6312321
0
LINE
8
DEFAULT_255_2_778
10
5.7413814
20
1.9671321
11
5.7413814
21
1.6758321
0
LINE
8
DEFAULT_255_2_778
10
5.7413814
20
1.6758321
11
5.7413814
21
1.4921321
0
LINE
8
DEFAULT_255_2_778
10
5.2965814
20
1.5067321
11
5.2965814
21
1.6853321
0
LINE
8
DEFAULT_255_2_778
10
5.2965814
20
1.6853321
11
5.2965814
21
2.0422321
0
LINE
8
DEFAULT_255_2_778
10
5.2965814
20
2.0422321
11
5.2965814
21
2.7561321
0
LINE
8
DEFAULT_255_2_778
10
5.2965814
20
2.7561321
11
5.1769814
21
2.7561321
0
LINE
8
DEFAULT_255_2_778
10
5.1769814
20
2.7561321
11
5.1788814
21
1.4189321
0
LINE
8
DEFAULT_255_2_778
10
5.8606814
20
2.0435321
11
5.8606814
21
2.7561321
0
LINE
8
DEFAULT_255_2_778
10
5.8606814
20
2.7561321
11
5.7410814
21
2.7561321
0
LINE
8
DEFAULT_255_2_778
10
5.7410814
20
2.7561321
11
5.7410814
21
1.9671321
0
LINE
8
DEFAULT_255_2_778
10
5.7410814
20
1.9671321
11
5.7413814
21
1.9671321
0
LINE
8
DEFAULT_255_2_778
10
3.8294814
20
1.3612321
11
3.3312814
21
2.7534321
0
LINE
8
DEFAULT_255_2_778
10
3.3312814
20
2.7534321
11
3.1907814
21
2.7534321
0
LINE
8
DEFAULT_255_2_778
10
3.1907814
20
2.7534321
11
3.1907814
21
1.0535321
0
LINE
8
DEFAULT_255_2_778
10
3.1907814
20
1.0535321
11
3.3103814
21
1.0535321
0
LINE
8
DEFAULT_255_2_778
10
3.3103814
20
1.0535321
11
3.3103814
21
2.4573321
0
LINE
8
DEFAULT_255_2_778
10
3.3103814
20
2.4573321
11
3.6050814
21
1.6345321
0
LINE
8
DEFAULT_255_2_778
10
3.6050814
20
1.6345321
11
3.8132814
21
1.0537321
0
LINE
8
DEFAULT_255_2_778
10
3.8132814
20
1.0537321
11
3.9490814
21
1.0537321
0
LINE
8
DEFAULT_255_2_778
10
3.9490814
20
1.0537321
11
3.9490814
21
2.7537321
0
LINE
8
DEFAULT_255_2_778
10
3.9490814
20
2.7537321
11
3.8294814
21
2.7537321
0
LINE
8
DEFAULT_255_2_778
10
3.8294814
20
2.7537321
11
3.8294814
21
1.3612321
0
LINE
8
DEFAULT_255_2_778
10
2.7602814
20
1.0561321
11
2.8798814
21
1.0561321
0
LINE
8
DEFAULT_255_2_778
10
2.8798814
20
1.0561321
11
2.8798814
21
2.7561321
0
LINE
8
DEFAULT_255_2_778
10
2.8798814
20
2.7561321
11
2.7602814
21
2.7561321
0
LINE
8
DEFAULT_255_2_778
10
2.7602814
20
2.7561321
11
2.7602814
21
1.0561321
0
LINE
8
DEFAULT_255_2_778
10
12.5080814
20
1.2699321
11
12.5175814
21
1.2866321
0
LINE
8
DEFAULT_255_2_778
10
12.5175814
20
1.2866321
11
12.5080814
21
1.0582321
0
LINE
8
DEFAULT_255_2_778
10
12.5080814
20
1.0582321
11
13.1798814
21
1.0582321
0
LINE
8
DEFAULT_255_2_778
10
13.1798814
20
1.0582321
11
13.1798814
21
1.1783321
0
LINE
8
DEFAULT_255_2_778
10
13.1798814
20
1.1783321
11
12.6276814
21
1.1783321
0
LINE
8
DEFAULT_255_2_778
10
12.6276814
20
1.1783321
11
12.6276814
21
1.2326321
0
LINE
8
DEFAULT_255_2_778
10
12.5506814
20
2.5367321
11
12.6675814
21
2.5087321
0
LINE
8
DEFAULT_255_2_778
10
4.2720814
20
1.0582321
11
4.3916814
21
1.0582321
0
LINE
8
DEFAULT_255_2_778
10
4.3916814
20
1.0582321
11
4.3916814
21
1.8954321
0
LINE
8
DEFAULT_255_2_778
10
4.3916814
20
1.8954321
11
4.5401814
21
1.8954321
0
LINE
8
DEFAULT_255_2_778
10
4.4509814
20
2.7587321
11
4.2723814
21
2.7587321
0
LINE
8
DEFAULT_255_2_778
10
4.2723814
20
2.7587321
11
4.2720814
21
1.0582321
0
LINE
8
DEFAULT_255_2_778
10
4.3914814
20
2.0158321
11
4.3914814
21
2.6388321
0
LINE
8
DEFAULT_255_2_778
10
4.3914814
20
2.6388321
11
4.5477814
21
2.6388321
0
LINE
8
DEFAULT_255_2_778
10
4.6033814
20
2.6304321
11
4.6036814
21
2.6301321
0
ARC
8
DEFAULT_255_2_778
10
16.5109819
20
1.9293001
40
5.3348378
50
176.6771556
51
180.0000012
0
ARC
8
DEFAULT_255_2_778
10
16.5114491
20
1.9292911
40
5.3353049
50
179.9999051
51
180.9282684
0
ARC
8
DEFAULT_255_2_778
10
16.5178113
20
1.9293983
40
5.341668
50
180.9283119
51
182.3441127
0
ARC
8
DEFAULT_255_2_778
10
-163.5154603
20
-4.6352645
40
174.8113042
50
2.0782536
51
2.0804685
0
ARC
8
DEFAULT_255_2_778
10
17.1564283
20
1.9038564
40
5.9789057
50
181.9139965
51
182.8647578
0
ARC
8
DEFAULT_255_2_778
10
12.0594655
20
1.6000528
40
0.8744852
50
179.6733138
51
207.3186
0
ARC
8
DEFAULT_255_2_778
10
11.5562531
20
1.3715881
40
0.3237554
50
212.2728477
51
266.5598307
0
ARC
8
DEFAULT_255_2_778
10
11.5579866
20
1.361979
40
0.314276
50
266.1392528
51
269.9884794
0
ARC
8
DEFAULT_255_2_778
10
11.5634001
20
1.3060536
40
0.2584087
50
268.7855724
51
312.691158
0
ARC
8
DEFAULT_255_2_778
10
11.4639218
20
1.3959114
40
0.3920962
50
314.4728412
51
336.1417802
0
ARC
8
DEFAULT_255_2_778
10
11.0813632
20
1.5526741
40
0.8054517
50
336.9504791
51
352.9429573
0
ARC
8
DEFAULT_255_2_778
10
9.1519307
20
1.8260118
40
2.7540617
50
352.2309841
51
0.5368712
0
ARC
8
DEFAULT_255_2_778
10
6.2574234
20
1.8669239
40
5.6484683
50
359.8467664
51
0.0007546
0
ARC
8
DEFAULT_255_2_778
10
0.8227556
20
1.8406857
40
11.0831672
50
0.1360262
51
1.0636211
0
LINE
8
DEFAULT_255_2_778
10
11.9040131
20
2.0464183
11
11.9039561
21
2.0498802
0
ARC
8
DEFAULT_255_2_778
10
3.3386611
20
1.9256588
40
8.5661958
50
0.8308951
51
1.4980353
0
ARC
8
DEFAULT_255_2_778
10
10.1504148
20
2.1281111
40
1.7516462
50
0.7029814
51
9.8551216
0
ARC
8
DEFAULT_255_2_778
10
11.0831595
20
2.2832654
40
0.806138
50
10.3371066
51
19.9725862
0
ARC
8
DEFAULT_255_2_778
10
11.4729603
20
2.4257437
40
0.3911155
50
19.8605707
51
40.0134607
0
ARC
8
DEFAULT_255_2_778
10
11.5657006
20
2.5011014
40
0.2716405
50
40.4169876
51
59.0720037
0
ARC
8
DEFAULT_255_2_778
10
11.5670301
20
2.4881682
40
0.2821589
50
60.6535612
51
78.6596028
0
ARC
8
DEFAULT_255_2_778
10
11.5407128
20
2.3520844
40
0.4207619
50
78.7897396
51
90.0559103
0
ARC
8
DEFAULT_255_2_778
10
11.5406587
20
2.3547452
40
0.4181012
50
90.0488568
51
90.8531674
0
ARC
8
DEFAULT_255_2_778
10
11.5407195
20
2.350071
40
0.4227757
50
90.8519696
51
97.4074799
0
ARC
8
DEFAULT_255_2_778
10
11.5326956
20
2.4011754
40
0.3710659
50
97.1962034
51
97.7251584
0
ARC
8
DEFAULT_255_2_778
10
11.5224066
20
2.4588759
40
0.3125156
50
97.2779213
51
114.3379972
0
ARC
8
DEFAULT_255_2_778
10
11.5113667
20
2.496112
40
0.2740899
50
115.4432373
51
124.0465253
0
ARC
8
DEFAULT_255_2_778
10
11.6238432
20
2.3936656
40
0.4234664
50
128.9015342
51
176.8494284
0
ARC
8
DEFAULT_255_2_778
10
12.4590596
20
2.2327939
40
1.2714484
50
171.6724921
51
174.0510278
0
ARC
8
DEFAULT_255_2_778
10
14.3218663
20
2.0564573
40
3.1425489
50
174.373363
51
176.6732764
0
ARC
8
DEFAULT_255_2_778
10
10.8142727
20
2.2401162
40
0.9618113
50
4.9386921
51
14.4128756
0
ARC
8
DEFAULT_255_2_778
10
8.2390539
20
2.0192395
40
3.5464848
50
359.9905787
51
4.9121457
0
ARC
8
DEFAULT_255_2_778
10
8.2056719
20
2.0186567
40
3.5798668
50
359.7833178
51
359.9999938
0
ARC
8
DEFAULT_255_2_778
10
10.4059679
20
1.6785432
40
1.3771738
50
347.1055197
51
0.3692418
0
ARC
8
DEFAULT_255_2_778
10
11.3103716
20
1.4800991
40
0.4513706
50
331.2533858
51
346.0412853
0
ARC
8
DEFAULT_255_2_778
10
11.5272125
20
1.3611387
40
0.2040418
50
308.709005
51
331.2568719
0
ARC
8
DEFAULT_255_2_778
10
11.541464
20
1.3661103
40
0.199517
50
269.9853956
51
304.619072
0
ARC
8
DEFAULT_255_2_778
10
11.5413622
20
1.3661103
40
0.199517
50
235.380928
51
270.0146044
0
ARC
8
DEFAULT_255_2_778
10
11.5581524
20
1.3664658
40
0.2097906
50
211.8312056
51
231.659813
0
ARC
8
DEFAULT_255_2_778
10
11.6718605
20
1.4361144
40
0.3431326
50
194.6695331
51
211.6979774
0
ARC
8
DEFAULT_255_2_778
10
12.4764626
20
1.6455608
40
1.1745483
50
181.3602181
51
194.6138552
0
ARC
8
DEFAULT_255_2_778
10
15.7160953
20
1.8065746
40
4.41789
50
181.2238028
51
182.4505368
0
ARC
8
DEFAULT_255_2_778
10
13.0500152
20
2.1490692
40
1.749691
50
173.4590421
51
175.0639809
0
ARC
8
DEFAULT_255_2_778
10
11.9113133
20
2.294912
40
0.6019792
50
157.6607326
51
174.9040129
0
ARC
8
DEFAULT_255_2_778
10
11.6025343
20
2.4177984
40
0.2696916
50
140.5068759
51
156.8746114
0
ARC
8
DEFAULT_255_2_778
10
11.5275515
20
2.480183
40
0.1721521
50
121.8477131
51
140.6580796
0
ARC
8
DEFAULT_255_2_778
10
11.5242305
20
2.4786022
40
0.1717815
50
101.6939696
51
120.6284865
0
ARC
8
DEFAULT_255_2_778
10
11.5384591
20
2.4149189
40
0.2370293
50
89.8191957
51
101.9418889
0
LINE
8
DEFAULT_255_2_778
10
11.5392071
20
2.651947
11
11.5397244
21
2.6519475
0
ARC
8
DEFAULT_255_2_778
10
11.5392844
20
2.3526598
40
0.299288
50
83.8373927
51
89.9157585
0
ARC
8
DEFAULT_255_2_778
10
11.5439746
20
2.3985819
40
0.2531279
50
82.4678456
51
83.7770351
0
ARC
8
DEFAULT_255_2_778
10
11.552028
20
2.4448535
40
0.2062089
50
66.0570772
51
83.0009299
0
ARC
8
DEFAULT_255_2_778
10
11.5637754
20
2.4760499
40
0.1729404
50
53.4716582
51
65.4197158
0
ARC
8
DEFAULT_255_2_778
10
11.5130456
20
2.4352072
40
0.2365285
50
12.0648244
51
49.4826144
0
ARC
8
DEFAULT_255_2_778
10
11.17349
20
2.3212352
40
0.5937876
50
15.3799093
51
15.9739849
0
LINE
8
DEFAULT_255_2_778
10
7.6275131
20
2.7534183
11
7.2857131
21
1.0651183
0
LINE
8
DEFAULT_255_2_778
10
7.2857131
20
1.0651183
11
7.4026131
21
1.0391183
0
LINE
8
DEFAULT_255_2_778
10
7.4026131
20
1.0391183
11
7.4939131
21
1.4998183
0
LINE
8
DEFAULT_255_2_778
10
7.4939131
20
1.4998183
11
7.9387131
21
1.4998183
0
LINE
8
DEFAULT_255_2_778
10
7.9387131
20
1.4998183
11
8.0300131
21
1.0368183
0
LINE
8
DEFAULT_255_2_778
10
8.0300131
20
1.0368183
11
8.1469131
21
1.0606183
0
LINE
8
DEFAULT_255_2_778
10
8.1469131
20
1.0606183
11
7.8217131
21
2.7534183
0
LINE
8
DEFAULT_255_2_778
10
7.8217131
20
2.7534183
11
7.6275131
21
2.7534183
0
LINE
8
DEFAULT_255_2_778
10
7.7022131
20
2.5325183
11
7.7231131
21
2.6290183
0
LINE
8
DEFAULT_255_2_778
10
7.7231131
20
2.6290183
11
7.9151131
21
1.6202183
0
LINE
8
DEFAULT_255_2_778
10
7.9151131
20
1.6202183
11
7.5175131
21
1.6202183
0
LINE
8
DEFAULT_255_2_778
10
7.5175131
20
1.6202183
11
7.5548131
21
1.7988183
0
LINE
8
DEFAULT_255_2_778
10
7.5548131
20
1.7988183
11
7.7022131
21
2.5325183
0
LINE
8
DEFAULT_255_2_778
10
7.7022131
20
2.5325183
11
7.7022131
21
2.5325183
0
LINE
8
DEFAULT_255_2_778
10
11.1846131
20
2.2388183
11
11.1851131
21
2.2385183
0
LINE
8
DEFAULT_255_2_778
10
11.7855131
20
2.0051183
11
11.7831131
21
1.6874183
0
LINE
8
DEFAULT_255_2_778
10
11.2992131
20
1.7122183
11
11.2978131
21
2.0726183
0
LINE
8
DEFAULT_255_2_778
10
11.2978131
20
2.0726183
11
11.3068131
21
2.2996183
0
LINE
8
DEFAULT_255_2_778
10
11.7460131
20
2.4787183
11
11.7458131
21
2.4795183
0
ARC
8
DEFAULT_255_2_778
10
15.7062658
20
1.9283903
40
5.342181
50
176.6715591
51
179.9944124
0
ARC
8
DEFAULT_255_2_778
10
15.6409718
20
1.928878
40
5.276887
50
179.9996385
51
180.9336599
0
ARC
8
DEFAULT_255_2_778
10
15.6081864
20
1.928316
40
5.2440967
50
180.9333576
51
182.3755153
0
ARC
8
DEFAULT_255_2_778
10
-21.2216896
20
0.560664
40
31.6112218
50
2.0753232
51
2.085379
0
ARC
8
DEFAULT_255_2_778
10
16.2943744
20
1.9032812
40
5.9288793
50
181.9125446
51
182.883029
0
ARC
8
DEFAULT_255_2_778
10
11.2473929
20
1.6006036
40
0.874405
50
179.7069639
51
207.3592285
0
ARC
8
DEFAULT_255_2_778
10
10.7445365
20
1.3716248
40
0.3237554
50
212.2728477
51
266.5598307
0
ARC
8
DEFAULT_255_2_778
10
10.7462699
20
1.3620157
40
0.314276
50
266.1392528
51
269.9884794
0
ARC
8
DEFAULT_255_2_778
10
10.7516835
20
1.3060903
40
0.2584087
50
268.7855724
51
312.691158
0
ARC
8
DEFAULT_255_2_778
10
10.6531892
20
1.395267
40
0.3909209
50
314.4398641
51
336.1747455
0
ARC
8
DEFAULT_255_2_778
10
10.3014583
20
1.5425845
40
0.7722212
50
336.7177098
51
351.6018878
0
ARC
8
DEFAULT_255_2_778
10
9.6039809
20
1.6737702
40
1.4816422
50
350.5224459
51
351.46033
0
ARC
8
DEFAULT_255_2_778
10
8.340414
20
1.8260485
40
2.7540617
50
352.2309841
51
0.5368712
0
ARC
8
DEFAULT_255_2_778
10
5.4459067
20
1.8669606
40
5.6484683
50
359.8467664
51
0.0007546
0
ARC
8
DEFAULT_255_2_778
10
0.0112389
20
1.8407224
40
11.0831672
50
0.1360262
51
1.0636211
0
LINE
8
DEFAULT_255_2_778
10
11.0924964
20
2.0464551
11
11.0924122
21
2.0515786
0
ARC
8
DEFAULT_255_2_778
10
2.5048006
20
1.9268977
40
8.5885166
50
0.8318013
51
1.4861187
0
ARC
8
DEFAULT_255_2_778
10
9.350089
20
2.1290818
40
1.7404608
50
0.6767508
51
9.8878838
0
ARC
8
DEFAULT_255_2_778
10
10.2814074
20
2.2859457
40
0.796058
50
10.2760377
51
20.0338176
0
ARC
8
DEFAULT_255_2_778
10
10.6622159
20
2.4262252
40
0.3902381
50
19.8376707
51
40.0363471
0
ARC
8
DEFAULT_255_2_778
10
10.7553622
20
2.5025293
40
0.2698417
50
40.3542819
51
59.1347766
0
ARC
8
DEFAULT_255_2_778
10
10.7558823
20
2.4892
40
0.2811109
50
60.6197024
51
78.6934385
0
ARC
8
DEFAULT_255_2_778
10
10.7291961
20
2.3521212
40
0.4207619
50
78.7897396
51
90.0559103
0
ARC
8
DEFAULT_255_2_778
10
10.729142
20
2.3547819
40
0.4181012
50
90.0488568
51
90.8531674
0
ARC
8
DEFAULT_255_2_778
10
10.7292028
20
2.3501077
40
0.4227757
50
90.8519696
51
97.4074799
0
ARC
8
DEFAULT_255_2_778
10
10.7211789
20
2.4012121
40
0.3710659
50
97.1962034
51
97.7251584
0
ARC
8
DEFAULT_255_2_778
10
10.71089
20
2.4589127
40
0.3125156
50
97.2779213
51
114.3379972
0
ARC
8
DEFAULT_255_2_778
10
10.69985
20
2.4961487
40
0.2740899
50
115.4432373
51
124.0465253
0
ARC
8
DEFAULT_255_2_778
10
10.8123265
20
2.3937024
40
0.4234664
50
128.9015342
51
176.8494284
0
ARC
8
DEFAULT_255_2_778
10
11.6475429
20
2.2328307
40
1.2714484
50
171.6724921
51
174.0510278
0
ARC
8
DEFAULT_255_2_778
10
13.5103497
20
2.056494
40
3.1425489
50
174.373363
51
176.6732764
0
ARC
8
DEFAULT_255_2_778
10
10.0022435
20
2.2401502
40
0.961824
50
4.9387919
51
14.4128499
0
ARC
8
DEFAULT_255_2_778
10
7.4270372
20
2.0192762
40
3.5464848
50
359.9905787
51
4.9121457
0
ARC
8
DEFAULT_255_2_778
10
7.3936552
20
2.0186934
40
3.5798668
50
359.7833178
51
359.9999938
0
ARC
8
DEFAULT_255_2_778
10
9.5939512
20
1.67858
40
1.3771738
50
347.1055197
51
0.3692418
0
ARC
8
DEFAULT_255_2_778
10
10.4983597
20
1.4801336
40
0.4513654
50
331.253342
51
346.0414161
0
ARC
8
DEFAULT_255_2_778
10
10.7151958
20
1.3611754
40
0.2040418
50
308.709005
51
331.2568719
0
ARC
8
DEFAULT_255_2_778
10
10.7294473
20
1.366147
40
0.199517
50
269.9853956
51
304.619072
0
ARC
8
DEFAULT_255_2_778
10
10.7293456
20
1.366147
40
0.199517
50
235.380928
51
270.0146044
0
ARC
8
DEFAULT_255_2_778
10
10.7433885
20
1.364051
40
0.2061646
50
211.6550247
51
231.835994
0
ARC
8
DEFAULT_255_2_778
10
10.8669854
20
1.4392096
40
0.3508178
50
194.8573708
51
211.5101012
0
ARC
8
DEFAULT_255_2_778
10
11.6644459
20
1.6455975
40
1.1745483
50
181.3602181
51
194.6138552
0
ARC
8
DEFAULT_255_2_778
10
14.9040786
20
1.8066113
40
4.41789
50
181.2238028
51
182.4505368
0
ARC
8
DEFAULT_255_2_778
10
12.1817142
20
2.1561211
40
1.6930131
50
173.4780764
51
175.1366148
0
ARC
8
DEFAULT_255_2_778
10
11.0986
20
2.2949835
40
0.6013216
50
157.6385679
51
174.901754
0
ARC
8
DEFAULT_255_2_778
10
10.7905176
20
2.4178351
40
0.2696916
50
140.5068759
51
156.8746114
0
ARC
8
DEFAULT_255_2_778
10
10.7155348
20
2.4802198
40
0.1721521
50
121.8477131
51
140.6580796
0
ARC
8
DEFAULT_255_2_778
10
10.7122143
20
2.478638
40
0.1717826
50
101.6940615
51
120.6284556
0
ARC
8
DEFAULT_255_2_778
10
10.7288682
20
2.393767
40
0.2582691
50
89.9832001
51
101.4957504
0
LINE
8
DEFAULT_255_2_778
10
10.728944
20
2.652036
11
10.7295088
21
2.6520354
0
ARC
8
DEFAULT_255_2_778
10
10.7289195
20
2.39039
40
0.261646
50
83.3109153
51
89.8709471
0
ARC
8
DEFAULT_255_2_778
10
10.7319579
20
2.3986187
40
0.2531279
50
82.4678456
51
83.7770351
0
ARC
8
DEFAULT_255_2_778
10
10.7400114
20
2.4448903
40
0.2062089
50
66.0570772
51
83.0009299
0
ARC
8
DEFAULT_255_2_778
10
10.747284
20
2.4685069
40
0.181697
50
53.7604549
51
65.1307523
0
ARC
8
DEFAULT_255_2_778
10
10.7010289
20
2.435244
40
0.2365285
50
12.0648244
51
49.4826144
0
ARC
8
DEFAULT_255_2_778
10
10.3614734
20
2.3212719
40
0.5937876
50
15.3799093
51
15.9739849
0
LINE
8
DEFAULT_255_2_778
10
10.3730964
20
2.2388551
11
10.3730964
21
2.2385551
0
LINE
8
DEFAULT_255_2_778
10
10.9734964
20
2.0051551
11
10.9710964
21
1.6874551
0
LINE
8
DEFAULT_255_2_778
10
10.4871964
20
1.7122551
11
10.4857964
21
2.0726551
0
LINE
8
DEFAULT_255_2_778
10
10.4857964
20
2.0726551
11
10.4947964
21
2.2996551
0
LINE
8
DEFAULT_255_2_778
10
10.9339964
20
2.4787551
11
10.9337964
21
2.4795551
0
LINE
8
DEFAULT_255_2_778
10
13.6406964
20
2.7560551
11
13.3107964
21
1.6813551
0
LINE
8
DEFAULT_255_2_778
10
13.3107964
20
1.6813551
11
13.3107964
21
1.5096551
0
LINE
8
DEFAULT_255_2_778
10
13.3107964
20
1.5096551
11
13.7507964
21
1.5096551
0
LINE
8
DEFAULT_255_2_778
10
13.7507964
20
1.5096551
11
13.7507964
21
1.0582551
0
LINE
8
DEFAULT_255_2_778
10
13.7507964
20
1.0582551
11
13.8697964
21
1.0582551
0
LINE
8
DEFAULT_255_2_778
10
13.8697964
20
1.0582551
11
13.8697964
21
1.5096551
0
LINE
8
DEFAULT_255_2_778
10
13.8697964
20
1.5096551
11
14.0240964
21
1.5096551
0
LINE
8
DEFAULT_255_2_778
10
14.0240964
20
1.5096551
11
14.0240964
21
1.6297551
0
LINE
8
DEFAULT_255_2_778
10
14.0240964
20
1.6297551
11
13.8697964
21
1.6297551
0
LINE
8
DEFAULT_255_2_778
10
13.8697964
20
1.6297551
11
13.8697964
21
2.7560551
0
LINE
8
DEFAULT_255_2_778
10
13.8697964
20
2.7560551
11
13.6406964
21
2.7560551
0
LINE
8
DEFAULT_255_2_778
10
13.7504964
20
1.6297551
11
13.4300964
21
1.6297551
0
LINE
8
DEFAULT_255_2_778
10
13.4300964
20
1.6297551
11
13.4300964
21
1.6651551
0
LINE
8
DEFAULT_255_2_778
10
13.4300964
20
1.6651551
11
13.7295964
21
2.6362551
0
LINE
8
DEFAULT_255_2_778
10
13.7295964
20
2.6362551
11
13.7504964
21
2.6362551
0
LINE
8
DEFAULT_255_2_778
10
13.7504964
20
2.6362551
11
13.7504964
21
1.6297551
0
ARC
8
DEFAULT_255_2_778
10
19.4101087
20
1.9297886
40
5.2743592
50
176.6446146
51
179.9999795
0
ARC
8
DEFAULT_255_2_778
10
19.411537
20
1.9297941
40
5.2757874
50
180.0000391
51
180.9444917
0
ARC
8
DEFAULT_255_2_778
10
19.4167501
20
1.929886
40
5.2810013
50
180.9445561
51
182.3766396
0
ARC
8
DEFAULT_255_2_778
10
-23.6738066
20
0.3555096
40
37.8383808
50
2.0434787
51
2.0527914
0
ARC
8
DEFAULT_255_2_778
10
20.0861586
20
1.8999929
40
5.9488525
50
181.8808421
51
182.84224
0
ARC
8
DEFAULT_255_2_778
10
15.0184249
20
1.5997677
40
0.8738166
50
179.6561044
51
207.3221553
0
ARC
8
DEFAULT_255_2_778
10
14.5159812
20
1.3719367
40
0.3240824
50
212.3147728
51
266.5376458
0
ARC
8
DEFAULT_255_2_778
10
14.5176492
20
1.3619054
40
0.3141783
50
266.1235162
51
269.9884815
0
ARC
8
DEFAULT_255_2_778
10
14.5230672
20
1.3059685
40
0.2582995
50
268.7840909
51
312.7168445
0
ARC
8
DEFAULT_255_2_778
10
14.4236058
20
1.396112
40
0.3921829
50
314.4592316
51
336.1110947
0
ARC
8
DEFAULT_255_2_778
10
14.0818471
20
1.5391833
40
0.7626405
50
336.6809865
51
351.5828127
0
ARC
8
DEFAULT_255_2_778
10
13.4306256
20
1.6616007
40
1.4249997
50
350.5464804
51
351.6146063
0
ARC
8
DEFAULT_255_2_778
10
12.106212
20
1.8261765
40
2.7594215
50
352.2442568
51
0.6004887
0
ARC
8
DEFAULT_255_2_778
10
9.2228378
20
1.8656131
40
5.642654
50
359.8932095
51
0.0010786
0
ARC
8
DEFAULT_255_2_778
10
3.7069211
20
1.8386943
40
11.1586034
50
0.1387648
51
1.0665206
0
LINE
8
DEFAULT_255_2_778
10
14.8635914
20
2.0463919
11
14.8635067
21
2.0515423
0
ARC
8
DEFAULT_255_2_778
10
5.5305645
20
1.9134809
40
9.3339633
50
0.8475092
51
1.404371
0
ARC
8
DEFAULT_255_2_778
10
13.0842736
20
2.1255968
40
1.7775285
50
0.5365351
51
9.794859
0
ARC
8
DEFAULT_255_2_778
10
14.0497851
20
2.2846453
40
0.799069
50
10.3343488
51
20.0571562
0
ARC
8
DEFAULT_255_2_778
10
14.433805
20
2.4263351
40
0.3897485
50
19.852224
51
40.0636048
0
ARC
8
DEFAULT_255_2_778
10
14.5264531
20
2.5024615
40
0.2698477
50
40.3544868
51
59.1345571
0
ARC
8
DEFAULT_255_2_778
10
14.5279496
20
2.4917589
40
0.2783493
50
60.5293199
51
78.7838956
0
ARC
8
DEFAULT_255_2_778
10
14.5003833
20
2.3529983
40
0.4198215
50
78.7771481
51
90.0091816
0
ARC
8
DEFAULT_255_2_778
10
14.5003517
20
2.34179
40
0.4310299
50
90.0047341
51
90.3265645
0
ARC
8
DEFAULT_255_2_778
10
14.5003119
20
2.3513449
40
0.421475
50
90.328559
51
97.4186982
0
ARC
8
DEFAULT_255_2_778
10
14.4824562
20
2.4578725
40
0.3135587
50
96.6966358
51
114.3262422
0
ARC
8
DEFAULT_255_2_778
10
14.4657611
20
2.5046035
40
0.2641304
50
115.2020322
51
124.1492704
0
ARC
8
DEFAULT_255_2_778
10
14.58373
20
2.3935112
40
0.4237597
50
128.9231379
51
176.8342878
0
ARC
8
DEFAULT_255_2_778
10
15.4177605
20
2.2326581
40
1.2705746
50
171.6617384
51
174.0419622
0
ARC
8
DEFAULT_255_2_778
10
17.2685449
20
2.0571287
40
3.1296306
50
174.3629009
51
176.6723269
0
ARC
8
DEFAULT_255_2_778
10
13.7832306
20
2.2418407
40
0.9523162
50
4.882325
51
14.457142
0
ARC
8
DEFAULT_255_2_778
10
11.2250051
20
2.0200742
40
3.5201353
50
0.620528
51
4.9349366
0
ARC
8
DEFAULT_255_2_778
10
11.2899637
20
2.0214142
40
3.4551661
50
0.0003285
51
0.6099753
0
ARC
8
DEFAULT_255_2_778
10
11.3103134
20
2.0214336
40
3.4348163
50
359.7290721
51
0.0000058
0
ARC
8
DEFAULT_255_2_778
10
13.3650651
20
1.6781448
40
1.3776573
50
347.1259927
51
0.384583
0
ARC
8
DEFAULT_255_2_778
10
14.2659313
20
1.4820522
40
0.4558459
50
331.2781559
51
345.9246936
0
ARC
8
DEFAULT_255_2_778
10
14.4869739
20
1.3609594
40
0.2038077
50
308.6956986
51
331.2697853
0
ARC
8
DEFAULT_255_2_778
10
14.5010448
20
1.366076
40
0.1995091
50
270.0659861
51
304.6197384
0
LINE
8
DEFAULT_255_2_778
10
14.5012746
20
1.166567
11
14.5010039
21
1.1665669
0
ARC
8
DEFAULT_255_2_778
10
14.5009289
20
1.3657257
40
0.1991589
50
235.3488241
51
270.0215733
0
ARC
8
DEFAULT_255_2_778
10
14.5157629
20
1.3647198
40
0.20716
50
211.6906923
51
231.8133579
0
ARC
8
DEFAULT_255_2_778
10
14.6287863
20
1.4339949
40
0.3397238
50
194.4378217
51
211.6183363
0
ARC
8
DEFAULT_255_2_778
10
15.4363409
20
1.6456343
40
1.1745483
50
181.3602181
51
194.6138552
0
ARC
8
DEFAULT_255_2_778
10
18.6759736
20
1.8066481
40
4.41789
50
181.2238028
51
182.4505368
0
ARC
8
DEFAULT_255_2_778
10
16.0098935
20
2.1490427
40
1.749691
50
173.4590421
51
175.0639809
0
ARC
8
DEFAULT_255_2_778
10
14.8711916
20
2.2948855
40
0.6019792
50
157.6607326
51
174.9040129
0
ARC
8
DEFAULT_255_2_778
10
14.5646704
20
2.4166617
40
0.2722041
50
140.6125411
51
156.8463423
0
ARC
8
DEFAULT_255_2_778
10
14.4873714
20
2.4796834
40
0.172471
50
121.7200881
51
140.4985354
0
ARC
8
DEFAULT_255_2_778
10
14.4836996
20
2.4800598
40
0.1702454
50
101.6603557
51
120.7354868
0
ARC
8
DEFAULT_255_2_778
10
14.4983373
20
2.4148924
40
0.2370293
50
89.8191957
51
101.9418889
0
LINE
8
DEFAULT_255_2_778
10
14.4990853
20
2.6519206
11
14.4996027
21
2.651921
0
ARC
8
DEFAULT_255_2_778
10
14.4991626
20
2.3526334
40
0.299288
50
83.8373927
51
89.9157585
0
ARC
8
DEFAULT_255_2_778
10
14.5038528
20
2.3985555
40
0.2531279
50
82.4678456
51
83.7770351
0
ARC
8
DEFAULT_255_2_778
10
14.5119063
20
2.4448271
40
0.2062089
50
66.0570772
51
83.0009299
0
ARC
8
DEFAULT_255_2_778
10
14.5254024
20
2.4789857
40
0.1695195
50
53.3506573
51
65.5407339
0
ARC
8
DEFAULT_255_2_778
10
14.4729915
20
2.4350215
40
0.2366057
50
12.1180565
51
49.5201382
0
ARC
8
DEFAULT_255_2_778
10
14.1222528
20
2.3170887
40
0.6057216
50
15.4834217
51
16.0632959
0
ARC
8
DEFAULT_255_2_778
10
0.8275338
20
8.45304
40
2.1650446
50
310.3843306
51
320.5647771
0
ARC
8
DEFAULT_255_2_778
10
2.2354291
20
6.7569986
40
0.0801579
50
272.0463652
51
290.0355152
0
ARC
8
DEFAULT_255_2_778
10
2.1845978
20
6.8549241
40
0.1901034
50
294.3209334
51
311.7933272
0
ARC
8
DEFAULT_255_2_778
10
0.2469828
20
9.0018808
40
3.0821205
50
312.0492329
51
318.26591
0
ARC
8
DEFAULT_255_2_778
10
9.6626541
20
6.2594342
40
2.0022657
50
156.469518
51
180.0985045
0
ARC
8
DEFAULT_255_2_778
10
9.6511338
20
6.2625145
40
1.9904744
50
141.4713808
51
156.4184176
0
ARC
8
DEFAULT_255_2_778
10
9.6697164
20
6.2630222
40
1.990102
50
10.0319276
51
40.0058924
0
LINE
8
DEFAULT_255_2_778
10
14.1441914
20
2.2387919
11
14.1447914
21
2.2384919
0
LINE
8
DEFAULT_255_2_778
10
14.7450914
20
2.0051919
11
14.7426914
21
1.6873919
0
LINE
8
DEFAULT_255_2_778
10
14.2590914
20
1.7122919
11
14.2576914
21
2.0725919
0
LINE
8
DEFAULT_255_2_778
10
14.2576914
20
2.0725919
11
14.2666914
21
2.2995919
0
LINE
8
DEFAULT_255_2_778
10
14.7059914
20
2.4787919
11
14.7053914
21
2.4795919
0
LINE
8
DEFAULT_255_2_778
10
12.8432914
20
5.6015919
11
12.0108914
21
7.1057919
0
LINE
8
DEFAULT_255_2_778
10
12.0108914
20
7.1057919
11
11.8573914
21
7.1057919
0
LINE
8
DEFAULT_255_2_778
10
11.8573914
20
7.1057919
11
11.8573914
21
5.4058919
0
LINE
8
DEFAULT_255_2_778
10
11.8573914
20
5.4058919
11
11.9751914
21
5.4058919
0
LINE
8
DEFAULT_255_2_778
10
11.9751914
20
5.4058919
11
11.9751914
21
6.9147919
0
LINE
8
DEFAULT_255_2_778
10
11.9751914
20
6.9147919
11
12.8146914
21
5.4058919
0
LINE
8
DEFAULT_255_2_778
10
12.8146914
20
5.4058919
11
12.9630914
21
5.4058919
0
LINE
8
DEFAULT_255_2_778
10
12.9630914
20
5.4058919
11
12.9630914
21
7.1057919
0
LINE
8
DEFAULT_255_2_778
10
12.9630914
20
7.1057919
11
12.8429914
21
7.1057919
0
LINE
8
DEFAULT_255_2_778
10
12.8429914
20
7.1057919
11
12.8432914
21
5.6015919
0
LINE
8
DEFAULT_255_2_778
10
2.5160914
20
7.0967919
11
2.4996914
21
7.0777919
0
LINE
8
DEFAULT_255_2_778
10
2.2302914
20
6.8038919
11
2.2165914
21
6.7922919
0
LINE
8
DEFAULT_255_2_778
10
2.2165914
20
6.7922919
11
2.2307914
21
6.7969919
0
LINE
8
DEFAULT_255_2_778
10
2.2307914
20
6.7969919
11
2.2382914
21
6.6768919
0
LINE
8
DEFAULT_255_2_778
10
2.5469914
20
6.9501919
11
2.5469914
21
5.4034919
0
LINE
8
DEFAULT_255_2_778
10
2.5469914
20
5.4034919
11
2.6647914
21
5.4034919
0
LINE
8
DEFAULT_255_2_778
10
2.6647914
20
5.4034919
11
2.6647914
21
7.0964919
0
LINE
8
DEFAULT_255_2_778
10
2.6647914
20
7.0964919
11
2.5160914
21
7.0967919
0
LINE
8
DEFAULT_255_2_778
10
1.0560914
20
5.4058919
11
1.8508914
21
5.4058919
0
LINE
8
DEFAULT_255_2_778
10
1.8508914
20
5.4058919
11
1.8508914
21
5.5261919
0
LINE
8
DEFAULT_255_2_778
10
1.8508914
20
5.5261919
11
1.1764914
21
5.5261919
0
LINE
8
DEFAULT_255_2_778
10
1.1764914
20
5.5261919
11
1.1764914
21
7.1036919
0
LINE
8
DEFAULT_255_2_778
10
1.1764914
20
7.1036919
11
1.0560914
21
7.1036919
0
LINE
8
DEFAULT_255_2_778
10
1.0560914
20
7.1036919
11
1.0560914
21
5.4058919
0
LINE
8
DEFAULT_255_2_778
10
7.6656914
20
6.1095919
11
7.6603914
21
6.2559919
0
LINE
8
DEFAULT_255_2_778
10
11.1763914
20
7.5674919
11
11.1943914
21
7.5423919
0
LINE
8
DEFAULT_255_2_778
10
11.6283385
20
6.6245083
11
11.6296385
21
6.6097083
0
ARC
8
DEFAULT_255_2_778
10
9.635508
20
6.4563373
40
2.0002421
50
189.9895669
51
252.9279581
0
ARC
8
DEFAULT_255_2_778
10
9.6389726
20
6.4679105
40
2.0123224
50
252.9303965
51
253.6914024
0
ARC
8
DEFAULT_255_2_778
10
9.6359007
20
6.456312
40
2.000328
50
253.6825612
51
264.9854601
0
ARC
8
DEFAULT_255_2_778
10
9.6353682
20
6.4522939
40
1.9962787
50
264.9906035
51
270.0003817
0
ARC
8
DEFAULT_255_2_778
10
9.6354382
20
6.4561902
40
2.0001752
50
269.9983766
51
315.8730264
0
ARC
8
DEFAULT_255_2_778
10
9.6287179
20
6.4623502
40
2.0092877
50
315.8803647
51
317.4017775
0
ARC
8
DEFAULT_255_2_778
10
9.6349194
20
6.4557623
40
2.0002636
50
317.4204536
51
359.9982306
0
ARC
8
DEFAULT_255_2_778
10
9.6333345
20
6.4556783
40
2.0018485
50
0.0006343
51
4.3971113
0
LINE
8
DEFAULT_255_2_778
10
7.6627448
20
6.1265667
11
7.6656448
21
6.1096667
0
ARC
8
DEFAULT_255_2_778
10
9.658574
20
6.2574868
40
1.9994523
50
121.2847175
51
141.4912703
0
ARC
8
DEFAULT_255_2_778
10
9.6351884
20
6.4562017
40
1.900527
50
304.3873103
51
325.612667
0
LINE
8
DEFAULT_255_2_778
10
8.0958761
20
7.5005135
11
10.7085761
21
4.8878135
0
LINE
8
DEFAULT_255_2_778
10
11.2035761
20
5.3828135
11
8.6225761
21
7.9638135
0
ARC
8
DEFAULT_255_2_778
10
9.6335529
20
6.4559201
40
1.8984791
50
160.4477862
51
177.593014
0
ARC
8
DEFAULT_255_2_778
10
9.6345956
20
6.4559029
40
1.8995216
50
177.5938178
51
180.0000606
0
ARC
8
DEFAULT_255_2_778
10
9.6343924
20
6.4556981
40
1.8993185
50
179.9938821
51
215.2403801
0
ARC
8
DEFAULT_255_2_778
10
9.6348306
20
6.4555901
40
1.8996141
50
215.230094
51
270.0032143
0
LINE
8
DEFAULT_255_2_778
10
9.6349372
20
4.555976
11
9.635246
21
4.555976
0
ARC
8
DEFAULT_255_2_778
10
9.6348755
20
6.456307
40
1.900331
50
270.0111701
51
304.3870718
0
ARC
8
DEFAULT_255_2_778
10
9.6380627
20
6.4569998
40
1.8969721
50
13.9897607
51
34.9011581
0
ARC
8
DEFAULT_255_2_778
10
9.633358
20
6.4560966
40
1.9017556
50
359.9968067
51
13.9819005
0
ARC
8
DEFAULT_255_2_778
10
9.2791632
20
6.4561845
40
2.2559504
50
359.9359769
51
359.9950751
0
ARC
8
DEFAULT_255_2_778
10
9.6371143
20
6.4554398
40
1.8979988
50
332.1827175
51
359.9463829
0
ARC
8
DEFAULT_255_2_778
10
9.6305643
20
6.4593409
40
1.9056125
50
325.6125108
51
332.1708796
0
ARC
8
DEFAULT_255_2_778
10
9.6701005
20
6.2594648
40
2.0044431
50
156.6004719
51
180.099457
0
ARC
8
DEFAULT_255_2_778
10
9.659374
20
6.2626189
40
1.9933468
50
99.7059468
51
156.5612309
0
ARC
8
DEFAULT_255_2_778
10
9.6620343
20
6.2325946
40
2.0233911
50
89.9737727
51
99.6368624
0
ARC
8
DEFAULT_255_2_778
10
9.6663902
20
6.2587319
40
1.9972564
50
66.4544982
51
90.0983896
0
ARC
8
DEFAULT_255_2_778
10
9.6649189
20
6.2616497
40
1.9951708
50
10.6884252
51
66.3822913
0
ARC
8
DEFAULT_255_2_778
10
9.6318212
20
6.2570946
40
2.0285396
50
359.9686689
51
10.6414679
0
ARC
8
DEFAULT_255_2_778
10
9.6559468
20
6.2525042
40
2.0044167
50
336.6001995
51
0.0995088
0
ARC
8
DEFAULT_255_2_778
10
9.6666221
20
6.2493994
40
1.9933869
50
279.7545645
51
336.5602416
0
ARC
8
DEFAULT_255_2_778
10
9.663898
20
6.2795443
40
2.0235591
50
269.9734538
51
279.6859665
0
ARC
8
DEFAULT_255_2_778
10
9.6595393
20
6.2529965
40
1.9970141
50
246.4530502
51
270.0981548
0
ARC
8
DEFAULT_255_2_778
10
9.6611274
20
6.2503189
40
1.9951954
50
190.6882293
51
246.3805253
0
ARC
8
DEFAULT_255_2_778
10
9.6942226
20
6.2548772
40
2.0285625
50
179.9686993
51
190.6413772
0
LINE
8
DEFAULT_255_2_778
10
7.6656605
20
6.2559854
11
7.6656605
21
6.2559854
0
ARC
8
DEFAULT_255_2_778
10
4.862194
20
6.2594936
40
2.0019043
50
156.4657692
51
180.0992152
0
ARC
8
DEFAULT_255_2_778
10
4.8503968
20
6.2626745
40
1.989819
50
141.460949
51
156.4141026
0
ARC
8
DEFAULT_255_2_778
10
4.868837
20
6.2628567
40
1.9909058
50
10.0337013
51
39.9940208
0
LINE
8
DEFAULT_255_2_778
10
2.8655928
20
6.1096271
11
2.8602928
21
6.2560271
0
LINE
8
DEFAULT_255_2_778
10
6.3762928
20
7.5675271
11
6.3942928
21
7.5424271
0
LINE
8
DEFAULT_255_2_778
10
6.8282385
20
6.6245083
11
6.8295385
21
6.6097083
0
ARC
8
DEFAULT_255_2_778
10
4.835508
20
6.4563373
40
2.0002421
50
189.9895669
51
252.9279581
0
ARC
8
DEFAULT_255_2_778
10
4.8389726
20
6.4679105
40
2.0123224
50
252.9303965
51
253.6914024
0
ARC
8
DEFAULT_255_2_778
10
4.8359007
20
6.456312
40
2.000328
50
253.6825612
51
264.9854601
0
ARC
8
DEFAULT_255_2_778
10
4.8353682
20
6.4522939
40
1.9962787
50
264.9906035
51
270.0003817
0
ARC
8
DEFAULT_255_2_778
10
4.8354382
20
6.4561902
40
2.0001752
50
269.9983766
51
315.8730264
0
ARC
8
DEFAULT_255_2_778
10
4.8287179
20
6.4623502
40
2.0092877
50
315.8803647
51
317.4017775
0
ARC
8
DEFAULT_255_2_778
10
4.8349194
20
6.4557623
40
2.0002636
50
317.4204536
51
359.9982306
0
ARC
8
DEFAULT_255_2_778
10
4.8333345
20
6.4556783
40
2.0018485
50
0.0006343
51
4.3971113
0
LINE
8
DEFAULT_255_2_778
10
2.8626448
20
6.1265667
11
2.8655448
21
6.1096667
0
ARC
8
DEFAULT_255_2_778
10
4.858574
20
6.2574868
40
1.9994523
50
121.2847175
51
141.4912703
0
ARC
8
DEFAULT_255_2_778
10
4.8362839
20
6.4551062
40
1.8990042
50
304.3787013
51
325.6212761
0
LINE
8
DEFAULT_255_2_778
10
3.2958761
20
7.5005135
11
5.9085761
21
4.8878135
0
LINE
8
DEFAULT_255_2_778
10
6.4035761
20
5.3828135
11
3.8225761
21
7.9638135
0
ARC
8
DEFAULT_255_2_778
10
4.8334631
20
6.4559201
40
1.8984791
50
160.4477862
51
177.593014
0
ARC
8
DEFAULT_255_2_778
10
4.8345057
20
6.4559029
40
1.8995216
50
177.5938178
51
180.0000606
0
ARC
8
DEFAULT_255_2_778
10
4.8343026
20
6.4556981
40
1.8993185
50
179.9938821
51
215.2403801
0
ARC
8
DEFAULT_255_2_778
10
4.8347407
20
6.4555901
40
1.8996141
50
215.230094
51
270.0032143
0
LINE
8
DEFAULT_255_2_778
10
4.8348473
20
4.555976
11
4.8351562
21
4.555976
0
ARC
8
DEFAULT_255_2_778
10
4.8348568
20
6.455754
40
1.899778
50
270.0090285
51
304.3922315
0
ARC
8
DEFAULT_255_2_778
10
4.8379728
20
6.4569998
40
1.8969721
50
13.9897607
51
34.9011581
0
ARC
8
DEFAULT_255_2_778
10
4.8332682
20
6.4560966
40
1.9017556
50
359.9968067
51
13.9819005
0
ARC
8
DEFAULT_255_2_778
10
4.4790734
20
6.4561845
40
2.2559504
50
359.9359769
51
359.9950751
0
ARC
8
DEFAULT_255_2_778
10
4.8370245
20
6.4554398
40
1.8979988
50
332.1827175
51
359.9463829
0
ARC
8
DEFAULT_255_2_778
10
4.8304744
20
6.4593409
40
1.9056125
50
325.6125108
51
332.1708796
0
ARC
8
DEFAULT_255_2_778
10
4.8700005
20
6.2594648
40
2.0044431
50
156.6004719
51
180.099457
0
ARC
8
DEFAULT_255_2_778
10
4.859274
20
6.2626189
40
1.9933468
50
99.7059468
51
156.5612309
0
ARC
8
DEFAULT_255_2_778
10
4.8619343
20
6.2325946
40
2.0233911
50
89.9737727
51
99.6368624
0
ARC
8
DEFAULT_255_2_778
10
4.8662902
20
6.2587319
40
1.9972564
50
66.4544982
51
90.0983896
0
ARC
8
DEFAULT_255_2_778
10
4.8648189
20
6.2616497
40
1.9951708
50
10.6884252
51
66.3822913
0
ARC
8
DEFAULT_255_2_778
10
4.8317212
20
6.2570946
40
2.0285396
50
359.9686689
51
10.6414679
0
ARC
8
DEFAULT_255_2_778
10
4.8558468
20
6.2525042
40
2.0044167
50
336.6001995
51
0.0995088
0
ARC
8
DEFAULT_255_2_778
10
4.8665221
20
6.2493994
40
1.9933869
50
279.7545645
51
336.5602416
0
ARC
8
DEFAULT_255_2_778
10
4.863798
20
6.2795443
40
2.0235591
50
269.9734538
51
279.6859665
0
ARC
8
DEFAULT_255_2_778
10
4.8594393
20
6.2529965
40
1.9970141
50
246.4530502
51
270.0981548
0
ARC
8
DEFAULT_255_2_778
10
4.8610274
20
6.2503189
40
1.9951954
50
190.6882293
51
246.3805253
0
ARC
8
DEFAULT_255_2_778
10
4.8941226
20
6.2548772
40
2.0285625
50
179.9686993
51
190.6413772
0
LINE
8
DEFAULT_255_2_778
10
2.8655605
20
6.2559854
11
2.8655605
21
6.2559854
0
ARC
8
DEFAULT_255_2_778
10
13.0201784
20
42.7522969
40
0.4139506
50
118.1738162
51
156.1307527
0
ARC
8
DEFAULT_255_2_778
10
13.0622182
20
42.5453722
40
0.6191843
50
89.9939817
51
112.553519
0
ARC
8
DEFAULT_255_2_778
10
13.0622839
20
42.5442296
40
0.6203271
50
87.0825558
51
90.0000564
0
ARC
8
DEFAULT_255_2_778
10
13.0622429
20
42.5433909
40
0.6211668
50
83.7810822
51
87.0827196
0
ARC
8
DEFAULT_255_2_778
10
13.0351138
20
42.4870206
40
0.5106859
50
79.3455203
51
89.9798591
0
ARC
8
DEFAULT_255_2_778
10
13.0352741
20
42.4961415
40
0.5015651
50
89.9977973
51
90.590099
0
ARC
8
DEFAULT_255_2_778
10
13.0352586
20
42.4952698
40
0.5024366
50
90.5873104
51
93.4375213
0
ARC
8
DEFAULT_255_2_778
10
13.0202992
20
42.5467375
40
0.4503203
50
91.9300819
51
107.8408881
0
ARC
8
DEFAULT_255_2_778
10
12.9797262
20
42.6757959
40
0.315039
50
108.0079137
51
130.7377583
0
ARC
8
DEFAULT_255_2_778
10
12.9804074
20
42.6852974
40
0.3083574
50
131.9859082
51
155.2687981
0
ARC
8
DEFAULT_255_2_778
10
13.1447235
20
42.6214311
40
0.4844406
50
156.5385532
51
172.3163596
0
ARC
8
DEFAULT_255_2_778
10
13.694721
20
42.5331145
40
1.0414021
50
171.5467918
51
178.8397116
0
ARC
8
DEFAULT_255_2_778
10
9.9059548
20
47.2421935
40
2.5210676
50
280.4826554
51
288.203833
0
ARC
8
DEFAULT_255_2_778
10
9.8269743
20
47.5914344
40
2.8788839
50
273.5878343
51
280.7637173
0
ARC
8
DEFAULT_255_2_778
10
9.8727313
20
46.9824827
40
2.268275
50
270.0347136
51
273.3968719
0
ARC
8
DEFAULT_255_2_778
10
9.8701171
20
46.6385827
40
1.9243786
50
262.938145
51
270.1187504
0
ARC
8
DEFAULT_255_2_778
10
9.7489141
20
45.8192676
40
1.0965525
50
225.6903203
51
263.9600339
0
ARC
8
DEFAULT_255_2_778
10
9.9214555
20
45.8783212
40
1.262017
50
188.6919655
51
221.9550902
0
ARC
8
DEFAULT_255_2_778
10
10.8368436
20
46.083026
40
2.1987598
50
180.0009517
51
190.3604056
0
ARC
8
DEFAULT_255_2_778
10
10.8150806
20
46.0830554
40
2.1769967
50
179.8280712
51
180.0017365
0
ARC
8
DEFAULT_255_2_778
10
10.834007
20
46.0830311
40
2.195923
50
171.3550527
51
179.828917
0
ARC
8
DEFAULT_255_2_778
10
9.9884976
20
46.2392736
40
1.336815
50
141.1408355
51
172.5285576
0
ARC
8
DEFAULT_255_2_778
10
9.7199421
20
46.4080492
40
1.0224744
50
98.0684046
51
139.0631129
0
ARC
8
DEFAULT_255_2_778
10
9.8083952
20
45.9258591
40
1.5124372
50
91.8675252
51
98.8222834
0
ARC
8
DEFAULT_255_2_778
10
9.8011067
20
46.0800798
40
1.3580626
50
90.0059311
51
91.7722285
0
ARC
8
DEFAULT_255_2_778
10
9.8208159
20
46.4112975
40
1.0270368
50
62.6832607
51
91.1074396
0
ARC
8
DEFAULT_255_2_778
10
9.9274509
20
46.6669382
40
0.7513076
50
5.1441962
51
60.9615989
0
ARC
8
DEFAULT_255_2_778
10
9.8253837
20
46.6174149
40
0.6009263
50
11.2162244
51
68.7550999
0
ARC
8
DEFAULT_255_2_778
10
9.7635631
20
46.4252851
40
0.8024897
50
69.6118939
51
90.1741625
0
ARC
8
DEFAULT_255_2_778
10
9.7611238
20
46.3996308
40
0.8281402
50
90.0000003
51
90.1950768
0
ARC
8
DEFAULT_255_2_778
10
9.7599922
20
46.3977521
40
0.8300159
50
90.1165229
51
111.8385605
0
ARC
8
DEFAULT_255_2_778
10
9.7979803
20
46.3982003
40
0.8444745
50
114.2430224
51
155.2085611
0
ARC
8
DEFAULT_255_2_778
10
10.3281568
20
46.1411971
40
1.4335979
50
154.7686831
51
178.8806603
0
ARC
8
DEFAULT_255_2_778
10
11.3418293
20
46.0725407
40
2.4489053
50
177.7378684
51
179.9751362
0
ARC
8
DEFAULT_255_2_778
10
10.6188589
20
46.0528159
40
1.7260598
50
179.309954
51
196.1639948
0
ARC
8
DEFAULT_255_2_778
10
9.8605082
20
45.8118827
40
0.9308359
50
194.9147738
51
232.1875339
0
ARC
8
DEFAULT_255_2_778
10
9.7839028
20
45.8231266
40
0.8952951
50
236.5058411
51
270.8794003
0
ARC
8
DEFAULT_255_2_778
10
9.8338654
20
46.4078306
40
1.4803369
50
268.5979141
51
270.0071764
0
ARC
8
DEFAULT_255_2_778
10
9.8338935
20
46.4986354
40
1.5711416
50
270.0057384
51
271.1356388
0
ARC
8
DEFAULT_255_2_778
10
9.8634454
20
46.9603932
40
2.0325915
50
270.0447352
51
287.1331269
0
ARC
8
DEFAULT_255_2_778
10
7.3223543
20
45.9776492
40
1.4898916
50
182.0071459
51
216.0147636
0
ARC
8
DEFAULT_255_2_778
10
8.1662949
20
46.0888712
40
2.3386337
50
181.020928
51
184.0066153
0
ARC
8
DEFAULT_255_2_778
10
8.3382601
20
46.0931131
40
2.5106474
50
180.0037679
51
181.0477926
0
ARC
8
DEFAULT_255_2_778
10
8.2007148
20
46.0933823
40
2.3731022
50
178.2070415
51
180.010487
0
ARC
8
DEFAULT_255_2_778
10
7.3423061
20
46.1725095
40
1.5135396
50
146.7169781
51
180.1846489
0
ARC
8
DEFAULT_255_2_778
10
6.9352799
20
46.3638516
40
1.0701543
50
97.5088132
51
143.3200554
0
ARC
8
DEFAULT_255_2_778
10
6.9938718
20
46.1541502
40
1.2860804
50
90.4193202
51
98.8760257
0
ARC
8
DEFAULT_255_2_778
10
6.9940911
20
46.1446383
40
1.2955937
50
90.0011962
51
90.4259389
0
ARC
8
DEFAULT_255_2_778
10
7.0093695
20
46.278928
40
1.1614047
50
54.3823954
51
90.7550901
0
ARC
8
DEFAULT_255_2_778
10
7.1292964
20
46.4736092
40
0.9334374
50
38.3992728
51
53.4072527
0
ARC
8
DEFAULT_255_2_778
10
6.6832958
20
46.1872415
40
1.4617891
50
1.3948869
51
36.3370913
0
ARC
8
DEFAULT_255_2_778
10
5.9629291
20
46.0977662
40
2.1853038
50
359.9784273
51
3.2806879
0
ARC
8
DEFAULT_255_2_778
10
5.8999161
20
46.0966081
40
2.2483168
50
359.9743683
51
0.0085442
0
ARC
8
DEFAULT_255_2_778
10
5.4802583
20
46.0966699
40
2.6679744
50
357.4869888
51
359.9770741
0
ARC
8
DEFAULT_255_2_778
10
6.6150906
20
45.986716
40
1.5305925
50
326.0082521
51
359.7369598
0
ARC
8
DEFAULT_255_2_778
10
7.0421543
20
45.779058
40
1.0624986
50
276.4070722
51
322.4151554
0
ARC
8
DEFAULT_255_2_778
10
6.9877148
20
45.9884959
40
1.2770731
50
270.1788809
51
277.785817
0
ARC
8
DEFAULT_255_2_778
10
6.9875873
20
45.9936923
40
1.2822698
50
269.9972562
51
270.1838512
0
ARC
8
DEFAULT_255_2_778
10
6.9724893
20
45.8735908
40
1.1622657
50
233.8215174
51
270.7412741
0
ARC
8
DEFAULT_255_2_778
10
6.8493422
20
45.6777206
40
0.9316099
50
218.2002276
51
232.8238741
0
ARC
8
DEFAULT_255_2_778
10
6.9905638
20
45.7799804
40
0.852509
50
270.4885191
51
326.2298391
0
ARC
8
DEFAULT_255_2_778
10
6.5134851
20
46.0130956
40
1.3805203
50
329.1947961
51
359.6406096
0
ARC
8
DEFAULT_255_2_778
10
5.697743
20
46.0877559
40
2.1978152
50
357.8273851
51
0.0170197
0
ARC
8
DEFAULT_255_2_778
10
5.5784344
20
46.0884103
40
2.3171236
50
359.9999613
51
0.2693294
0
ARC
8
DEFAULT_255_2_778
10
5.7486636
20
46.0898873
40
2.1468895
50
0.2512681
51
2.3653718
0
ARC
8
DEFAULT_255_2_778
10
6.6058281
20
46.1734572
40
1.2879056
50
0.2240429
51
33.6015583
0
ARC
8
DEFAULT_255_2_778
10
6.9489711
20
46.3631838
40
0.8976682
50
35.6365331
51
43.5356086
0
ARC
8
DEFAULT_255_2_778
10
7.0420199
20
46.4505345
40
0.7700455
50
43.5927444
51
64.1285135
0
ARC
8
DEFAULT_255_2_778
10
7.0201306
20
46.3791567
40
0.8438987
50
64.9059592
51
83.5430602
0
ARC
8
DEFAULT_255_2_778
10
6.9863183
20
46.1396979
40
1.0856615
50
83.1910953
51
89.9790352
0
ARC
8
DEFAULT_255_2_778
10
6.9867155
20
46.1570809
40
1.0682785
50
90.0000005
51
90.2325654
0
ARC
8
DEFAULT_255_2_778
10
6.984205
20
46.2265754
40
0.9987768
50
90.104728
51
102.1710217
0
ARC
8
DEFAULT_255_2_778
10
6.9399724
20
46.43829
40
0.7824967
50
102.2733527
51
121.5246153
0
ARC
8
DEFAULT_255_2_778
10
6.9526445
20
46.4351737
40
0.7918319
50
122.1883362
51
141.166219
0
ARC
8
DEFAULT_255_2_778
10
7.1506332
20
46.2785657
40
1.0442642
50
141.2846654
51
159.1993467
0
ARC
8
DEFAULT_255_2_778
10
7.5170417
20
46.147199
40
1.43346
50
159.4916771
51
175.7910561
0
ARC
8
DEFAULT_255_2_778
10
7.9269392
20
46.0983636
40
1.8459302
50
175.2131085
51
176.6664352
0
ARC
8
DEFAULT_255_2_778
10
8.2697624
20
46.0805264
40
2.1892116
50
176.7221224
51
179.9742426
0
ARC
8
DEFAULT_255_2_778
10
8.1333912
20
46.0813899
40
2.05284
50
179.9966322
51
181.2498494
0
ARC
8
DEFAULT_255_2_778
10
7.7812058
20
46.0628897
40
1.7003694
50
180.8854648
51
194.4912622
0
ARC
8
DEFAULT_255_2_778
10
7.2859544
20
45.9356138
40
1.1890255
50
194.525049
51
212.8118429
0
ARC
8
DEFAULT_255_2_778
10
6.9840676
20
45.7771471
40
0.849977
50
214.8616979
51
270.2208445
0
ARC
8
DEFAULT_255_2_778
10
6.990621
20
45.7662204
40
0.8390503
50
269.7762162
51
269.9999996
0
ARC
8
DEFAULT_255_2_778
10
6.9906211
20
45.785425
40
0.8582548
50
269.9999914
51
270.4947769
0
ARC
8
DEFAULT_255_2_778
10
12.7450045
20
45.9775377
40
1.4897857
50
182.0029981
51
216.0124218
0
ARC
8
DEFAULT_255_2_778
10
13.6036858
20
46.0905228
40
2.3533521
50
181.0547594
51
184.0218253
0
ARC
8
DEFAULT_255_2_778
10
13.7419914
20
46.094996
40
2.4917174
50
180.0042904
51
181.0990578
0
ARC
8
DEFAULT_255_2_778
10
13.6074357
20
46.0952028
40
2.3571617
50
178.2391834
51
180.0095615
0
ARC
8
DEFAULT_255_2_778
10
12.7635435
20
46.1729372
40
1.5121658
50
146.7021925
51
180.2010229
0
ARC
8
DEFAULT_255_2_778
10
12.3579845
20
46.3636575
40
1.0703541
50
97.5099606
51
143.3150704
0
ARC
8
DEFAULT_255_2_778
10
12.4165215
20
46.154161
40
1.2860697
50
90.418895
51
98.8757551
0
ARC
8
DEFAULT_255_2_778
10
12.4167412
20
46.1471021
40
1.2931299
50
90.0012041
51
90.426345
0
ARC
8
DEFAULT_255_2_778
10
12.4320062
20
46.2788172
40
1.1615154
50
54.3841678
51
90.754359
0
ARC
8
DEFAULT_255_2_778
10
12.5518189
20
46.4733342
40
0.9337472
50
38.4057318
51
53.4099551
0
ARC
8
DEFAULT_255_2_778
10
12.1057139
20
46.1872704
40
1.461999
50
1.3935515
51
36.3296317
0
ARC
8
DEFAULT_255_2_778
10
11.3906341
20
46.098405
40
2.1801995
50
359.9790571
51
3.2715619
0
ARC
8
DEFAULT_255_2_778
10
11.0568597
20
46.0976079
40
2.5139736
50
359.9542906
51
0.0000038
0
ARC
8
DEFAULT_255_2_778
10
10.9028583
20
46.0966699
40
2.6679744
50
357.4869888
51
359.9770741
0
ARC
8
DEFAULT_255_2_778
10
12.0376906
20
45.986716
40
1.5305925
50
326.0082521
51
359.7369598
0
ARC
8
DEFAULT_255_2_778
10
12.4647651
20
45.779042
40
1.0624803
50
276.4112936
51
322.4154898
0
ARC
8
DEFAULT_255_2_778
10
12.4103263
20
45.9884466
40
1.2770236
50
270.1832367
51
277.789515
0
ARC
8
DEFAULT_255_2_778
10
12.4101391
20
45.9783077
40
1.2668854
50
270.0000003
51
270.1931677
0
ARC
8
DEFAULT_255_2_778
10
12.3950914
20
45.8733869
40
1.162062
50
233.8182228
51
270.7419533
0
ARC
8
DEFAULT_255_2_778
10
12.2719077
20
45.6774767
40
0.9313534
50
218.1935508
51
232.8198489
0
ARC
8
DEFAULT_255_2_778
10
12.4131638
20
45.7799804
40
0.852509
50
270.4885191
51
326.2298391
0
ARC
8
DEFAULT_255_2_778
10
11.9371287
20
46.0128113
40
1.3794784
50
329.1827408
51
359.6521468
0
ARC
8
DEFAULT_255_2_778
10
11.1170753
20
46.0877228
40
2.2010827
50
357.8314733
51
0.0172973
0
ARC
8
DEFAULT_255_2_778
10
10.9918291
20
46.0883887
40
2.326329
50
359.9999651
51
0.268795
0
ARC
8
DEFAULT_255_2_778
10
11.1677415
20
46.089872
40
2.1504116
50
0.2512648
51
2.3619041
0
ARC
8
DEFAULT_255_2_778
10
12.0305517
20
46.1737957
40
1.2857829
50
0.2093276
51
33.646297
0
ARC
8
DEFAULT_255_2_778
10
12.3709621
20
46.3621624
40
0.8985959
50
35.6742694
51
43.5692513
0
ARC
8
DEFAULT_255_2_778
10
12.4659428
20
46.4527569
40
0.7673379
50
43.5561188
51
64.1651391
0
ARC
8
DEFAULT_255_2_778
10
12.4428499
20
46.380641
40
0.8423768
50
64.8889726
51
83.5600467
0
ARC
8
DEFAULT_255_2_778
10
12.4086944
20
46.1409755
40
1.0843839
50
83.187084
51
89.9804307
0
ARC
8
DEFAULT_255_2_778
10
12.409101
20
46.1503783
40
1.074981
50
90.0019312
51
90.3184158
0
ARC
8
DEFAULT_255_2_778
10
12.4064359
20
46.2279854
40
0.9973629
50
90.1900918
51
102.1786014
0
ARC
8
DEFAULT_255_2_778
10
12.3624261
20
46.4377376
40
0.7830478
50
102.2686007
51
121.5130697
0
ARC
8
DEFAULT_255_2_778
10
12.377379
20
46.4324392
40
0.7954432
50
122.231814
51
141.1227463
0
ARC
8
DEFAULT_255_2_778
10
12.5752503
20
46.277241
40
1.0469007
50
141.30741
51
159.1766047
0
ARC
8
DEFAULT_255_2_778
10
12.9367741
20
46.1480211
40
1.4307672
50
159.4864896
51
175.8161301
0
ARC
8
DEFAULT_255_2_778
10
13.340514
20
46.1000797
40
1.8370206
50
175.2435497
51
176.7038641
0
ARC
8
DEFAULT_255_2_778
10
13.6921624
20
46.0805264
40
2.1892116
50
176.7221224
51
179.9742426
0
ARC
8
DEFAULT_255_2_778
10
13.5557912
20
46.0813899
40
2.05284
50
179.9966322
51
181.2498494
0
ARC
8
DEFAULT_255_2_778
10
13.2036058
20
46.0628897
40
1.7003694
50
180.8854648
51
194.4912622
0
ARC
8
DEFAULT_255_2_778
10
12.7106721
20
45.9363403
40
1.1914513
50
194.5309135
51
212.7782021
0
ARC
8
DEFAULT_255_2_778
10
12.4065298
20
45.7774589
40
0.8502883
50
214.8726903
51
270.2159911
0
ARC
8
DEFAULT_255_2_778
10
12.413021
20
45.7705896
40
0.8434195
50
269.7767883
51
269.9999996
0
ARC
8
DEFAULT_255_2_778
10
12.4130211
20
45.785425
40
0.8582548
50
269.9999914
51
270.4947769
0
ARC
8
DEFAULT_255_2_778
10
11.8198684
20
42.4246487
40
0.7951383
50
179.8592243
51
179.9999999
0
ARC
8
DEFAULT_255_2_778
10
11.837523
20
42.4239543
40
0.8127931
50
179.9510477
51
188.9074484
0
ARC
8
DEFAULT_255_2_778
10
11.632228
20
42.3897102
40
0.6046751
50
188.7138212
51
204.5992925
0
ARC
8
DEFAULT_255_2_778
10
11.5366366
20
42.3478552
40
0.5003395
50
204.7980394
51
223.902644
0
ARC
8
DEFAULT_255_2_778
10
11.4655803
20
42.2796716
40
0.4018611
50
223.9233509
51
244.6511998
0
ARC
8
DEFAULT_255_2_778
10
11.4802457
20
42.3249552
40
0.4491053
50
245.4337626
51
263.8885177
0
ARC
8
DEFAULT_255_2_778
10
11.4932893
20
42.4296222
40
0.5545691
50
263.6998384
51
269.978762
0
ARC
8
DEFAULT_255_2_778
10
11.4930835
20
42.4187566
40
0.5437034
50
270.0000248
51
270.5897361
0
ARC
8
DEFAULT_255_2_778
10
11.4947022
20
42.3799305
40
0.504864
50
270.4513871
51
282.5880856
0
ARC
8
DEFAULT_255_2_778
10
11.516557
20
42.2756436
40
0.3983234
50
282.7893086
51
301.6607523
0
ARC
8
DEFAULT_255_2_778
10
11.5117309
20
42.2701047
40
0.3962041
50
302.6752758
51
321.5997859
0
ARC
8
DEFAULT_255_2_778
10
11.299947
20
42.4274515
40
0.6599647
50
322.3150347
51
339.8032813
0
ARC
8
DEFAULT_255_2_778
10
11.4584638
20
42.352062
40
0.6697521
50
336.4069964
51
346.8420677
0
ARC
8
DEFAULT_255_2_778
10
11.5228476
20
42.3251324
40
0.5999728
50
317.4489105
51
336.3028845
0
ARC
8
DEFAULT_255_2_778
10
11.5314756
20
42.3181175
40
0.5888735
50
295.6337802
51
317.3840256
0
ARC
8
DEFAULT_255_2_778
10
11.5086086
20
42.391171
40
0.6647203
50
272.5370303
51
294.6866362
0
ARC
8
DEFAULT_255_2_778
10
11.4901408
20
42.4888528
40
0.7632544
50
271.8490122
51
273.5974795
0
ARC
8
DEFAULT_255_2_778
10
11.4901322
20
42.489017
40
0.763419
50
270.0003598
51
271.8492593
0
ARC
8
DEFAULT_255_2_778
10
11.4901515
20
42.4889436
40
0.7633457
50
254.9727499
51
269.9989115
0
ARC
8
DEFAULT_255_2_778
10
11.4476321
20
42.3118823
40
0.5813352
50
235.0650063
51
254.4954388
0
ARC
8
DEFAULT_255_2_778
10
11.4519735
20
42.3116277
40
0.5836243
50
213.4884116
51
234.7012865
0
ARC
8
DEFAULT_255_2_778
10
11.5356456
20
42.3613395
40
0.6808522
50
195.0452818
51
213.0922109
0
ARC
8
DEFAULT_255_2_778
10
11.8517428
20
42.4459185
40
1.0080691
50
180.287639
51
195.0240486
0
ARC
8
DEFAULT_255_2_778
10
12.0133557
20
42.4536911
40
1.1697396
50
180.0000261
51
180.6286091
0
ARC
8
DEFAULT_255_2_778
10
12.0821817
20
42.4525865
40
1.2385662
50
174.0302154
51
179.9489291
0
ARC
8
DEFAULT_255_2_778
10
11.6619388
20
42.5071623
40
0.8149947
50
156.5719094
51
174.7735277
0
ARC
8
DEFAULT_255_2_778
10
11.4614009
20
42.5861968
40
0.5996086
50
137.3292206
51
155.8825036
0
ARC
8
DEFAULT_255_2_778
10
11.4471142
20
42.5956999
40
0.5826694
50
116.4885766
51
137.0641076
0
ARC
8
DEFAULT_255_2_778
10
11.4613462
20
42.5549752
40
0.6254899
50
96.9248547
51
115.9915423
0
ARC
8
DEFAULT_255_2_778
10
11.4946019
20
42.3690964
40
0.8140915
50
90.5673111
51
97.6710543
0
ARC
8
DEFAULT_255_2_778
10
11.4946165
20
42.3721098
40
0.8110784
50
89.9986016
51
90.5704543
0
ARC
8
DEFAULT_255_2_778
10
11.4946222
20
42.367351
40
0.8158372
50
78.287889
51
89.9990065
0
ARC
8
DEFAULT_255_2_778
10
11.5386119
20
42.5807024
40
0.5979981
50
60.6812368
51
78.2653477
0
ARC
8
DEFAULT_255_2_778
10
11.5616969
20
42.6359259
40
0.5385887
50
40.3869322
51
59.9457926
0
ARC
8
DEFAULT_255_2_778
10
11.296085
20
42.475924
40
0.8460667
50
359.9982698
51
36.9832749
0
ARC
8
DEFAULT_255_2_778
10
11.2957575
20
42.4758962
40
0.8463941
50
356.6815595
51
0.0001539
0
ARC
8
DEFAULT_255_2_778
10
11.5667566
20
42.5363877
40
0.542779
50
135.7546174
51
176.9780324
0
ARC
8
DEFAULT_255_2_778
10
11.4787973
20
42.5864544
40
0.4455661
50
97.8901634
51
132.4729336
0
ARC
8
DEFAULT_255_2_778
10
11.4933399
20
42.4777797
40
0.5552085
50
90.0319602
51
97.8371841
0
ARC
8
DEFAULT_255_2_778
10
11.4930301
20
42.4896156
40
0.5433726
50
89.7591777
51
89.9999994
0
ARC
8
DEFAULT_255_2_778
10
11.4972065
20
42.5540634
40
0.4789237
50
67.2732308
51
90.2264057
0
ARC
8
DEFAULT_255_2_778
10
11.5016937
20
42.5927184
40
0.4416683
50
30.9104382
51
65.8726922
0
ARC
8
DEFAULT_255_2_778
10
11.3506681
20
42.5120107
40
0.61276
50
4.961151
51
30.1309082
0
ARC
8
DEFAULT_255_2_778
10
7.7076027
20
42.295528
40
0.5632869
50
291.9033526
51
311.0917476
0
ARC
8
DEFAULT_255_2_778
10
7.6646803
20
42.4314383
40
0.7054821
50
270.6539708
51
291.0200085
0
ARC
8
DEFAULT_255_2_778
10
7.6519233
20
42.6472033
40
0.9214359
50
270.0041177
51
271.2940447
0
ARC
8
DEFAULT_255_2_778
10
7.6517855
20
42.6030759
40
0.8773084
50
267.5599729
51
270.0133217
0
ARC
8
DEFAULT_255_2_778
10
7.6399133
20
42.43993
40
0.713822
50
253.303637
51
267.9545457
0
ARC
8
DEFAULT_255_2_778
10
7.6048016
20
42.3083742
40
0.5777399
50
233.2260791
51
252.890621
0
ARC
8
DEFAULT_255_2_778
10
7.617124
20
42.317659
40
0.5925696
50
211.4365006
51
232.809161
0
ARC
8
DEFAULT_255_2_778
10
7.719429
20
42.3716723
40
0.7080664
50
193.1154289
51
210.8480161
0
ARC
8
DEFAULT_255_2_778
10
8.0431562
20
42.4503879
40
1.0412158
50
180.126135
51
193.2917535
0
ARC
8
DEFAULT_255_2_778
10
8.1434134
20
42.454577
40
1.1414889
50
180.0000015
51
180.3253219
0
ARC
8
DEFAULT_255_2_778
10
8.1881747
20
42.4536727
40
1.1862506
50
172.5149599
51
179.9563229
0
ARC
8
DEFAULT_255_2_778
10
7.9651246
20
42.4827865
40
0.9613084
50
172.1436203
51
172.5036108
0
ARC
8
DEFAULT_255_2_778
10
7.7878731
20
42.5159743
40
0.781232
50
154.776034
51
172.7778595
0
ARC
8
DEFAULT_255_2_778
10
7.6114915
20
42.5914754
40
0.5895332
50
133.9506979
51
154.1088851
0
ARC
8
DEFAULT_255_2_778
10
7.6035246
20
42.5968241
40
0.5801567
50
116.2384886
51
133.7508586
0
ARC
8
DEFAULT_255_2_778
10
7.6331975
20
42.512859
40
0.6686714
50
92.8515314
51
115.3382149
0
ARC
8
DEFAULT_255_2_778
10
7.6528488
20
42.2959447
40
0.8863387
50
90.0134069
51
93.4227189
0
ARC
8
DEFAULT_255_2_778
10
7.6526906
20
42.3275187
40
0.8547648
50
88.5214166
51
90.0032973
0
ARC
8
DEFAULT_255_2_778
10
7.6588684
20
42.4316288
40
0.750538
50
75.1808686
51
88.7877965
0
ARC
8
DEFAULT_255_2_778
10
7.6947285
20
42.5864523
40
0.5917128
50
55.7751829
51
74.7033308
0
ARC
8
DEFAULT_255_2_778
10
7.692724
20
42.59509
40
0.5857345
50
34.3634581
51
55.1378204
0
ARC
8
DEFAULT_255_2_778
10
7.619396
20
42.5528487
40
0.6701393
50
15.7633939
51
33.8059795
0
ARC
8
DEFAULT_255_2_778
10
7.3191657
20
42.4732752
40
0.9807084
50
0.3085499
51
15.4723674
0
ARC
8
DEFAULT_255_2_778
10
7.1126617
20
42.4631935
40
1.1872977
50
359.9992955
51
0.7413987
0
ARC
8
DEFAULT_255_2_778
10
7.0116642
20
42.4646489
40
1.2882959
50
354.5952112
51
359.9346238
0
ARC
8
DEFAULT_255_2_778
10
7.4473021
20
42.4116349
40
0.8496825
50
337.0853068
51
355.3872198
0
ARC
8
DEFAULT_255_2_778
10
7.6688002
20
42.3252081
40
0.6120486
50
316.3191384
51
336.4640708
0
ARC
8
DEFAULT_255_2_778
10
7.6236522
20
42.268435
40
0.3906028
50
223.6943205
51
246.2170204
0
ARC
8
DEFAULT_255_2_778
10
7.6381423
20
42.3159671
40
0.4399816
50
246.9865107
51
265.4804905
0
ARC
8
DEFAULT_255_2_778
10
7.6458219
20
42.3722641
40
0.4967192
50
265.1091107
51
268.1553193
0
ARC
8
DEFAULT_255_2_778
10
7.6536569
20
42.3723572
40
0.4971261
50
267.2530859
51
268.068612
0
ARC
8
DEFAULT_255_2_778
10
7.6536643
20
42.3728208
40
0.4975896
50
268.069559
51
269.9995847
0
ARC
8
DEFAULT_255_2_778
10
7.6535531
20
42.3759827
40
0.5007513
50
270.0123135
51
285.8635892
0
ARC
8
DEFAULT_255_2_778
10
7.6784938
20
42.2704416
40
0.3924424
50
286.5729537
51
307.7645193
0
ARC
8
DEFAULT_255_2_778
10
7.6427608
20
42.3057978
40
0.4423254
50
308.6188696
51
327.2640604
0
ARC
8
DEFAULT_255_2_778
10
7.5095333
20
42.3927645
40
0.6014225
50
327.1584343
51
343.9913112
0
ARC
8
DEFAULT_255_2_778
10
7.2796687
20
42.4536286
40
0.8391723
50
344.3251154
51
357.7935364
0
ARC
8
DEFAULT_255_2_778
10
7.032507
20
42.4709486
40
1.0868457
50
357.382796
51
0.0224887
0
ARC
8
DEFAULT_255_2_778
10
6.9773198
20
42.4714098
40
1.142033
50
359.9982614
51
0.3407824
0
ARC
8
DEFAULT_255_2_778
10
7.1621819
20
42.4725032
40
0.9571676
50
0.3411533
51
3.0976893
0
ARC
8
DEFAULT_255_2_778
10
7.38906
20
42.4911149
40
0.7296425
50
2.6010563
51
17.6301138
0
ARC
8
DEFAULT_255_2_778
10
7.6028726
20
42.5562782
40
0.5061433
50
17.9306571
51
40.0120522
0
ARC
8
DEFAULT_255_2_778
10
7.6572932
20
42.6009509
40
0.4357405
50
40.1138724
51
58.3046406
0
ARC
8
DEFAULT_255_2_778
10
7.6719075
20
42.6149088
40
0.4162173
50
59.0068732
51
78.1141789
0
ARC
8
DEFAULT_255_2_778
10
7.6512919
20
42.5089989
40
0.524105
50
78.2934436
51
89.9951867
0
ARC
8
DEFAULT_255_2_778
10
7.6513526
20
42.5096989
40
0.5234052
50
90.0018288
51
90.6922433
0
ARC
8
DEFAULT_255_2_778
10
7.6512993
20
42.5115652
40
0.5215385
50
90.6888684
51
98.0202776
0
ARC
8
DEFAULT_255_2_778
10
7.6349708
20
42.6031422
40
0.4285924
50
97.5668549
51
116.7095212
0
ARC
8
DEFAULT_255_2_778
10
7.6408901
20
42.6049453
40
0.4296855
50
117.5226933
51
139.7103328
0
ARC
8
DEFAULT_255_2_778
10
7.6966353
20
42.5588685
40
0.5020036
50
139.8131848
51
158.6656445
0
ARC
8
DEFAULT_255_2_778
10
7.8778078
20
42.4964711
40
0.6935054
50
159.3093107
51
176.450849
0
ARC
8
DEFAULT_255_2_778
10
8.2078567
20
42.4645115
40
1.0249639
50
175.8098484
51
179.977263
0
ARC
8
DEFAULT_255_2_778
10
8.1638088
20
42.4648813
40
0.980916
50
179.99784
51
181.1570349
0
ARC
8
DEFAULT_255_2_778
10
8.0444493
20
42.4585211
40
0.8614615
50
180.8944081
51
194.1791376
0
ARC
8
DEFAULT_255_2_778
10
7.7981263
20
42.3946125
40
0.6069904
50
194.0258642
51
213.3744062
0
ARC
8
DEFAULT_255_2_778
10
7.6693429
20
42.3124435
40
0.4542479
50
213.6551708
51
223.7539805
0
ARC
8
DEFAULT_255_2_778
10
6.0283859
20
40.0809256
40
3.6750231
50
88.1952957
51
89.3366597
0
ARC
8
DEFAULT_255_2_778
10
6.1346251
20
42.8006734
40
0.9534997
50
75.4521993
51
89.4292776
0
ARC
8
DEFAULT_255_2_778
10
6.2158191
20
43.1596072
40
0.5857932
50
44.528439
51
74.3205763
0
ARC
8
DEFAULT_255_2_778
10
6.2943531
20
43.2303731
40
0.4802027
50
23.5584097
51
45.0801435
0
ARC
8
DEFAULT_255_2_778
10
6.2305293
20
43.2113878
40
0.5463553
50
4.031822
51
22.708265
0
ARC
8
DEFAULT_255_2_778
10
6.1361241
20
43.196177
40
0.6416531
50
1.9656308
51
4.7940163
0
ARC
8
DEFAULT_255_2_778
10
6.137549
20
43.196241
40
0.6402268
50
359.9998754
51
1.9642736
0
ARC
8
DEFAULT_255_2_778
10
6.1383298
20
43.1962427
40
0.6394461
50
347.7991217
51
359.9997248
0
ARC
8
DEFAULT_255_2_778
10
6.2156399
20
43.1838922
40
0.5612882
50
331.1432337
51
347.36353
0
ARC
8
DEFAULT_255_2_778
10
6.2891811
20
43.1396456
40
0.4755356
50
311.5566574
51
331.536016
0
ARC
8
DEFAULT_255_2_778
10
6.2719563
20
43.1700625
40
0.5097748
50
292.2075736
51
310.7374924
0
ARC
8
DEFAULT_255_2_778
10
6.2012387
20
43.3075522
40
0.6639317
50
275.3403838
51
293.3731681
0
ARC
8
DEFAULT_255_2_778
10
5.797276
20
35.5968863
40
7.1978338
50
89.1195161
51
89.8729846
0
ARC
8
DEFAULT_255_2_778
10
6.0738797
20
54.6818017
40
11.8890904
50
269.2000056
51
269.4771178
0
ARC
8
DEFAULT_255_2_778
10
6.0042733
20
47.2776022
40
4.4845645
50
269.5030998
51
269.9809592
0
ARC
8
DEFAULT_255_2_778
10
6.0323079
20
44.1986905
40
1.4059627
50
268.7967132
51
280.5293557
0
ARC
8
DEFAULT_255_2_778
10
6.2061006
20
43.2495794
40
0.4410819
50
280.8636606
51
298.5688692
0
ARC
8
DEFAULT_255_2_778
10
6.2612729
20
43.1388314
40
0.317466
50
299.3822433
51
318.1448613
0
ARC
8
DEFAULT_255_2_778
10
6.2648146
20
43.132396
40
0.3105435
50
318.5932233
51
337.7486502
0
ARC
8
DEFAULT_255_2_778
10
6.1523093
20
43.1737324
40
0.4303456
50
338.3270515
51
355.791051
0
ARC
8
DEFAULT_255_2_778
10
6.0092307
20
43.1903183
40
0.5742874
50
355.1884327
51
359.0106491
0
ARC
8
DEFAULT_255_2_778
10
5.9402854
20
43.1940035
40
0.6432908
50
358.7885042
51
359.9965351
0
ARC
8
DEFAULT_255_2_778
10
5.9771257
20
43.1941182
40
0.6064506
50
359.985482
51
2.2380936
0
ARC
8
DEFAULT_255_2_778
10
6.1069551
20
43.2028972
40
0.4763919
50
1.7928305
51
16.1995048
0
ARC
8
DEFAULT_255_2_778
10
6.2408689
20
43.2402155
40
0.3373873
50
16.4581457
51
34.4358485
0
ARC
8
DEFAULT_255_2_778
10
6.2595326
20
43.247131
40
0.3181207
50
35.3094578
51
57.5909748
0
ARC
8
DEFAULT_255_2_778
10
6.1987704
20
43.1427923
40
0.4387984
50
58.1946741
51
74.147617
0
ARC
8
DEFAULT_255_2_778
10
6.0920742
20
42.732584
40
0.8626021
50
74.7729267
51
90.007073
0
ARC
8
DEFAULT_255_2_778
10
6.0919803
20
42.7285283
40
0.8666578
50
90.0008356
51
91.1800296
0
LINE
8
DEFAULT_255_2_778
10
12.4757324
20
41.7562023
11
12.4590324
21
43.1466023
0
LINE
8
DEFAULT_255_2_778
10
12.4590324
20
43.1466023
11
12.6310324
21
43.1466023
0
LINE
8
DEFAULT_255_2_778
10
12.6310324
20
43.1466023
11
12.6416324
21
42.9198023
0
LINE
8
DEFAULT_255_2_778
10
13.1295324
20
43.1609023
11
13.1295324
21
42.9889023
0
LINE
8
DEFAULT_255_2_778
10
12.6535324
20
42.5542023
11
12.6530324
21
42.2880023
0
LINE
8
DEFAULT_255_2_778
10
12.6530324
20
42.2880023
11
12.6530324
21
41.7559023
0
LINE
8
DEFAULT_255_2_778
10
12.6530324
20
41.7559023
11
12.4757324
21
41.7562023
0
LINE
8
DEFAULT_255_2_778
10
10.6935324
20
46.0787023
11
10.6935324
21
44.8473023
0
LINE
8
DEFAULT_255_2_778
10
10.6757324
20
46.7343023
11
10.4148324
21
46.7343023
0
LINE
8
DEFAULT_255_2_778
10
10.4622324
20
45.0180023
11
10.4622324
21
45.8670023
0
LINE
8
DEFAULT_255_2_778
10
10.4622324
20
45.8670023
11
9.8082324
21
45.8670023
0
LINE
8
DEFAULT_255_2_778
10
9.8082324
20
45.8670023
11
9.8082324
21
46.0784023
0
LINE
8
DEFAULT_255_2_778
10
9.8082324
20
46.0784023
11
10.6935324
21
46.0787023
0
LINE
8
DEFAULT_255_2_778
10
8.4564324
20
43.1463023
11
8.6538324
21
43.1463023
0
LINE
8
DEFAULT_255_2_778
10
8.6538324
20
43.1463023
11
9.0631324
21
41.9766023
0
LINE
8
DEFAULT_255_2_778
10
9.0631324
20
41.9766023
11
9.4872324
21
43.1463023
0
LINE
8
DEFAULT_255_2_778
10
9.4872324
20
43.1463023
11
9.6835324
21
43.1463023
0
LINE
8
DEFAULT_255_2_778
10
9.6835324
20
43.1463023
11
10.0973324
21
41.9837023
0
LINE
8
DEFAULT_255_2_778
10
10.0973324
20
41.9837023
11
10.5122324
21
43.1463023
0
LINE
8
DEFAULT_255_2_778
10
10.5122324
20
43.1463023
11
10.6866324
21
43.1463023
0
LINE
8
DEFAULT_255_2_778
10
10.6866324
20
43.1463023
11
10.1656324
21
41.7559023
0
LINE
8
DEFAULT_255_2_778
10
10.1656324
20
41.7559023
11
10.0079324
21
41.7559023
0
LINE
8
DEFAULT_255_2_778
10
10.0079324
20
41.7559023
11
9.5782324
21
42.9550023
0
LINE
8
DEFAULT_255_2_778
10
9.5782324
20
42.9550023
11
9.1406324
21
41.7559023
0
LINE
8
DEFAULT_255_2_778
10
9.1406324
20
41.7559023
11
8.9718324
21
41.7559023
0
LINE
8
DEFAULT_255_2_778
10
8.9718324
20
41.7559023
11
8.4564324
21
43.1463023
0
LINE
8
DEFAULT_255_2_778
10
3.9225324
20
44.7560023
11
3.9225324
21
47.3860023
0
LINE
8
DEFAULT_255_2_778
10
3.9225324
20
47.3860023
11
4.1543324
21
47.3860023
0
LINE
8
DEFAULT_255_2_778
10
4.1543324
20
47.3860023
11
4.1543324
21
44.9674023
0
LINE
8
DEFAULT_255_2_778
10
4.1543324
20
44.9674023
11
5.4695324
21
44.9674023
0
LINE
8
DEFAULT_255_2_778
10
5.4695324
20
44.9674023
11
5.4695324
21
44.7560023
0
LINE
8
DEFAULT_255_2_778
10
5.4695324
20
44.7560023
11
3.9225324
21
44.7560023
0
LINE
8
DEFAULT_255_2_778
10
6.1172324
20
45.1016023
11
6.1172324
21
45.1016023
0
LINE
8
DEFAULT_255_2_778
10
6.9980324
20
44.9272023
11
6.9978324
21
44.9275023
0
LINE
8
DEFAULT_255_2_778
10
11.5399324
20
45.1016023
11
11.5399324
21
45.1016023
0
LINE
8
DEFAULT_255_2_778
10
12.4204324
20
44.9272023
11
12.4204324
21
44.9275023
0
LINE
8
DEFAULT_255_2_778
10
14.4175324
20
45.3789023
11
14.3738324
21
47.3860023
0
LINE
8
DEFAULT_255_2_778
10
14.3738324
20
47.3860023
11
14.6664324
21
47.3860023
0
LINE
8
DEFAULT_255_2_778
10
14.6664324
20
47.3860023
11
14.6201324
21
45.3789023
0
LINE
8
DEFAULT_255_2_778
10
14.6201324
20
45.3789023
11
14.4175324
21
45.3789023
0
LINE
8
DEFAULT_255_2_778
10
14.3738324
20
44.7558023
11
14.3738324
21
45.0579023
0
LINE
8
DEFAULT_255_2_778
10
14.3738324
20
45.0579023
11
14.6598324
21
45.0579023
0
LINE
8
DEFAULT_255_2_778
10
14.6598324
20
45.0579023
11
14.6598324
21
44.7558023
0
LINE
8
DEFAULT_255_2_778
10
14.6598324
20
44.7558023
11
14.3738324
21
44.7558023
0
LINE
8
DEFAULT_255_2_778
10
12.1410324
20
42.4266023
11
11.0247324
21
42.4266023
0
LINE
8
DEFAULT_255_2_778
10
11.9193324
20
42.1996023
11
12.1106324
21
42.1996023
0
LINE
8
DEFAULT_255_2_778
10
12.1407324
20
42.4269023
11
12.1410324
21
42.4266023
0
LINE
8
DEFAULT_255_2_778
10
11.9611324
20
42.5650023
11
11.0247324
21
42.5650023
0
LINE
8
DEFAULT_255_2_778
10
8.1114324
20
41.9025023
11
8.0780324
21
41.8708023
0
LINE
8
DEFAULT_255_2_778
10
8.0780324
20
41.8708023
11
8.0778324
21
41.8710023
0
LINE
8
DEFAULT_255_2_778
10
7.3412324
20
41.9983023
11
7.3412324
21
41.9986023
0
LINE
8
DEFAULT_255_2_778
10
5.4592324
20
41.7559023
11
5.4592324
21
43.7559023
0
LINE
8
DEFAULT_255_2_778
10
5.4592324
20
43.7559023
11
5.7651324
21
43.7559023
0
LINE
8
DEFAULT_255_2_778
10
5.7651324
20
43.7559023
11
6.0709324
21
43.7557023
0
LINE
8
DEFAULT_255_2_778
10
6.2630324
20
42.6465023
11
6.0550324
21
42.6343023
0
LINE
8
DEFAULT_255_2_778
10
6.0550324
20
42.6343023
11
5.6370324
21
42.6341023
0
LINE
8
DEFAULT_255_2_778
10
5.6370324
20
42.6341023
11
5.6370324
21
41.7559023
0
LINE
8
DEFAULT_255_2_778
10
5.6370324
20
41.7559023
11
5.4592324
21
41.7559023
0
LINE
8
DEFAULT_255_2_778
10
5.6367324
20
43.5950023
11
5.6367324
21
42.7947023
0
LINE
8
DEFAULT_255_2_778
10
5.6367324
20
42.7947023
11
5.8132324
21
42.7947023
0
LINE
8
DEFAULT_255_2_778
10
6.0741324
20
43.5950023
11
5.6367324
21
43.5950023
0
LINE
8
DEFAULT_255_2_778
10
11.6102324
20
52.5062023
11
13.5102324
21
52.5062023
0
LINE
8
DEFAULT_255_2_778
10
13.5102324
20
52.5062023
11
13.5602324
21
52.5062023
0
LINE
8
DEFAULT_255_2_778
10
13.5602324
20
52.5062023
11
13.5602324
21
54.5062023
0
LINE
8
DEFAULT_255_2_778
10
13.5602324
20
54.5062023
11
11.5602324
21
54.5062023
0
LINE
8
DEFAULT_255_2_778
10
11.5602324
20
54.5062023
11
11.5602324
21
52.5062023
0
LINE
8
DEFAULT_255_2_778
10
11.5602324
20
52.5062023
11
11.6102324
21
52.5062023
0
LINE
8
DEFAULT_255_2_778
10
13.5103136
20
52.5561864
11
11.6103136
21
52.5561864
0
LINE
8
DEFAULT_255_2_778
10
11.6103136
20
52.5561864
11
11.6103136
21
54.4561864
0
LINE
8
DEFAULT_255_2_778
10
11.6103136
20
54.4561864
11
13.5103136
21
54.4561864
0
LINE
8
DEFAULT_255_2_778
10
13.5103136
20
54.4561864
11
13.5103136
21
52.5561864
0
LINE
8
DEFAULT_255_2_778
10
11.6103136
20
52.5561896
11
11.6103136
21
52.5061896
0
LINE
8
DEFAULT_255_2_778
10
13.5103136
20
52.5561896
11
13.5103136
21
52.5061896
0
LINE
8
DEFAULT_255_2_778
10
11.9103136
20
54.1561896
11
11.6103136
21
54.4561896
0
LINE
8
DEFAULT_255_2_778
10
11.9103136
20
52.8562896
11
11.6103136
21
52.5561896
0
LINE
8
DEFAULT_255_2_778
10
13.2102136
20
54.1561896
11
13.5103136
21
54.4561896
0
LINE
8
DEFAULT_255_2_778
10
13.2102136
20
52.8562896
11
13.5103136
21
52.5561896
0
LINE
8
DEFAULT_255_2_778
10
11.9103136
20
52.8562896
11
13.2102136
21
52.8562896
0
LINE
8
DEFAULT_255_2_778
10
13.2103387
20
54.156079
11
13.2103387
21
52.856179
0
LINE
8
DEFAULT_255_2_778
10
11.9104387
20
54.156079
11
11.9104387
21
52.856179
0
LINE
8
DEFAULT_255_2_778
10
13.2103387
20
54.156079
11
11.9104387
21
54.156079
0
LINE
8
DEFAULT_255_2_778
10
2.1602387
20
64.782579
11
16.3601387
21
64.782579
0
LINE
8
DEFAULT_255_2_778
10
16.3601387
20
64.782579
11
16.3601387
21
60.825979
0
LINE
8
DEFAULT_255_2_778
10
16.3601387
20
60.825979
11
2.1602387
21
60.825979
0
LINE
8
DEFAULT_255_2_778
10
2.1602387
20
60.825979
11
2.1602387
21
64.782579
0
ARC
8
DEFAULT_255_2_778
10
14.7353419
20
62.6424206
40
0.4725926
50
266.6193667
51
269.9991868
0
ARC
8
DEFAULT_255_2_778
10
14.7354247
20
62.6405093
40
0.4706812
50
269.9891034
51
293.7079324
0
ARC
8
DEFAULT_255_2_778
10
14.8536315
20
62.3600668
40
0.1664397
50
295.2667809
51
314.2029382
0
ARC
8
DEFAULT_255_2_778
10
14.894836
20
62.3175436
40
0.107228
50
314.261109
51
333.5905854
0
ARC
8
DEFAULT_255_2_778
10
14.8941503
20
62.3159343
40
0.1071406
50
334.5245145
51
353.8469343
0
ARC
8
DEFAULT_255_2_778
10
14.8869585
20
62.3170923
40
0.1144156
50
353.6563933
51
0.1793418
0
ARC
8
DEFAULT_255_2_778
10
14.8607874
20
62.3173525
40
0.1405863
50
0.0399034
51
18.9256593
0
ARC
8
DEFAULT_255_2_778
10
14.8774295
20
62.3056126
40
0.1297057
50
26.2354577
51
52.4530996
0
ARC
8
DEFAULT_255_2_778
10
14.6646143
20
62.0367548
40
0.4725881
50
51.8606254
51
64.1765294
0
ARC
8
DEFAULT_255_2_778
10
16.0204684
20
65.6636047
40
3.3922405
50
241.1793651
51
247.3693949
0
ARC
8
DEFAULT_255_2_778
10
14.8358918
20
63.5122025
40
0.9362781
50
225.7933594
51
241.2235452
0
ARC
8
DEFAULT_255_2_778
10
14.4810256
20
63.1405628
40
0.4224725
50
198.6230133
51
225.1496372
0
ARC
8
DEFAULT_255_2_778
10
14.7583764
20
63.2012279
40
0.7053592
50
180.0085572
51
196.0975492
0
ARC
8
DEFAULT_255_2_778
10
14.7544523
20
63.2011388
40
0.7014351
50
178.7900444
51
180.0013309
0
ARC
8
DEFAULT_255_2_778
10
14.6359496
20
63.2423049
40
0.5833716
50
180.0007584
51
182.5892827
0
ARC
8
DEFAULT_255_2_778
10
14.6347612
20
63.2422
40
0.5821831
50
128.0824491
51
179.9904405
0
ARC
8
DEFAULT_255_2_778
10
14.827173
20
62.9085041
40
0.9650547
50
89.9909932
51
124.8527678
0
ARC
8
DEFAULT_255_2_778
10
14.8273188
20
62.9073149
40
0.9662439
50
86.9058507
51
89.9996484
0
ARC
8
DEFAULT_255_2_778
10
14.8730858
20
61.8333548
40
2.0388056
50
89.1978448
51
89.8204853
0
ARC
8
DEFAULT_255_2_778
10
14.8714422
20
61.7821396
40
2.0900391
50
81.8849822
51
89.1724476
0
ARC
8
DEFAULT_255_2_778
10
14.9170603
20
61.9974287
40
1.8705245
50
73.906712
51
82.3374338
0
ARC
8
DEFAULT_255_2_778
10
14.8214381
20
62.028009
40
1.430611
50
65.7562981
51
76.7525121
0
ARC
8
DEFAULT_255_2_778
10
14.9079806
20
62.3835867
40
1.0646671
50
76.900839
51
89.8550734
0
ARC
8
DEFAULT_255_2_778
10
14.8597124
20
63.1108241
40
0.3349674
50
95.3167865
51
110.2684012
0
ARC
8
DEFAULT_255_2_778
10
14.8135308
20
63.2418814
40
0.1960381
50
110.8758956
51
134.4395436
0
ARC
8
DEFAULT_255_2_778
10
14.7463992
20
63.3138122
40
0.0977077
50
135.86556
51
179.9275594
0
ARC
8
DEFAULT_255_2_778
10
14.7452913
20
63.3139299
40
0.0965997
50
179.9965137
51
182.3609967
0
ARC
8
DEFAULT_255_2_778
10
14.7732166
20
63.3046507
40
0.1245558
50
177.5613831
51
179.9982104
0
ARC
8
DEFAULT_255_2_778
10
14.7733904
20
63.3046956
40
0.1247295
50
180.0188532
51
196.9413066
0
ARC
8
DEFAULT_255_2_778
10
14.6861451
20
63.278481
40
0.0336335
50
197.5300977
51
222.0584912
0
ARC
8
DEFAULT_255_2_778
10
14.7300953
20
63.3137733
40
0.0899649
50
219.9954501
51
232.1342137
0
ARC
8
DEFAULT_255_2_778
10
14.7701702
20
63.3578674
40
0.1494435
50
230.3812283
51
235.4556542
0
ARC
8
DEFAULT_255_2_778
10
16.1955544
20
65.397339
40
2.6376451
50
235.0733116
51
235.2147872
0
ARC
8
DEFAULT_255_2_778
10
15.2268791
20
64.1053629
40
1.0255883
50
238.4844639
51
244.8042459
0
ARC
8
DEFAULT_255_2_778
10
13.7700037
20
60.3214963
40
3.0196731
50
59.729413
51
66.2788819
0
ARC
8
DEFAULT_255_2_778
10
14.846913
20
62.1591434
40
0.8897359
50
44.2462097
51
59.9707974
0
ARC
8
DEFAULT_255_2_778
10
15.1611485
20
62.4771855
40
0.4428051
50
18.0449878
51
43.1368304
0
ARC
8
DEFAULT_255_2_778
10
14.9013681
20
62.4184632
40
0.7084264
50
359.977299
51
16.0520392
0
ARC
8
DEFAULT_255_2_778
10
14.8957816
20
62.418184
40
0.7140127
50
358.9460424
51
359.9998859
0
ARC
8
DEFAULT_255_2_778
10
14.9406133
20
62.3942108
40
0.6691481
50
0.0012715
51
0.9281803
0
ARC
8
DEFAULT_255_2_778
10
14.9434613
20
62.3941701
40
0.6663
50
335.584117
51
0.0047764
0
ARC
8
DEFAULT_255_2_778
10
15.0257801
20
62.3674047
40
0.5803598
50
307.349929
51
334.630866
0
ARC
8
DEFAULT_255_2_778
10
14.8902738
20
62.5549393
40
0.8116713
50
285.2503572
51
306.9225925
0
ARC
8
DEFAULT_255_2_778
10
14.7568472
20
63.0221994
40
1.2975864
50
270.0078613
51
285.5074001
0
ARC
8
DEFAULT_255_2_778
10
14.7570414
20
63.0201402
40
1.2955271
50
269.1655274
51
269.9992878
0
ARC
8
DEFAULT_255_2_778
10
14.7382326
20
63.8845978
40
2.1598474
50
269.1689366
51
269.9984338
0
ARC
8
DEFAULT_255_2_778
10
14.7391278
20
63.9264944
40
2.2017526
50
265.9095352
51
269.161458
0
ARC
8
DEFAULT_255_2_778
10
15.0197617
20
64.977376
40
2.8388896
50
251.9400826
51
258.3618789
0
ARC
8
DEFAULT_255_2_778
10
14.7099098
20
63.4868526
40
1.3165062
50
258.4836954
51
269.8591561
0
ARC
8
DEFAULT_255_2_778
10
4.1931577
20
64.087409
40
1.0043106
50
238.4174472
51
244.8712628
0
ARC
8
DEFAULT_255_2_778
10
2.7693357
20
60.3673093
40
2.9692392
50
59.6737425
51
66.3345816
0
ARC
8
DEFAULT_255_2_778
10
3.8111068
20
62.1386041
40
0.9143193
50
44.6135866
51
59.9777726
0
ARC
8
DEFAULT_255_2_778
10
4.1530364
20
62.4836673
40
0.428603
50
17.8647592
51
43.8794075
0
ARC
8
DEFAULT_255_2_778
10
3.8933293
20
62.4192934
40
0.6957793
50
0.0176551
51
16.3493333
0
ARC
8
DEFAULT_255_2_778
10
3.896952
20
62.4195202
40
0.6921566
50
358.8683587
51
359.9989716
0
ARC
8
DEFAULT_255_2_778
10
3.9217488
20
62.3957135
40
0.6673018
50
359.9990439
51
0.870409
0
ARC
8
DEFAULT_255_2_778
10
3.9228139
20
62.3955926
40
0.6662368
50
335.5228368
51
0.0094353
0
ARC
8
DEFAULT_255_2_778
10
4.0041329
20
62.3685627
40
0.581098
50
307.3870741
51
334.6263065
0
ARC
8
DEFAULT_255_2_778
10
3.8685601
20
62.5574013
40
0.8134889
50
285.2748563
51
306.8980849
0
ARC
8
DEFAULT_255_2_778
10
3.7354831
20
63.0267838
40
1.3013573
50
269.9863998
51
285.4825402
0
ARC
8
DEFAULT_255_2_778
10
3.735176
20
63.0322807
40
1.3068542
50
269.2107058
51
269.9999246
0
ARC
8
DEFAULT_255_2_778
10
3.7177333
20
64.0015548
40
2.2760045
50
265.979971
51
269.9859099
0
ARC
8
DEFAULT_255_2_778
10
3.9959345
20
64.9555887
40
2.8175416
50
251.7969122
51
258.3540046
0
ARC
8
DEFAULT_255_2_778
10
3.6865039
20
63.5337562
40
1.3626111
50
259.0286204
51
269.8431476
0
ARC
8
DEFAULT_255_2_778
10
3.7095577
20
62.648906
40
0.4785058
50
266.79122
51
270.0011609
0
ARC
8
DEFAULT_255_2_778
10
3.7090395
20
62.6576768
40
0.4872768
50
270.0620728
51
293.2736176
0
ARC
8
DEFAULT_255_2_778
10
3.8275802
20
62.3683412
40
0.1747312
50
295.0538432
51
313.1917437
0
ARC
8
DEFAULT_255_2_778
10
3.867389
20
62.3229553
40
0.1144132
50
314.2137537
51
332.1750609
0
ARC
8
DEFAULT_255_2_778
10
3.8758761
20
62.3160478
40
0.1037055
50
333.3615072
51
353.3011361
0
ARC
8
DEFAULT_255_2_778
10
3.8467247
20
62.3185236
40
0.13295
50
353.7069274
51
359.7529741
0
ARC
8
DEFAULT_255_2_778
10
3.8493182
20
62.3179467
40
0.1303554
50
0.0016164
51
20.4306822
0
ARC
8
DEFAULT_255_2_778
10
3.8618284
20
62.3095816
40
0.1221635
50
26.164942
51
53.3951449
0
ARC
8
DEFAULT_255_2_778
10
3.6152203
20
61.9861266
40
0.5288976
50
52.8431988
51
63.9638571
0
ARC
8
DEFAULT_255_2_778
10
3.7708397
20
63.4756669
40
0.8844677
50
225.8680781
51
242.1075234
0
ARC
8
DEFAULT_255_2_778
10
3.4300356
20
63.119567
40
0.3915892
50
196.9582351
51
225.3781088
0
ARC
8
DEFAULT_255_2_778
10
3.7649366
20
63.2023439
40
0.7363044
50
180.0016676
51
195.518146
0
ARC
8
DEFAULT_255_2_778
10
3.7660937
20
63.2023098
40
0.7374616
50
178.8779869
51
179.9990124
0
ARC
8
DEFAULT_255_2_778
10
3.6128951
20
63.2431486
40
0.5847177
50
180.0012067
51
182.5876062
0
ARC
8
DEFAULT_255_2_778
10
3.609038
20
63.2434094
40
0.5808606
50
127.9813341
51
180.0269419
0
ARC
8
DEFAULT_255_2_778
10
3.8031627
20
62.9090083
40
0.9653487
50
89.9995484
51
124.8471027
0
ARC
8
DEFAULT_255_2_778
10
3.8031692
20
62.9086068
40
0.9657503
50
86.9072619
51
89.9999357
0
ARC
8
DEFAULT_255_2_778
10
3.8440364
20
61.7476076
40
2.1253725
50
81.9525618
51
89.6970677
0
ARC
8
DEFAULT_255_2_778
10
3.9030761
20
62.0671345
40
1.8007792
50
73.6907609
51
82.3893134
0
ARC
8
DEFAULT_255_2_778
10
3.8004741
20
62.0392953
40
1.4197538
50
65.688909
51
76.7669404
0
ARC
8
DEFAULT_255_2_778
10
3.8846062
20
62.3880986
40
1.0609554
50
76.8777948
51
89.8505502
0
ARC
8
DEFAULT_255_2_778
10
3.8367959
20
63.1109203
40
0.3357606
50
95.4727626
51
110.2881829
0
ARC
8
DEFAULT_255_2_778
10
3.7905979
20
63.2401934
40
0.1984943
50
110.7190155
51
134.1360555
0
ARC
8
DEFAULT_255_2_778
10
3.7228411
20
63.3144926
40
0.0980365
50
135.9545282
51
180.0325647
0
ARC
8
DEFAULT_255_2_778
10
3.7232048
20
63.3144347
40
0.0984002
50
179.9987843
51
182.1457912
0
ARC
8
DEFAULT_255_2_778
10
3.7597862
20
63.3078675
40
0.1349434
50
178.7758273
51
180.0075124
0
ARC
8
DEFAULT_255_2_778
10
3.7713278
20
63.3083118
40
0.1464857
50
180.1807286
51
195.5059862
0
ARC
8
DEFAULT_255_2_778
10
3.6565583
20
63.2767982
40
0.0274707
50
196.1645604
51
196.8415825
0
ARC
8
DEFAULT_255_2_778
10
3.6860152
20
63.295103
40
0.0616261
50
205.2253459
51
232.0512235
0
ARC
8
DEFAULT_255_2_778
10
4.1134506
20
63.7087895
40
0.6559266
50
224.8115919
51
225.1767814
0
LINE
8
DEFAULT_255_2_778
10
14.8704736
20
62.4621504
11
14.7151736
21
62.5325504
0
LINE
8
DEFAULT_255_2_778
10
15.4355736
20
63.7946504
11
15.4617736
21
63.7858504
0
LINE
8
DEFAULT_255_2_778
10
15.4617736
20
63.7858504
11
15.4617736
21
63.3125504
0
LINE
8
DEFAULT_255_2_778
10
15.4617736
20
63.3125504
11
15.4088736
21
63.3324504
0
LINE
8
DEFAULT_255_2_778
10
14.9106736
20
63.4482504
11
14.8286736
21
63.4443504
0
LINE
8
DEFAULT_255_2_778
10
14.7902736
20
63.1773504
11
14.9847736
21
63.0860504
0
LINE
8
DEFAULT_255_2_778
10
14.5820736
20
61.7303504
11
14.4190736
21
61.7456504
0
LINE
8
DEFAULT_255_2_778
10
14.4190736
20
61.7456504
11
14.2613736
21
61.7689504
0
LINE
8
DEFAULT_255_2_778
10
14.2613736
20
61.7689504
11
14.1211736
21
61.7994504
0
LINE
8
DEFAULT_255_2_778
10
14.1211736
20
61.7994504
11
14.0920736
21
61.8049504
0
LINE
8
DEFAULT_255_2_778
10
14.0920736
20
61.8049504
11
14.0920736
21
62.2949504
0
LINE
8
DEFAULT_255_2_778
10
14.0920736
20
62.2949504
11
14.1396736
21
62.2783504
0
LINE
8
DEFAULT_255_2_778
10
14.7066736
20
62.1703504
11
14.7074736
21
62.1706504
0
LINE
8
DEFAULT_255_2_778
10
10.3423736
20
61.7668504
11
11.8232736
21
61.7668504
0
LINE
8
DEFAULT_255_2_778
10
11.8232736
20
61.7668504
11
11.8232736
21
62.2314504
0
LINE
8
DEFAULT_255_2_778
10
11.8232736
20
62.2314504
11
10.9545736
21
62.2314504
0
LINE
8
DEFAULT_255_2_778
10
10.9545736
20
62.2314504
11
10.9545736
21
62.6190504
0
LINE
8
DEFAULT_255_2_778
10
10.9545736
20
62.6190504
11
11.6933736
21
62.6190504
0
LINE
8
DEFAULT_255_2_778
10
11.6933736
20
62.6190504
11
11.6933736
21
63.0260504
0
LINE
8
DEFAULT_255_2_778
10
11.6933736
20
63.0260504
11
10.9545736
21
63.0260504
0
LINE
8
DEFAULT_255_2_778
10
10.9545736
20
63.0260504
11
10.9545736
21
63.3937504
0
LINE
8
DEFAULT_255_2_778
10
10.9545736
20
63.3937504
11
11.8049736
21
63.3937504
0
LINE
8
DEFAULT_255_2_778
10
11.8049736
20
63.3937504
11
11.8049736
21
63.8366504
0
LINE
8
DEFAULT_255_2_778
10
11.8049736
20
63.8366504
11
10.3426736
21
63.8366504
0
LINE
8
DEFAULT_255_2_778
10
10.3426736
20
63.8366504
11
10.3423736
21
61.7668504
0
LINE
8
DEFAULT_255_2_778
10
5.8076736
20
61.7668504
11
7.2885736
21
61.7668504
0
LINE
8
DEFAULT_255_2_778
10
7.2885736
20
61.7668504
11
7.2885736
21
62.2314504
0
LINE
8
DEFAULT_255_2_778
10
7.2885736
20
62.2314504
11
6.4193736
21
62.2314504
0
LINE
8
DEFAULT_255_2_778
10
6.4193736
20
62.2314504
11
6.4193736
21
62.6190504
0
LINE
8
DEFAULT_255_2_778
10
6.4193736
20
62.6190504
11
7.1586736
21
62.6190504
0
LINE
8
DEFAULT_255_2_778
10
7.1586736
20
62.6190504
11
7.1586736
21
63.0260504
0
LINE
8
DEFAULT_255_2_778
10
7.1586736
20
63.0260504
11
6.4193736
21
63.0260504
0
LINE
8
DEFAULT_255_2_778
10
6.4193736
20
63.0260504
11
6.4193736
21
63.3937504
0
LINE
8
DEFAULT_255_2_778
10
6.4193736
20
63.3937504
11
7.2697736
21
63.3937504
0
LINE
8
DEFAULT_255_2_778
10
7.2697736
20
63.3937504
11
7.2697736
21
63.8366504
0
LINE
8
DEFAULT_255_2_778
10
7.2697736
20
63.8366504
11
5.8076736
21
63.8366504
0
LINE
8
DEFAULT_255_2_778
10
5.8076736
20
63.8366504
11
5.8076736
21
61.7668504
0
LINE
8
DEFAULT_255_2_778
10
3.6512736
20
63.2435504
11
3.6671736
21
63.2318504
0
LINE
8
DEFAULT_255_2_778
10
3.7666736
20
63.1781504
11
3.9611736
21
63.0868504
0
LINE
8
DEFAULT_255_2_778
10
3.5581736
20
61.7311504
11
3.3941736
21
61.7464504
0
LINE
8
DEFAULT_255_2_778
10
3.3941736
20
61.7464504
11
3.2351736
21
61.7697504
0
LINE
8
DEFAULT_255_2_778
10
3.2351736
20
61.7697504
11
3.0948736
21
61.8002504
0
LINE
8
DEFAULT_255_2_778
10
3.0948736
20
61.8002504
11
3.0657736
21
61.8057504
0
LINE
8
DEFAULT_255_2_778
10
3.0657736
20
61.8057504
11
3.0657736
21
62.2957504
0
LINE
8
DEFAULT_255_2_778
10
3.0657736
20
62.2957504
11
3.1157736
21
62.2790504
0
LINE
8
DEFAULT_255_2_778
10
3.8473736
20
62.4613504
11
3.6907736
21
62.5333504
0
LINE
8
DEFAULT_255_2_778
10
3.6907736
20
62.5333504
11
3.3570736
21
62.6939504
0
LINE
8
DEFAULT_255_2_778
10
4.4087736
20
63.7954504
11
4.4379736
21
63.7866504
0
LINE
8
DEFAULT_255_2_778
10
4.4379736
20
63.7866504
11
4.4379736
21
63.3133504
0
LINE
8
DEFAULT_255_2_778
10
4.4379736
20
63.3133504
11
4.3849736
21
63.3331504
0
LINE
8
DEFAULT_255_2_778
10
3.8873736
20
63.4490504
11
3.8047736
21
63.4451504
0
LINE
8
DEFAULT_255_2_778
10
3.6510736
20
63.2435504
11
3.6512736
21
63.2435504
0
LINE
8
DEFAULT_255_2_778
10
4.7905736
20
61.7668504
11
5.4205736
21
61.7668504
0
LINE
8
DEFAULT_255_2_778
10
5.4205736
20
61.7668504
11
5.4205736
21
63.8366504
0
LINE
8
DEFAULT_255_2_778
10
5.4205736
20
63.8366504
11
4.7905736
21
63.8366504
0
LINE
8
DEFAULT_255_2_778
10
4.7905736
20
63.8366504
11
4.7905736
21
61.7668504
0
LINE
8
DEFAULT_255_2_778
10
7.5449736
20
61.7668504
11
8.0058736
21
61.7668504
0
LINE
8
DEFAULT_255_2_778
10
8.0058736
20
61.7668504
11
8.0058736
21
62.9646504
0
LINE
8
DEFAULT_255_2_778
10
8.0058736
20
62.9646504
11
8.0563736
21
62.8318504
0
LINE
8
DEFAULT_255_2_778
10
8.0563736
20
62.8318504
11
8.1251736
21
62.6558504
0
LINE
8
DEFAULT_255_2_778
10
8.1251736
20
62.6558504
11
8.2031736
21
62.4566504
0
LINE
8
DEFAULT_255_2_778
10
8.2031736
20
62.4566504
11
8.2841736
21
62.2505504
0
LINE
8
DEFAULT_255_2_778
10
8.2841736
20
62.2505504
11
8.4825736
21
61.7443504
0
LINE
8
DEFAULT_255_2_778
10
8.4825736
20
61.7443504
11
8.8643736
21
61.7443504
0
LINE
8
DEFAULT_255_2_778
10
8.8643736
20
61.7443504
11
9.0681736
21
62.2536504
0
LINE
8
DEFAULT_255_2_778
10
9.0681736
20
62.2536504
11
9.1506736
21
62.4608504
0
LINE
8
DEFAULT_255_2_778
10
9.1506736
20
62.4608504
11
9.2310736
21
62.6614504
0
LINE
8
DEFAULT_255_2_778
10
9.2310736
20
62.6614504
11
9.3014736
21
62.8373504
0
LINE
8
DEFAULT_255_2_778
10
9.3014736
20
62.8373504
11
9.3543736
21
62.9701504
0
LINE
8
DEFAULT_255_2_778
10
9.3543736
20
62.9701504
11
9.3543736
21
61.7668504
0
LINE
8
DEFAULT_255_2_778
10
9.3543736
20
61.7668504
11
9.9529736
21
61.7668504
0
LINE
8
DEFAULT_255_2_778
10
9.9529736
20
61.7668504
11
9.9529736
21
63.8366504
0
LINE
8
DEFAULT_255_2_778
10
9.9529736
20
63.8366504
11
9.2242736
21
63.8366504
0
LINE
8
DEFAULT_255_2_778
10
9.2242736
20
63.8366504
11
9.0128736
21
63.3025504
0
LINE
8
DEFAULT_255_2_778
10
9.0128736
20
63.3025504
11
8.9318736
21
63.0948504
0
LINE
8
DEFAULT_255_2_778
10
8.9318736
20
63.0948504
11
8.8551736
21
62.9021504
0
LINE
8
DEFAULT_255_2_778
10
8.8551736
20
62.9021504
11
8.7924736
21
62.7460504
0
LINE
8
DEFAULT_255_2_778
10
8.7924736
20
62.7460504
11
8.7556736
21
62.6518504
0
LINE
8
DEFAULT_255_2_778
10
8.7556736
20
62.6518504
11
8.7196736
21
62.7460504
0
LINE
8
DEFAULT_255_2_778
10
8.7196736
20
62.7460504
11
8.6614736
21
62.9021504
0
LINE
8
DEFAULT_255_2_778
10
8.6614736
20
62.9021504
11
8.5886736
21
63.0948504
0
LINE
8
DEFAULT_255_2_778
10
8.5886736
20
63.0948504
11
8.5090736
21
63.3025504
0
LINE
8
DEFAULT_255_2_778
10
8.5090736
20
63.3025504
11
8.3053736
21
63.8366504
0
LINE
8
DEFAULT_255_2_778
10
8.3053736
20
63.8366504
11
7.5449736
21
63.8366504
0
LINE
8
DEFAULT_255_2_778
10
7.5449736
20
63.8366504
11
7.5449736
21
61.7668504
0
LINE
8
DEFAULT_255_2_778
10
12.0748736
20
61.7668504
11
12.5357736
21
61.7668504
0
LINE
8
DEFAULT_255_2_778
10
12.5357736
20
61.7668504
11
12.5357736
21
62.9622504
0
LINE
8
DEFAULT_255_2_778
10
12.5357736
20
62.9622504
11
12.5939736
21
62.8471504
0
LINE
8
DEFAULT_255_2_778
10
12.5939736
20
62.8471504
11
12.6788736
21
62.6825504
0
LINE
8
DEFAULT_255_2_778
10
12.6788736
20
62.6825504
11
12.7791736
21
62.4875504
0
LINE
8
DEFAULT_255_2_778
10
12.7791736
20
62.4875504
11
12.8855736
21
62.2817504
0
LINE
8
DEFAULT_255_2_778
10
12.8855736
20
62.2817504
11
13.1503736
21
61.7668504
0
LINE
8
DEFAULT_255_2_778
10
13.1503736
20
61.7668504
11
13.8150736
21
61.7668504
0
LINE
8
DEFAULT_255_2_778
10
13.8150736
20
61.7668504
11
13.8150736
21
63.8366504
0
LINE
8
DEFAULT_255_2_778
10
13.8150736
20
63.8366504
11
13.3570736
21
63.8366504
0
LINE
8
DEFAULT_255_2_778
10
13.3570736
20
63.8366504
11
13.3570736
21
62.6632504
0
LINE
8
DEFAULT_255_2_778
10
13.3570736
20
62.6632504
11
13.2987736
21
62.7767504
0
LINE
8
DEFAULT_255_2_778
10
13.2987736
20
62.7767504
11
13.2149736
21
62.9400504
0
LINE
8
DEFAULT_255_2_778
10
13.2149736
20
62.9400504
11
13.1170736
21
63.1326504
0
LINE
8
DEFAULT_255_2_778
10
13.1170736
20
63.1326504
11
13.0151736
21
63.3331504
0
LINE
8
DEFAULT_255_2_778
10
13.0151736
20
63.3331504
11
12.7609736
21
63.8369504
0
LINE
8
DEFAULT_255_2_778
10
12.7609736
20
63.8369504
11
12.0751736
21
63.8369504
0
LINE
8
DEFAULT_255_2_778
10
12.0751736
20
63.8369504
11
12.0748736
21
61.7668504
0
ARC
8
DEFAULT_255_2_778
10
3.7084257
20
63.3164628
40
0.0928542
50
220.0245454
51
229.9754727
0
ARC
8
DEFAULT_255_2_778
10
4.5410414
20
64.2620689
40
1.352759
50
228.7277056
51
228.8634409
0
ARC
8
DEFAULT_255_2_778
10
3.7135761
20
63.3169873
40
0.0962295
50
210.978943
51
229.7445419
0
ARC
8
DEFAULT_255_2_778
10
3.6459944
20
63.2734979
40
0.0160981
50
197.8356121
51
202.0444291
0
ARC
8
DEFAULT_255_2_778
10
3.6488349
20
63.2744304
40
0.0190876
50
196.0667497
51
197.8887051
0
ARC
8
DEFAULT_255_2_778
10
3.7745333
20
63.3086369
40
0.1493554
50
180.0023193
51
195.3311507
0
ARC
8
DEFAULT_255_2_778
10
3.7766325
20
63.3086161
40
0.1514546
50
179.1935789
51
179.9944169
0
ARC
8
DEFAULT_255_2_778
10
3.7235241
20
63.3144321
40
0.0984002
50
179.9987843
51
182.1457912
0
ARC
8
DEFAULT_255_2_778
10
3.7231604
20
63.3144899
40
0.0980366
50
135.9545282
51
180.0325647
0
ARC
8
DEFAULT_255_2_778
10
3.7922688
20
63.2380634
40
0.2009628
50
110.8648573
51
133.9902527
0
ARC
8
DEFAULT_255_2_778
10
3.8371134
20
63.1109237
40
0.3357542
50
95.4725554
51
110.2882524
0
ARC
8
DEFAULT_255_2_778
10
3.8850037
20
62.388767
40
1.0602842
50
76.8736762
51
89.8546797
0
ARC
8
DEFAULT_255_2_778
10
3.7998533
20
62.0358677
40
1.423303
50
65.7075154
51
76.7616649
0
ARC
8
DEFAULT_255_2_778
10
3.9076123
20
62.0865612
40
1.7809762
50
73.6423453
51
82.4378076
0
ARC
8
DEFAULT_255_2_778
10
3.8443696
20
61.746435
40
2.1265429
50
81.9546767
51
89.6949133
0
ARC
8
DEFAULT_255_2_778
10
3.8035651
20
62.9077422
40
0.9666122
50
86.9086368
51
89.999879
0
ARC
8
DEFAULT_255_2_778
10
3.8035009
20
62.9089456
40
0.9654088
50
89.9960672
51
124.8459895
0
ARC
8
DEFAULT_255_2_778
10
3.6108147
20
63.2427149
40
0.5823034
50
128.0524695
51
179.9932225
0
ARC
8
DEFAULT_255_2_778
10
3.6118549
20
63.2427857
40
0.5833436
50
180.0001842
51
182.5582867
0
ARC
8
DEFAULT_255_2_778
10
3.766413
20
63.2023071
40
0.7374615
50
178.8779869
51
179.9990124
0
ARC
8
DEFAULT_255_2_778
10
3.7652558
20
63.2023412
40
0.7363044
50
180.0016676
51
195.518146
0
ARC
8
DEFAULT_255_2_778
10
3.4303536
20
63.1195638
40
0.3915879
50
196.958209
51
225.3781855
0
ARC
8
DEFAULT_255_2_778
10
3.7744648
20
63.4804966
40
0.8902384
50
225.9319318
51
242.0706629
0
ARC
8
DEFAULT_255_2_778
10
3.6153561
20
61.9852313
40
0.5297804
50
52.8770827
51
63.9884096
0
ARC
8
DEFAULT_255_2_778
10
3.8688917
20
62.3153435
40
0.1135899
50
25.0551363
51
54.35166
0
ARC
8
DEFAULT_255_2_778
10
3.8540584
20
62.3187405
40
0.1259371
50
0.0065914
51
20.793267
0
ARC
8
DEFAULT_255_2_778
10
3.8636422
20
62.3187261
40
0.1163532
50
359.6166948
51
0.0141832
0
ARC
8
DEFAULT_255_2_778
10
3.8694163
20
62.3172436
40
0.1105788
50
353.0941007
51
0.3648308
0
ARC
8
DEFAULT_255_2_778
10
3.8761954
20
62.3160451
40
0.1037055
50
333.3615072
51
353.3011361
0
ARC
8
DEFAULT_255_2_778
10
3.8736606
20
62.3184992
40
0.1070767
50
313.5926576
51
332.7958691
0
ARC
8
DEFAULT_255_2_778
10
3.8270918
20
62.3688036
40
0.1756233
50
295.3169585
51
313.2799991
0
ARC
8
DEFAULT_255_2_778
10
3.7112031
20
62.6500673
40
0.4796815
50
269.9355185
51
293.4631754
0
ARC
8
DEFAULT_255_2_778
10
3.7106713
20
62.6592867
40
0.4889005
50
266.8014933
51
269.9990566
0
ARC
8
DEFAULT_255_2_778
10
3.6871203
20
63.5337398
40
1.3625972
50
259.0286285
51
269.843266
0
ARC
8
DEFAULT_255_2_778
10
3.9965733
20
64.9556652
40
2.8176231
50
251.797038
51
258.3539409
0
ARC
8
DEFAULT_255_2_778
10
3.7357953
20
63.032278
40
1.3068543
50
269.2107058
51
269.9999246
0
ARC
8
DEFAULT_255_2_778
10
3.7361024
20
63.0267812
40
1.3013573
50
269.9863998
51
285.4825402
0
ARC
8
DEFAULT_255_2_778
10
3.8636976
20
62.5685949
40
0.8257371
50
285.4371215
51
306.7358375
0
ARC
8
DEFAULT_255_2_778
10
4.0049056
20
62.3684362
40
0.5809063
50
307.3824687
51
334.6308616
0
ARC
8
DEFAULT_255_2_778
10
3.9234332
20
62.39559
40
0.6662368
50
335.5228368
51
0.0094353
0
ARC
8
DEFAULT_255_2_778
10
3.9223681
20
62.3957108
40
0.6673019
50
359.9990439
51
0.870409
0
ARC
8
DEFAULT_255_2_778
10
3.8976503
20
62.4195168
40
0.6920776
50
358.8682892
51
359.998935
0
ARC
8
DEFAULT_255_2_778
10
3.8933954
20
62.4192112
40
0.6963326
50
0.024089
51
16.3427977
0
ARC
8
DEFAULT_255_2_778
10
4.1536557
20
62.4836647
40
0.428603
50
17.8647592
51
43.8794075
0
ARC
8
DEFAULT_255_2_778
10
3.8023815
20
62.1265137
40
0.9294629
50
44.7394505
51
59.8518356
0
ARC
8
DEFAULT_255_2_778
10
2.7699269
20
60.3672472
40
2.9693047
50
59.673853
51
66.3345448
0
ARC
8
DEFAULT_255_2_778
10
4.2038764
20
64.1061184
40
1.0255412
50
238.4842902
51
244.8043629
0
LINE
8
DEFAULT_255_2_778
10
3.8050929
20
63.4451477
11
3.8876929
21
63.4490477
0
LINE
8
DEFAULT_255_2_778
10
4.3853929
20
63.3331477
11
4.4382929
21
63.3133477
0
LINE
8
DEFAULT_255_2_778
10
4.4382929
20
63.3133477
11
4.4382929
21
63.7866477
0
LINE
8
DEFAULT_255_2_778
10
4.4382929
20
63.7866477
11
4.4091929
21
63.7954477
0
LINE
8
DEFAULT_255_2_778
10
3.3574929
20
62.6939477
11
3.6910929
21
62.5333477
0
LINE
8
DEFAULT_255_2_778
10
3.6910929
20
62.5333477
11
3.8476929
21
62.4613477
0
LINE
8
DEFAULT_255_2_778
10
3.1163929
20
62.2790477
11
3.0663929
21
62.2957477
0
LINE
8
DEFAULT_255_2_778
10
3.0663929
20
62.2957477
11
3.0663929
21
61.8057477
0
LINE
8
DEFAULT_255_2_778
10
3.0663929
20
61.8057477
11
3.0954929
21
61.8002477
0
LINE
8
DEFAULT_255_2_778
10
3.0954929
20
61.8002477
11
3.2357929
21
61.7697477
0
LINE
8
DEFAULT_255_2_778
10
3.2357929
20
61.7697477
11
3.3947929
21
61.7464477
0
LINE
8
DEFAULT_255_2_778
10
3.3947929
20
61.7464477
11
3.5587929
21
61.7311477
0
LINE
8
DEFAULT_255_2_778
10
3.5587929
20
61.7311477
11
3.7177929
21
61.7255477
0
LINE
8
DEFAULT_255_2_778
10
3.9617929
20
63.0868477
11
3.7672929
21
63.1781477
0
LINE
8
DEFAULT_255_2_778
10
3.6677929
20
63.2318477
11
3.6519929
21
63.2435477
0
LINE
8
DEFAULT_255_2_778
10
13.5118929
20
83.3542477
11
13.5118929
21
83.1541477
0
LINE
8
DEFAULT_255_2_778
10
13.5118929
20
83.1541477
11
11.8119929
21
83.1541477
0
LINE
8
DEFAULT_255_2_778
10
11.8119929
20
83.1541477
11
11.8119929
21
83.3542477
0
LINE
8
DEFAULT_255_2_778
10
11.8119929
20
83.3542477
11
13.5118929
21
83.3542477
0
LINE
8
DEFAULT_255_2_778
10
1.9620929
20
84.1077477
11
1.9620929
21
83.3576477
0
LINE
8
DEFAULT_255_2_778
10
1.9620929
20
83.3576477
11
2.7121929
21
83.3576477
0
LINE
8
DEFAULT_255_2_778
10
2.7121929
20
83.3576477
11
2.7121929
21
83.1541477
0
LINE
8
DEFAULT_255_2_778
10
2.7121929
20
83.1541477
11
1.9620929
21
83.1541477
0
LINE
8
DEFAULT_255_2_778
10
1.9620929
20
83.1541477
11
1.9620929
21
82.4040477
0
LINE
8
DEFAULT_255_2_778
10
1.9620929
20
82.4040477
11
1.7585929
21
82.4040477
0
LINE
8
DEFAULT_255_2_778
10
1.7585929
20
82.4040477
11
1.7585929
21
83.1541477
0
LINE
8
DEFAULT_255_2_778
10
1.7585929
20
83.1541477
11
1.0084929
21
83.1541477
0
LINE
8
DEFAULT_255_2_778
10
1.0084929
20
83.1541477
11
1.0084929
21
83.3576477
0
LINE
8
DEFAULT_255_2_778
10
1.0084929
20
83.3576477
11
1.7585929
21
83.3576477
0
LINE
8
DEFAULT_255_2_778
10
1.7585929
20
83.3576477
11
1.7585929
21
84.1077477
0
LINE
8
DEFAULT_255_2_778
10
1.7585929
20
84.1077477
11
1.9620929
21
84.1077477
0
ARC
8
DEFAULT_255_2_778
10
7.9653332
20
83.3483974
40
0.304612
50
169.7494207
51
170.9507539
0
ARC
8
DEFAULT_255_2_778
10
7.269191
20
83.4667411
40
0.4015474
50
349.8976072
51
350.8090892
0
LINE
8
DEFAULT_255_2_778
10
11.6279831
20
82.8851041
11
11.6292831
21
82.9023041
0
LINE
8
DEFAULT_255_2_778
10
11.1784831
20
81.9474041
11
11.1940831
21
81.9694041
0
ARC
8
DEFAULT_255_2_778
10
9.662394
20
83.2595385
40
2.0020823
50
156.5268964
51
180.0988219
0
ARC
8
DEFAULT_255_2_778
10
9.6557001
20
83.26031
40
1.995636
50
100.1897539
51
156.4706642
0
ARC
8
DEFAULT_255_2_778
10
9.6592988
20
83.2287315
40
2.0273542
50
89.9712923
51
100.1319729
0
ARC
8
DEFAULT_255_2_778
10
9.6637678
20
83.254006
40
2.0020823
50
66.5268964
51
90.0988219
0
ARC
8
DEFAULT_255_2_778
10
9.6645393
20
83.2606999
40
1.995636
50
10.1897539
51
66.4706642
0
ARC
8
DEFAULT_255_2_778
10
9.6329608
20
83.2571012
40
2.0273542
50
359.9712923
51
10.1319729
0
ARC
8
DEFAULT_255_2_778
10
9.6582353
20
83.2526322
40
2.0020823
50
336.5268964
51
0.0988219
0
ARC
8
DEFAULT_255_2_778
10
9.6649292
20
83.2518607
40
1.995636
50
280.1897539
51
336.4706642
0
ARC
8
DEFAULT_255_2_778
10
9.6613304
20
83.2834392
40
2.0273542
50
269.9712923
51
280.1319729
0
ARC
8
DEFAULT_255_2_778
10
9.6568615
20
83.2581647
40
2.0020823
50
246.5268964
51
270.0988219
0
ARC
8
DEFAULT_255_2_778
10
9.65609
20
83.2514708
40
1.995636
50
190.1897539
51
246.4706642
0
ARC
8
DEFAULT_255_2_778
10
9.6876685
20
83.2550696
40
2.0273542
50
179.9712923
51
190.1319729
0
LINE
8
DEFAULT_255_2_778
10
7.6603146
20
83.2560854
11
7.6603146
21
83.2560854
0
ARC
8
DEFAULT_255_2_778
10
9.6339371
20
83.0557877
40
2.0016067
50
355.6036676
51
359.999443
0
ARC
8
DEFAULT_255_2_778
10
9.6350738
20
83.055634
40
2.0004701
50
0.0038461
51
42.7968027
0
ARC
8
DEFAULT_255_2_778
10
9.6352005
20
83.0557685
40
2.0002858
50
42.7964415
51
89.9927283
0
ARC
8
DEFAULT_255_2_778
10
9.6338972
20
83.0616125
40
1.9944423
50
89.9552651
51
117.7541257
0
ARC
8
DEFAULT_255_2_778
10
9.6357749
20
83.055719
40
2.0005323
50
117.7231145
51
163.2489365
0
ARC
8
DEFAULT_255_2_778
10
9.6466937
20
83.0542825
40
2.0114025
50
163.2993949
51
170.0319533
0
ARC
8
DEFAULT_255_2_778
10
9.6566933
20
83.2520688
40
1.9963745
50
218.4858927
51
238.7258528
0
ARC
8
DEFAULT_255_2_778
10
9.635927
20
83.0562832
40
1.8993891
50
34.3855909
51
55.6259808
0
LINE
8
DEFAULT_255_2_778
10
8.0940084
20
82.0096812
11
10.7083084
21
84.6239812
0
LINE
8
DEFAULT_255_2_778
10
11.2034084
20
84.1289812
11
8.6203084
21
81.5457812
0
ARC
8
DEFAULT_255_2_778
10
9.6381295
20
83.0569299
40
1.8969662
50
13.8303813
51
34.4115105
0
ARC
8
DEFAULT_255_2_778
10
9.6334682
20
83.0560572
40
1.9017009
50
0.0582943
51
13.8223402
0
ARC
8
DEFAULT_255_2_778
10
9.7807666
20
83.0561111
40
1.7544025
50
359.9944156
51
0.0614282
0
ARC
8
DEFAULT_255_2_778
10
9.6369027
20
83.0553733
40
1.8982666
50
331.5199814
51
0.0171075
0
ARC
8
DEFAULT_255_2_778
10
9.6305254
20
83.0592966
40
1.905743
50
325.115903
51
331.5077301
0
ARC
8
DEFAULT_255_2_778
10
9.6352654
20
83.0592437
40
1.8973195
50
55.5583303
51
74.8209919
0
ARC
8
DEFAULT_255_2_778
10
9.6347763
20
83.0557308
40
1.9008378
50
74.8344872
51
89.5708058
0
ARC
8
DEFAULT_255_2_778
10
9.6346016
20
83.0541188
40
1.9024513
50
89.5659088
51
90.0007906
0
ARC
8
DEFAULT_255_2_778
10
9.6338746
20
83.05856
40
1.8980104
50
89.9788462
51
119.8246016
0
ARC
8
DEFAULT_255_2_778
10
9.6377265
20
83.0532496
40
1.9045333
50
119.8456785
51
127.6553867
0
ARC
8
DEFAULT_255_2_778
10
9.6315811
20
83.0590952
40
1.8961516
50
127.6162808
51
153.6848054
0
ARC
8
DEFAULT_255_2_778
10
9.63765
20
83.0559121
40
1.9030026
50
153.6799042
51
179.9854497
0
ARC
8
DEFAULT_255_2_778
10
9.6287878
20
83.0563777
40
1.8941404
50
179.9994647
51
185.0846018
0
ARC
8
DEFAULT_255_2_778
10
9.6307833
20
83.0567186
40
1.8961583
50
185.0895187
51
196.953357
0
ARC
8
DEFAULT_255_2_778
10
9.6454968
20
83.0609155
40
1.9114561
50
196.9450903
51
199.7097175
0
ARC
8
DEFAULT_255_2_778
10
3.1345053
20
83.3539743
40
0.2733506
50
169.73885
51
171.0862145
0
ARC
8
DEFAULT_255_2_778
10
2.5097352
20
83.4594804
40
0.3602988
50
349.9051501
51
350.9275894
0
LINE
8
DEFAULT_255_2_778
10
6.8279266
20
82.8851676
11
6.8292266
21
82.9022676
0
LINE
8
DEFAULT_255_2_778
10
6.3784266
20
81.9474676
11
6.3940266
21
81.9693676
0
ARC
8
DEFAULT_255_2_778
10
4.862394
20
83.2595385
40
2.0020823
50
156.5268964
51
180.0988219
0
ARC
8
DEFAULT_255_2_778
10
4.8557001
20
83.26031
40
1.995636
50
100.1897539
51
156.4706642
0
ARC
8
DEFAULT_255_2_778
10
4.8592988
20
83.2287315
40
2.0273542
50
89.9712923
51
100.1319729
0
ARC
8
DEFAULT_255_2_778
10
4.8637678
20
83.254006
40
2.0020823
50
66.5268964
51
90.0988219
0
ARC
8
DEFAULT_255_2_778
10
4.8645393
20
83.2606999
40
1.995636
50
10.1897539
51
66.4706642
0
ARC
8
DEFAULT_255_2_778
10
4.8329608
20
83.2571012
40
2.0273542
50
359.9712923
51
10.1319729
0
ARC
8
DEFAULT_255_2_778
10
4.8582353
20
83.2526322
40
2.0020823
50
336.5268964
51
0.0988219
0
ARC
8
DEFAULT_255_2_778
10
4.8649292
20
83.2518607
40
1.995636
50
280.1897539
51
336.4706642
0
ARC
8
DEFAULT_255_2_778
10
4.8613304
20
83.2834392
40
2.0273542
50
269.9712923
51
280.1319729
0
ARC
8
DEFAULT_255_2_778
10
4.8568615
20
83.2581647
40
2.0020823
50
246.5268964
51
270.0988219
0
ARC
8
DEFAULT_255_2_778
10
4.85609
20
83.2514708
40
1.995636
50
190.1897539
51
246.4706642
0
ARC
8
DEFAULT_255_2_778
10
4.8876685
20
83.2550696
40
2.0273542
50
179.9712923
51
190.1319729
0
LINE
8
DEFAULT_255_2_778
10
2.8603146
20
83.2560854
11
2.8603146
21
83.2560854
0
ARC
8
DEFAULT_255_2_778
10
4.8338371
20
83.0557877
40
2.0016067
50
355.6036676
51
359.999443
0
ARC
8
DEFAULT_255_2_778
10
4.8349738
20
83.055634
40
2.0004701
50
0.0038461
51
42.7968027
0
ARC
8
DEFAULT_255_2_778
10
4.8351005
20
83.0557685
40
2.0002858
50
42.7964415
51
89.9927283
0
ARC
8
DEFAULT_255_2_778
10
4.8337972
20
83.0616125
40
1.9944423
50
89.9552651
51
117.7541257
0
ARC
8
DEFAULT_255_2_778
10
4.8356749
20
83.055719
40
2.0005323
50
117.7231145
51
163.2489365
0
ARC
8
DEFAULT_255_2_778
10
4.8465937
20
83.0542825
40
2.0114025
50
163.2993949
51
170.0319533
0
ARC
8
DEFAULT_255_2_778
10
4.8565933
20
83.2520688
40
1.9963745
50
218.4858927
51
238.7258528
0
ARC
8
DEFAULT_255_2_778
10
4.835827
20
83.0562832
40
1.8993891
50
34.3855909
51
55.6259808
0
LINE
8
DEFAULT_255_2_778
10
3.2939084
20
82.0096812
11
5.9082084
21
84.6239812
0
LINE
8
DEFAULT_255_2_778
10
6.4033084
20
84.1289812
11
3.8202084
21
81.5457812
0
ARC
8
DEFAULT_255_2_778
10
4.8387885
20
83.0569261
40
1.8963551
50
13.8298461
51
34.4215912
0
ARC
8
DEFAULT_255_2_778
10
4.8339499
20
83.0560095
40
1.9012725
50
0.0519394
51
13.8218103
0
ARC
8
DEFAULT_255_2_778
10
4.6110159
20
83.0558895
40
2.1242067
50
0
51
0.0497251
0
ARC
8
DEFAULT_255_2_778
10
4.8371048
20
83.0553384
40
1.898118
50
331.519286
51
0.0166375
0
ARC
8
DEFAULT_255_2_778
10
4.8306054
20
83.0593139
40
1.9057267
50
325.1158834
51
331.5074069
0
ARC
8
DEFAULT_255_2_778
10
4.8354764
20
83.0594769
40
1.8970667
50
55.5583965
51
74.8234506
0
ARC
8
DEFAULT_255_2_778
10
4.8349136
20
83.0556971
40
1.9008621
50
74.8369044
51
89.5729531
0
ARC
8
DEFAULT_255_2_778
10
4.8346806
20
83.0434351
40
1.9131255
50
89.5687109
51
89.9991999
0
ARC
8
DEFAULT_255_2_778
10
4.834021
20
83.0581813
40
1.8983794
50
89.9792884
51
119.8205933
0
ARC
8
DEFAULT_255_2_778
10
4.8378394
20
83.0529135
40
1.9048485
50
119.8414437
51
127.6498441
0
ARC
8
DEFAULT_255_2_778
10
4.8313509
20
83.0592535
40
1.8958658
50
127.6116252
51
153.2771866
0
ARC
8
DEFAULT_255_2_778
10
4.8375484
20
83.0560304
40
1.9028507
50
153.2744162
51
179.9859034
0
ARC
8
DEFAULT_255_2_778
10
4.8289625
20
83.0564812
40
1.8942648
50
179.9994739
51
185.0866192
0
ARC
8
DEFAULT_255_2_778
10
4.8310741
20
83.0568336
40
1.8963994
50
185.0915689
51
196.9539466
0
ARC
8
DEFAULT_255_2_778
10
4.8458769
20
83.0610581
40
1.9117907
50
196.9456842
51
199.7098312
0
ARC
8
DEFAULT_255_2_778
10
7.8275975
20
89.1924706
40
3.9151929
50
325.7041855
51
340.3763972
0
ARC
8
DEFAULT_255_2_778
10
10.8725542
20
88.0635829
40
0.6692037
50
343.8635237
51
0.0017936
0
ARC
8
DEFAULT_255_2_778
10
10.871908
20
88.0636033
40
0.6698499
50
0.000048
51
0.9939971
0
ARC
8
DEFAULT_255_2_778
10
10.8721628
20
88.0636034
40
0.6695951
50
0.9943705
51
9.897169
0
ARC
8
DEFAULT_255_2_778
10
11.1947828
20
88.1117588
40
0.3435928
50
11.2335396
51
19.9324294
0
ARC
8
DEFAULT_255_2_778
10
11.3025377
20
88.1517425
40
0.2286637
50
19.718545
51
38.0546185
0
ARC
8
DEFAULT_255_2_778
10
11.3551121
20
88.1907
40
0.1632607
50
38.6622784
51
56.4700433
0
ARC
8
DEFAULT_255_2_778
10
11.363212
20
88.2048156
40
0.1470235
50
56.0628209
51
76.0350986
0
ARC
8
DEFAULT_255_2_778
10
11.3521656
20
88.1438144
40
0.2089258
50
77.132498
51
90.0009148
0
ARC
8
DEFAULT_255_2_778
10
11.3521722
20
88.1431994
40
0.209541
50
90.0027158
51
91.1821827
0
ARC
8
DEFAULT_255_2_778
10
11.3521629
20
88.1437661
40
0.2089743
50
91.1828151
51
99.6332653
0
ARC
8
DEFAULT_255_2_778
10
11.3447602
20
88.1656586
40
0.1861872
50
98.5146587
51
100.5888749
0
ARC
8
DEFAULT_255_2_778
10
11.3333205
20
88.2182096
40
0.1324386
50
99.9018185
51
115.5533637
0
ARC
8
DEFAULT_255_2_778
10
11.315697
20
88.2568234
40
0.0900032
50
116.0349386
51
135.6904692
0
ARC
8
DEFAULT_255_2_778
10
11.3649439
20
88.2175016
40
0.152839
50
138.0389414
51
152.3228421
0
ARC
8
DEFAULT_255_2_778
10
11.4964677
20
88.152569
40
0.2994958
50
153.0093472
51
169.0821894
0
ARC
8
DEFAULT_255_2_778
10
11.7951564
20
88.0665609
40
0.7227434
50
159.7940191
51
166.3277743
0
ARC
8
DEFAULT_255_2_778
10
11.3377397
20
88.2412744
40
0.2331729
50
137.4032759
51
155.3043303
0
ARC
8
DEFAULT_255_2_778
10
11.3269836
20
88.2510168
40
0.2186609
50
115.4288416
51
137.3748796
0
ARC
8
DEFAULT_255_2_778
10
11.341775
20
88.2129062
40
0.259448
50
97.0018708
51
114.7650014
0
ARC
8
DEFAULT_255_2_778
10
11.3554273
20
88.1371663
40
0.3363151
50
97.2486029
51
97.7374757
0
ARC
8
DEFAULT_255_2_778
10
11.3553228
20
88.1165316
40
0.3567821
50
90.0577166
51
96.8138351
0
ARC
8
DEFAULT_255_2_778
10
11.3549631
20
88.1370945
40
0.336219
50
89.1431025
51
89.9999462
0
ARC
8
DEFAULT_255_2_778
10
11.356498
20
88.1716991
40
0.3015971
50
77.8078009
51
89.3363522
0
ARC
8
DEFAULT_255_2_778
10
11.3637882
20
88.2068468
40
0.2657028
50
56.9247468
51
77.7437178
0
ARC
8
DEFAULT_255_2_778
10
11.3474834
20
88.187278
40
0.291014
50
37.4894754
51
56.3374011
0
ARC
8
DEFAULT_255_2_778
10
11.3061414
20
88.1583936
40
0.3414042
50
15.8946199
51
37.1131028
0
ARC
8
DEFAULT_255_2_778
10
11.1589977
20
88.1170976
40
0.4942324
50
2.574348
51
15.8272697
0
ARC
8
DEFAULT_255_2_778
10
11.0304753
20
88.1064737
40
0.6231211
50
2.0619545
51
3.0194382
0
ARC
8
DEFAULT_255_2_778
10
10.705905
20
88.0846172
40
0.9483221
50
1.6778394
51
2.6760677
0
ARC
8
DEFAULT_255_2_778
10
10.7057986
20
88.084622
40
0.9484281
50
0.0002787
51
1.6773625
0
ARC
8
DEFAULT_255_2_778
10
10.7105016
20
88.0844339
40
0.9437251
50
345.1705067
51
0.0117046
0
ARC
8
DEFAULT_255_2_778
10
7.6868904
20
89.2522917
40
4.1806376
50
326.3099731
51
340.2981814
0
LINE
8
DEFAULT_255_2_778
10
11.2023928
20
88.2092937
11
11.0928928
21
88.2373937
0
LINE
8
DEFAULT_255_2_778
10
11.1168928
20
88.3161937
11
11.1258928
21
88.3386937
0
LINE
8
DEFAULT_255_2_778
10
11.1653928
20
86.9332937
11
11.1653928
21
86.8789937
0
LINE
8
DEFAULT_255_2_778
10
11.1653928
20
86.8789937
11
11.6822928
21
86.8789937
0
LINE
8
DEFAULT_255_2_778
10
11.6822928
20
86.8789937
11
11.6822928
21
86.7588937
0
LINE
8
DEFAULT_255_2_778
10
11.6822928
20
86.7588937
11
11.0533928
21
86.7588937
0
LINE
8
DEFAULT_255_2_778
10
11.0533928
20
86.7588937
11
11.0620928
21
86.9863937
0
LINE
8
DEFAULT_255_2_778
10
13.9315928
20
86.4334937
11
14.0320928
21
86.9906937
0
LINE
8
DEFAULT_255_2_778
10
14.0320928
20
86.9906937
11
13.9270928
21
87.0144937
0
LINE
8
DEFAULT_255_2_778
10
13.9270928
20
87.0144937
11
13.8264928
21
86.4545937
0
LINE
8
DEFAULT_255_2_778
10
13.8264928
20
86.4545937
11
13.9315928
21
86.4334937
0
LINE
8
DEFAULT_255_2_778
10
12.6985928
20
86.5231937
11
13.0467928
21
88.5003937
0
LINE
8
DEFAULT_255_2_778
10
13.0467928
20
88.5003937
11
12.9416928
21
88.5241937
0
LINE
8
DEFAULT_255_2_778
10
12.9416928
20
88.5241937
11
12.5937928
21
86.5442937
0
LINE
8
DEFAULT_255_2_778
10
12.5937928
20
86.5442937
11
12.6985928
21
86.5231937
0
ARC
8
DEFAULT_255_2_778
10
5.807708
20
87.1849155
40
0.9162116
50
357.0610895
51
0.1319142
0
ARC
8
DEFAULT_255_2_778
10
6.2892809
20
87.1516314
40
0.43365
50
339.8608227
51
358.1907659
0
ARC
8
DEFAULT_255_2_778
10
6.4184759
20
87.1094234
40
0.2978614
50
324.6818374
51
338.9269398
0
ARC
8
DEFAULT_255_2_778
10
6.4966873
20
87.0533927
40
0.2016528
50
303.4421389
51
324.8248054
0
ARC
8
DEFAULT_255_2_778
10
6.5229404
20
87.0189132
40
0.1584404
50
282.4940413
51
302.3914654
0
ARC
8
DEFAULT_255_2_778
10
6.5172897
20
87.0374146
40
0.1777325
50
269.9431391
51
282.9822373
0
ARC
8
DEFAULT_255_2_778
10
6.517109
20
87.0424336
40
0.1827514
50
268.0282755
51
270.0013514
0
ARC
8
DEFAULT_255_2_778
10
6.5171745
20
87.0442445
40
0.1845634
50
265.6006704
51
268.0272967
0
ARC
8
DEFAULT_255_2_778
10
6.5189426
20
87.0234374
40
0.1639877
50
241.8662289
51
264.4270015
0
ARC
8
DEFAULT_255_2_778
10
6.5647387
20
87.091797
40
0.2460001
50
194.4467517
51
239.9673163
0
ARC
8
DEFAULT_255_2_778
10
6.8883085
20
87.1786101
40
0.5810064
50
177.1572671
51
194.7764961
0
ARC
8
DEFAULT_255_2_778
10
2.3824455
20
87.4248816
40
3.8136982
50
358.4347346
51
359.7858111
0
LINE
8
DEFAULT_255_2_778
10
6.1947207
20
87.320708
11
6.1946596
21
87.3181226
0
ARC
8
DEFAULT_255_2_778
10
10.1125218
20
87.2101313
40
3.9193502
50
178.421109
51
179.7734368
0
ARC
8
DEFAULT_255_2_778
10
7.266475
20
87.214476
40
1.0733309
50
179.4046059
51
187.3306105
0
ARC
8
DEFAULT_255_2_778
10
6.7288145
20
87.1526607
40
0.5322277
50
188.1156897
51
202.7286996
0
ARC
8
DEFAULT_255_2_778
10
6.6027765
20
87.0952413
40
0.3938153
50
202.1084043
51
222.0005066
0
ARC
8
DEFAULT_255_2_778
10
6.5297739
20
87.0316341
40
0.2970064
50
222.3052703
51
240.8973367
0
ARC
8
DEFAULT_255_2_778
10
6.5129811
20
87.0060816
40
0.2665217
50
241.3798751
51
262.2015584
0
ARC
8
DEFAULT_255_2_778
10
6.5162523
20
87.0227543
40
0.2834856
50
262.003759
51
269.6187045
0
ARC
8
DEFAULT_255_2_778
10
6.5162789
20
87.0343337
40
0.295065
50
269.6285055
51
269.993908
0
ARC
8
DEFAULT_255_2_778
10
6.5162668
20
87.0219702
40
0.2827016
50
269.9960791
51
280.3005404
0
ARC
8
DEFAULT_255_2_778
10
6.5187414
20
87.003527
40
0.2641145
50
280.4877917
51
301.0371312
0
ARC
8
DEFAULT_255_2_778
10
6.4999889
20
87.0343575
40
0.3001998
50
301.0699125
51
318.010345
0
ARC
8
DEFAULT_255_2_778
10
6.4267103
20
87.0964679
40
0.3962272
50
318.4237153
51
336.8074786
0
ARC
8
DEFAULT_255_2_778
10
6.292707
20
87.1553723
40
0.5426008
50
336.6627365
51
355.3437055
0
ARC
8
DEFAULT_255_2_778
10
3.714447
20
87.3521686
40
3.1283549
50
355.5845824
51
0.2821704
0
ARC
8
DEFAULT_255_2_778
10
-2.9684534
20
87.3292255
40
9.8112923
50
0.2239531
51
1.5625157
0
ARC
8
DEFAULT_255_2_778
10
51.5502678
20
88.6503867
40
44.7234902
50
181.28535
51
181.3499426
0
ARC
8
DEFAULT_255_2_778
10
14.880353
20
87.8451523
40
8.0447586
50
180.1362278
51
181.4102512
0
ARC
8
DEFAULT_255_2_778
10
9.8604078
20
88.6761101
40
0.7908565
50
323.6921172
51
335.9512264
0
ARC
8
DEFAULT_255_2_778
10
10.2786031
20
88.3712471
40
0.2733456
50
309.2680852
51
323.2832495
0
ARC
8
DEFAULT_255_2_778
10
10.1040408
20
88.5189789
40
0.6153315
50
311.892235
51
335.9412579
0
ARC
8
DEFAULT_255_2_778
10
9.4825808
20
87.0538546
40
0.2178089
50
317.3642039
51
334.1028027
0
ARC
8
DEFAULT_255_2_778
10
9.538967
20
87.0041811
40
0.1426909
50
298.0276748
51
316.7021117
0
ARC
8
DEFAULT_255_2_778
10
9.5385673
20
87.0144007
40
0.1519649
50
278.8005047
51
296.349867
0
ARC
8
DEFAULT_255_2_778
10
9.5323362
20
87.0538167
40
0.1918702
50
269.9898856
51
278.838526
0
ARC
8
DEFAULT_255_2_778
10
9.5323024
20
87.0549687
40
0.1930223
50
269.2622656
51
269.999986
0
ARC
8
DEFAULT_255_2_778
10
9.5323901
20
87.0575568
40
0.1956113
50
259.8198718
51
269.2463241
0
ARC
8
DEFAULT_255_2_778
10
9.5250837
20
87.0282768
40
0.1655133
50
238.0579694
51
260.5178844
0
ARC
8
DEFAULT_255_2_778
10
9.5249455
20
87.0238922
40
0.1617345
50
217.5489574
51
237.2777154
0
ARC
8
DEFAULT_255_2_778
10
9.6199939
20
87.0899427
40
0.2774014
50
199.569977
51
216.4006565
0
ARC
8
DEFAULT_255_2_778
10
10.0619285
20
87.2393087
40
0.7438739
50
183.9507191
51
199.0083205
0
ARC
8
DEFAULT_255_2_778
10
11.2348467
20
87.3602457
40
1.92275
50
183.6594276
51
185.1379126
0
ARC
8
DEFAULT_255_2_778
10
12.7167917
20
87.4428283
40
3.406966
50
179.6803846
51
183.4547307
0
ARC
8
DEFAULT_255_2_778
10
23.1640726
20
87.4437345
40
13.8542056
50
179.4752595
51
179.9251496
0
ARC
8
DEFAULT_255_2_778
10
-4.5454316
20
87.6975045
40
13.8564606
50
359.475314
51
359.9252417
0
ARC
8
DEFAULT_255_2_778
10
-2.1622418
20
87.6680797
40
11.4732646
50
0.0566564
51
0.3948261
0
ARC
8
DEFAULT_255_2_778
10
30.6754602
20
87.8793575
40
21.3651189
50
180.2566278
51
180.3545717
0
ARC
8
DEFAULT_255_2_778
10
16.7477929
20
87.8164246
40
7.4373094
50
180.0117468
51
180.2523872
0
ARC
8
DEFAULT_255_2_778
10
11.2300053
20
87.8445197
40
1.9197502
50
172.9384587
51
180.884054
0
ARC
8
DEFAULT_255_2_778
10
9.9408155
20
88.0070224
40
0.6203681
50
159.8501364
51
173.1954979
0
ARC
8
DEFAULT_255_2_778
10
9.5859636
20
88.1347487
40
0.2432474
50
143.9420294
51
159.3014156
0
ARC
8
DEFAULT_255_2_778
10
9.5285946
20
88.1733966
40
0.174139
50
121.3419728
51
143.1116411
0
ARC
8
DEFAULT_255_2_778
10
9.5278103
20
88.1686962
40
0.1777729
50
101.7800345
51
120.3380401
0
ARC
8
DEFAULT_255_2_778
10
9.5387634
20
88.122867
40
0.2248771
50
90.0029238
51
102.1281153
0
ARC
8
DEFAULT_255_2_778
10
9.5387516
20
88.1236327
40
0.2241113
50
88.8042868
51
89.9999007
0
ARC
8
DEFAULT_255_2_778
10
9.5387631
20
88.1235028
40
0.224241
50
82.1172014
51
88.8079255
0
ARC
8
DEFAULT_255_2_778
10
9.549719
20
88.199739
40
0.1472232
50
65.0519872
51
82.2716258
0
ARC
8
DEFAULT_255_2_778
10
9.5590642
20
88.2245269
40
0.1208227
50
42.8685935
51
64.111952
0
ARC
8
DEFAULT_255_2_778
10
9.5124274
20
88.1881528
40
0.179821
50
23.5933598
51
41.2533373
0
ARC
8
DEFAULT_255_2_778
10
9.2797665
20
88.0856814
40
0.4340479
50
9.1231576
51
23.6969646
0
ARC
8
DEFAULT_255_2_778
10
8.9031096
20
88.0092071
40
0.8182177
50
9.7466637
51
10.2285885
0
ARC
8
DEFAULT_255_2_778
10
9.3015063
20
88.1039977
40
0.5209921
50
6.6272144
51
23.1864256
0
ARC
8
DEFAULT_255_2_778
10
9.5255286
20
88.2030752
40
0.2760701
50
22.5903843
51
54.072167
0
ARC
8
DEFAULT_255_2_778
10
9.5501014
20
88.2147941
40
0.2524983
50
57.02832
51
87.842073
0
ARC
8
DEFAULT_255_2_778
10
9.5414656
20
88.1491281
40
0.3185023
50
86.7344005
51
89.6669264
0
ARC
8
DEFAULT_255_2_778
10
9.5413785
20
88.1437172
40
0.3239135
50
89.657089
51
90.0057792
0
ARC
8
DEFAULT_255_2_778
10
9.5413116
20
88.1344349
40
0.3331958
50
89.9941023
51
115.7574673
0
ARC
8
DEFAULT_255_2_778
10
9.5814981
20
88.1387667
40
0.3488422
50
122.0237825
51
163.7941283
0
ARC
8
DEFAULT_255_2_778
10
10.1050222
20
87.962104
40
0.9011761
50
162.2977621
51
176.5369004
0
ARC
8
DEFAULT_255_2_778
10
11.1641347
20
87.8646051
40
1.9645271
50
175.5643557
51
177.34444
0
ARC
8
DEFAULT_255_2_778
10
11.0579294
20
87.3772433
40
1.8586939
50
179.1990705
51
179.9999421
0
ARC
8
DEFAULT_255_2_778
10
11.06968
20
87.3775492
40
1.8704445
50
180.009313
51
189.0689305
0
ARC
8
DEFAULT_255_2_778
10
10.4811766
20
87.3086039
40
1.2786685
50
190.1747945
51
190.4689348
0
ARC
8
DEFAULT_255_2_778
10
9.9086869
20
87.1882063
40
0.6939811
50
189.2823895
51
204.7626817
0
ARC
8
DEFAULT_255_2_778
10
9.5979213
20
87.0506386
40
0.3542073
50
205.6117916
51
215.4055765
0
ARC
8
DEFAULT_255_2_778
10
9.4993876
20
86.9734719
40
0.2292615
50
213.9534588
51
234.4577194
0
ARC
8
DEFAULT_255_2_778
10
9.5009565
20
86.9747307
40
0.2311984
50
234.3226939
51
250.8509128
0
ARC
8
DEFAULT_255_2_778
10
9.5032243
20
86.9798612
40
0.2367894
50
250.7397511
51
264.5943184
0
ARC
8
DEFAULT_255_2_778
10
9.5213962
20
87.0196362
40
0.2784691
50
261.6417138
51
268.0625657
0
ARC
8
DEFAULT_255_2_778
10
9.5214079
20
87.019617
40
0.2784503
50
268.0600128
51
270.0020119
0
ARC
8
DEFAULT_255_2_778
10
9.5214555
20
87.0199346
40
0.278768
50
269.9922282
51
294.1297641
0
ARC
8
DEFAULT_255_2_778
10
9.4880735
20
87.0525623
40
0.3226463
50
297.1725847
51
335.1799037
0
ARC
8
DEFAULT_255_2_778
10
9.3501132
20
87.1327963
40
0.481774
50
333.406287
51
346.9882998
0
ARC
8
DEFAULT_255_2_778
10
9.3690216
20
87.1125031
40
0.3462649
50
333.578449
51
349.9916134
0
ARC
8
DEFAULT_255_2_778
10
3.2973859
20
87.1849848
40
0.9077335
50
357.0292349
51
0.1287713
0
ARC
8
DEFAULT_255_2_778
10
3.7677144
20
87.1521189
40
0.4364155
50
339.925777
51
358.1381917
0
ARC
8
DEFAULT_255_2_778
10
3.9031845
20
87.1079107
40
0.2940436
50
324.5158458
51
338.9561694
0
ARC
8
DEFAULT_255_2_778
10
3.9788298
20
87.0523181
40
0.2001817
50
303.3626479
51
324.9043165
0
ARC
8
DEFAULT_255_2_778
10
4.0045564
20
87.0175021
40
0.1569727
50
282.4572262
51
302.5083564
0
ARC
8
DEFAULT_255_2_778
10
3.9983672
20
87.0385328
40
0.1788498
50
270.447493
51
282.9399907
0
ARC
8
DEFAULT_255_2_778
10
3.9982557
20
87.037442
40
0.17776
50
270.0000525
51
270.4861797
0
ARC
8
DEFAULT_255_2_778
10
3.9982605
20
87.0416844
40
0.1820022
50
265.5746261
51
269.9985397
0
ARC
8
DEFAULT_255_2_778
10
3.9994504
20
87.0211538
40
0.1616482
50
241.7008953
51
264.5925666
0
ARC
8
DEFAULT_255_2_778
10
4.0456337
20
87.0915654
40
0.245647
50
194.4121855
51
240.0018653
0
ARC
8
DEFAULT_255_2_778
10
4.3663766
20
87.178283
40
0.5778948
50
177.1094813
51
194.8243394
0
ARC
8
DEFAULT_255_2_778
10
-0.1465409
20
87.4249617
40
3.8237849
50
358.4376637
51
359.7851755
0
LINE
8
DEFAULT_255_2_778
10
3.6758226
20
87.320708
11
3.6757681
21
87.3183916
0
ARC
8
DEFAULT_255_2_778
10
7.5938183
20
87.2107089
40
3.9195297
50
178.4256938
51
179.7740395
0
ARC
8
DEFAULT_255_2_778
10
4.7445949
20
87.2149356
40
1.0703348
50
179.3987901
51
187.3760497
0
ARC
8
DEFAULT_255_2_778
10
4.2056019
20
87.1510702
40
0.5276356
50
188.0123472
51
202.7503332
0
ARC
8
DEFAULT_255_2_778
10
4.0858541
20
87.0967354
40
0.3962103
50
202.2009476
51
221.9793868
0
ARC
8
DEFAULT_255_2_778
10
4.0118835
20
87.0325382
40
0.2982877
50
222.3161009
51
240.8123537
0
ARC
8
DEFAULT_255_2_778
10
3.9944351
20
87.0072797
40
0.2677431
50
241.4361897
51
262.1824995
0
ARC
8
DEFAULT_255_2_778
10
3.9974346
20
87.0224757
40
0.2832073
50
261.9994628
51
269.3102123
0
ARC
8
DEFAULT_255_2_778
10
3.9973903
20
87.0195693
40
0.2803006
50
269.3121137
51
270.0033773
0
ARC
8
DEFAULT_255_2_778
10
3.9974053
20
87.0215449
40
0.2822762
50
270.0003149
51
280.3083042
0
ARC
8
DEFAULT_255_2_778
10
4.0001336
20
87.0027565
40
0.2633037
50
280.4557984
51
301.0691046
0
ARC
8
DEFAULT_255_2_778
10
3.9795695
20
87.0365968
40
0.302902
50
301.0974889
51
317.9004438
0
ARC
8
DEFAULT_255_2_778
10
3.9100675
20
87.0947611
40
0.3934809
50
318.4011814
51
336.9064819
0
ARC
8
DEFAULT_255_2_778
10
3.7790798
20
87.154058
40
0.5372395
50
336.5686774
51
355.4377646
0
ARC
8
DEFAULT_255_2_778
10
1.2127962
20
87.3520767
40
3.1111501
50
355.5618131
51
0.2835592
0
ARC
8
DEFAULT_255_2_778
10
-5.4305591
20
87.3291152
40
9.7545427
50
0.2253099
51
1.5719591
0
ARC
8
DEFAULT_255_2_778
10
49.1214551
20
88.658499
40
44.8137231
50
181.293136
51
181.3576635
0
ARC
8
DEFAULT_255_2_778
10
12.3132509
20
87.8451275
40
7.9965565
50
180.136871
51
181.4185757
0
ARC
8
DEFAULT_255_2_778
10
7.686601
20
89.2520127
40
4.181004
50
326.3052534
51
340.2928501
0
ARC
8
DEFAULT_255_2_778
10
10.7121216
20
88.0835731
40
0.9420624
50
345.1495199
51
359.9902075
0
ARC
8
DEFAULT_255_2_778
10
10.7165645
20
88.0834139
40
0.9376195
50
359.9998872
51
1.7235626
0
ARC
8
DEFAULT_255_2_778
10
10.7187544
20
88.0834903
40
0.9354283
50
1.7229202
51
2.7349441
0
ARC
8
DEFAULT_255_2_778
10
11.1474594
20
88.1137741
40
0.5058614
50
1.625641
51
15.7546529
0
ARC
8
DEFAULT_255_2_778
10
11.3077146
20
88.1584967
40
0.3394837
50
15.8339395
51
37.1738667
0
ARC
8
DEFAULT_255_2_778
10
11.3498662
20
88.1892454
40
0.2873193
50
37.3670566
51
56.4596085
0
ARC
8
DEFAULT_255_2_778
10
11.3650803
20
88.2095929
40
0.2619574
50
56.7742214
51
77.8942515
0
ARC
8
DEFAULT_255_2_778
10
11.3563535
20
88.1714634
40
0.3010696
50
77.7921823
51
89.5961445
0
ARC
8
DEFAULT_255_2_778
10
11.3548816
20
88.1361602
40
0.3363846
50
89.3878332
51
89.9999896
0
ARC
8
DEFAULT_255_2_778
10
11.3552458
20
88.1157833
40
0.3567616
50
90.058471
51
96.8140187
0
ARC
8
DEFAULT_255_2_778
10
11.3428933
20
88.2083318
40
0.2634043
50
96.5345847
51
114.6540868
0
ARC
8
DEFAULT_255_2_778
10
11.3278967
20
88.2489073
40
0.2202965
50
115.5113658
51
137.2924611
0
ARC
8
DEFAULT_255_2_778
10
11.3355503
20
88.2419121
40
0.2306652
50
137.3050922
51
155.402381
0
ARC
8
DEFAULT_255_2_778
10
11.3339401
20
88.2416257
40
0.2293223
50
155.1698682
51
161.2273221
0
ARC
8
DEFAULT_255_2_778
10
11.8170592
20
88.058179
40
0.7459989
50
159.8283263
51
166.1604351
0
ARC
8
DEFAULT_255_2_778
10
11.4968939
20
88.1515558
40
0.3000539
50
153.0112621
51
169.0357753
0
ARC
8
DEFAULT_255_2_778
10
11.3566543
20
88.2224456
40
0.1429169
50
137.5402292
51
152.8215217
0
ARC
8
DEFAULT_255_2_778
10
11.3147602
20
88.2572468
40
0.0885545
50
115.8728988
51
135.8532571
0
ARC
8
DEFAULT_255_2_778
10
11.3332448
20
88.2174408
40
0.1324387
50
99.9018185
51
115.5533637
0
ARC
8
DEFAULT_255_2_778
10
11.3446845
20
88.1648898
40
0.1861873
50
98.5146587
51
100.5888749
0
ARC
8
DEFAULT_255_2_778
10
11.3520871
20
88.1429973
40
0.2089743
50
91.1828151
51
99.6332653
0
ARC
8
DEFAULT_255_2_778
10
11.3520965
20
88.1424306
40
0.2095411
50
90.0027158
51
91.1821827
0
ARC
8
DEFAULT_255_2_778
10
11.3520899
20
88.1430457
40
0.2089259
50
77.132498
51
90.0009148
0
ARC
8
DEFAULT_255_2_778
10
11.3619445
20
88.2017673
40
0.1495245
50
56.2033529
51
75.8026901
0
ARC
8
DEFAULT_255_2_778
10
11.3516328
20
88.1859341
40
0.1684184
50
39.0007462
51
56.2843443
0
ARC
8
DEFAULT_255_2_778
10
11.3025431
20
88.1513558
40
0.2283644
50
19.6436672
51
37.9917091
0
ARC
8
DEFAULT_255_2_778
10
11.2043161
20
88.1130458
40
0.3337674
50
11.2087433
51
20.1688653
0
ARC
8
DEFAULT_255_2_778
10
10.8725613
20
88.063035
40
0.6690935
50
1.3077068
51
9.8872463
0
ARC
8
DEFAULT_255_2_778
10
10.8720785
20
88.0630148
40
0.6695767
50
359.9993818
51
1.3084897
0
ARC
8
DEFAULT_255_2_778
10
10.8697059
20
88.0631102
40
0.6719494
50
343.9049827
51
359.9912525
0
ARC
8
DEFAULT_255_2_778
10
7.825973
20
89.1932337
40
3.9171663
50
325.7020645
51
340.3629003
0
ARC
8
DEFAULT_255_2_778
10
2.7739374
20
87.1632171
40
0.610318
50
352.7777485
51
358.7802208
0
ARC
8
DEFAULT_255_2_778
10
2.975345
20
87.1155328
40
0.4051105
50
306.7472618
51
355.8887055
0
ARC
8
DEFAULT_255_2_778
10
3.0810202
20
87.0052991
40
0.2542485
50
269.3903323
51
302.5238533
0
ARC
8
DEFAULT_255_2_778
10
3.0783171
20
87.0365883
40
0.2855233
50
268.115644
51
269.9995642
0
ARC
8
DEFAULT_255_2_778
10
3.0768013
20
87.0398829
40
0.2887709
50
218.1191778
51
268.437725
0
ARC
8
DEFAULT_255_2_778
10
3.2911119
20
87.1538077
40
0.5294227
50
178.8451353
51
213.4967278
0
ARC
8
DEFAULT_255_2_778
10
4.7758653
20
87.2446139
40
2.0156622
50
179.786498
51
182.2784847
0
ARC
8
DEFAULT_255_2_778
10
3.3757204
20
88.0661064
40
0.6155083
50
179.9954545
51
180.2309948
0
ARC
8
DEFAULT_255_2_778
10
3.4019121
20
88.0661521
40
0.6416999
50
177.9642643
51
179.9997243
0
ARC
8
DEFAULT_255_2_778
10
3.4022034
20
88.0661753
40
0.6419903
50
173.4394295
51
177.9672508
0
ARC
8
DEFAULT_255_2_778
10
3.2351234
20
88.0888501
40
0.4734261
50
155.2406189
51
173.8553714
0
ARC
8
DEFAULT_255_2_778
10
3.1426343
20
88.1288151
40
0.3727095
50
135.8921997
51
154.8649182
0
ARC
8
DEFAULT_255_2_778
10
3.079403
20
88.1891734
40
0.2852982
50
118.1927048
51
135.7575422
0
ARC
8
DEFAULT_255_2_778
10
3.0657804
20
88.2078689
40
0.262404
50
96.4249053
51
117.4996423
0
ARC
8
DEFAULT_255_2_778
10
3.0710196
20
88.1795725
40
0.2911161
50
91.4680912
51
96.8263932
0
ARC
8
DEFAULT_255_2_778
10
3.0709445
20
88.1812825
40
0.2894049
50
90.0017227
51
91.4619024
0
ARC
8
DEFAULT_255_2_778
10
3.0710201
20
88.1850193
40
0.2856681
50
78.7774062
51
90.0169081
0
ARC
8
DEFAULT_255_2_778
10
3.0715216
20
88.1985505
40
0.2723063
50
56.3485646
51
78.3267916
0
ARC
8
DEFAULT_255_2_778
10
3.0502085
20
88.1693327
40
0.3084423
50
36.8529083
51
56.0604893
0
ARC
8
DEFAULT_255_2_778
10
2.8642848
20
88.0680653
40
0.5188467
50
358.6198848
51
33.4852948
0
ARC
8
DEFAULT_255_2_778
10
1.0558035
20
87.9730154
40
2.328641
50
359.7221982
51
2.0316355
0
ARC
8
DEFAULT_255_2_778
10
3.2834608
20
88.074846
40
0.411537
50
163.2826439
51
176.6736167
0
ARC
8
DEFAULT_255_2_778
10
3.1507658
20
88.1130338
40
0.2734704
50
142.4965804
51
162.9482539
0
ARC
8
DEFAULT_255_2_778
10
3.0920565
20
88.1576793
40
0.1997149
50
124.471995
51
142.4034322
0
ARC
8
DEFAULT_255_2_778
10
3.0690682
20
88.1891414
40
0.1607701
50
101.4267939
51
124.0643231
0
ARC
8
DEFAULT_255_2_778
10
3.0707401
20
88.1711841
40
0.1787131
50
90.1025466
51
100.8115848
0
ARC
8
DEFAULT_255_2_778
10
3.0713973
20
88.1509769
40
0.1989222
50
90.0000009
51
90.2814356
0
ARC
8
DEFAULT_255_2_778
10
3.0712088
20
88.1385034
40
0.2113959
50
84.7866635
51
89.9488864
0
ARC
8
DEFAULT_255_2_778
10
3.0745512
20
88.1826029
40
0.1671766
50
63.8166282
51
84.5541443
0
ARC
8
DEFAULT_255_2_778
10
3.0713571
20
88.1797707
40
0.1711352
50
44.5488202
51
63.2753697
0
ARC
8
DEFAULT_255_2_778
10
3.0256621
20
88.1336935
40
0.2360251
50
25.9905003
51
44.738461
0
ARC
8
DEFAULT_255_2_778
10
2.9454341
20
88.0969788
40
0.3242357
50
8.4359013
51
25.609509
0
ARC
8
DEFAULT_255_2_778
10
2.8549262
20
88.0789287
40
0.4164375
50
7.8943258
51
9.0656446
0
ARC
8
DEFAULT_255_2_778
10
2.0239625
20
87.9730736
40
1.2540993
50
359.4658543
51
7.4704373
0
ARC
8
DEFAULT_255_2_778
10
-0.130199
20
87.9722754
40
3.4082236
50
358.0727041
51
359.816877
0
ARC
8
DEFAULT_255_2_778
10
-14.7819271
20
88.41291
40
18.0665585
50
358.1399669
51
358.2387938
0
ARC
8
DEFAULT_255_2_778
10
7.4653639
20
87.6690574
40
4.1932087
50
177.8481293
51
179.6889047
0
ARC
8
DEFAULT_255_2_778
10
2.7071287
20
87.1625826
40
0.5649416
50
355.4048186
51
357.2446296
0
ARC
8
DEFAULT_255_2_778
10
2.8678688
20
87.1448741
40
0.4033278
50
340.0599994
51
356.0829972
0
ARC
8
DEFAULT_255_2_778
10
2.9954355
20
87.1017934
40
0.2687333
50
322.3186503
51
339.4189257
0
ARC
8
DEFAULT_255_2_778
10
3.0464998
20
87.0621371
40
0.2040793
50
304.3385139
51
322.3666005
0
ARC
8
DEFAULT_255_2_778
10
3.0719997
20
87.0292508
40
0.1625597
50
284.5785506
51
303.4555096
0
ARC
8
DEFAULT_255_2_778
10
3.0709414
20
87.0408799
40
0.1740912
50
269.9731349
51
283.9522544
0
ARC
8
DEFAULT_255_2_778
10
3.0709027
20
87.0431845
40
0.1763957
50
266.4619675
51
269.986068
0
ARC
8
DEFAULT_255_2_778
10
3.068745
20
87.0281514
40
0.1612629
50
246.1801851
51
266.8975101
0
ARC
8
DEFAULT_255_2_778
10
3.0732941
20
87.0320076
40
0.1666481
50
226.8007205
51
245.2847836
0
ARC
8
DEFAULT_255_2_778
10
3.0956199
20
87.0571334
40
0.2002493
50
217.7183197
51
227.0652594
0
ARC
8
DEFAULT_255_2_778
10
3.2240638
20
87.1404413
40
0.3530459
50
180.0713568
51
215.6599583
0
ARC
8
DEFAULT_255_2_778
10
3.2197382
20
87.1400012
40
0.34872
50
175.8849894
51
179.9999257
0
LINE
8
DEFAULT_255_2_778
10
6.7239171
20
87.6672249
11
6.7239171
21
87.3717249
0
LINE
8
DEFAULT_255_2_778
10
6.7239171
20
87.3717249
11
6.7239171
21
87.1870249
0
LINE
8
DEFAULT_255_2_778
10
6.3080171
20
87.2074249
11
6.3080171
21
87.3854249
0
LINE
8
DEFAULT_255_2_778
10
6.3080171
20
87.3854249
11
6.3080171
21
87.7424249
0
LINE
8
DEFAULT_255_2_778
10
6.3080171
20
87.7424249
11
6.3080171
21
88.4562249
0
LINE
8
DEFAULT_255_2_778
10
6.3080171
20
88.4562249
11
6.1961171
21
88.4562249
0
LINE
8
DEFAULT_255_2_778
10
6.1961171
20
88.4562249
11
6.1961171
21
87.4106249
0
LINE
8
DEFAULT_255_2_778
10
6.8356171
20
87.8260249
11
6.8356171
21
88.4562249
0
LINE
8
DEFAULT_255_2_778
10
6.8356171
20
88.4562249
11
6.7237171
21
88.4562249
0
LINE
8
DEFAULT_255_2_778
10
6.7237171
20
88.4562249
11
6.7237171
21
87.6672249
0
LINE
8
DEFAULT_255_2_778
10
6.7237171
20
87.6672249
11
6.7239171
21
87.6672249
0
LINE
8
DEFAULT_255_2_778
10
12.1177171
20
86.7563249
11
12.2820171
21
86.7563249
0
LINE
8
DEFAULT_255_2_778
10
12.2820171
20
86.7563249
11
12.5776171
21
88.4374249
0
LINE
8
DEFAULT_255_2_778
10
12.5776171
20
88.4374249
11
12.4680171
21
88.4586249
0
LINE
8
DEFAULT_255_2_778
10
12.4680171
20
88.4586249
11
12.2011171
21
86.9372249
0
LINE
8
DEFAULT_255_2_778
10
12.2011171
20
86.9372249
11
11.9359171
21
88.4612249
0
LINE
8
DEFAULT_255_2_778
10
11.9359171
20
88.4612249
11
11.8264171
21
88.4374249
0
LINE
8
DEFAULT_255_2_778
10
11.8264171
20
88.4374249
11
12.1177171
21
86.7563249
0
LINE
8
DEFAULT_255_2_778
10
10.6268171
20
88.4583249
11
10.6112171
21
88.4231249
0
LINE
8
DEFAULT_255_2_778
10
10.6112171
20
88.4231249
11
10.5826171
21
88.3538249
0
LINE
8
DEFAULT_255_2_778
10
10.4516171
20
88.1596249
11
10.5149171
21
88.0609249
0
LINE
8
DEFAULT_255_2_778
10
10.6659171
20
88.2681249
11
10.6659171
21
86.7563249
0
LINE
8
DEFAULT_255_2_778
10
10.6659171
20
86.7563249
11
10.7779171
21
86.7563249
0
LINE
8
DEFAULT_255_2_778
10
10.7779171
20
86.7563249
11
10.7779171
21
88.4583249
0
LINE
8
DEFAULT_255_2_778
10
10.7779171
20
88.4583249
11
10.6268171
21
88.4583249
0
LINE
8
DEFAULT_255_2_778
10
9.7095171
20
88.1477249
11
9.8190171
21
88.1641249
0
LINE
8
DEFAULT_255_2_778
10
9.2017171
20
87.9556249
11
9.1994171
21
87.4032249
0
LINE
8
DEFAULT_255_2_778
10
9.8195171
20
87.0243249
11
9.7100171
21
87.0523249
0
LINE
8
DEFAULT_255_2_778
10
9.6791171
20
86.9584249
11
9.6785171
21
86.9587249
0
LINE
8
DEFAULT_255_2_778
10
7.0216171
20
88.3313249
11
7.2975171
21
88.3313249
0
LINE
8
DEFAULT_255_2_778
10
7.2975171
20
88.3313249
11
7.2975171
21
86.7515249
0
LINE
8
DEFAULT_255_2_778
10
7.2975171
20
86.7515249
11
7.4095171
21
86.7515249
0
LINE
8
DEFAULT_255_2_778
10
7.4095171
20
86.7515249
11
7.4095171
21
88.3313249
0
LINE
8
DEFAULT_255_2_778
10
7.4095171
20
88.3313249
11
7.6941171
21
88.3313249
0
LINE
8
DEFAULT_255_2_778
10
7.6941171
20
88.3313249
11
7.6941171
21
88.4514249
0
LINE
8
DEFAULT_255_2_778
10
7.6941171
20
88.4514249
11
7.0216171
21
88.4514249
0
LINE
8
DEFAULT_255_2_778
10
7.0216171
20
88.4514249
11
7.0216171
21
88.3313249
0
LINE
8
DEFAULT_255_2_778
10
4.5030171
20
88.3313249
11
4.7790171
21
88.3313249
0
LINE
8
DEFAULT_255_2_778
10
4.7790171
20
88.3313249
11
4.7790171
21
86.7515249
0
LINE
8
DEFAULT_255_2_778
10
4.7790171
20
86.7515249
11
4.8909171
21
86.7515249
0
LINE
8
DEFAULT_255_2_778
10
4.8909171
20
86.7515249
11
4.8909171
21
88.3313249
0
LINE
8
DEFAULT_255_2_778
10
4.8909171
20
88.3313249
11
5.1756171
21
88.3313249
0
LINE
8
DEFAULT_255_2_778
10
5.1756171
20
88.3313249
11
5.1756171
21
88.4514249
0
LINE
8
DEFAULT_255_2_778
10
5.1756171
20
88.4514249
11
4.5030171
21
88.4514249
0
LINE
8
DEFAULT_255_2_778
10
4.5030171
20
88.4514249
11
4.5030171
21
88.3313249
0
LINE
8
DEFAULT_255_2_778
10
4.2051171
20
87.6672249
11
4.2051171
21
87.3717249
0
LINE
8
DEFAULT_255_2_778
10
4.2051171
20
87.3717249
11
4.2051171
21
87.1870249
0
LINE
8
DEFAULT_255_2_778
10
3.7892171
20
87.2074249
11
3.7892171
21
87.3854249
0
LINE
8
DEFAULT_255_2_778
10
3.7892171
20
87.3854249
11
3.7892171
21
87.7424249
0
LINE
8
DEFAULT_255_2_778
10
3.7892171
20
87.7424249
11
3.7892171
21
88.4562249
0
LINE
8
DEFAULT_255_2_778
10
3.7892171
20
88.4562249
11
3.6772171
21
88.4562249
0
LINE
8
DEFAULT_255_2_778
10
3.6772171
20
88.4562249
11
3.6772171
21
87.4106249
0
LINE
8
DEFAULT_255_2_778
10
4.3167171
20
87.8260249
11
4.3167171
21
88.4562249
0
LINE
8
DEFAULT_255_2_778
10
4.3167171
20
88.4562249
11
4.2048171
21
88.4562249
0
LINE
8
DEFAULT_255_2_778
10
4.2048171
20
88.4562249
11
4.2048171
21
87.6672249
0
LINE
8
DEFAULT_255_2_778
10
4.2048171
20
87.6672249
11
4.2051171
21
87.6672249
0
LINE
8
DEFAULT_255_2_778
10
11.0533171
20
86.9695249
11
11.0620171
21
86.9862249
0
LINE
8
DEFAULT_255_2_778
10
11.0620171
20
86.9864249
11
11.0533171
21
86.7581249
0
LINE
8
DEFAULT_255_2_778
10
11.0533171
20
86.7581249
11
11.6822171
21
86.7581249
0
LINE
8
DEFAULT_255_2_778
10
11.6822171
20
86.7581249
11
11.6822171
21
86.8782249
0
LINE
8
DEFAULT_255_2_778
10
11.6822171
20
86.8782249
11
11.1652171
21
86.8782249
0
LINE
8
DEFAULT_255_2_778
10
11.1652171
20
86.8782249
11
11.1652171
21
86.9325249
0
LINE
8
DEFAULT_255_2_778
10
11.0927171
20
88.2366249
11
11.2023171
21
88.2086249
0
LINE
8
DEFAULT_255_2_778
10
3.3841171
20
87.9614249
11
3.3841171
21
87.5558249
0
LINE
8
DEFAULT_255_2_778
10
3.3841171
20
87.5558249
11
3.3841171
21
87.1502249
0
LINE
8
DEFAULT_255_2_778
10
2.7602171
20
87.2521249
11
2.7602171
21
88.0636249
0
LINE
8
DEFAULT_255_2_778
10
3.3844171
20
87.9617249
11
3.3841171
21
87.9614249
0
LINE
8
DEFAULT_255_2_778
10
3.2722171
20
87.6918249
11
3.2722171
21
87.2910249
0
LINE
8
DEFAULT_255_2_778
10
3.2722171
20
87.2910249
11
3.2714171
21
87.1354249
0
LINE
8
DEFAULT_255_2_778
10
2.8719171
20
87.1650249
11
2.8729171
21
88.0987249
0
LINE
8
DEFAULT_255_2_778
10
2.8729171
20
88.0987249
11
2.8726171
21
88.0987249
0
ARC
8
DEFAULT_255_2_778
10
5.1929432
20
88.0189846
40
0.7272352
50
0.0037133
51
1.432239
0
ARC
8
DEFAULT_255_2_778
10
5.2240886
20
88.0188839
40
0.6960899
50
357.442367
51
0.0121624
0
ARC
8
DEFAULT_255_2_778
10
5.3241184
20
88.0123256
40
0.5958707
50
347.2739612
51
357.6431384
0
ARC
8
DEFAULT_255_2_778
10
5.5346072
20
87.9475235
40
0.3766541
50
301.75776
51
349.8367563
0
ARC
8
DEFAULT_255_2_778
10
5.6054788
20
87.8667889
40
0.2712878
50
268.7902534
51
298.0025215
0
ARC
8
DEFAULT_255_2_778
10
5.5142317
20
90.4383883
40
1.9795333
50
270.1481793
51
271.0140456
0
ARC
8
DEFAULT_255_2_778
10
5.5978979
20
85.4675725
40
2.9919878
50
90.5512583
51
90.9313567
0
ARC
8
DEFAULT_255_2_778
10
5.5797054
20
87.2566283
40
1.2028403
50
90.0168518
51
90.5046281
0
ARC
8
DEFAULT_255_2_778
10
5.5920592
20
88.129865
40
0.3298484
50
72.9175713
51
92.2078959
0
ARC
8
DEFAULT_255_2_778
10
5.5833306
20
88.1642123
40
0.300147
50
36.7414352
51
69.396648
0
ARC
8
DEFAULT_255_2_778
10
5.4651587
20
88.0769614
40
0.4470376
50
14.9069162
51
36.6423508
0
ARC
8
DEFAULT_255_2_778
10
5.2911178
20
88.0248402
40
0.6286542
50
1.1230514
51
15.4168705
0
ARC
8
DEFAULT_255_2_778
10
5.6092833
20
88.1928231
40
0.1459395
50
51.1387342
51
71.0603367
0
ARC
8
DEFAULT_255_2_778
10
5.5708311
20
88.1432243
40
0.2086903
50
32.3399897
51
51.4623307
0
ARC
8
DEFAULT_255_2_778
10
5.4451584
20
88.0661048
40
0.3561303
50
14.4316933
51
32.0069258
0
ARC
8
DEFAULT_255_2_778
10
5.2690073
20
88.0163746
40
0.539134
50
359.9988581
51
14.8843768
0
ARC
8
DEFAULT_255_2_778
10
5.2691653
20
88.0163577
40
0.5389758
50
358.5315777
51
0.0006519
0
ARC
8
DEFAULT_255_2_778
10
5.2692775
20
88.0163472
40
0.5388634
50
356.1922131
51
358.5323904
0
ARC
8
DEFAULT_255_2_778
10
5.3081404
20
88.0109659
40
0.4997366
50
355.1339611
51
356.5119333
0
ARC
8
DEFAULT_255_2_778
10
5.3991466
20
87.9997784
40
0.4081238
50
339.2316515
51
355.6151366
0
ARC
8
DEFAULT_255_2_778
10
5.5041175
20
87.961143
40
0.2962761
50
323.198785
51
339.0195663
0
ARC
8
DEFAULT_255_2_778
10
5.5916097
20
87.8969576
40
0.1877725
50
304.9030997
51
322.8884562
0
ARC
8
DEFAULT_255_2_778
10
5.6122134
20
87.8711059
40
0.1547959
50
281.9447319
51
304.1237802
0
ARC
8
DEFAULT_255_2_778
10
5.5746188
20
88.0643848
40
0.3516856
50
269.1315464
51
281.4198159
0
ARC
8
DEFAULT_255_2_778
10
5.5740648
20
88.7288234
40
1.0160951
50
267.3016365
51
269.7306645
0
ARC
8
DEFAULT_255_2_778
10
5.7794705
20
93.6310489
40
5.9226106
50
267.4396552
51
267.5493766
0
ARC
8
DEFAULT_255_2_778
10
5.4513694
20
86.489285
40
1.2267117
50
87.0314462
51
89.5664705
0
ARC
8
DEFAULT_255_2_778
10
5.6078568
20
88.1812607
40
0.1575035
50
89.9878051
51
90.3294295
0
ARC
8
DEFAULT_255_2_778
10
5.6079444
20
88.1809206
40
0.1578437
50
72.0265644
51
90.0196341
0
ARC
8
DEFAULT_255_2_778
10
8.4279496
20
87.3677176
40
0.6150938
50
260.7852358
51
267.8263638
0
ARC
8
DEFAULT_255_2_778
10
8.427928
20
87.3673844
40
0.6147599
50
267.8271935
51
270.000395
0
ARC
8
DEFAULT_255_2_778
10
8.4278758
20
87.3681846
40
0.6155603
50
270.0052548
51
291.2972338
0
ARC
8
DEFAULT_255_2_778
10
8.3888741
20
87.2068859
40
0.488749
50
302.4961775
51
351.6967078
0
ARC
8
DEFAULT_255_2_778
10
7.6642761
20
87.4225598
40
1.241671
50
346.6710945
51
349.4989853
0
ARC
8
DEFAULT_255_2_778
10
7.0354432
20
87.5241314
40
1.8785416
50
349.9484447
51
359.3503744
0
ARC
8
DEFAULT_255_2_778
10
5.9250272
20
87.5617448
40
2.9894173
50
358.8708069
51
0.0177444
0
ARC
8
DEFAULT_255_2_778
10
4.8851737
20
87.5585906
40
4.0292728
50
0.0580172
51
1.6123342
0
ARC
8
DEFAULT_255_2_778
10
7.1348158
20
87.6887627
40
1.7781148
50
359.4586122
51
14.8362299
0
ARC
8
DEFAULT_255_2_778
10
8.4300934
20
88.0461319
40
0.4347314
50
13.0184508
51
69.064508
0
ARC
8
DEFAULT_255_2_778
10
8.5142071
20
88.1898706
40
0.2717912
50
74.8082038
51
86.8902842
0
ARC
8
DEFAULT_255_2_778
10
8.4226521
20
87.0665994
40
1.3968123
50
87.4806598
51
90.0000353
0
ARC
8
DEFAULT_255_2_778
10
8.4226504
20
87.0665948
40
1.3968168
50
89.9999668
51
92.5193341
0
ARC
8
DEFAULT_255_2_778
10
8.4904655
20
87.1075668
40
0.2417535
50
314.9464605
51
336.1360748
0
ARC
8
DEFAULT_255_2_778
10
8.5214472
20
87.0968394
40
0.2127585
50
287.1688764
51
311.0792075
0
ARC
8
DEFAULT_255_2_778
10
8.4498346
20
87.3288445
40
0.4555646
50
269.5909741
51
287.1608368
0
ARC
8
DEFAULT_255_2_778
10
8.4328177
20
87.7470268
40
0.8738436
50
269.9886416
51
270.9025589
0
ARC
8
DEFAULT_255_2_778
10
8.4332859
20
87.9721537
40
1.0989705
50
268.710329
51
269.9665587
0
ARC
8
DEFAULT_255_2_778
10
8.4574187
20
87.916507
40
0.4288696
50
92.6685665
51
98.3212658
0
ARC
8
DEFAULT_255_2_778
10
8.4702851
20
87.6542331
40
0.6914585
50
89.8622791
51
92.7217083
0
ARC
8
DEFAULT_255_2_778
10
8.471834
20
87.2824211
40
1.0632685
50
89.5841424
51
89.9939046
0
ARC
8
DEFAULT_255_2_778
10
8.4766405
20
87.9016735
40
0.4439976
50
78.7643269
51
89.624377
0
ARC
8
DEFAULT_255_2_778
10
8.5263113
20
88.1566907
40
0.1841926
50
52.0632537
51
78.4625805
0
ARC
8
DEFAULT_255_2_778
10
8.4978926
20
88.1269903
40
0.2251269
50
29.38704
51
51.0059885
0
ARC
8
DEFAULT_255_2_778
10
6.9490628
20
87.5982736
40
1.8583719
50
359.9978599
51
20.117746
0
ARC
8
DEFAULT_255_2_778
10
6.9383815
20
87.5982421
40
1.8690531
50
359.6966215
51
359.9988366
0
ARC
8
DEFAULT_255_2_778
10
6.9484941
20
87.5981747
40
1.8589403
50
341.5467047
51
359.6970476
0
ARC
8
DEFAULT_255_2_778
10
13.4090751
20
87.0305101
40
0.2878531
50
203.7753676
51
255.5511481
0
ARC
8
DEFAULT_255_2_778
10
14.0395163
20
87.3090241
40
0.9770744
50
179.8872752
51
203.8172259
0
ARC
8
DEFAULT_255_2_778
10
19.4670339
20
87.5998296
40
6.411102
50
181.6858539
51
182.5826122
0
ARC
8
DEFAULT_255_2_778
10
-28.0948464
20
86.0923132
40
41.1746821
50
1.8356093
51
1.8509841
0
ARC
8
DEFAULT_255_2_778
10
-2.4904193
20
88.8690409
40
15.5812113
50
356.5866862
51
356.6225113
0
ARC
8
DEFAULT_255_2_778
10
16.3899677
20
87.7762298
40
3.3308324
50
174.9589136
51
176.9907887
0
ARC
8
DEFAULT_255_2_778
10
13.6176397
20
88.05724
40
0.5457453
50
144.323138
51
178.7746844
0
ARC
8
DEFAULT_255_2_778
10
13.4011701
20
88.1832569
40
0.2973688
50
126.3173535
51
139.7166899
0
ARC
8
DEFAULT_255_2_778
10
13.3615343
20
88.2370347
40
0.2305629
50
114.9021534
51
126.2959148
0
ARC
8
DEFAULT_255_2_778
10
13.3831704
20
88.1809304
40
0.2905887
50
96.8222965
51
114.1135915
0
ARC
8
DEFAULT_255_2_778
10
13.39733
20
88.0816565
40
0.3908483
50
90.0230373
51
97.1545676
0
ARC
8
DEFAULT_255_2_778
10
13.3971903
20
88.0933174
40
0.3791874
50
89.3526825
51
90.002629
0
ARC
8
DEFAULT_255_2_778
10
13.3982974
20
88.1179213
40
0.3545735
50
78.4071062
51
89.4866572
0
ARC
8
DEFAULT_255_2_778
10
13.4199744
20
88.2189595
40
0.2512421
50
59.8271664
51
78.6193169
0
ARC
8
DEFAULT_255_2_778
10
13.4135326
20
88.2191277
40
0.2543972
50
40.0913634
51
58.5537663
0
ARC
8
DEFAULT_255_2_778
10
13.3329205
20
88.1519926
40
0.359303
50
22.4257443
51
40.0028141
0
ARC
8
DEFAULT_255_2_778
10
12.8911764
20
87.9798172
40
0.8333753
50
3.9853438
51
21.7819035
0
ARC
8
DEFAULT_255_2_778
10
11.8955909
20
87.8689547
40
1.8347254
50
3.3122825
51
5.2783116
0
ARC
8
DEFAULT_255_2_778
10
82.3255352
20
87.6612803
40
68.5889841
50
180.0029394
51
180.0225034
0
ARC
8
DEFAULT_255_2_778
10
-54.8769037
20
87.6073989
40
68.6134654
50
0.0029314
51
0.0224984
0
ARC
8
DEFAULT_255_2_778
10
1.6415469
20
87.6010358
40
12.0950187
50
359.6202714
51
0.0467721
0
ARC
8
DEFAULT_255_2_778
10
11.0637161
20
87.4996073
40
2.6726686
50
352.1518958
51
0.4559658
0
ARC
8
DEFAULT_255_2_778
10
12.1792346
20
87.371576
40
1.5503257
50
350.4990394
51
351.2098522
0
ARC
8
DEFAULT_255_2_778
10
12.9621261
20
87.2245659
40
0.754072
50
336.5564288
51
351.6970756
0
ARC
8
DEFAULT_255_2_778
10
13.3059356
20
87.0794171
40
0.3809136
50
316.2189993
51
336.0125075
0
ARC
8
DEFAULT_255_2_778
10
13.40598
20
86.9998869
40
0.2539296
50
268.153317
51
313.555268
0
ARC
8
DEFAULT_255_2_778
10
13.3975537
20
86.9438521
40
0.1977631
50
269.7882584
51
270.0705029
0
ARC
8
DEFAULT_255_2_778
10
13.3980261
20
87.0776778
40
0.3315894
50
259.3861846
51
269.7920919
0
ARC
8
DEFAULT_255_2_778
10
12.6036486
20
87.9424443
40
1.0123366
50
4.4369999
51
13.4180593
0
ARC
8
DEFAULT_255_2_778
10
9.8509651
20
87.7206381
40
3.7739388
50
0.9509799
51
4.561278
0
ARC
8
DEFAULT_255_2_778
10
9.8922332
20
87.7216332
40
3.7326598
50
0.0006161
51
0.9462217
0
ARC
8
DEFAULT_255_2_778
10
9.8970102
20
87.721673
40
3.7278827
50
359.7293206
51
0.0000056
0
ARC
8
DEFAULT_255_2_778
10
12.1761114
20
87.3769117
40
1.4466754
50
347.8068172
51
0.4019909
0
ARC
8
DEFAULT_255_2_778
10
13.1326417
20
87.1774584
40
0.4696504
50
332.8520291
51
346.9438443
0
ARC
8
DEFAULT_255_2_778
10
13.3713345
20
87.0549786
40
0.2013678
50
310.5894062
51
332.8728462
0
ARC
8
DEFAULT_255_2_778
10
13.3963548
20
87.0404698
40
0.1743332
50
269.9659555
51
307.4457867
0
ARC
8
DEFAULT_255_2_778
10
13.3961477
20
87.0404699
40
0.1743334
50
232.5542359
51
270.0340368
0
ARC
8
DEFAULT_255_2_778
10
13.4285881
20
87.0638948
40
0.2129665
50
208.2292074
51
229.4553521
0
ARC
8
DEFAULT_255_2_778
10
13.5769366
20
87.1430554
40
0.3811141
50
191.8549003
51
208.1655503
0
ARC
8
DEFAULT_255_2_778
10
14.6492454
20
87.3787301
40
1.4790035
50
180.234282
51
192.2562241
0
ARC
8
DEFAULT_255_2_778
10
21.1805215
20
87.5680045
40
8.0126483
50
180.724177
51
181.3968207
0
ARC
8
DEFAULT_255_2_778
10
-16.7021904
20
87.0344321
40
29.8738317
50
0.8291501
51
0.8758154
0
ARC
8
DEFAULT_255_2_778
10
-2.4847454
20
88.2891935
40
15.6608874
50
358.4019975
51
358.4799096
0
ARC
8
DEFAULT_255_2_778
10
17.5888637
20
87.7699359
40
4.4194525
50
177.5556838
51
178.6539873
0
ARC
8
DEFAULT_255_2_778
10
14.0024828
20
87.9478727
40
0.8291176
50
161.3610555
51
179.2712114
0
ARC
8
DEFAULT_255_2_778
10
13.518993
20
88.1006451
40
0.3223076
50
147.4703375
51
159.6248381
0
ARC
8
DEFAULT_255_2_778
10
13.4020132
20
88.1759523
40
0.183186
50
125.9953713
51
147.6543295
0
ARC
8
DEFAULT_255_2_778
10
13.3838002
20
88.190888
40
0.1605085
50
101.6999749
51
123.8682604
0
ARC
8
DEFAULT_255_2_778
10
13.3961302
20
88.1217933
40
0.2306761
50
90.0041005
51
101.2186676
0
ARC
8
DEFAULT_255_2_778
10
13.3961136
20
88.1257784
40
0.226691
50
89.5186292
51
89.999996
0
ARC
8
DEFAULT_255_2_778
10
13.396144
20
88.1235952
40
0.2288739
50
82.7945246
51
89.5308257
0
ARC
8
DEFAULT_255_2_778
10
13.397613
20
88.1256931
40
0.2266115
50
82.3393074
51
83.0964735
0
ARC
8
DEFAULT_255_2_778
10
13.4047704
20
88.1647372
40
0.1869712
50
65.4173927
51
82.9180963
0
ARC
8
DEFAULT_255_2_778
10
13.4158516
20
88.1926867
40
0.1569526
50
51.6424408
51
64.8514499
0
ARC
8
DEFAULT_255_2_778
10
13.3537242
20
88.14128
40
0.2364164
50
10.6659082
51
47.5635932
0
ARC
8
DEFAULT_255_2_778
10
12.8750749
20
87.9961261
40
0.7356503
50
14.2622715
51
14.8798897
0
ARC
8
DEFAULT_255_2_778
10
14.6965207
20
87.7478344
40
0.5250879
50
192.5361084
51
205.0314404
0
ARC
8
DEFAULT_255_2_778
10
14.4969075
20
87.6534085
40
0.3042722
50
204.8247506
51
223.2408797
0
ARC
8
DEFAULT_255_2_778
10
14.4280599
20
87.5900235
40
0.2106975
50
223.510251
51
243.5619936
0
ARC
8
DEFAULT_255_2_778
10
14.4401643
20
87.6164818
40
0.2397796
50
243.78696
51
261.4585899
0
ARC
8
DEFAULT_255_2_778
10
14.4446185
20
87.6528337
40
0.2763917
50
261.6647174
51
269.5921842
0
ARC
8
DEFAULT_255_2_778
10
14.4445324
20
87.6529261
40
0.2764834
50
269.6101527
51
269.9999979
0
ARC
8
DEFAULT_255_2_778
10
14.4445655
20
87.6483034
40
0.2718608
50
269.9930373
51
277.6489976
0
ARC
8
DEFAULT_255_2_778
10
14.4477969
20
87.6195925
40
0.242976
50
277.7949288
51
299.6646435
0
ARC
8
DEFAULT_255_2_778
10
14.4265982
20
87.6533345
40
0.2827927
50
300.0132608
51
316.3009708
0
ARC
8
DEFAULT_255_2_778
10
14.3051825
20
87.7662786
40
0.4486088
50
316.5853127
51
330.5569944
0
ARC
8
DEFAULT_255_2_778
10
27.391474
20
87.3530421
40
12.6970854
50
179.1303174
51
179.3451649
0
ARC
8
DEFAULT_255_2_778
10
97.6327552
20
86.5189286
40
82.9433179
50
179.3235524
51
179.3315099
0
ARC
8
DEFAULT_255_2_778
10
12.6810554
20
87.436637
40
2.0146477
50
348.9054633
51
1.4220869
0
ARC
8
DEFAULT_255_2_778
10
14.2245306
20
87.1498342
40
0.4451016
50
342.3978366
51
346.9013528
0
ARC
8
DEFAULT_255_2_778
10
14.4540383
20
87.0515897
40
0.1981183
50
285.9110002
51
349.4256877
0
ARC
8
DEFAULT_255_2_778
10
14.4890933
20
86.9987349
40
0.1390137
50
270.003911
51
277.9629444
0
ARC
8
DEFAULT_255_2_778
10
14.5092385
20
87.0646517
40
0.2059175
50
198.8382244
51
264.3883451
0
ARC
8
DEFAULT_255_2_778
10
14.5089778
20
87.0460499
40
0.3113435
50
197.3197667
51
256.3021616
0
ARC
8
DEFAULT_255_2_778
10
14.4786406
20
87.0073073
40
0.267291
50
260.6578373
51
269.9950848
0
ARC
8
DEFAULT_255_2_778
10
14.4785416
20
87.0072473
40
0.267231
50
270.0163122
51
329.1870092
0
ARC
8
DEFAULT_255_2_778
10
13.8777881
20
87.2828115
40
0.9270663
50
333.5831846
51
2.2582017
0
ARC
8
DEFAULT_255_2_778
10
8.1406845
20
87.4568928
40
6.6648696
50
358.8174232
51
359.6811847
0
ARC
8
DEFAULT_255_2_778
10
23.4748445
20
87.3619171
40
8.6695868
50
179.1325948
51
179.6174116
0
ARC
8
DEFAULT_255_2_778
10
126.1991245
20
85.6955098
40
111.4073775
50
179.0660955
51
179.0754443
0
ARC
8
DEFAULT_255_2_778
10
4.4508273
20
87.7078385
40
10.357583
50
358.9129346
51
359.846124
0
ARC
8
DEFAULT_255_2_778
10
9.9078894
20
87.6802631
40
4.9004835
50
359.9971787
51
0.2343923
0
ARC
8
DEFAULT_255_2_778
10
12.647161
20
87.7297546
40
2.1613714
50
359.2194412
51
10.5708688
0
ARC
8
DEFAULT_255_2_778
10
13.4517595
20
87.8537242
40
1.3479313
50
11.6650154
51
12.6264753
0
ARC
8
DEFAULT_255_2_778
10
14.2543239
20
88.0642892
40
0.5196168
50
9.3126093
51
41.9378503
0
ARC
8
DEFAULT_255_2_778
10
14.4809929
20
88.2414916
40
0.2334062
50
46.7728047
51
91.0982578
0
ARC
8
DEFAULT_255_2_778
10
14.4765207
20
88.2085837
40
0.2662714
50
90.000324
51
91.601415
0
ARC
8
DEFAULT_255_2_778
10
14.4750752
20
88.2179079
40
0.2569132
50
91.3372678
51
121.1572357
0
ARC
8
DEFAULT_255_2_778
10
14.5025196
20
88.1959047
40
0.2901944
50
123.54722
51
153.3514729
0
ARC
8
DEFAULT_255_2_778
10
14.8006284
20
88.041289
40
0.6260002
50
152.9409734
51
166.6471924
0
ARC
8
DEFAULT_255_2_778
10
15.358572
20
87.9104464
40
1.1990793
50
166.7212426
51
180.6351635
0
ARC
8
DEFAULT_255_2_778
10
16.0561434
20
87.8895109
40
1.8965922
50
179.7691011
51
180.0014889
0
ARC
8
DEFAULT_255_2_778
10
15.8406554
20
87.8871406
40
1.6811058
50
179.9208956
51
182.4765773
0
ARC
8
DEFAULT_255_2_778
10
15.1597468
20
87.8500389
40
0.9992593
50
182.0382637
51
192.4940121
0
ARC
8
DEFAULT_255_2_778
10
14.4388528
20
87.6191308
40
0.1220626
50
243.532786
51
262.3251714
0
ARC
8
DEFAULT_255_2_778
10
14.4454798
20
87.670115
40
0.1734754
50
262.4048895
51
267.8836243
0
ARC
8
DEFAULT_255_2_778
10
14.4454901
20
87.6702793
40
0.17364
50
267.8822229
51
270.0013249
0
ARC
8
DEFAULT_255_2_778
10
14.4454354
20
87.67279
40
0.1761507
50
270.0191122
51
278.6905064
0
ARC
8
DEFAULT_255_2_778
10
14.4515404
20
87.642078
40
0.1448757
50
278.1390142
51
296.9727669
0
ARC
8
DEFAULT_255_2_778
10
14.4509738
20
87.64125
40
0.1443974
50
297.322149
51
316.1754125
0
ARC
8
DEFAULT_255_2_778
10
14.3640053
20
87.7262057
40
0.265972
50
315.9447404
51
328.8595517
0
ARC
8
DEFAULT_255_2_778
10
14.2315873
20
87.7988768
40
0.416937
50
329.7224476
51
345.837212
0
ARC
8
DEFAULT_255_2_778
10
13.62978
20
87.9576794
40
1.0393292
50
345.466371
51
359.3081034
0
ARC
8
DEFAULT_255_2_778
10
13.0355795
20
87.9855833
40
1.6339548
50
358.5812921
51
0.0174503
0
ARC
8
DEFAULT_255_2_778
10
12.6863622
20
87.9848826
40
1.9831722
50
0.0346203
51
1.7099913
0
ARC
8
DEFAULT_255_2_778
10
13.8923185
20
88.0205832
40
0.7766876
50
1.7322526
51
3.9351402
0
ARC
8
DEFAULT_255_2_778
10
14.1807802
20
88.046822
40
0.4871471
50
3.1846548
51
18.0127171
0
ARC
8
DEFAULT_255_2_778
10
14.3554988
20
88.100399
40
0.3044399
50
18.5917821
51
36.775528
0
ARC
8
DEFAULT_255_2_778
10
14.4339926
20
88.1604613
40
0.2056122
50
36.464458
51
54.8896318
0
ARC
8
DEFAULT_255_2_778
10
14.4644906
20
88.2009373
40
0.1549691
50
55.5066463
51
73.2889445
0
ARC
8
DEFAULT_255_2_778
10
14.4698188
20
88.2076983
40
0.1469955
50
74.5204011
51
89.9993387
0
ARC
8
DEFAULT_255_2_778
10
14.4698114
20
88.2092626
40
0.1454311
50
89.9963916
51
91.205697
0
ARC
8
DEFAULT_255_2_778
10
14.4695792
20
88.2235203
40
0.1311718
50
91.2353623
51
111.3842799
0
ARC
8
DEFAULT_255_2_778
10
14.4756861
20
88.2164736
40
0.1399946
50
112.6601168
51
133.5953825
0
ARC
8
DEFAULT_255_2_778
10
14.5258072
20
88.1687713
40
0.2091313
50
134.5284121
51
148.3651156
0
ARC
8
DEFAULT_255_2_778
10
14.7073375
20
88.0643775
40
0.4184905
50
149.2320278
51
167.2875227
0
ARC
8
DEFAULT_255_2_778
10
15.0469052
20
87.9695313
40
0.7708114
50
165.9645663
51
166.7377754
0
ARC
8
DEFAULT_255_2_778
10
15.1883256
20
87.9391994
40
0.915423
50
166.9205421
51
175.7235435
0
ARC
8
DEFAULT_255_2_778
10
15.8353676
20
87.8764775
40
1.565406
50
175.2002115
51
179.8411544
0
ARC
8
DEFAULT_255_2_778
10
15.6643799
20
87.8808174
40
1.3944123
50
180
51
180.0867953
0
ARC
8
DEFAULT_255_2_778
10
15.246534
20
87.8715268
40
0.9765911
50
179.5788529
51
192.1032186
0
ARC
8
DEFAULT_255_2_778
10
14.6182416
20
87.7307047
40
0.3327912
50
191.0778066
51
208.4899866
0
ARC
8
DEFAULT_255_2_778
10
14.5616047
20
87.7108193
40
0.2736939
50
210.487267
51
220.778022
0
ARC
8
DEFAULT_255_2_778
10
14.4373656
20
87.6138241
40
0.1165182
50
224.5647096
51
243.1564848
0
LINE
8
DEFAULT_255_2_778
10
5.5997512
20
87.5955616
11
5.4606512
21
87.5955616
0
LINE
8
DEFAULT_255_2_778
10
5.4606512
20
87.5955616
11
5.4606512
21
86.7583616
0
LINE
8
DEFAULT_255_2_778
10
5.4606512
20
86.7583616
11
5.3486512
21
86.7583616
0
LINE
8
DEFAULT_255_2_778
10
5.3486512
20
86.7583616
11
5.3486512
21
88.4588616
0
LINE
8
DEFAULT_255_2_778
10
5.3486512
20
88.4588616
11
5.5193512
21
88.4588616
0
LINE
8
DEFAULT_255_2_778
10
5.9196512
20
88.0371616
11
5.9199512
21
88.0371616
0
LINE
8
DEFAULT_255_2_778
10
5.4606512
20
87.7159616
11
5.4606512
21
88.3387616
0
LINE
8
DEFAULT_255_2_778
10
5.4606512
20
88.3387616
11
5.6069512
21
88.3387616
0
LINE
8
DEFAULT_255_2_778
10
5.6566512
20
88.3310616
11
5.6566512
21
88.3308616
0
LINE
8
DEFAULT_255_2_778
10
8.5289512
20
88.4612616
11
8.4840512
21
88.4620616
0
LINE
8
DEFAULT_255_2_778
10
8.3612512
20
88.4620616
11
8.2834512
21
88.4612616
0
LINE
8
DEFAULT_255_2_778
10
8.2834512
20
88.4612616
11
8.2834512
21
86.7702616
0
LINE
8
DEFAULT_255_2_778
10
8.2834512
20
86.7702616
11
8.3294512
21
86.7605616
0
LINE
8
DEFAULT_255_2_778
10
8.4085512
20
86.8734616
11
8.3953512
21
86.8734616
0
LINE
8
DEFAULT_255_2_778
10
8.3953512
20
86.8734616
11
8.3953512
21
88.3408616
0
LINE
8
DEFAULT_255_2_778
10
8.7118512
20
87.0097616
11
8.7115512
21
87.0097616
0
LINE
8
DEFAULT_255_2_778
10
13.0583512
20
87.4222616
11
13.0631512
21
87.9413616
0
LINE
8
DEFAULT_255_2_778
10
13.7272512
20
87.9749616
11
13.7365512
21
87.6577616
0
LINE
8
DEFAULT_255_2_778
10
13.3369512
20
86.7517616
11
13.3372512
21
86.7517616
0
LINE
8
DEFAULT_255_2_778
10
13.6248512
20
87.7040616
11
13.6227512
21
87.3870616
0
LINE
8
DEFAULT_255_2_778
10
13.1681512
20
87.4910616
11
13.1700512
21
87.8524616
0
LINE
8
DEFAULT_255_2_778
10
13.5880512
20
88.1773616
11
13.5883512
21
88.1773616
0
LINE
8
DEFAULT_255_2_778
10
14.3143512
20
86.9981616
11
14.2117512
21
86.9533616
0
LINE
8
DEFAULT_255_2_778
10
14.1841512
20
87.6338616
11
14.1839512
21
87.6338616
0
LINE
8
DEFAULT_255_2_778
10
14.3847512
20
87.5098616
11
14.3844512
21
87.5098616
0
LINE
8
DEFAULT_255_2_778
10
15.6507512
20
86.7372616
11
15.5653512
21
87.2002616
0
LINE
8
DEFAULT_255_2_778
10
15.5653512
20
87.2002616
11
15.1491512
21
87.2002616
0
LINE
8
DEFAULT_255_2_778
10
15.1491512
20
87.2002616
11
15.0636512
21
86.7396616
0
LINE
8
DEFAULT_255_2_778
10
15.0636512
20
86.7396616
11
14.9541512
21
86.7655616
0
LINE
8
DEFAULT_255_2_778
10
14.9541512
20
86.7655616
11
15.2740512
21
88.4538616
0
LINE
8
DEFAULT_255_2_778
10
15.2740512
20
88.4538616
11
15.4557512
21
88.4538616
0
LINE
8
DEFAULT_255_2_778
10
15.4557512
20
88.4538616
11
15.7600512
21
86.7613616
0
LINE
8
DEFAULT_255_2_778
10
15.7600512
20
86.7613616
11
15.6507512
21
86.7372616
0
LINE
8
DEFAULT_255_2_778
10
15.3438512
20
88.2326616
11
15.3634512
21
88.3292616
0
LINE
8
DEFAULT_255_2_778
10
15.3634512
20
88.3292616
11
15.5430512
21
87.3203616
0
LINE
8
DEFAULT_255_2_778
10
15.5430512
20
87.3203616
11
15.1710512
21
87.3203616
0
LINE
8
DEFAULT_255_2_778
10
15.1710512
20
87.3203616
11
15.2060512
21
87.4989616
0
LINE
8
DEFAULT_255_2_778
10
15.2060512
20
87.4989616
11
15.3438512
21
88.2326616
0
LINE
8
DEFAULT_255_2_778
10
15.3438512
20
88.2326616
11
15.3438512
21
88.2326616
0
LINE
8
DEFAULT_255_2_778
10
2.5782512
20
22.5572616
11
2.5782512
21
21.8095616
0
LINE
8
DEFAULT_255_2_778
10
4.6599512
20
21.8095616
11
2.5782512
21
21.8095616
0
LINE
8
DEFAULT_255_2_778
10
2.4459512
20
21.8095616
11
2.5785512
21
21.8095616
0
LINE
8
DEFAULT_255_2_778
10
4.6599802
20
22.5572562
11
2.5782802
21
22.5572562
0
LINE
8
DEFAULT_255_2_778
10
2.4459802
20
22.5572562
11
2.5785802
21
22.5572562
0
LINE
8
DEFAULT_255_2_778
10
2.4459802
20
22.5572562
11
2.4459802
21
21.8095562
0
LINE
8
DEFAULT_255_2_778
10
2.2943802
20
21.8095562
11
2.4459802
21
21.8095562
0
LINE
8
DEFAULT_255_2_778
10
2.2982596
20
22.2754196
11
2.3546596
21
22.5572196
0
LINE
8
DEFAULT_255_2_778
10
2.3546596
20
22.5572196
11
2.4458596
21
22.5572196
0
LINE
8
DEFAULT_255_2_778
10
18.2251596
20
13.5061196
11
18.2391596
21
13.5061196
0
LINE
8
DEFAULT_255_2_778
10
18.2391596
20
13.5061196
11
18.2391596
21
10.0062196
0
LINE
8
DEFAULT_255_2_778
10
18.2391596
20
10.0062196
11
18.2251596
21
10.0062196
0
LINE
8
DEFAULT_255_2_778
10
18.1875596
20
13.5061196
11
18.1803596
21
13.5061196
0
LINE
8
DEFAULT_255_2_778
10
18.1804063
20
13.8992177
11
18.1820063
21
13.5058177
0
ARC
8
DEFAULT_255_2_778
10
19.6555209
20
13.4900488
40
1.4736179
50
180.0190694
51
183.4643375
0
ARC
8
DEFAULT_255_2_778
10
19.6042413
20
13.4895547
40
1.4223381
50
179.3454973
51
179.9998559
0
LINE
8
DEFAULT_255_2_778
10
18.1872959
20
13.5060021
11
18.1845959
21
13.4010021
0
LINE
8
DEFAULT_255_2_778
10
18.2250959
20
13.5060021
11
18.1872959
21
13.5060021
0
LINE
8
DEFAULT_255_2_778
10
18.1888959
20
13.9000021
11
18.1872959
21
13.5060021
0
ARC
8
DEFAULT_255_2_778
10
-1.1353456
20
20.5218813
40
1.4736179
50
0.0190694
51
3.4643375
0
ARC
8
DEFAULT_255_2_778
10
-1.0840661
20
20.5223754
40
1.4223381
50
359.3454973
51
359.9998559
0
LINE
8
DEFAULT_255_2_778
10
18.2250794
20
13.903228
11
18.2250794
21
13.506028
0
LINE
8
DEFAULT_255_2_778
10
0.2950794
20
20.505928
11
0.2810794
21
20.505928
0
LINE
8
DEFAULT_255_2_778
10
0.3329794
20
20.505928
11
0.2950794
21
20.505928
0
LINE
8
DEFAULT_255_2_778
10
0.2950794
20
20.108728
11
0.2950794
21
20.505928
0
LINE
8
DEFAULT_255_2_778
10
0.3381794
20
20.505928
11
0.3329794
21
20.505928
0
LINE
8
DEFAULT_255_2_778
10
0.3397794
20
20.112728
11
0.3381794
21
20.506128
0
LINE
8
DEFAULT_255_2_778
10
0.3400763
20
20.1127427
11
0.3400763
21
20.5059427
0
LINE
8
DEFAULT_255_2_778
10
16.0330763
20
22.5572427
11
16.0330763
21
21.8095427
0
LINE
8
DEFAULT_255_2_778
10
16.2258763
20
21.8095427
11
16.0330763
21
21.8095427
0
LINE
8
DEFAULT_255_2_778
10
13.3750763
20
21.8095427
11
16.0330763
21
21.8095427
0
LINE
8
DEFAULT_255_2_778
10
16.2220189
20
22.2754562
11
16.1656189
21
22.5572562
0
LINE
8
DEFAULT_255_2_778
10
16.1656189
20
22.5572562
11
16.0330189
21
22.5572562
0
LINE
8
DEFAULT_255_2_778
10
13.3790189
20
22.2754562
11
13.4351189
21
22.5572562
0
LINE
8
DEFAULT_255_2_778
10
13.4351189
20
22.5572562
11
16.0330189
21
22.5572562
0
LINE
8
DEFAULT_255_2_778
10
4.6602189
20
22.5572562
11
4.6602189
21
21.8095562
0
LINE
8
DEFAULT_255_2_778
10
5.1454189
20
21.8095562
11
4.6605189
21
21.8095562
0
LINE
8
DEFAULT_255_2_778
10
5.1415167
20
22.2754562
11
5.0854167
21
22.5572562
0
LINE
8
DEFAULT_255_2_778
10
5.0854167
20
22.5572562
11
4.6602167
21
22.5572562
0
LINE
8
DEFAULT_255_2_778
10
6.2601167
20
22.5572562
11
6.2601167
21
21.8095562
0
LINE
8
DEFAULT_255_2_778
10
8.7454167
20
21.8095562
11
6.2601167
21
21.8095562
0
LINE
8
DEFAULT_255_2_778
10
6.1749167
20
21.8095562
11
6.2601167
21
21.8095562
0
LINE
8
DEFAULT_255_2_778
10
8.7414532
20
22.2754198
11
8.6853532
21
22.5572198
0
LINE
8
DEFAULT_255_2_778
10
8.6853532
20
22.5572198
11
6.2601532
21
22.5572198
0
LINE
8
DEFAULT_255_2_778
10
6.1789532
20
22.2754198
11
6.2350532
21
22.5572198
0
LINE
8
DEFAULT_255_2_778
10
6.2350532
20
22.5572198
11
6.2601532
21
22.5572198
0
LINE
8
DEFAULT_255_2_778
10
0.3361532
20
19.6105198
11
0.2993532
21
19.6074198
0
LINE
8
DEFAULT_255_2_778
10
0.2951532
20
20.1087198
11
0.2993532
21
19.6074198
0
LINE
8
DEFAULT_255_2_778
10
0.3401532
20
20.1127198
11
0.3401532
21
20.1011198
0
LINE
8
DEFAULT_255_2_778
10
0.3401532
20
20.1011198
11
0.3361532
21
19.6105198
0
ARC
8
DEFAULT_255_2_778
10
35.9381901
20
14.022629
40
17.7581339
50
178.7778378
51
180.0034173
0
ARC
8
DEFAULT_255_2_778
10
36.3340875
20
14.0216357
40
18.1540311
50
180.0002077
51
180.3504577
0
LINE
8
DEFAULT_255_2_778
10
0.2950961
20
20.1086946
11
0.3400961
21
20.1126946
0
LINE
8
DEFAULT_255_2_778
10
18.1803961
20
13.8991946
11
18.1803961
21
9.6126946
0
LINE
8
DEFAULT_255_2_778
10
18.1804
20
13.8991885
11
18.1804
21
13.9105885
0
ARC
8
DEFAULT_255_2_778
10
17.4319408
20
28.5367698
40
6.7272243
50
269.9871889
51
272.0118071
0
ARC
8
DEFAULT_255_2_778
10
17.554054
20
25.2120156
40
3.4002369
50
271.9221458
51
274.4690587
0
ARC
8
DEFAULT_255_2_778
10
17.7601209
20
22.6661084
40
0.8460429
50
273.9908381
51
279.7729582
0
ARC
8
DEFAULT_255_2_778
10
17.9042604
20
21.8702012
40
0.0378617
50
269.2002916
51
313.7379905
0
ARC
8
DEFAULT_255_2_778
10
17.0672546
20
22.4372654
40
0.2171587
50
228.1735579
51
228.268527
0
ARC
8
DEFAULT_255_2_778
10
17.3864771
20
22.7950612
40
0.6966593
50
228.2632849
51
228.3133674
0
ARC
8
DEFAULT_255_2_778
10
16.9879615
20
22.3482942
40
0.0979827
50
228.5962201
51
244.9253918
0
ARC
8
DEFAULT_255_2_778
10
16.955427
20
21.6803465
40
0.5283203
50
41.4310448
51
65.020129
0
ARC
8
DEFAULT_255_2_778
10
17.1129932
20
21.8253978
40
0.3142336
50
18.7578645
51
40.6126725
0
ARC
8
DEFAULT_255_2_778
10
16.8813705
20
21.7777919
40
0.5496496
50
3.2492239
51
15.6911553
0
ARC
8
DEFAULT_255_2_778
10
15.7880601
20
22.2413772
40
0.4353117
50
0.1444666
51
4.4886854
0
ARC
8
DEFAULT_255_2_778
10
9.3742488
20
22.1017867
40
6.8505663
50
0.6030019
51
1.1767496
0
ARC
8
DEFAULT_255_2_778
10
-8.1465936
20
21.9070401
40
24.3724902
50
0.2822922
51
0.6273177
0
ARC
8
DEFAULT_255_2_778
10
-32.1318675
20
21.777111
40
48.3581147
50
0.0380739
51
0.2962189
0
LINE
8
DEFAULT_255_2_778
10
18.1892366
20
13.9000457
11
18.1804366
21
13.8992457
0
LINE
8
DEFAULT_255_2_778
10
18.1842366
20
14.4014457
11
18.2209366
21
14.4046457
0
LINE
8
DEFAULT_255_2_778
10
18.2252366
20
13.9029457
11
18.2209366
21
14.4046457
0
LINE
8
DEFAULT_255_2_778
10
18.2254366
20
13.9032457
11
18.1892366
21
13.9000457
0
LINE
8
DEFAULT_255_2_778
10
17.9376366
20
11.7971457
11
17.9304366
21
21.8415457
0
LINE
8
DEFAULT_255_2_778
10
16.2262366
20
21.8095457
11
17.4304366
21
21.8095457
0
LINE
8
DEFAULT_255_2_778
10
17.4375366
20
11.6783457
11
17.4304366
21
21.8095457
0
LINE
8
DEFAULT_255_2_778
10
16.9464366
20
22.2595457
11
17.0046366
21
22.2336457
0
LINE
8
DEFAULT_255_2_778
10
17.0046366
20
22.2336457
11
17.0859366
21
22.2008457
0
LINE
8
DEFAULT_255_2_778
10
17.0859366
20
22.2008457
11
17.1785366
21
22.1592457
0
LINE
8
DEFAULT_255_2_778
10
12.3453366
20
21.8095457
11
13.3751366
21
21.8095457
0
LINE
8
DEFAULT_255_2_778
10
13.3788366
20
22.2754457
11
13.3748366
21
21.8092457
0
LINE
8
DEFAULT_255_2_778
10
9.7749366
20
21.8095457
11
12.3451366
21
21.8095457
0
LINE
8
DEFAULT_255_2_778
10
12.3413553
20
22.2754436
11
12.3452553
21
21.8092436
0
LINE
8
DEFAULT_255_2_778
10
9.7788553
20
22.2754436
11
9.7748553
21
21.8092436
0
LINE
8
DEFAULT_255_2_778
10
8.7453553
20
21.8095436
11
9.7751553
21
21.8095436
0
LINE
8
DEFAULT_255_2_778
10
17.9372553
20
11.7466436
11
17.9372553
21
11.7201436
0
LINE
8
DEFAULT_255_2_778
10
17.9375677
20
11.7455
11
17.9372677
21
11.7201
0
ARC
8
DEFAULT_255_2_778
10
16.6664285
20
22.910692
40
11.2587388
50
273.927082
51
275.1225002
0
ARC
8
DEFAULT_255_2_778
10
17.3711292
20
15.1137252
40
3.4299977
50
275.0267749
51
277.5441181
0
ARC
8
DEFAULT_255_2_778
10
17.736089
20
12.417243
40
0.7089833
50
276.9153152
51
284.1282598
0
ARC
8
DEFAULT_255_2_778
10
17.903942
20
11.7746879
40
0.0452829
50
276.6005832
51
317.8309187
0
ARC
8
DEFAULT_255_2_778
10
16.9387208
20
11.7413232
40
0.9969348
50
269.9703113
51
313.0436088
0
ARC
8
DEFAULT_255_2_778
10
16.9401493
20
11.7433029
40
0.9974096
50
312.9060113
51
357.9198948
0
ARC
8
DEFAULT_255_2_778
10
16.9196802
20
11.7449404
40
1.0179249
50
357.8696074
51
358.6066596
0
LINE
8
DEFAULT_255_2_778
10
17.9373042
20
11.7971885
11
17.9373042
21
11.7466885
0
LINE
8
DEFAULT_255_2_778
10
18.0738042
20
11.3375885
11
17.9378042
21
11.7455885
0
ARC
8
DEFAULT_255_2_778
10
17.0770065
20
11.6758609
40
0.3604298
50
359.9953923
51
0.4049215
0
ARC
8
DEFAULT_255_2_778
10
17.02302
20
11.6778186
40
0.4144211
50
345.8581169
51
359.7253352
0
ARC
8
DEFAULT_255_2_778
10
16.9307822
20
11.7025962
40
0.5099195
50
315.1396094
51
345.6906156
0
ARC
8
DEFAULT_255_2_778
10
16.9374215
20
11.6952133
40
0.5000061
50
270.1152629
51
315.202628
0
ARC
8
DEFAULT_255_2_778
10
17.0749119
20
11.3342997
40
0.9962924
50
269.9261244
51
311.6368323
0
ARC
8
DEFAULT_255_2_778
10
17.0758229
20
11.3369592
40
0.9976779
50
311.4962543
51
358.2409475
0
ARC
8
DEFAULT_255_2_778
10
17.0547856
20
11.3381372
40
1.0187417
50
358.2110484
51
359.9702474
0
ARC
8
DEFAULT_255_2_778
10
1.6385337
20
21.7774657
40
0.5496554
50
164.2452664
51
176.4596089
0
ARC
8
DEFAULT_255_2_778
10
1.4003247
20
21.829506
40
0.3066127
50
139.1122971
51
161.5172443
0
ARC
8
DEFAULT_255_2_778
10
1.5065893
20
21.7430293
40
0.4435737
50
125.4646981
51
139.6525724
0
ARC
8
DEFAULT_255_2_778
10
1.6452927
20
21.5479221
40
0.6829592
50
116.4091547
51
125.4453003
0
ARC
8
DEFAULT_255_2_778
10
1.5388894
20
22.3389792
40
0.0865374
50
293.8117049
51
313.0177735
0
ARC
8
DEFAULT_255_2_778
10
1.0817681
20
16.3933882
40
4.6959802
50
267.1591951
51
270.0129238
0
ARC
8
DEFAULT_255_2_778
10
0.9645218
20
14.1294943
40
2.4290625
50
263.7331658
51
267.2748021
0
ARC
8
DEFAULT_255_2_778
10
0.761127
20
12.3458221
40
0.6338908
50
256.2764414
51
264.4088869
0
ARC
8
DEFAULT_255_2_778
10
0.6157442
20
11.7739793
40
0.0442349
50
222.3010032
51
263.5098161
0
ARC
8
DEFAULT_255_2_778
10
1.5814872
20
11.7413406
40
0.9969326
50
226.9882782
51
270.0310419
0
ARC
8
DEFAULT_255_2_778
10
1.5799405
20
11.7431305
40
0.997189
50
182.132209
51
227.1234147
0
ARC
8
DEFAULT_255_2_778
10
1.5989389
20
11.7447678
40
1.0162356
50
181.4468572
51
182.1846077
0
ARC
8
DEFAULT_255_2_778
10
1.4431649
20
11.3366812
40
0.996438
50
179.9466998
51
221.6520164
0
ARC
8
DEFAULT_255_2_778
10
1.4456253
20
11.3355846
40
0.9975505
50
221.5110339
51
268.2610075
0
ARC
8
DEFAULT_255_2_778
10
1.4467928
20
11.3568247
40
1.0188164
50
268.231628
51
269.9906941
0
ARC
8
DEFAULT_255_2_778
10
1.5727462
20
11.6951937
40
0.4902239
50
179.7411783
51
180.0050508
0
ARC
8
DEFAULT_255_2_778
10
1.5825227
20
11.6952176
40
0.5000005
50
180.007689
51
224.8471798
0
ARC
8
DEFAULT_255_2_778
10
1.5827517
20
11.6957361
40
0.5005284
50
224.8707798
51
269.9170834
0
LINE
8
DEFAULT_255_2_778
10
18.0814273
20
9.9435082
11
18.0735273
21
11.3376082
0
LINE
8
DEFAULT_255_2_778
10
1.6643273
20
22.6075082
11
1.5979273
21
22.2754082
0
LINE
8
DEFAULT_255_2_778
10
2.2983273
20
22.2754082
11
1.5979273
21
22.2754082
0
LINE
8
DEFAULT_255_2_778
10
1.3415273
20
22.1596082
11
1.4341273
21
22.2011082
0
LINE
8
DEFAULT_255_2_778
10
1.4341273
20
22.2011082
11
1.5154273
21
22.2339082
0
LINE
8
DEFAULT_255_2_778
10
1.5154273
20
22.2339082
11
1.5738273
21
22.2598082
0
LINE
8
DEFAULT_255_2_778
10
2.2940273
20
21.8095082
11
1.0899273
21
21.8114082
0
LINE
8
DEFAULT_255_2_778
10
1.0825273
20
11.6974082
11
1.0899273
21
21.8114082
0
LINE
8
DEFAULT_255_2_778
10
0.5830273
20
11.7191082
11
0.5901273
21
21.8415082
0
LINE
8
DEFAULT_255_2_778
10
0.4467273
20
11.3376082
11
0.5827273
21
11.7456082
0
LINE
8
DEFAULT_255_2_778
10
0.5827273
20
11.7191082
11
0.5824273
21
11.7456082
0
LINE
8
DEFAULT_255_2_778
10
0.4385273
20
9.9437082
11
0.4464273
21
11.3376082
0
LINE
8
DEFAULT_255_2_778
10
16.8559273
20
22.6075082
11
16.9223273
21
22.2754082
0
LINE
8
DEFAULT_255_2_778
10
16.2220273
20
22.2754082
11
16.9223273
21
22.2754082
0
LINE
8
DEFAULT_255_2_778
10
1.6643273
20
22.6075082
11
16.8559273
21
22.6075082
0
LINE
8
DEFAULT_255_2_778
10
2.2943273
20
21.8093082
11
2.2985273
21
22.2754082
0
LINE
8
DEFAULT_255_2_778
10
17.4375293
20
11.6783363
11
17.4377293
21
11.6974363
0
LINE
8
DEFAULT_255_2_778
10
12.3413293
20
22.2754363
11
13.3788293
21
22.2754363
0
LINE
8
DEFAULT_255_2_778
10
9.7788293
20
22.2754363
11
9.8349293
21
22.5572363
0
LINE
8
DEFAULT_255_2_778
10
9.8349293
20
22.5572363
11
12.2852293
21
22.5572363
0
LINE
8
DEFAULT_255_2_778
10
12.2852293
20
22.5572363
11
12.3413293
21
22.2754363
0
LINE
8
DEFAULT_255_2_778
10
8.7414293
20
22.2754363
11
9.7788293
21
22.2754363
0
LINE
8
DEFAULT_255_2_778
10
8.7414293
20
22.2754363
11
8.7454293
21
21.8092363
0
LINE
8
DEFAULT_255_2_778
10
6.1789293
20
22.2754363
11
6.1750293
21
21.8092363
0
LINE
8
DEFAULT_255_2_778
10
5.1452293
20
21.8095363
11
6.1750293
21
21.8095363
0
LINE
8
DEFAULT_255_2_778
10
5.1414865
20
22.2753848
11
6.1788865
21
22.2753848
0
LINE
8
DEFAULT_255_2_778
10
5.1414865
20
22.2753848
11
5.1454865
21
21.8091848
0
LINE
8
DEFAULT_255_2_778
10
2.4458865
20
66.9547848
11
2.5781865
21
66.9547848
0
LINE
8
DEFAULT_255_2_778
10
4.6599865
20
66.9547848
11
2.5781865
21
66.9547848
0
LINE
8
DEFAULT_255_2_778
10
2.2982865
20
67.2365848
11
2.3545865
21
66.9547848
0
LINE
8
DEFAULT_255_2_778
10
2.3545865
20
66.9547848
11
2.4458865
21
66.9547848
0
LINE
8
DEFAULT_255_2_778
10
0.2950865
20
64.0059848
11
0.2810865
21
64.0059848
0
LINE
8
DEFAULT_255_2_778
10
0.3329865
20
64.0059848
11
0.2950865
21
64.0059848
0
LINE
8
DEFAULT_255_2_778
10
0.2950865
20
63.6088848
11
0.2950865
21
64.0059848
0
LINE
8
DEFAULT_255_2_778
10
0.3400865
20
64.0059848
11
0.3329865
21
64.0059848
0
ARC
8
DEFAULT_255_2_778
10
-1.1352938
20
64.022059
40
1.4736179
50
0.0190694
51
3.4643375
0
ARC
8
DEFAULT_255_2_778
10
-1.0840142
20
64.022553
40
1.4223381
50
359.3454973
51
359.9998559
0
LINE
8
DEFAULT_255_2_778
10
0.3398313
20
63.6129057
11
0.3382313
21
64.0063057
0
LINE
8
DEFAULT_255_2_778
10
0.2811313
20
24.0061057
11
0.2951313
21
24.0061057
0
LINE
8
DEFAULT_255_2_778
10
0.2951
20
24.4031698
11
0.2951
21
24.0060698
0
LINE
8
DEFAULT_255_2_778
10
0.2951063
20
24.4031698
11
0.2967063
21
24.0060698
0
LINE
8
DEFAULT_255_2_778
10
0.3401104
20
24.0061
11
0.3022104
21
24.0061
0
LINE
8
DEFAULT_255_2_778
10
0.3022104
20
24.0061
11
0.2951104
21
24.0061
0
ARC
8
DEFAULT_255_2_778
10
0.4983075
20
23.9244556
40
0.200147
50
178.9303621
51
186.7805043
0
ARC
8
DEFAULT_255_2_778
10
7.6587725
20
24.0840924
40
7.362228
50
180.6091193
51
181.2133706
0
LINE
8
DEFAULT_255_2_778
10
0.3038604
20
24.402425
11
0.2995604
21
23.900825
0
LINE
8
DEFAULT_255_2_778
10
0.3400846
20
24.3991671
11
0.3400846
21
24.0060671
0
LINE
8
DEFAULT_255_2_778
10
13.3789846
20
67.2365671
11
13.4350846
21
66.9547671
0
LINE
8
DEFAULT_255_2_778
10
13.4350846
20
66.9547671
11
16.0330846
21
66.9547671
0
LINE
8
DEFAULT_255_2_778
10
16.2219846
20
67.2365671
11
16.1655846
21
66.9547671
0
LINE
8
DEFAULT_255_2_778
10
16.1655846
20
66.9547671
11
16.0330846
21
66.9547671
0
LINE
8
DEFAULT_255_2_778
10
6.1788846
20
67.2365671
11
6.2349846
21
66.9547671
0
LINE
8
DEFAULT_255_2_778
10
6.2349846
20
66.9547671
11
6.2601846
21
66.9547671
0
LINE
8
DEFAULT_255_2_778
10
8.7413846
20
67.2365671
11
8.6852846
21
66.9547671
0
LINE
8
DEFAULT_255_2_778
10
8.6852846
20
66.9547671
11
6.2601846
21
66.9547671
0
LINE
8
DEFAULT_255_2_778
10
5.1414846
20
67.2365671
11
5.0853846
21
66.9547671
0
LINE
8
DEFAULT_255_2_778
10
5.0853846
20
66.9547671
11
4.6601846
21
66.9547671
0
LINE
8
DEFAULT_255_2_778
10
13.3787846
20
67.2365671
11
12.3412846
21
67.2365671
0
LINE
8
DEFAULT_255_2_778
10
9.7787846
20
67.2365671
11
9.8348846
21
66.9547671
0
LINE
8
DEFAULT_255_2_778
10
9.8348846
20
66.9547671
11
12.2851846
21
66.9547671
0
LINE
8
DEFAULT_255_2_778
10
12.2851846
20
66.9547671
11
12.3412846
21
67.2365671
0
LINE
8
DEFAULT_255_2_778
10
16.9222846
20
67.2365671
11
16.2219846
21
67.2365671
0
LINE
8
DEFAULT_255_2_778
10
16.8558846
20
66.9044671
11
16.9222846
21
67.2365671
0
ARC
8
DEFAULT_255_2_778
10
16.9250028
20
66.2387271
40
0.9975316
50
0.772854
51
78.8359526
0
ARC
8
DEFAULT_255_2_778
10
16.9186608
20
66.222746
40
1.014443
50
78.6592961
51
89.7919915
0
ARC
8
DEFAULT_255_2_778
10
17.1405555
20
65.9039494
40
0.7149884
50
359.9545509
51
0.0151493
0
ARC
8
DEFAULT_255_2_778
10
16.8551893
20
65.9043222
40
1.0003547
50
359.9894796
51
44.9516335
0
ARC
8
DEFAULT_255_2_778
10
16.8554708
20
65.9046793
40
0.9999031
50
44.948543
51
89.9729002
0
ARC
8
DEFAULT_255_2_778
10
2.2667079
20
65.9047974
40
1.6019648
50
180.0101232
51
180.0506149
0
ARC
8
DEFAULT_255_2_778
10
1.6646786
20
65.9044952
40
0.9999356
50
135.0384035
51
179.9988979
0
ARC
8
DEFAULT_255_2_778
10
1.6646721
20
65.9050276
40
0.9995547
50
90.0188228
51
135.059734
0
LINE
8
DEFAULT_255_2_778
10
1.6643437
20
66.9045823
11
16.8559437
21
66.9045823
0
LINE
8
DEFAULT_255_2_778
10
16.8559437
20
66.4359823
11
16.8559437
21
66.9045823
0
LINE
8
DEFAULT_255_2_778
10
1.5979437
20
67.2366823
11
1.6643437
21
66.9045823
0
LINE
8
DEFAULT_255_2_778
10
1.6643437
20
66.4359823
11
1.6643437
21
66.9045823
0
LINE
8
DEFAULT_255_2_778
10
2.298324
20
67.2366
11
1.597924
21
67.2366
0
ARC
8
DEFAULT_255_2_778
10
1.5952398
20
66.2387029
40
0.9975316
50
101.1640474
51
179.227146
0
ARC
8
DEFAULT_255_2_778
10
1.6015808
20
66.2227218
40
1.0144428
50
90.2079476
51
101.3406442
0
LINE
8
DEFAULT_255_2_778
10
0.294299
20
45.506158
11
0.304399
21
45.506158
0
LINE
8
DEFAULT_255_2_778
10
0.310999
20
44.756058
11
0.304399
21
45.506158
0
LINE
8
DEFAULT_255_2_778
10
0.3009927
20
44.7560469
11
0.2943927
21
45.5061469
0
ARC
8
DEFAULT_255_2_778
10
0.358484
20
44.0195378
40
0.0652388
50
178.358475
51
191.7737513
0
ARC
8
DEFAULT_255_2_778
10
3.0480982
20
44.1236841
40
2.7567244
50
180.8261251
51
182.1262223
0
ARC
8
DEFAULT_255_2_778
10
15.0949753
20
44.3327733
40
14.8054061
50
180.5173951
51
180.9630213
0
ARC
8
DEFAULT_255_2_778
10
39.6136688
20
44.5677881
40
39.3252245
50
180.2777098
51
180.5372076
0
ARC
8
DEFAULT_255_2_778
10
71.6597565
20
44.7293086
40
71.371719
50
180.060243
51
180.2826817
0
ARC
8
DEFAULT_255_2_778
10
87.7986504
20
44.7560564
40
87.5106327
50
179.9998234
51
180.0666454
0
ARC
8
DEFAULT_255_2_778
10
0.2320973
20
44.0192307
40
0.063627
50
347.9300996
51
1.6932194
0
ARC
8
DEFAULT_255_2_778
10
-2.3911014
20
44.1229678
40
2.688728
50
357.8289468
51
359.1622336
0
ARC
8
DEFAULT_255_2_778
10
-14.1958374
20
44.3310831
40
14.4952884
50
359.0219397
51
359.4771682
0
ARC
8
DEFAULT_255_2_778
10
-38.3935243
20
44.5655015
40
38.6941093
50
359.4570235
51
359.7207681
0
ARC
8
DEFAULT_255_2_778
10
-70.5475616
20
44.7284656
40
70.8485592
50
359.715706
51
359.9397683
0
ARC
8
DEFAULT_255_2_778
10
-87.1768833
20
44.7557582
40
87.477901
50
359.9333423
51
0.0001754
0
LINE
8
DEFAULT_255_2_778
10
0.2880177
20
44.756326
11
0.2946177
21
45.506426
0
ARC
8
DEFAULT_255_2_778
10
0.2405994
20
44.0192126
40
0.0652388
50
348.2262487
51
1.641525
0
ARC
8
DEFAULT_255_2_778
10
-2.4490149
20
44.1233588
40
2.7567244
50
357.8737777
51
359.1738749
0
ARC
8
DEFAULT_255_2_778
10
-14.4958919
20
44.332448
40
14.8054061
50
359.0369787
51
359.4826049
0
ARC
8
DEFAULT_255_2_778
10
-39.0145855
20
44.5674629
40
39.3252245
50
359.4627924
51
359.7222902
0
ARC
8
DEFAULT_255_2_778
10
-71.0606732
20
44.7289834
40
71.371719
50
359.7173183
51
359.939757
0
ARC
8
DEFAULT_255_2_778
10
-87.1995671
20
44.7557311
40
87.5106327
50
359.9333546
51
0.0001766
0
LINE
8
DEFAULT_255_2_778
10
0.2943656
20
44.0059008
11
0.3044656
21
44.0059008
0
LINE
8
DEFAULT_255_2_778
10
0.3038656
20
24.4024008
11
0.2951656
21
24.4032008
0
ARC
8
DEFAULT_255_2_778
10
0.4513195
20
24.8852388
40
0.1532765
50
172.6266755
51
181.0519708
0
ARC
8
DEFAULT_255_2_778
10
5.3751161
20
24.7616284
40
5.0784842
50
178.6370393
51
179.4251203
0
ARC
8
DEFAULT_255_2_778
10
21.7252191
20
24.5726912
40
21.4296742
50
179.3585969
51
179.6921339
0
ARC
8
DEFAULT_255_2_778
10
47.1293523
20
24.4273572
40
46.8342223
50
179.6813326
51
179.9343183
0
ARC
8
DEFAULT_255_2_778
10
59.8898614
20
24.40354
40
59.594751
50
179.9254837
51
180.0002217
0
LINE
8
DEFAULT_255_2_778
10
0.3356104
20
24.9049094
11
0.2993104
21
24.9049094
0
LINE
8
DEFAULT_255_2_778
10
0.3038104
20
24.4025094
11
0.3401104
21
24.3993094
0
ARC
8
DEFAULT_255_2_778
10
0.1919075
20
24.8854446
40
0.1450745
50
358.8477821
51
7.7000761
0
ARC
8
DEFAULT_255_2_778
10
-4.5252121
20
24.764833
40
4.863589
50
0.565461
51
1.3866402
0
ARC
8
DEFAULT_255_2_778
10
-20.7619648
20
24.5788077
40
21.1014028
50
0.2956672
51
0.6354491
0
ARC
8
DEFAULT_255_2_778
10
-48.1894937
20
24.4278765
40
48.5293462
50
0.0599169
51
0.3067578
0
ARC
8
DEFAULT_255_2_778
10
-64.4395407
20
24.3997658
40
64.7794147
50
359.9997497
51
0.0697498
0
ARC
8
DEFAULT_255_2_778
10
0.4511336
20
63.1269375
40
0.1530272
50
178.9467819
51
187.3794032
0
ARC
8
DEFAULT_255_2_778
10
5.367942
20
63.2504523
40
5.0712465
50
180.5750709
51
181.36384
0
ARC
8
DEFAULT_255_2_778
10
21.7033939
20
63.4392934
40
21.4077853
50
180.3078599
51
180.6416528
0
ARC
8
DEFAULT_255_2_778
10
47.1270144
20
63.5847289
40
46.8318209
50
180.0656125
51
180.3186611
0
ARC
8
DEFAULT_255_2_778
10
59.9550607
20
63.6086477
40
59.6598868
50
179.9997742
51
180.0744755
0
ARC
8
DEFAULT_255_2_778
10
-17.4062629
20
63.5002103
40
17.7467122
50
358.7422981
51
0.0037309
0
ARC
8
DEFAULT_255_2_778
10
-17.8266393
20
63.5012509
40
18.1670885
50
0.0003626
51
0.3154845
0
LINE
8
DEFAULT_255_2_778
10
0.3401739
20
63.6128828
11
0.2951739
21
63.6088828
0
LINE
8
DEFAULT_255_2_778
10
0.3401739
20
63.6012828
11
0.3401739
21
63.6128828
0
ARC
8
DEFAULT_255_2_778
10
17.3566232
20
58.4307124
40
7.5027912
50
88.1941482
51
90.0084481
0
ARC
8
DEFAULT_255_2_778
10
17.4799207
20
62.171962
40
3.7595179
50
85.9727543
51
88.2755133
0
ARC
8
DEFAULT_255_2_778
10
17.685732
20
64.9943667
40
0.929655
50
81.1494413
51
86.4093105
0
ARC
8
DEFAULT_255_2_778
10
17.8296029
20
65.8727795
40
0.0401816
50
49.6533641
51
91.1924711
0
ARC
8
DEFAULT_255_2_778
10
16.8555438
20
23.6074076
40
0.9999041
50
270.027112
51
315.0514222
0
ARC
8
DEFAULT_255_2_778
10
16.8554373
20
23.6076914
40
1.0001799
50
315.0442234
51
0.0146604
0
ARC
8
DEFAULT_255_2_778
10
17.1406285
20
23.6081364
40
0.7149887
50
359.9848507
51
0.0454491
0
LINE
8
DEFAULT_255_2_778
10
0.3362169
20
63.1104036
11
0.2994169
21
63.1073036
0
LINE
8
DEFAULT_255_2_778
10
17.9228169
20
66.2521036
11
17.9225169
21
66.2375036
0
LINE
8
DEFAULT_255_2_778
10
17.8556169
20
65.9034036
11
17.9222169
21
66.2375036
0
LINE
8
DEFAULT_255_2_778
10
17.8556169
20
23.6087036
11
17.8556169
21
65.9034036
0
LINE
8
DEFAULT_255_2_778
10
17.9222169
20
23.2745036
11
17.8556169
21
23.6087036
0
ARC
8
DEFAULT_255_2_778
10
17.3619561
20
30.9171733
40
7.3386616
50
269.9496376
51
271.8055215
0
ARC
8
DEFAULT_255_2_778
10
17.4818688
20
27.2817297
40
3.7012484
50
271.7233068
51
274.0615257
0
ARC
8
DEFAULT_255_2_778
10
17.6859733
20
24.507011
40
0.919069
50
273.6210756
51
278.9360106
0
ARC
8
DEFAULT_255_2_778
10
17.8295599
20
23.638868
40
0.0397793
50
268.8095429
51
310.7104023
0
ARC
8
DEFAULT_255_2_778
10
16.923657
20
23.2716685
40
0.9961547
50
269.9280122
51
311.6258155
0
ARC
8
DEFAULT_255_2_778
10
16.9245084
20
23.2744502
40
0.9976716
50
311.4831518
51
358.2083284
0
ARC
8
DEFAULT_255_2_778
10
16.9029902
20
23.2756161
40
1.0192158
50
358.1806418
51
359.9380789
0
ARC
8
DEFAULT_255_2_778
10
1.5944671
20
23.2741565
40
0.9963617
50
179.9794077
51
221.6700305
0
ARC
8
DEFAULT_255_2_778
10
1.5970134
20
23.2731138
40
0.9975736
50
221.5280643
51
268.2611202
0
ARC
8
DEFAULT_255_2_778
10
1.5981777
20
23.2944549
40
1.0189403
50
268.2320961
51
269.9903149
0
LINE
8
DEFAULT_255_2_778
10
17.9307054
20
21.8429146
11
17.9225054
21
23.2745146
0
ARC
8
DEFAULT_255_2_778
10
1.0179931
20
26.5086899
40
4.6978531
50
270.0005214
51
270.8778611
0
ARC
8
DEFAULT_255_2_778
10
1.0175471
20
26.4459942
40
4.6351573
50
266.5395203
51
270.0060416
0
ARC
8
DEFAULT_255_2_778
10
0.8212698
20
23.2242931
40
1.4074839
50
262.5854186
51
266.5988489
0
ARC
8
DEFAULT_255_2_778
10
0.6520977
20
21.9871268
40
0.1590376
50
248.1311467
51
265.5061735
0
ARC
8
DEFAULT_255_2_778
10
0.5949829
20
21.8444373
40
0.0053437
50
196.8508918
51
246.5789014
0
LINE
8
DEFAULT_255_2_778
10
0.6647688
20
23.6086883
11
0.5980688
21
23.2744883
0
LINE
8
DEFAULT_255_2_778
10
0.5898688
20
21.8428883
11
0.5980688
21
23.2744883
0
LINE
8
DEFAULT_255_2_778
10
0.6647688
20
65.9033883
11
0.6647688
21
23.6086883
0
ARC
8
DEFAULT_255_2_778
10
1.158461
20
30.9145044
40
7.336026
50
268.1941632
51
270.0500457
0
ARC
8
DEFAULT_255_2_778
10
1.0387574
20
27.2863963
40
3.7059512
50
265.9404232
51
268.2763068
0
ARC
8
DEFAULT_255_2_778
10
0.8345947
20
24.5095015
40
0.9215972
50
261.0745293
51
266.3795825
0
ARC
8
DEFAULT_255_2_778
10
0.6908128
20
23.6391035
40
0.0400475
50
229.4336673
51
271.1396239
0
ARC
8
DEFAULT_255_2_778
10
1.6651107
20
23.6082292
40
1.0008019
50
224.969863
51
269.9572847
0
ARC
8
DEFAULT_255_2_778
10
1.665198
20
23.6076208
40
1.0004341
50
180.0071564
51
224.9416777
0
ARC
8
DEFAULT_255_2_778
10
2.265561
20
23.6072129
40
1.6007971
50
179.9493672
51
179.9898732
0
LINE
8
DEFAULT_255_2_778
10
0.5980646
20
66.2375275
11
0.6647646
21
65.9033275
0
ARC
8
DEFAULT_255_2_778
10
1.1637661
20
58.4307124
40
7.5027912
50
89.9915519
51
91.8058518
0
ARC
8
DEFAULT_255_2_778
10
1.0404686
20
62.171962
40
3.7595179
50
91.7244867
51
94.0272457
0
ARC
8
DEFAULT_255_2_778
10
0.8346573
20
64.9943667
40
0.929655
50
93.5906895
51
98.8505587
0
ARC
8
DEFAULT_255_2_778
10
0.6907864
20
65.8727795
40
0.0401816
50
88.8075289
51
130.3466359
0
ARC
8
DEFAULT_255_2_778
10
1.66497
20
23.5762009
40
0.5000977
50
180.0340623
51
269.9315362
0
ARC
8
DEFAULT_255_2_778
10
16.8470217
20
23.5758352
40
0.5084577
50
0.0044039
51
0.3006813
0
ARC
8
DEFAULT_255_2_778
10
16.8557574
20
23.5759995
40
0.4997219
50
315.1555781
51
359.9856437
0
ARC
8
DEFAULT_255_2_778
10
16.8556054
20
23.5757745
40
0.4996711
50
270.0420807
51
315.1861692
0
LINE
8
DEFAULT_255_2_778
10
0.5978724
20
66.2521036
11
0.5981724
21
66.2375036
0
LINE
8
DEFAULT_255_2_778
10
16.8559724
20
23.0761036
11
16.8559724
21
22.6075036
0
LINE
8
DEFAULT_255_2_778
10
1.6643724
20
23.0761036
11
1.6643724
21
22.6075036
0
LINE
8
DEFAULT_255_2_778
10
1.1648724
20
65.9335036
11
1.1648724
21
23.5785036
0
LINE
8
DEFAULT_255_2_778
10
16.8559724
20
23.0761036
11
1.6643724
21
23.0761036
0
ARC
8
DEFAULT_255_2_778
10
1.6652645
20
65.9350813
40
0.5003925
50
135.1232322
51
179.8661374
0
ARC
8
DEFAULT_255_2_778
10
1.6663386
20
65.9334485
40
0.5023059
50
90.2241567
51
135.0776885
0
ARC
8
DEFAULT_255_2_778
10
16.8554323
20
65.9359612
40
0.5000895
50
44.833766
51
89.9380002
0
ARC
8
DEFAULT_255_2_778
10
16.8555251
20
65.9360582
40
0.4999553
50
0.0141465
51
44.8333884
0
ARC
8
DEFAULT_255_2_778
10
16.8462581
20
65.9362207
40
0.5092222
50
359.6995468
51
359.9955991
0
LINE
8
DEFAULT_255_2_778
10
17.3554734
20
65.9335504
11
17.3554734
21
23.5785504
0
LINE
8
DEFAULT_255_2_778
10
16.8559734
20
66.4360504
11
1.6643734
21
66.4360504
0
LINE
8
DEFAULT_255_2_778
10
8.7414734
20
67.2366504
11
9.7788734
21
67.2366504
0
LINE
8
DEFAULT_255_2_778
10
5.1415825
20
67.2366498
11
6.1789825
21
67.2366498
0
LINE
8
DEFAULT_255_2_778
10
16.0743825
20
78.7965498
11
15.9420825
21
78.7965498
0
LINE
8
DEFAULT_255_2_778
10
13.3713825
20
79.1741498
11
13.4465825
21
78.7968498
0
LINE
8
DEFAULT_255_2_778
10
13.4465825
20
78.7968498
11
15.9418825
21
78.7968498
0
LINE
8
DEFAULT_255_2_778
10
2.5782825
20
67.7025498
11
2.5782825
21
66.9548498
0
LINE
8
DEFAULT_255_2_778
10
4.6599825
20
67.7025498
11
2.5782825
21
67.7025498
0
LINE
8
DEFAULT_255_2_778
10
2.4459825
20
67.7025498
11
2.5782825
21
67.7025498
0
LINE
8
DEFAULT_255_2_778
10
16.3775825
20
79.5405498
11
16.0743825
21
79.5405498
0
LINE
8
DEFAULT_255_2_778
10
16.0741
20
78.7965042
11
16.0741
21
79.5405042
0
LINE
8
DEFAULT_255_2_778
10
16.3733283
20
79.1740582
11
16.2477283
21
78.7967582
0
LINE
8
DEFAULT_255_2_778
10
16.2477283
20
78.7967582
11
16.0741283
21
78.7967582
0
LINE
8
DEFAULT_255_2_778
10
2.4459283
20
66.9545582
11
2.4459283
21
67.5400582
0
LINE
8
DEFAULT_255_2_778
10
2.2946283
20
67.5400582
11
2.4459283
21
67.5400582
0
ARC
8
DEFAULT_255_2_778
10
2.5813718
20
67.2635613
40
0.2843848
50
180.1028145
51
185.5012876
0
ARC
8
DEFAULT_255_2_778
10
7.6330296
20
67.3853705
40
5.3374439
50
180.5213905
51
181.3131761
0
ARC
8
DEFAULT_255_2_778
10
25.2810531
20
67.568252
40
22.9864116
50
180.2163527
51
180.576924
0
ARC
8
DEFAULT_255_2_778
10
44.3742183
20
67.6605171
40
42.079794
50
180.1640989
51
180.2438128
0
LINE
8
DEFAULT_255_2_778
10
2.4458969
20
67.7024979
11
2.4458969
21
67.5399979
0
LINE
8
DEFAULT_255_2_778
10
2.2942969
20
67.7024979
11
2.2945969
21
67.5399979
0
LINE
8
DEFAULT_255_2_778
10
2.2943544
20
67.7024957
11
2.4459544
21
67.7024957
0
LINE
8
DEFAULT_255_2_778
10
18.2182544
20
76.0058957
11
18.1804544
21
76.0058957
0
LINE
8
DEFAULT_255_2_778
10
18.1804544
20
79.5060957
11
18.1804544
21
76.0061957
0
LINE
8
DEFAULT_255_2_778
10
18.1804544
20
75.6127957
11
18.1804544
21
76.0058957
0
LINE
8
DEFAULT_255_2_778
10
18.2254544
20
76.0058957
11
18.2182544
21
76.0058957
0
LINE
8
DEFAULT_255_2_778
10
18.2220544
20
75.8592957
11
18.2251544
21
76.0058957
0
LINE
8
DEFAULT_255_2_778
10
18.222001
20
75.859376
11
18.222801
21
76.005976
0
LINE
8
DEFAULT_255_2_778
10
18.225201
20
79.506176
11
18.239201
21
79.506176
0
LINE
8
DEFAULT_255_2_778
10
18.239201
20
79.506176
11
18.239201
21
76.006276
0
LINE
8
DEFAULT_255_2_778
10
18.239201
20
76.006276
11
18.225201
21
76.006276
0
ARC
8
DEFAULT_255_2_778
10
16.9080074
20
76.0322046
40
1.3149689
50
359.9997734
51
3.4349613
0
ARC
8
DEFAULT_255_2_778
10
16.9031348
20
76.0322086
40
1.3198416
50
358.8574743
51
359.9996012
0
LINE
8
DEFAULT_255_2_778
10
18.2164139
20
75.6092916
11
18.2206139
21
76.1109916
0
LINE
8
DEFAULT_255_2_778
10
18.1875139
20
79.5060916
11
18.1804139
21
79.5060916
0
ARC
8
DEFAULT_255_2_778
10
19.585671
20
79.4895679
40
1.4037827
50
180.7633404
51
183.6137127
0
ARC
8
DEFAULT_255_2_778
10
19.5904399
20
79.489676
40
1.4085527
50
180.0000687
51
180.7651532
0
ARC
8
DEFAULT_255_2_778
10
19.5865752
20
79.4896944
40
1.4046881
50
179.3435272
51
180.0008163
0
LINE
8
DEFAULT_255_2_778
10
18.1872794
20
79.5060884
11
18.1846794
21
79.4010884
0
LINE
8
DEFAULT_255_2_778
10
18.2250794
20
79.5060884
11
18.1872794
21
79.5060884
0
LINE
8
DEFAULT_255_2_778
10
0.2810794
20
67.5058884
11
0.2950794
21
67.5058884
0
LINE
8
DEFAULT_255_2_778
10
0.2951
20
67.9033698
11
0.2951
21
67.5062698
0
LINE
8
DEFAULT_255_2_778
10
0.2951104
20
67.9034021
11
0.2967104
21
67.5063021
0
LINE
8
DEFAULT_255_2_778
10
0.3401104
20
67.5060021
11
0.2951104
21
67.5060021
0
ARC
8
DEFAULT_255_2_778
10
0.4983075
20
67.4245556
40
0.200147
50
178.9303621
51
186.7805043
0
ARC
8
DEFAULT_255_2_778
10
7.6587725
20
67.5841924
40
7.362228
50
180.6091193
51
181.2133706
0
LINE
8
DEFAULT_255_2_778
10
0.3038604
20
67.902525
11
0.2995604
21
67.400925
0
LINE
8
DEFAULT_255_2_778
10
16.0330345
20
67.7025363
11
16.0330345
21
66.9548363
0
LINE
8
DEFAULT_255_2_778
10
13.3750345
20
67.7025363
11
16.0330345
21
67.7025363
0
LINE
8
DEFAULT_255_2_778
10
16.2259345
20
67.7025363
11
16.0330345
21
67.7025363
0
LINE
8
DEFAULT_255_2_778
10
6.2601345
20
66.9548363
11
6.2601345
21
67.7025363
0
LINE
8
DEFAULT_255_2_778
10
8.7454345
20
67.7025363
11
6.2601345
21
67.7025363
0
LINE
8
DEFAULT_255_2_778
10
6.1749345
20
67.7025363
11
6.2601345
21
67.7025363
0
LINE
8
DEFAULT_255_2_778
10
4.6602345
20
67.7025363
11
4.6602345
21
66.9548363
0
LINE
8
DEFAULT_255_2_778
10
5.1454345
20
67.7025363
11
4.6605345
21
67.7025363
0
LINE
8
DEFAULT_255_2_778
10
12.2101345
20
78.7968363
11
12.2101345
21
78.9561363
0
LINE
8
DEFAULT_255_2_778
10
12.2101345
20
79.2561363
11
12.2101345
21
78.9561363
0
LINE
8
DEFAULT_255_2_778
10
9.8148345
20
78.9561363
11
12.2101345
21
78.9561363
0
LINE
8
DEFAULT_255_2_778
10
9.7700866
20
79.2560583
11
12.2100866
21
79.2560583
0
LINE
8
DEFAULT_255_2_778
10
9.8147866
20
78.9560583
11
9.8465866
21
78.7967583
0
LINE
8
DEFAULT_255_2_778
10
9.8465866
20
78.7967583
11
12.2100866
21
78.7967583
0
LINE
8
DEFAULT_255_2_778
10
12.3489866
20
79.1740583
11
12.2738866
21
78.7967583
0
LINE
8
DEFAULT_255_2_778
10
12.2738866
20
78.7967583
11
12.2103866
21
78.7967583
0
LINE
8
DEFAULT_255_2_778
10
2.2601866
20
78.8340583
11
2.2601866
21
78.9560583
0
LINE
8
DEFAULT_255_2_778
10
2.2601866
20
79.2560583
11
2.2601866
21
78.9560583
0
LINE
8
DEFAULT_255_2_778
10
5.1054866
20
78.9560583
11
2.2601866
21
78.9560583
0
LINE
8
DEFAULT_255_2_778
10
5.1502553
20
79.2560583
11
2.2601553
21
79.2560583
0
LINE
8
DEFAULT_255_2_778
10
2.1469553
20
79.1740583
11
2.2601553
21
78.8340583
0
LINE
8
DEFAULT_255_2_778
10
5.1055553
20
78.9560583
11
5.0737553
21
78.7967583
0
LINE
8
DEFAULT_255_2_778
10
5.0737553
20
78.7967583
11
2.2726553
21
78.7967583
0
LINE
8
DEFAULT_255_2_778
10
2.2726553
20
78.7967583
11
2.2601553
21
78.8343583
0
LINE
8
DEFAULT_255_2_778
10
9.7714553
20
79.1740583
11
9.8148553
21
78.9560583
0
LINE
8
DEFAULT_255_2_778
10
6.2149553
20
78.9560583
11
8.7054553
21
78.9560583
0
LINE
8
DEFAULT_255_2_778
10
8.7488553
20
79.1740583
11
8.7054553
21
78.9560583
0
LINE
8
DEFAULT_255_2_778
10
6.2149501
20
78.9560583
11
6.2466501
21
78.7967583
0
LINE
8
DEFAULT_255_2_778
10
6.2466501
20
78.7967583
11
8.6737501
21
78.7967583
0
LINE
8
DEFAULT_255_2_778
10
8.6737501
20
78.7967583
11
8.7054501
21
78.9560583
0
LINE
8
DEFAULT_255_2_778
10
6.1715501
20
79.1740583
11
6.2149501
21
78.9560583
0
LINE
8
DEFAULT_255_2_778
10
5.1489501
20
79.1740583
11
5.1055501
21
78.9560583
0
LINE
8
DEFAULT_255_2_778
10
8.7504501
20
79.2560583
11
6.1702501
21
79.2560583
0
LINE
8
DEFAULT_255_2_778
10
6.1711825
20
79.1741104
11
6.1701825
21
79.2561104
0
LINE
8
DEFAULT_255_2_778
10
8.7487825
20
79.1741104
11
8.7498825
21
79.2561104
0
LINE
8
DEFAULT_255_2_778
10
5.1488825
20
79.1741104
11
5.1499825
21
79.2561104
0
LINE
8
DEFAULT_255_2_778
10
12.3489825
20
79.1741104
11
13.3713825
21
79.1741104
0
LINE
8
DEFAULT_255_2_778
10
16.9381825
20
78.7677104
11
17.0736825
21
79.1741104
0
LINE
8
DEFAULT_255_2_778
10
16.3735825
20
79.1741104
11
17.0738825
21
79.1741104
0
ARC
8
DEFAULT_255_2_778
10
17.0769787
20
78.1755631
40
0.9974088
50
1.1964487
51
71.7294941
0
ARC
8
DEFAULT_255_2_778
10
17.0705906
20
78.1679253
40
1.0066708
50
71.5205195
51
89.7905809
0
ARC
8
DEFAULT_255_2_778
10
17.0977216
20
67.6964026
40
0.3326941
50
319.7834744
51
359.0504892
0
ARC
8
DEFAULT_255_2_778
10
16.9563895
20
67.8298438
40
0.5268842
50
294.9651774
51
318.6261413
0
ARC
8
DEFAULT_255_2_778
10
16.7286267
20
68.2469389
40
1.0016015
50
296.553606
51
296.7067058
0
ARC
8
DEFAULT_255_2_778
10
16.2400479
20
69.3182752
40
2.1787439
50
290.6786658
51
295.4521167
0
ARC
8
DEFAULT_255_2_778
10
17.6702928
20
65.6452949
40
1.7631426
50
112.0135918
51
112.1696612
0
ARC
8
DEFAULT_255_2_778
10
16.9849788
20
67.1667471
40
0.0935964
50
114.0935936
51
131.737251
0
ARC
8
DEFAULT_255_2_778
10
1.4350078
20
67.6995173
40
0.3450506
50
179.5064786
51
179.9998993
0
ARC
8
DEFAULT_255_2_778
10
1.431021
20
67.6994061
40
0.3410638
50
179.981207
51
219.690397
0
ARC
8
DEFAULT_255_2_778
10
1.5642209
20
67.8303768
40
0.5274393
50
221.3979017
51
244.8891144
0
ARC
8
DEFAULT_255_2_778
10
1.8940875
20
68.4446246
40
1.2242101
50
243.109355
51
243.1712274
0
ARC
8
DEFAULT_255_2_778
10
1.7900622
20
68.2437355
40
0.9979979
50
243.2953233
51
243.5228516
0
ARC
8
DEFAULT_255_2_778
10
2.2879232
20
69.3380419
40
2.1998973
50
244.6231782
51
249.3203932
0
ARC
8
DEFAULT_255_2_778
10
0.8795166
20
65.7173712
40
1.6853126
50
67.8303397
51
67.9926087
0
ARC
8
DEFAULT_255_2_778
10
1.536814
20
67.168528
40
0.0915007
50
48.0590012
51
66.1101033
0
ARC
8
DEFAULT_255_2_778
10
0.5921801
20
67.6688442
40
0.0025337
50
150.5571027
51
172.1699022
0
ARC
8
DEFAULT_255_2_778
10
0.6254413
20
67.6175613
40
0.0633812
50
92.0877233
51
124.0276015
0
ARC
8
DEFAULT_255_2_778
10
0.7688471
20
66.7733903
40
0.9191341
50
94.1642536
51
99.1218617
0
ARC
8
DEFAULT_255_2_778
10
0.8731717
20
65.5929704
40
2.1040931
50
93.6950807
51
94.663449
0
LINE
8
DEFAULT_255_2_778
10
12.34537
20
67.7024894
11
12.34137
21
67.2362894
0
LINE
8
DEFAULT_255_2_778
10
13.37517
20
67.7024894
11
12.34537
21
67.7024894
0
LINE
8
DEFAULT_255_2_778
10
9.77517
20
67.7024894
11
12.34537
21
67.7024894
0
LINE
8
DEFAULT_255_2_778
10
13.37517
20
67.7024894
11
13.37907
21
67.2362894
0
LINE
8
DEFAULT_255_2_778
10
16.22627
20
67.7024894
11
16.22207
21
67.2365894
0
LINE
8
DEFAULT_255_2_778
10
17.00497
20
67.2780894
11
16.94677
21
67.2521894
0
LINE
8
DEFAULT_255_2_778
10
1.51547
20
67.2780894
11
1.57387
21
67.2521894
0
LINE
8
DEFAULT_255_2_778
10
2.29407
20
67.7024894
11
1.08997
21
67.7024894
0
LINE
8
DEFAULT_255_2_778
10
1.08257
20
77.8145894
11
1.08997
21
67.7024894
0
LINE
8
DEFAULT_255_2_778
10
0.59757
20
66.2517894
11
0.58967
21
67.6691894
0
LINE
8
DEFAULT_255_2_778
10
0.73757
20
67.6926894
11
1.08977
21
67.7024894
0
LINE
8
DEFAULT_255_2_778
10
16.22627
20
67.7024894
11
17.43037
21
67.6908894
0
LINE
8
DEFAULT_255_2_778
10
17.43067
20
67.7024894
11
17.43037
21
67.6908894
0
ARC
8
DEFAULT_255_2_778
10
17.9069482
20
67.6459727
40
0.0330696
50
44.6760912
51
90.3672804
0
ARC
8
DEFAULT_255_2_778
10
17.7960464
20
67.071053
40
0.6179825
50
79.6817933
51
85.9062685
0
ARC
8
DEFAULT_255_2_778
10
17.6689899
20
65.5322221
40
2.1620235
50
85.4589862
51
88.5898496
0
ARC
8
DEFAULT_255_2_778
10
17.6228235
20
64.052024
40
3.6429225
50
88.4368811
51
90.032885
0
ARC
8
DEFAULT_255_2_778
10
17.6220227
20
63.2881055
40
4.4068406
50
90.0167728
51
91.5242768
0
ARC
8
DEFAULT_255_2_778
10
17.6277223
20
63.0409243
40
4.6540859
50
91.5134737
51
92.4303809
0
LINE
8
DEFAULT_255_2_778
10
17.4375638
20
77.8146238
11
17.4303638
21
67.6911238
0
LINE
8
DEFAULT_255_2_778
10
0.3038638
20
67.9025238
11
0.2951638
21
67.9033238
0
ARC
8
DEFAULT_255_2_778
10
0.4513195
20
68.3851065
40
0.1532765
50
172.6266755
51
181.0519708
0
ARC
8
DEFAULT_255_2_778
10
5.3751161
20
68.2614961
40
5.0784842
50
178.6370393
51
179.4251203
0
ARC
8
DEFAULT_255_2_778
10
21.7252191
20
68.0725589
40
21.4296742
50
179.3585969
51
179.6921339
0
ARC
8
DEFAULT_255_2_778
10
47.1293523
20
67.9272249
40
46.8342223
50
179.6813326
51
179.9343183
0
ARC
8
DEFAULT_255_2_778
10
59.8898614
20
67.9034077
40
59.594751
50
179.9254837
51
180.0002217
0
LINE
8
DEFAULT_255_2_778
10
0.3356104
20
68.4047771
11
0.2993104
21
68.4047771
0
LINE
8
DEFAULT_255_2_778
10
0.3038104
20
67.9025771
11
0.3401104
21
67.8993771
0
ARC
8
DEFAULT_255_2_778
10
0.1918526
20
68.3853565
40
0.1450745
50
358.8477821
51
7.7000761
0
ARC
8
DEFAULT_255_2_778
10
-4.525267
20
68.2647449
40
4.863589
50
0.565461
51
1.3866402
0
ARC
8
DEFAULT_255_2_778
10
-20.7620197
20
68.0787195
40
21.1014028
50
0.2956672
51
0.6354491
0
ARC
8
DEFAULT_255_2_778
10
-48.1895486
20
67.9277884
40
48.5293462
50
0.0599169
51
0.3067578
0
ARC
8
DEFAULT_255_2_778
10
-64.4395956
20
67.8996777
40
64.7794147
50
359.9997497
51
0.0697498
0
ARC
8
DEFAULT_255_2_778
10
19.266385
20
75.1655434
40
1.0833604
50
180.6169885
51
182.9073234
0
ARC
8
DEFAULT_255_2_778
10
27.5266439
20
75.3210441
40
9.3450518
50
180.5571855
51
181.0249759
0
ARC
8
DEFAULT_255_2_778
10
45.7777492
20
75.5053499
40
27.5970872
50
180.2477593
51
180.5713303
0
ARC
8
DEFAULT_255_2_778
10
67.2852611
20
75.6078858
40
49.1048423
50
179.9942723
51
180.2588815
0
LINE
8
DEFAULT_255_2_778
10
18.216719
20
75.6095947
11
18.180419
21
75.6127947
0
LINE
8
DEFAULT_255_2_778
10
18.216419
20
75.6095947
11
18.220619
21
75.1074947
0
LINE
8
DEFAULT_255_2_778
10
18.220619
20
75.1074947
11
18.184419
21
75.1074947
0
LINE
8
DEFAULT_255_2_778
10
18.222019
20
75.8593947
11
18.216419
21
75.6095947
0
LINE
8
DEFAULT_255_2_778
10
18.2219552
20
75.8594269
11
18.2163552
21
75.6096269
0
LINE
8
DEFAULT_255_2_778
10
17.9226552
20
66.2518269
11
17.9306552
21
67.6692269
0
LINE
8
DEFAULT_255_2_778
10
17.9375552
20
77.7919269
11
17.9303552
21
67.6705269
0
LINE
8
DEFAULT_255_2_778
10
18.0735552
20
78.1745269
11
17.9372552
21
77.7922269
0
LINE
8
DEFAULT_255_2_778
10
17.4374552
20
77.8147269
11
17.9375552
21
77.7922269
0
ARC
8
DEFAULT_255_2_778
10
16.9375877
20
77.7673499
40
1.0003242
50
44.9585399
51
89.9629012
0
ARC
8
DEFAULT_255_2_778
10
16.9315716
20
77.7603143
40
1.009553
50
11.0580393
51
44.9998338
0
ARC
8
DEFAULT_255_2_778
10
17.0304949
20
77.7864621
40
0.9074759
50
8.700473
51
10.6357349
0
ARC
8
DEFAULT_255_2_778
10
17.0804155
20
77.7931202
40
0.8571231
50
0.0729902
51
8.765316
0
ARC
8
DEFAULT_255_2_778
10
17.1958607
20
77.7941391
40
0.7416772
50
359.8481862
51
0.005636
0
LINE
8
DEFAULT_255_2_778
10
18.0741354
20
78.1963739
11
18.0817354
21
79.5682739
0
LINE
8
DEFAULT_255_2_778
10
18.0743354
20
78.1963739
11
18.0738354
21
78.1741739
0
ARC
8
DEFAULT_255_2_778
10
16.9374556
20
77.8166074
40
0.5000079
50
44.8459734
51
89.9073955
0
ARC
8
DEFAULT_255_2_778
10
16.9384007
20
77.8172707
40
0.49887
50
0.0087269
51
44.8684947
0
ARC
8
DEFAULT_255_2_778
10
16.927745
20
77.8173857
40
0.5095257
50
359.6996322
51
359.9956183
0
LINE
8
DEFAULT_255_2_778
10
18.0740638
20
78.1965146
11
18.0743638
21
78.1761146
0
LINE
8
DEFAULT_255_2_778
10
1.5820638
20
78.3166146
11
16.9382638
21
78.3166146
0
LINE
8
DEFAULT_255_2_778
10
16.9382638
20
78.7677146
11
16.9382638
21
78.3169146
0
ARC
8
DEFAULT_255_2_778
10
1.5777589
20
77.8161985
40
0.4952904
50
179.9939372
51
180.212391
0
ARC
8
DEFAULT_255_2_778
10
1.5828808
20
77.8163844
40
0.5004125
50
135.1725147
51
180.0152839
0
ARC
8
DEFAULT_255_2_778
10
1.5826182
20
77.8162222
40
0.5003407
50
90.0625616
51
135.1381475
0
ARC
8
DEFAULT_255_2_778
10
0.5742399
20
77.9175755
40
0.1249185
50
274.0083373
51
275.3745225
0
ARC
8
DEFAULT_255_2_778
10
1.013517
20
72.9054064
40
4.906466
50
94.7998793
51
94.9994122
0
ARC
8
DEFAULT_255_2_778
10
0.9963239
20
73.0867474
40
4.7243227
50
94.2022262
51
94.7761211
0
ARC
8
DEFAULT_255_2_778
10
1.073974
20
72.0321429
40
5.7817818
50
93.4184961
51
94.2038435
0
ARC
8
DEFAULT_255_2_778
10
1.0884498
20
71.800732
40
6.0136441
50
93.3963233
51
93.4247021
0
ARC
8
DEFAULT_255_2_778
10
1.1046328
20
71.5276079
40
6.2872474
50
92.3520803
51
93.3960869
0
ARC
8
DEFAULT_255_2_778
10
1.097428
20
71.7308282
40
6.0839027
50
90.8052304
51
92.3628295
0
ARC
8
DEFAULT_255_2_778
10
1.0892127
20
72.2439262
40
5.57074
50
90.066245
51
90.794908
0
LINE
8
DEFAULT_255_2_778
10
1.5820719
20
78.7676625
11
1.5820719
21
78.3168625
0
LINE
8
DEFAULT_255_2_778
10
0.5829719
20
77.7929625
11
0.4466719
21
78.1744625
0
LINE
8
DEFAULT_255_2_778
10
0.4461719
20
78.1964625
11
0.4466719
21
78.1741625
0
ARC
8
DEFAULT_255_2_778
10
1.4490739
20
78.1707899
40
1.0038067
50
90.1831232
51
108.5057624
0
ARC
8
DEFAULT_255_2_778
10
1.4433785
20
78.1757242
40
0.9973272
50
108.2854601
51
178.8125939
0
LINE
8
DEFAULT_255_2_778
10
0.4462656
20
78.1963915
11
0.4459656
21
78.1762915
0
LINE
8
DEFAULT_255_2_778
10
0.4462656
20
78.1963915
11
0.4385656
21
79.5682915
0
LINE
8
DEFAULT_255_2_778
10
0.5830656
20
77.7928915
11
0.5901656
21
67.6704915
0
ARC
8
DEFAULT_255_2_778
10
1.5825654
20
77.7674024
40
1.0002279
50
90.0290889
51
135.0356465
0
ARC
8
DEFAULT_255_2_778
10
1.5916739
20
77.7585501
40
1.0129282
50
135.0454469
51
168.0534517
0
ARC
8
DEFAULT_255_2_778
10
1.49354
20
77.785652
40
0.9113309
50
168.4433295
51
170.7843423
0
ARC
8
DEFAULT_255_2_778
10
1.4379014
20
77.7935489
40
0.8551465
50
170.7095969
51
179.9146316
0
ARC
8
DEFAULT_255_2_778
10
1.2991662
20
77.7947384
40
0.7164104
50
179.9932281
51
180.1286149
0
LINE
8
DEFAULT_255_2_778
10
1.4466576
20
79.1740302
11
1.5820576
21
78.7676302
0
LINE
8
DEFAULT_255_2_778
10
16.9382576
20
78.7676302
11
1.5820576
21
78.7676302
0
LINE
8
DEFAULT_255_2_778
10
2.1470387
20
79.1740675
11
1.4466387
21
79.1740675
0
LINE
8
DEFAULT_255_2_778
10
9.7791387
20
67.2363675
11
9.7752387
21
67.7025675
0
LINE
8
DEFAULT_255_2_778
10
8.7454387
20
67.7025675
11
9.7752387
21
67.7025675
0
LINE
8
DEFAULT_255_2_778
10
8.7454387
20
67.7025675
11
8.7414387
21
67.2363675
0
LINE
8
DEFAULT_255_2_778
10
6.1789387
20
67.2363675
11
6.1750387
21
67.7025675
0
LINE
8
DEFAULT_255_2_778
10
5.1452387
20
67.7025675
11
6.1750387
21
67.7025675
0
LINE
8
DEFAULT_255_2_778
10
5.1455387
20
67.7025675
11
5.1415387
21
67.2363675
0
ARC
8
DEFAULT_255_2_778
10
17.5954698
20
85.4949835
40
3.3286557
50
86.05957
51
90.0599023
0
ARC
8
DEFAULT_255_2_778
10
17.7129318
20
87.1109417
40
1.7084567
50
80.9692084
51
86.2653758
0
ARC
8
DEFAULT_255_2_778
10
17.920596
20
88.3728823
40
0.4296202
50
70.1174205
51
81.9040272
0
ARC
8
DEFAULT_255_2_778
10
18.056146
20
88.7367527
40
0.0415069
50
32.1456347
51
75.2595123
0
ARC
8
DEFAULT_255_2_778
10
17.0919521
20
88.8244625
40
0.5000752
50
44.9301027
51
89.9384018
0
ARC
8
DEFAULT_255_2_778
10
17.0916925
20
88.8244076
40
0.5002977
50
359.9983067
51
44.9135526
0
ARC
8
DEFAULT_255_2_778
10
16.8784243
20
88.8245817
40
0.7135661
50
359.9241712
51
359.9848338
0
LINE
8
DEFAULT_255_2_778
10
8.7487898
20
79.1740374
11
9.7711898
21
79.1740374
0
LINE
8
DEFAULT_255_2_778
10
5.1488898
20
79.1740374
11
6.1711898
21
79.1740374
0
LINE
8
DEFAULT_255_2_778
10
18.0920898
20
88.7559374
11
18.2610898
21
88.7559374
0
LINE
8
DEFAULT_255_2_778
10
18.0914898
20
88.7900374
11
18.0920898
21
88.7562374
0
LINE
8
DEFAULT_255_2_778
10
17.5816898
20
79.6201374
11
17.5919898
21
88.8236374
0
LINE
8
DEFAULT_255_2_778
10
1.4280721
20
89.3245677
11
17.0927721
21
89.3245677
0
LINE
8
DEFAULT_255_2_778
10
17.0924721
20
89.7560677
11
17.0924721
21
89.3245677
0
ARC
8
DEFAULT_255_2_778
10
1.6421332
20
88.8246057
40
0.7135661
50
180.0151662
51
180.0758288
0
ARC
8
DEFAULT_255_2_778
10
1.4284581
20
88.8244999
40
0.4998909
50
135.0671791
51
180.0095207
0
ARC
8
DEFAULT_255_2_778
10
1.4287689
20
88.824333
40
0.5002286
50
90.0688585
51
135.0787967
0
ARC
8
DEFAULT_255_2_778
10
0.4692328
20
88.7354285
40
0.0455549
50
96.2755835
51
153.2096214
0
ARC
8
DEFAULT_255_2_778
10
0.6364577
20
88.2170648
40
0.5893647
50
97.2526883
51
106.9889165
0
ARC
8
DEFAULT_255_2_778
10
0.836349
20
86.8367962
40
1.983971
50
93.2152552
51
97.9469436
0
ARC
8
DEFAULT_255_2_778
10
0.9281264
20
85.394609
40
3.4290523
50
89.9926268
51
93.3947847
0
LINE
8
DEFAULT_255_2_778
10
1.4281677
20
89.7560613
11
1.4281677
21
89.3245613
0
LINE
8
DEFAULT_255_2_778
10
0.9388677
20
79.6201613
11
0.9285677
21
88.8236613
0
LINE
8
DEFAULT_255_2_778
10
0.2594677
20
88.7559613
11
0.4285677
21
88.7559613
0
ARC
8
DEFAULT_255_2_778
10
1.2593556
20
88.756515
40
0.9999245
50
112.7638287
51
170.7437563
0
ARC
8
DEFAULT_255_2_778
10
1.2677219
20
88.7559652
40
1.0082706
50
170.789391
51
180.0006934
0
ARC
8
DEFAULT_255_2_778
10
1.4286913
20
88.7565319
40
1.0001754
50
135.0493764
51
178.1252139
0
ARC
8
DEFAULT_255_2_778
10
1.4280881
20
88.7557552
40
1.0002977
50
90.0135653
51
134.9934815
0
ARC
8
DEFAULT_255_2_778
10
17.0925625
20
88.7567566
40
0.9993436
50
1.9093467
51
44.9800359
0
ARC
8
DEFAULT_255_2_778
10
17.0922384
20
88.7558134
40
1.0002396
50
45.0051319
51
89.9820792
0
ARC
8
DEFAULT_255_2_778
10
17.2616888
20
88.7570489
40
0.9994132
50
9.5844863
51
67.3010644
0
LINE
8
DEFAULT_255_2_778
10
0.4290513
20
88.789253
11
0.4285513
21
88.756153
0
LINE
8
DEFAULT_255_2_778
10
15.9420513
20
78.796753
11
15.9420513
21
79.620953
0
LINE
8
DEFAULT_255_2_778
10
13.3692513
20
79.620953
11
15.9420513
21
79.620953
0
LINE
8
DEFAULT_255_2_778
10
16.0743513
20
79.620953
11
15.9420513
21
79.620953
0
LINE
8
DEFAULT_255_2_778
10
16.0743513
20
79.620953
11
16.0743513
21
79.540753
0
LINE
8
DEFAULT_255_2_778
10
16.3778513
20
79.620953
11
16.0743513
21
79.620953
0
LINE
8
DEFAULT_255_2_778
10
18.1804513
20
79.899253
11
18.1804513
21
79.506053
0
LINE
8
DEFAULT_255_2_778
10
18.1804513
20
79.8992958
11
18.1820513
21
79.5058958
0
LINE
8
DEFAULT_255_2_778
10
18.1891513
20
79.9000958
11
18.1876513
21
79.5061958
0
LINE
8
DEFAULT_255_2_778
10
18.2254513
20
79.9032958
11
18.2254513
21
79.5061958
0
LINE
8
DEFAULT_255_2_778
10
12.2104513
20
79.6209958
11
12.2104513
21
79.2560958
0
LINE
8
DEFAULT_255_2_778
10
12.3514513
20
79.6209958
11
12.2104513
21
79.6209958
0
LINE
8
DEFAULT_255_2_778
10
9.7693513
20
79.6209958
11
12.2104513
21
79.6209958
0
LINE
8
DEFAULT_255_2_778
10
2.2602513
20
79.6209958
11
2.2602513
21
79.2560958
0
LINE
8
DEFAULT_255_2_778
10
5.1513513
20
79.6209958
11
2.2602513
21
79.6209958
0
LINE
8
DEFAULT_255_2_778
10
2.1427513
20
79.6209958
11
2.2602513
21
79.6209958
0
LINE
8
DEFAULT_255_2_778
10
6.1691513
20
79.6209958
11
6.1702513
21
79.2560958
0
LINE
8
DEFAULT_255_2_778
10
8.7515513
20
79.6209958
11
8.7501513
21
79.2560958
0
LINE
8
DEFAULT_255_2_778
10
5.1515513
20
79.6209958
11
5.1502513
21
79.2560958
0
LINE
8
DEFAULT_255_2_778
10
13.3716513
20
79.1740958
11
13.3692513
21
79.6209958
0
LINE
8
DEFAULT_255_2_778
10
13.3693
20
79.621
11
13.3693
21
79.621
0
LINE
8
DEFAULT_255_2_778
10
12.3513855
20
79.6209646
11
13.3692855
21
79.6209646
0
LINE
8
DEFAULT_255_2_778
10
16.3777855
20
79.6204646
11
16.3777855
21
79.6209646
0
ARC
8
DEFAULT_255_2_778
10
16.0640474
20
79.2028194
40
0.3109113
50
354.6889529
51
0.1439126
0
ARC
8
DEFAULT_255_2_778
10
10.449207
20
79.3333679
40
5.9271714
50
358.7454843
51
359.3726312
0
ARC
8
DEFAULT_255_2_778
10
-5.7443378
20
79.521744
40
22.1218109
50
359.3439995
51
359.7091952
0
ARC
8
DEFAULT_255_2_778
10
-28.9016853
20
79.6512918
40
45.2795193
50
359.693996
51
359.9615942
0
ARC
8
DEFAULT_255_2_778
10
17.1643705
20
79.0411891
40
0.1610439
50
114.4072589
51
123.9107441
0
ARC
8
DEFAULT_255_2_778
10
16.8158997
20
80.3523146
40
1.187668
50
295.656177
51
295.7193117
0
ARC
8
DEFAULT_255_2_778
10
17.1233661
20
79.7527844
40
0.5143793
50
293.8440601
51
317.5854185
0
ARC
8
DEFAULT_255_2_778
10
17.2587822
20
79.6170326
40
0.3229628
50
319.1621621
51
359.9864308
0
ARC
8
DEFAULT_255_2_778
10
17.261364
20
79.6169724
40
0.320381
50
359.9970716
51
0.6560167
0
LINE
8
DEFAULT_255_2_778
10
17.582024
20
79.6204406
11
16.377824
21
79.6209406
0
LINE
8
DEFAULT_255_2_778
10
17.097824
20
79.1878406
11
17.156224
21
79.2116406
0
LINE
8
DEFAULT_255_2_778
10
17.156224
20
79.2116406
11
17.330124
21
79.2817406
0
ARC
8
DEFAULT_255_2_778
10
18.0679926
20
79.563622
40
0.0146991
50
19.605519
51
74.2085812
0
ARC
8
DEFAULT_255_2_778
10
18.0446564
20
79.522216
40
0.0619122
50
63.7981539
51
65.1300838
0
ARC
8
DEFAULT_255_2_778
10
17.9823576
20
79.3570702
40
0.2382948
50
68.2410135
51
80.7906271
0
ARC
8
DEFAULT_255_2_778
10
17.8302331
20
78.562462
40
1.0472595
50
79.5326076
51
84.305886
0
ARC
8
DEFAULT_255_2_778
10
17.5954592
20
76.0127117
40
3.6077745
50
84.6134184
51
89.9800242
0
ARC
8
DEFAULT_255_2_778
10
17.5967647
20
76.070947
40
3.549539
50
90.0007691
51
90.2425319
0
ARC
8
DEFAULT_255_2_778
10
19.2743599
20
80.3466337
40
1.0912981
50
177.1205848
51
179.4072737
0
ARC
8
DEFAULT_255_2_778
10
27.6582078
20
80.1923831
40
9.4765336
50
178.9990833
51
179.4621285
0
ARC
8
DEFAULT_255_2_778
10
46.9299337
20
80.0050474
40
28.7491696
50
179.449345
51
179.7722537
0
ARC
8
DEFAULT_255_2_778
10
69.5747054
20
79.9038704
40
51.3941659
50
179.7598064
51
180.0051464
0
LINE
8
DEFAULT_255_2_778
10
18.1805396
20
79.8992542
11
18.1805396
21
79.8992542
0
ARC
8
DEFAULT_255_2_778
10
0.6865374
20
78.5995348
40
1.0100528
50
95.6897959
51
100.7751064
0
ARC
8
DEFAULT_255_2_778
10
0.5472867
20
79.3190286
40
0.2772205
50
100.3032763
51
109.3819466
0
ARC
8
DEFAULT_255_2_778
10
0.4638734
20
79.5488861
40
0.032796
50
105.1772119
51
137.7678905
0
ARC
8
DEFAULT_255_2_778
10
0.4438683
20
79.5681734
40
0.005089
50
147.2085739
51
175.0634497
0
ARC
8
DEFAULT_255_2_778
10
1.3613585
20
79.0493472
40
0.1514832
50
55.9857006
51
66.0720555
0
ARC
8
DEFAULT_255_2_778
10
1.3968959
20
79.7524774
40
0.5139324
50
222.4030458
51
246.3214597
0
ARC
8
DEFAULT_255_2_778
10
1.2617268
20
79.6169454
40
0.3228496
50
179.9877968
51
220.8181691
0
ARC
8
DEFAULT_255_2_778
10
1.2614187
20
79.6170307
40
0.3225417
50
179.3461738
51
180.0029451
0
LINE
8
DEFAULT_255_2_778
10
18.1891982
20
79.9001113
11
18.1803982
21
79.8993113
0
LINE
8
DEFAULT_255_2_778
10
18.1840982
20
80.4018113
11
18.2208982
21
80.4049113
0
LINE
8
DEFAULT_255_2_778
10
18.2250982
20
79.9033113
11
18.2208982
21
80.4047113
0
LINE
8
DEFAULT_255_2_778
10
18.2253982
20
79.9033113
11
18.1891982
21
79.9001113
0
LINE
8
DEFAULT_255_2_778
10
18.0912982
20
88.7901113
11
18.0816982
21
79.5683113
0
LINE
8
DEFAULT_255_2_778
10
0.4289982
20
88.7893113
11
0.4387982
21
79.5683113
0
LINE
8
DEFAULT_255_2_778
10
0.9388982
20
79.6204113
11
0.5863982
21
79.6046113
0
LINE
8
DEFAULT_255_2_778
10
2.1426982
20
79.6210113
11
0.9388982
21
79.6204113
0
LINE
8
DEFAULT_255_2_778
10
1.4227982
20
79.1878113
11
1.3642982
21
79.2117113
0
LINE
8
DEFAULT_255_2_778
10
1.3642982
20
79.2117113
11
1.1904982
21
79.2818113
0
LINE
8
DEFAULT_255_2_778
10
6.1690982
20
79.6210113
11
5.1512982
21
79.6210113
0
LINE
8
DEFAULT_255_2_778
10
5.1513396
20
79.621
11
5.1513396
21
79.621
0
LINE
8
DEFAULT_255_2_778
10
8.7512396
20
79.621
11
6.1692396
21
79.621
0
LINE
8
DEFAULT_255_2_778
10
6.1690855
20
79.6204646
11
6.1690855
21
79.6209646
0
LINE
8
DEFAULT_255_2_778
10
2.1426855
20
79.6204646
11
2.1426855
21
79.6209646
0
ARC
8
DEFAULT_255_2_778
10
2.456461
20
79.2026983
40
0.3108264
50
179.8337226
51
185.2900812
0
ARC
8
DEFAULT_255_2_778
10
8.1400175
20
79.3327575
40
5.9957728
50
180.6143572
51
181.2343255
0
ARC
8
DEFAULT_255_2_778
10
25.1637163
20
79.5268517
40
23.020577
50
180.292164
51
180.6431014
0
ARC
8
DEFAULT_255_2_778
10
51.4446102
20
79.6737321
40
49.30188
50
180.0613512
51
180.3071172
0
LINE
8
DEFAULT_255_2_778
10
12.3514585
20
79.6209406
11
12.3490585
21
79.1740406
0
LINE
8
DEFAULT_255_2_778
10
12.3513334
20
79.6209406
11
12.3513334
21
79.6209406
0
LINE
8
DEFAULT_255_2_778
10
9.7690334
20
79.6209406
11
9.7714334
21
79.1740406
0
LINE
8
DEFAULT_255_2_778
10
9.7693
20
79.6204646
11
9.7693
21
79.6209646
0
LINE
8
DEFAULT_255_2_778
10
8.751274
20
79.621
11
9.769174
21
79.621
0
LINE
8
DEFAULT_255_2_778
10
8.7512
20
79.621
11
8.7512
21
79.621
0
ENDSEC
0
EOF