0
SECTION
2
HEADER
9
$MEASUREMENT
70
1
0
ENDSEC
0
SECTION
2
TABLES
0
TABLE
2
LTYPE
0
LTYPE
72
65
70
64
2
CONTINUOUS
3
______
73
0
40
0
0
ENDTAB
0
TABLE
2
LAYER
0
LAYER
2
DEFAULT_255_2_778
70
0
62
255
6
CONTINUOUS
0
ENDTAB
0
ENDSEC
0
SECTION
2
ENTITIES
0
LINE
8
DEFAULT_255_2_778
10
70.59825
20
65.0523041
11
70.59795
21
62.7652041
0
LINE
8
DEFAULT_255_2_778
10
70.59795
20
62.7652041
11
70.59825
21
62.5880041
0
LINE
8
DEFAULT_255_2_778
10
70.59825
20
62.5880041
11
70.59795
21
62.4742041
0
LINE
8
DEFAULT_255_2_778
10
70.59795
20
62.4742041
11
70.59825
21
62.3525041
0
LINE
8
DEFAULT_255_2_778
10
70.59825
20
62.3525041
11
70.84455
21
62.3914041
0
LINE
8
DEFAULT_255_2_778
10
70.84455
20
62.3914041
11
71.06975
21
62.5062041
0
LINE
8
DEFAULT_255_2_778
10
71.06975
20
62.5062041
11
71.24435
21
62.6811041
0
LINE
8
DEFAULT_255_2_778
10
71.24435
20
62.6811041
11
71.35915
21
62.9063041
0
LINE
8
DEFAULT_255_2_778
10
71.35915
20
62.9063041
11
71.39805
21
63.1529041
0
ARC
8
DEFAULT_255_2_778
10
7.5041079
20
95.0461486
40
0.800141
50
0.0092561
51
45.0044694
0
ARC
8
DEFAULT_255_2_778
10
7.5040196
20
95.0462368
40
0.800141
50
44.9955306
51
89.9907439
0
ARC
8
DEFAULT_255_2_778
10
1.1042782
20
95.0462368
40
0.800141
50
90.0092561
51
135.0044694
0
ARC
8
DEFAULT_255_2_778
10
1.1041899
20
95.0461486
40
0.800141
50
134.9955306
51
179.9907439
0
ARC
8
DEFAULT_255_2_778
10
1.1041899
20
8.6465071
40
0.800141
50
180.0092561
51
225.0044694
0
ARC
8
DEFAULT_255_2_778
10
1.1042782
20
8.6464188
40
0.800141
50
224.9955306
51
269.9907439
0
ARC
8
DEFAULT_255_2_778
10
64.3039577
20
0.6462109
40
0.7999088
50
180.00953
51
225.0113601
0
ARC
8
DEFAULT_255_2_778
10
64.3042443
20
0.6457958
40
0.799818
50
224.9758167
51
269.993168
0
ARC
8
DEFAULT_255_2_778
10
70.7040497
20
0.6455637
40
0.7995859
50
270.0071064
51
315.0310757
0
ARC
8
DEFAULT_255_2_778
10
70.704652
20
0.6457574
40
0.7992969
50
314.9907398
51
0.0229662
0
ARC
8
DEFAULT_255_2_778
10
70.7046531
20
87.0466987
40
0.7992959
50
359.9769969
51
45.0092884
0
ARC
8
DEFAULT_255_2_778
10
70.7040507
20
87.0468941
40
0.7995837
50
44.9688628
51
89.9929601
0
LINE
8
DEFAULT_255_2_778
10
1.1044489
20
88.6462778
11
8.2976489
21
88.6462778
0
LINE
8
DEFAULT_255_2_778
10
8.2976489
20
88.6462778
11
8.2976489
21
87.8524778
0
LINE
8
DEFAULT_255_2_778
10
8.2976489
20
87.8524778
11
1.1044489
21
87.8524778
0
LINE
8
DEFAULT_255_2_778
10
1.1044489
20
87.8524778
11
1.1044489
21
88.6462778
0
LINE
8
DEFAULT_255_2_778
10
8.3039489
20
88.6462778
11
1.1041489
21
88.6462778
0
LINE
8
DEFAULT_255_2_778
10
1.1041489
20
88.6462778
11
1.1041489
21
87.8461778
0
LINE
8
DEFAULT_255_2_778
10
1.1041489
20
87.8461778
11
8.3042489
21
87.8461778
0
LINE
8
DEFAULT_255_2_778
10
8.3042489
20
87.8461778
11
8.3042489
21
88.6462778
0
LINE
8
DEFAULT_255_2_778
10
8.3042489
20
88.6462778
11
8.3042489
21
95.0462778
0
LINE
8
DEFAULT_255_2_778
10
7.5041489
20
95.8463778
11
1.1041489
21
95.8463778
0
LINE
8
DEFAULT_255_2_778
10
0.3040489
20
95.0462778
11
0.3040489
21
8.6463778
0
LINE
8
DEFAULT_255_2_778
10
1.1041489
20
7.8462778
11
2.4040489
21
7.8462778
0
LINE
8
DEFAULT_255_2_778
10
2.4040489
20
7.8462778
11
63.5040489
21
7.8462778
0
LINE
8
DEFAULT_255_2_778
10
63.5040489
20
7.8462778
11
63.5040489
21
0.6460778
0
LINE
8
DEFAULT_255_2_778
10
64.3041489
20
-0.1540222
11
70.7041489
21
-0.1540222
0
LINE
8
DEFAULT_255_2_778
10
71.5039489
20
0.6460778
11
71.5039489
21
33.6462778
0
LINE
8
DEFAULT_255_2_778
10
71.5039489
20
33.6462778
11
71.5039489
21
87.0463778
0
LINE
8
DEFAULT_255_2_778
10
70.7041489
20
87.8464778
11
8.3042489
21
87.8461778
0
LINE
8
DEFAULT_255_2_778
10
0.9982846
20
65.0524031
11
0.9982846
21
30.8523031
0
LINE
8
DEFAULT_255_2_778
10
4.9371846
20
86.0783031
11
3.1411846
21
86.0783031
0
LINE
8
DEFAULT_255_2_778
10
3.1411846
20
86.0783031
11
3.1411846
21
74.4522031
0
LINE
8
DEFAULT_255_2_778
10
4.9371846
20
86.4540031
11
2.7336846
21
86.4540031
0
LINE
8
DEFAULT_255_2_778
10
2.7336846
20
86.4540031
11
2.7336846
21
86.4728031
0
LINE
8
DEFAULT_255_2_778
10
2.7336846
20
86.4728031
11
2.2981846
21
86.4728031
0
LINE
8
DEFAULT_255_2_778
10
2.2981846
20
87.8425031
11
2.2981846
21
74.4520031
0
LINE
8
DEFAULT_255_2_778
10
2.2981846
20
74.4520031
11
69.2980846
21
74.4520031
0
LINE
8
DEFAULT_255_2_778
10
69.2980846
20
74.4520031
11
69.2980846
21
87.8428031
0
LINE
8
DEFAULT_255_2_778
10
66.6591846
20
9.7709031
11
66.6591846
21
7.9524031
0
LINE
8
DEFAULT_255_2_778
10
66.659126
20
74.4521679
11
66.659126
21
87.8427679
0
LINE
8
DEFAULT_255_2_778
10
2.498126
20
28.8187679
11
0.198126
21
28.8187679
0
LINE
8
DEFAULT_255_2_778
10
2.498126
20
26.9256679
11
0.198126
21
26.9256679
0
LINE
8
DEFAULT_255_2_778
10
0.303926
20
68.9787679
11
2.498126
21
68.9787679
0
LINE
8
DEFAULT_255_2_778
10
0.303926
20
67.0856679
11
2.498126
21
67.0856679
0
LINE
8
DEFAULT_255_2_778
10
69.098226
20
68.9787679
11
71.476826
21
68.9787679
0
LINE
8
DEFAULT_255_2_778
10
69.098226
20
67.0856679
11
71.476826
21
67.0856679
0
LINE
8
DEFAULT_255_2_778
10
69.0981166
20
25.8207713
11
68.8785166
21
25.8212713
0
LINE
8
DEFAULT_255_2_778
10
68.8785166
20
25.8212713
11
68.7316166
21
25.8230713
0
LINE
8
DEFAULT_255_2_778
10
68.7316166
20
25.8230713
11
68.6329166
21
25.8257713
0
LINE
8
DEFAULT_255_2_778
10
68.6329166
20
25.8257713
11
68.5983166
21
25.8289713
0
LINE
8
DEFAULT_255_2_778
10
68.5983166
20
25.8289713
11
68.6329166
21
25.8320713
0
LINE
8
DEFAULT_255_2_778
10
68.6329166
20
25.8320713
11
68.7316166
21
25.8347713
0
LINE
8
DEFAULT_255_2_778
10
68.7316166
20
25.8347713
11
68.8785166
21
25.8365713
0
LINE
8
DEFAULT_255_2_778
10
68.8785166
20
25.8365713
11
69.0981166
21
25.8371713
0
LINE
8
DEFAULT_255_2_778
10
69.0981166
20
25.8371713
11
69.0981166
21
25.7617713
0
LINE
8
DEFAULT_255_2_778
10
69.0981166
20
25.7617713
11
2.4982166
21
25.7617713
0
LINE
8
DEFAULT_255_2_778
10
2.4982166
20
25.7617713
11
2.4982166
21
25.8371713
0
LINE
8
DEFAULT_255_2_778
10
2.4982166
20
25.8371713
11
2.7178166
21
25.8365713
0
LINE
8
DEFAULT_255_2_778
10
2.7178166
20
25.8365713
11
2.8647166
21
25.8347713
0
LINE
8
DEFAULT_255_2_778
10
2.8647166
20
25.8347713
11
2.9634166
21
25.8320713
0
LINE
8
DEFAULT_255_2_778
10
2.9634166
20
25.8320713
11
2.9980166
21
25.8289713
0
LINE
8
DEFAULT_255_2_778
10
2.9980166
20
25.8289713
11
2.9634166
21
25.8257713
0
LINE
8
DEFAULT_255_2_778
10
2.9634166
20
25.8257713
11
2.8647166
21
25.8230713
0
LINE
8
DEFAULT_255_2_778
10
2.8647166
20
25.8230713
11
2.7178166
21
25.8212713
0
LINE
8
DEFAULT_255_2_778
10
2.7178166
20
25.8212713
11
2.4982166
21
25.8207713
0
LINE
8
DEFAULT_255_2_778
10
71.3981166
20
30.8522713
11
69.0981166
21
30.8522713
0
LINE
8
DEFAULT_255_2_778
10
69.0981166
20
30.8522713
11
69.0981166
21
25.8521713
0
LINE
8
DEFAULT_255_2_778
10
69.0981166
20
25.8521713
11
2.4982166
21
25.8521713
0
LINE
8
DEFAULT_255_2_778
10
2.4982166
20
25.8521713
11
2.4982166
21
30.8522713
0
LINE
8
DEFAULT_255_2_778
10
2.4982166
20
30.8522713
11
0.1982166
21
30.8522713
0
LINE
8
DEFAULT_255_2_778
10
2.4982166
20
70.0836713
11
2.7178166
21
70.0831713
0
LINE
8
DEFAULT_255_2_778
10
2.7178166
20
70.0831713
11
2.8647166
21
70.0812713
0
LINE
8
DEFAULT_255_2_778
10
2.8647166
20
70.0812713
11
2.9634166
21
70.0786713
0
LINE
8
DEFAULT_255_2_778
10
2.9634166
20
70.0786713
11
2.9980166
21
70.0754713
0
LINE
8
DEFAULT_255_2_778
10
2.9980166
20
70.0754713
11
2.9634166
21
70.0722713
0
LINE
8
DEFAULT_255_2_778
10
2.9634166
20
70.0722713
11
2.8647166
21
70.0696713
0
LINE
8
DEFAULT_255_2_778
10
2.8647166
20
70.0696713
11
2.7178166
21
70.0677713
0
LINE
8
DEFAULT_255_2_778
10
2.7178166
20
70.0677713
11
2.4982166
21
70.0672713
0
LINE
8
DEFAULT_255_2_778
10
2.4982166
20
70.0672713
11
2.4982166
21
70.1426713
0
LINE
8
DEFAULT_255_2_778
10
2.4982166
20
70.1426713
11
69.0983166
21
70.1426713
0
LINE
8
DEFAULT_255_2_778
10
69.0983166
20
70.1426713
11
69.0983166
21
70.0672713
0
LINE
8
DEFAULT_255_2_778
10
69.0983166
20
70.0672713
11
68.8787166
21
70.0677713
0
LINE
8
DEFAULT_255_2_778
10
68.8787166
20
70.0677713
11
68.7319166
21
70.0696713
0
LINE
8
DEFAULT_255_2_778
10
68.7319166
20
70.0696713
11
68.6332166
21
70.0722713
0
LINE
8
DEFAULT_255_2_778
10
68.6332166
20
70.0722713
11
68.5985166
21
70.0754713
0
LINE
8
DEFAULT_255_2_778
10
68.5985166
20
70.0754713
11
68.6332166
21
70.0786713
0
LINE
8
DEFAULT_255_2_778
10
68.6332166
20
70.0786713
11
68.7319166
21
70.0812713
0
LINE
8
DEFAULT_255_2_778
10
68.7319166
20
70.0812713
11
68.8787166
21
70.0831713
0
LINE
8
DEFAULT_255_2_778
10
68.8787166
20
70.0831713
11
69.0983166
21
70.0836713
0
LINE
8
DEFAULT_255_2_778
10
71.3984166
20
65.0520713
11
69.0983166
21
65.0520713
0
LINE
8
DEFAULT_255_2_778
10
69.0983166
20
65.0520713
11
69.0983166
21
70.0521713
0
LINE
8
DEFAULT_255_2_778
10
69.0983166
20
70.0521713
11
2.4982166
21
70.0521713
0
LINE
8
DEFAULT_255_2_778
10
2.4982166
20
70.0521713
11
2.4982166
21
65.0520713
0
LINE
8
DEFAULT_255_2_778
10
2.4982166
20
65.0520713
11
0.1982166
21
65.0520713
0
ARC
8
DEFAULT_255_2_778
10
4.2326442
20
91.928124
40
2.4345635
50
159.2975984
51
180.084898
0
ARC
8
DEFAULT_255_2_778
10
4.2203875
20
91.9295985
40
2.4225788
50
100.6121409
51
159.2277427
0
ARC
8
DEFAULT_255_2_778
10
4.2245641
20
91.8927156
40
2.4596014
50
89.9692674
51
100.5495437
0
ARC
8
DEFAULT_255_2_778
10
4.2294908
20
91.9177558
40
2.4345635
50
69.2975984
51
90.084898
0
ARC
8
DEFAULT_255_2_778
10
4.2309653
20
91.9300125
40
2.4225788
50
10.6121409
51
69.2277427
0
ARC
8
DEFAULT_255_2_778
10
4.1940824
20
91.9258359
40
2.4596014
50
359.9692674
51
10.5495437
0
ARC
8
DEFAULT_255_2_778
10
4.2191226
20
91.9209092
40
2.4345635
50
339.2975984
51
0.084898
0
ARC
8
DEFAULT_255_2_778
10
4.2313793
20
91.9194347
40
2.4225788
50
280.6121409
51
339.2277427
0
ARC
8
DEFAULT_255_2_778
10
4.2272027
20
91.9563176
40
2.4596014
50
269.9692674
51
280.5495437
0
ARC
8
DEFAULT_255_2_778
10
4.222276
20
91.9312774
40
2.4345635
50
249.2975984
51
270.084898
0
ARC
8
DEFAULT_255_2_778
10
4.2208015
20
91.9190207
40
2.4225788
50
190.6121409
51
249.2277427
0
ARC
8
DEFAULT_255_2_778
10
4.2576844
20
91.9231973
40
2.4596014
50
179.9692674
51
190.5495437
0
LINE
8
DEFAULT_255_2_778
10
1.7980834
20
91.9245166
11
1.7980834
21
91.9245166
0
ARC
8
DEFAULT_255_2_778
10
67.3659946
20
3.9938207
40
2.3679327
50
158.9453899
51
180.0867522
0
ARC
8
DEFAULT_255_2_778
10
67.354593
20
3.9951944
40
2.3568003
50
100.5583442
51
158.8769769
0
ARC
8
DEFAULT_255_2_778
10
67.3586923
20
3.9590833
40
2.3930525
50
89.9695372
51
100.4964056
0
ARC
8
DEFAULT_255_2_778
10
67.3635569
20
3.9839504
40
2.3681877
50
68.9465347
51
90.0869111
0
ARC
8
DEFAULT_255_2_778
10
67.365045
20
3.9956031
40
2.3567799
50
10.5585343
51
68.8785284
0
ARC
8
DEFAULT_255_2_778
10
67.3289124
20
3.9915077
40
2.3930525
50
359.9695373
51
10.4964058
0
ARC
8
DEFAULT_255_2_778
10
67.3538075
20
3.9866416
40
2.3681599
50
338.9463163
51
0.0869488
0
ARC
8
DEFAULT_255_2_778
10
67.3654199
20
3.9851885
40
2.3568024
50
280.557021
51
338.8778657
0
ARC
8
DEFAULT_255_2_778
10
67.3612385
20
4.0216031
40
2.393368
50
269.9695048
51
280.4957118
0
ARC
8
DEFAULT_255_2_778
10
67.3563778
20
3.9961375
40
2.3679048
50
248.9451714
51
270.0867898
0
ARC
8
DEFAULT_255_2_778
10
67.3550391
20
3.9847761
40
2.3568228
50
190.5568311
51
248.8763141
0
ARC
8
DEFAULT_255_2_778
10
67.3914314
20
3.9889613
40
2.3933672
50
179.9695011
51
190.4957128
0
LINE
8
DEFAULT_255_2_778
10
64.9980646
20
3.9902354
11
64.9980646
21
3.9902354
0
LINE
8
DEFAULT_255_2_778
10
66.6768738
20
86.5516873
11
68.8802738
21
86.5516873
0
LINE
8
DEFAULT_255_2_778
10
68.8802738
20
86.5516873
11
68.8802738
21
86.5706873
0
LINE
8
DEFAULT_255_2_778
10
68.8802738
20
86.5706873
11
69.3158738
21
86.5706873
0
LINE
8
DEFAULT_255_2_778
10
68.9160738
20
86.5706873
11
68.9160738
21
74.4516873
0
LINE
8
DEFAULT_255_2_778
10
13.5781738
20
86.4277873
11
13.5781738
21
86.1332873
0
LINE
8
DEFAULT_255_2_778
10
12.3081738
20
86.4277873
11
12.3081738
21
86.1332873
0
LINE
8
DEFAULT_255_2_778
10
8.4981738
20
86.4277873
11
8.4981738
21
86.1332873
0
LINE
8
DEFAULT_255_2_778
10
7.2281738
20
86.4277873
11
7.2281738
21
86.1332873
0
LINE
8
DEFAULT_255_2_778
10
23.7381738
20
86.4277873
11
23.7381738
21
86.1332873
0
LINE
8
DEFAULT_255_2_778
10
22.4681738
20
86.4277873
11
22.4681738
21
86.1332873
0
LINE
8
DEFAULT_255_2_778
10
18.6581738
20
86.4277873
11
18.6581738
21
86.1332873
0
LINE
8
DEFAULT_255_2_778
10
17.3881738
20
86.4277873
11
17.3881738
21
86.1332873
0
LINE
8
DEFAULT_255_2_778
10
33.8981738
20
86.4277873
11
33.8981738
21
86.1332873
0
LINE
8
DEFAULT_255_2_778
10
32.6281738
20
86.4277873
11
32.6281738
21
86.1332873
0
LINE
8
DEFAULT_255_2_778
10
28.8181738
20
86.4277873
11
28.8181738
21
86.1332873
0
LINE
8
DEFAULT_255_2_778
10
27.5481738
20
86.4277873
11
27.5481738
21
86.1332873
0
LINE
8
DEFAULT_255_2_778
10
44.0581738
20
86.4277873
11
44.0581738
21
86.1332873
0
LINE
8
DEFAULT_255_2_778
10
42.7881738
20
86.4277873
11
42.7881738
21
86.1332873
0
LINE
8
DEFAULT_255_2_778
10
38.9781738
20
86.4277873
11
38.9781738
21
86.1332873
0
LINE
8
DEFAULT_255_2_778
10
37.7081738
20
86.4277873
11
37.7081738
21
86.1332873
0
LINE
8
DEFAULT_255_2_778
10
54.2181738
20
86.4277873
11
54.2181738
21
86.1332873
0
LINE
8
DEFAULT_255_2_778
10
52.9481738
20
86.4277873
11
52.9481738
21
86.1332873
0
LINE
8
DEFAULT_255_2_778
10
49.1381738
20
86.4277873
11
49.1381738
21
86.1332873
0
LINE
8
DEFAULT_255_2_778
10
47.8681738
20
86.4277873
11
47.8681738
21
86.1332873
0
LINE
8
DEFAULT_255_2_778
10
63.1081738
20
86.4277873
11
63.1081738
21
86.1332873
0
LINE
8
DEFAULT_255_2_778
10
59.2981738
20
86.4277873
11
59.2981738
21
86.1332873
0
LINE
8
DEFAULT_255_2_778
10
58.0281738
20
86.4277873
11
58.0281738
21
86.1332873
0
LINE
8
DEFAULT_255_2_778
10
68.4731738
20
85.3900873
11
68.8543738
21
85.3900873
0
ARC
8
DEFAULT_255_2_778
10
1.0865863
20
87.2216687
40
0.7300947
50
90.3484055
51
137.2401285
0
ARC
8
DEFAULT_255_2_778
10
1.1570023
20
87.1557251
40
0.8265656
50
137.1979277
51
180.2824894
0
LINE
8
DEFAULT_255_2_778
10
68.8543468
20
86.5518498
11
68.8543468
21
85.3900498
0
LINE
8
DEFAULT_255_2_778
10
68.8543468
20
85.3900498
11
68.4730468
21
85.0087498
0
LINE
8
DEFAULT_255_2_778
10
66.6768468
20
86.4277498
11
4.9548468
21
86.4277498
0
LINE
8
DEFAULT_255_2_778
10
2.7159468
20
74.4516498
11
2.7159468
21
86.5706498
0
LINE
8
DEFAULT_255_2_778
10
4.9548468
20
74.4516498
11
4.9548468
21
74.8046498
0
LINE
8
DEFAULT_255_2_778
10
4.9551468
20
86.1726498
11
3.1591468
21
86.1726498
0
LINE
8
DEFAULT_255_2_778
10
3.1591468
20
86.1726498
11
3.1591468
21
74.4516498
0
LINE
8
DEFAULT_255_2_778
10
4.9548468
20
86.5515498
11
2.7513468
21
86.5515498
0
LINE
8
DEFAULT_255_2_778
10
2.7513468
20
86.5515498
11
2.7513468
21
86.5706498
0
LINE
8
DEFAULT_255_2_778
10
2.7513468
20
86.5706498
11
2.3158468
21
86.5706498
0
LINE
8
DEFAULT_255_2_778
10
4.9548468
20
86.1330498
11
4.9548468
21
87.8427498
0
LINE
8
DEFAULT_255_2_778
10
2.7775468
20
85.3900498
11
3.1588468
21
85.0087498
0
ARC
8
DEFAULT_255_2_778
10
70.8638327
20
8.5185278
40
0.613203
50
310.222621
51
358.9740142
0
ARC
8
DEFAULT_255_2_778
10
70.7661135
20
8.6062919
40
0.7435339
50
309.8482277
51
311.6050467
0
ARC
8
DEFAULT_255_2_778
10
70.6869468
20
8.7271493
40
0.8872045
50
269.6552981
51
308.7722352
0
ARC
8
DEFAULT_255_2_778
10
70.6766382
20
8.8052768
40
0.9653289
50
269.9999534
51
270.2950526
0
LINE
8
DEFAULT_255_2_778
10
2.7776374
20
86.5516479
11
2.7776374
21
85.3901479
0
LINE
8
DEFAULT_255_2_778
10
2.7776374
20
85.3901479
11
3.1589374
21
85.3901479
0
LINE
8
DEFAULT_255_2_778
10
66.6642374
20
86.4278479
11
66.6642374
21
74.8049479
0
LINE
8
DEFAULT_255_2_778
10
66.6642374
20
74.8049479
11
4.9422374
21
74.8049479
0
LINE
8
DEFAULT_255_2_778
10
4.9422374
20
74.8049479
11
4.9422374
21
86.1333479
0
LINE
8
DEFAULT_255_2_778
10
4.9422374
20
86.1333479
11
66.6642374
21
86.1333479
0
LINE
8
DEFAULT_255_2_778
10
68.4728374
20
74.4517479
11
68.4728374
21
86.1727479
0
LINE
8
DEFAULT_255_2_778
10
68.4728374
20
86.1727479
11
66.6769374
21
86.1727479
0
LINE
8
DEFAULT_255_2_778
10
70.6766374
20
7.8399479
11
70.6766374
21
7.1721479
0
LINE
8
DEFAULT_255_2_778
10
70.6766374
20
7.1721479
11
63.4733374
21
7.1721479
0
ARC
8
DEFAULT_255_2_778
10
70.6768715
20
8.7842384
40
1.5997593
50
269.9966221
51
300.0052148
0
LINE
8
DEFAULT_255_2_778
10
71.4768772
20
9.4334791
11
71.4768772
21
7.8459791
0
LINE
8
DEFAULT_255_2_778
10
71.4768772
20
7.8459791
11
63.4732772
21
7.8459791
0
LINE
8
DEFAULT_255_2_778
10
4.9372468
20
9.7539467
11
3.1412468
21
9.7539467
0
LINE
8
DEFAULT_255_2_778
10
3.1412468
20
9.7539467
11
3.1412468
21
21.4749467
0
LINE
8
DEFAULT_255_2_778
10
4.9372468
20
9.3750467
11
2.7337468
21
9.3750467
0
LINE
8
DEFAULT_255_2_778
10
2.7337468
20
9.3750467
11
2.7337468
21
9.3559467
0
LINE
8
DEFAULT_255_2_778
10
2.7337468
20
9.3559467
11
2.3149468
21
9.3559467
0
LINE
8
DEFAULT_255_2_778
10
2.3149468
20
7.8724467
11
2.2982468
21
21.4749467
0
LINE
8
DEFAULT_255_2_778
10
2.2982468
20
21.4749467
11
69.2981468
21
21.4749467
0
LINE
8
DEFAULT_255_2_778
10
69.2981468
20
21.4749467
11
69.2981468
21
7.9748467
0
LINE
8
DEFAULT_255_2_778
10
66.6592
20
21.4750498
11
66.6592
21
7.9749498
0
LINE
8
DEFAULT_255_2_778
10
66.6592009
20
9.4988864
11
4.9372009
21
9.4988864
0
LINE
8
DEFAULT_255_2_778
10
4.9372009
20
9.7933864
11
4.9372009
21
7.8425864
0
LINE
8
DEFAULT_255_2_778
10
66.677
20
21.4755498
11
66.677
21
7.9754498
0
LINE
8
DEFAULT_255_2_778
10
66.677023
20
9.375425
11
68.880423
21
9.375425
0
LINE
8
DEFAULT_255_2_778
10
68.880423
20
9.375425
11
68.880423
21
9.356425
0
LINE
8
DEFAULT_255_2_778
10
68.880423
20
9.356425
11
69.316023
21
9.356425
0
LINE
8
DEFAULT_255_2_778
10
68.916
20
9.3563873
11
68.916
21
21.4753873
0
LINE
8
DEFAULT_255_2_778
10
13.5783
20
9.4993406
11
13.5783
21
9.7938406
0
LINE
8
DEFAULT_255_2_778
10
12.3083
20
9.4993406
11
12.3083
21
9.7938406
0
LINE
8
DEFAULT_255_2_778
10
8.4983
20
9.4993406
11
8.4983
21
9.7938406
0
LINE
8
DEFAULT_255_2_778
10
7.2283
20
9.4993406
11
7.2283
21
9.7938406
0
LINE
8
DEFAULT_255_2_778
10
23.7383
20
9.4993406
11
23.7383
21
9.7938406
0
LINE
8
DEFAULT_255_2_778
10
22.4683
20
9.4993406
11
22.4683
21
9.7938406
0
LINE
8
DEFAULT_255_2_778
10
18.6583
20
9.4993406
11
18.6583
21
9.7938406
0
LINE
8
DEFAULT_255_2_778
10
17.3883
20
9.4993406
11
17.3883
21
9.7938406
0
LINE
8
DEFAULT_255_2_778
10
33.8983
20
9.4993406
11
33.8983
21
9.7938406
0
LINE
8
DEFAULT_255_2_778
10
32.6283
20
9.4993406
11
32.6283
21
9.7938406
0
LINE
8
DEFAULT_255_2_778
10
28.8183
20
9.4993406
11
28.8183
21
9.7938406
0
LINE
8
DEFAULT_255_2_778
10
27.5483
20
9.4993406
11
27.5483
21
9.7938406
0
LINE
8
DEFAULT_255_2_778
10
44.0583
20
9.4993406
11
44.0583
21
9.7938406
0
LINE
8
DEFAULT_255_2_778
10
42.7883
20
9.4993406
11
42.7883
21
9.7938406
0
LINE
8
DEFAULT_255_2_778
10
38.9783
20
9.4993406
11
38.9783
21
9.7938406
0
LINE
8
DEFAULT_255_2_778
10
37.7083
20
9.4993406
11
37.7083
21
9.7938406
0
LINE
8
DEFAULT_255_2_778
10
54.2183
20
9.4993406
11
54.2183
21
9.7938406
0
LINE
8
DEFAULT_255_2_778
10
52.9483
20
9.4993406
11
52.9483
21
9.7938406
0
LINE
8
DEFAULT_255_2_778
10
49.1383
20
9.4993406
11
49.1383
21
9.7938406
0
LINE
8
DEFAULT_255_2_778
10
47.8683
20
9.4993406
11
47.8683
21
9.7938406
0
LINE
8
DEFAULT_255_2_778
10
63.1083
20
9.4993406
11
63.1083
21
9.7938406
0
LINE
8
DEFAULT_255_2_778
10
59.2983
20
9.4993406
11
59.2983
21
9.7938406
0
LINE
8
DEFAULT_255_2_778
10
58.0283
20
9.4993406
11
58.0283
21
9.7938406
0
LINE
8
DEFAULT_255_2_778
10
68.4730677
20
10.537
11
68.8543677
21
10.537
0
LINE
8
DEFAULT_255_2_778
10
68.8543677
20
9.3753927
11
68.8543677
21
10.5368927
0
LINE
8
DEFAULT_255_2_778
10
68.8543677
20
10.5368927
11
68.4730677
21
10.9181927
0
LINE
8
DEFAULT_255_2_778
10
66.6770009
20
9.4994
11
4.9550009
21
9.4994
0
LINE
8
DEFAULT_255_2_778
10
2.716
20
21.4753873
11
2.716
21
9.3563873
0
LINE
8
DEFAULT_255_2_778
10
4.9550042
20
9.7544207
11
3.1590042
21
9.7544207
0
LINE
8
DEFAULT_255_2_778
10
3.1590042
20
9.7544207
11
3.1590042
21
21.4754207
0
LINE
8
DEFAULT_255_2_778
10
4.955023
20
9.375425
11
2.751523
21
9.375425
0
LINE
8
DEFAULT_255_2_778
10
2.751523
20
9.375425
11
2.751523
21
9.356425
0
LINE
8
DEFAULT_255_2_778
10
2.751523
20
9.356425
11
2.316023
21
9.356425
0
LINE
8
DEFAULT_255_2_778
10
4.955
20
9.7938864
11
4.955
21
7.8430864
0
LINE
8
DEFAULT_255_2_778
10
2.7777677
20
10.5370323
11
3.1590677
21
10.9183323
0
LINE
8
DEFAULT_255_2_778
10
2.7777677
20
9.3753927
11
2.7777677
21
10.5371927
0
LINE
8
DEFAULT_255_2_778
10
2.7777677
20
10.5371927
11
3.1590677
21
10.5371927
0
LINE
8
DEFAULT_255_2_778
10
66.6643009
20
9.4993405
11
66.6643009
21
21.1222405
0
LINE
8
DEFAULT_255_2_778
10
66.6643009
20
21.1222405
11
4.9423009
21
21.1222405
0
LINE
8
DEFAULT_255_2_778
10
4.9423009
20
21.1222405
11
4.9423009
21
9.7938405
0
LINE
8
DEFAULT_255_2_778
10
4.9423009
20
9.7938405
11
66.6643009
21
9.7938405
0
LINE
8
DEFAULT_255_2_778
10
68.4730042
20
21.4754207
11
68.4730042
21
9.7544207
0
LINE
8
DEFAULT_255_2_778
10
68.4730042
20
9.7544207
11
66.6770042
21
9.7544207
0
LINE
8
DEFAULT_255_2_778
10
70.6056
20
30.8470364
11
70.6056
21
33.5471364
0
LINE
8
DEFAULT_255_2_778
10
13.8009073
20
29.4835927
11
15.8009073
21
29.4835927
0
LINE
8
DEFAULT_255_2_778
10
15.8009073
20
29.4835927
11
15.8009073
21
27.4835927
0
LINE
8
DEFAULT_255_2_778
10
15.8009073
20
27.4835927
11
13.8009073
21
27.4835927
0
LINE
8
DEFAULT_255_2_778
10
13.8009073
20
27.4835927
11
13.8009073
21
29.4835927
0
LINE
8
DEFAULT_255_2_778
10
10.5008073
20
29.4835927
11
12.5008073
21
29.4835927
0
LINE
8
DEFAULT_255_2_778
10
12.5008073
20
29.4835927
11
12.5008073
21
27.4835927
0
LINE
8
DEFAULT_255_2_778
10
12.5008073
20
27.4835927
11
10.5008073
21
27.4835927
0
LINE
8
DEFAULT_255_2_778
10
10.5008073
20
27.4835927
11
10.5008073
21
29.4835927
0
LINE
8
DEFAULT_255_2_778
10
7.2009073
20
29.4835927
11
9.2009073
21
29.4835927
0
LINE
8
DEFAULT_255_2_778
10
9.2009073
20
29.4835927
11
9.2009073
21
27.4835927
0
LINE
8
DEFAULT_255_2_778
10
9.2009073
20
27.4835927
11
7.2009073
21
27.4835927
0
LINE
8
DEFAULT_255_2_778
10
7.2009073
20
27.4835927
11
7.2009073
21
29.4835927
0
LINE
8
DEFAULT_255_2_778
10
23.7008073
20
29.4835927
11
25.7008073
21
29.4835927
0
LINE
8
DEFAULT_255_2_778
10
25.7008073
20
29.4835927
11
25.7008073
21
27.4835927
0
LINE
8
DEFAULT_255_2_778
10
25.7008073
20
27.4835927
11
23.7008073
21
27.4835927
0
LINE
8
DEFAULT_255_2_778
10
23.7008073
20
27.4835927
11
23.7008073
21
29.4835927
0
LINE
8
DEFAULT_255_2_778
10
20.4010073
20
29.4835927
11
22.4010073
21
29.4835927
0
LINE
8
DEFAULT_255_2_778
10
22.4010073
20
29.4835927
11
22.4010073
21
27.4835927
0
LINE
8
DEFAULT_255_2_778
10
22.4010073
20
27.4835927
11
20.4010073
21
27.4835927
0
LINE
8
DEFAULT_255_2_778
10
20.4010073
20
27.4835927
11
20.4010073
21
29.4835927
0
LINE
8
DEFAULT_255_2_778
10
17.1008073
20
29.4835927
11
19.1008073
21
29.4835927
0
LINE
8
DEFAULT_255_2_778
10
19.1008073
20
29.4835927
11
19.1008073
21
27.4835927
0
LINE
8
DEFAULT_255_2_778
10
19.1008073
20
27.4835927
11
17.1008073
21
27.4835927
0
LINE
8
DEFAULT_255_2_778
10
17.1008073
20
27.4835927
11
17.1008073
21
29.4835927
0
LINE
8
DEFAULT_255_2_778
10
30.3009073
20
29.4835927
11
32.3009073
21
29.4835927
0
LINE
8
DEFAULT_255_2_778
10
32.3009073
20
29.4835927
11
32.3009073
21
27.4835927
0
LINE
8
DEFAULT_255_2_778
10
32.3009073
20
27.4835927
11
30.3009073
21
27.4835927
0
LINE
8
DEFAULT_255_2_778
10
30.3009073
20
27.4835927
11
30.3009073
21
29.4835927
0
LINE
8
DEFAULT_255_2_778
10
27.0010073
20
29.4835927
11
29.0010073
21
29.4835927
0
LINE
8
DEFAULT_255_2_778
10
29.0010073
20
29.4835927
11
29.0010073
21
27.4835927
0
LINE
8
DEFAULT_255_2_778
10
29.0010073
20
27.4835927
11
27.0010073
21
27.4835927
0
LINE
8
DEFAULT_255_2_778
10
27.0010073
20
27.4835927
11
27.0010073
21
29.4835927
0
LINE
8
DEFAULT_255_2_778
10
4.5409958
20
27.5503009
11
5.2609958
21
27.5503009
0
LINE
8
DEFAULT_255_2_778
10
4.5409958
20
29.3503009
11
5.2609958
21
29.3503009
0
LINE
8
DEFAULT_255_2_778
10
4.5409958
20
27.6403009
11
4.8560958
21
27.6403009
0
LINE
8
DEFAULT_255_2_778
10
4.8560958
20
27.6403009
11
4.8560958
21
29.2603009
0
LINE
8
DEFAULT_255_2_778
10
4.8560958
20
29.2603009
11
4.5409958
21
29.2603009
0
LINE
8
DEFAULT_255_2_778
10
5.2609958
20
27.6403009
11
4.9457958
21
27.6403009
0
LINE
8
DEFAULT_255_2_778
10
4.9457958
20
27.6403009
11
4.9457958
21
29.2603009
0
LINE
8
DEFAULT_255_2_778
10
4.9457958
20
29.2603009
11
5.2609958
21
29.2603009
0
LINE
8
DEFAULT_255_2_778
10
71.4768958
20
28.8188009
11
69.0982958
21
28.8188009
0
LINE
8
DEFAULT_255_2_778
10
71.4768958
20
26.9257009
11
69.0982958
21
26.9257009
0
LINE
8
DEFAULT_255_2_778
10
2.5002958
20
25.1524009
11
69.1003958
21
25.1524009
0
LINE
8
DEFAULT_255_2_778
10
69.1003958
20
25.1524009
11
69.1003958
21
22.0523009
0
LINE
8
DEFAULT_255_2_778
10
69.1003958
20
22.0523009
11
2.5002958
21
22.0523009
0
LINE
8
DEFAULT_255_2_778
10
2.5002958
20
22.0523009
11
2.5002958
21
25.1524009
0
LINE
8
DEFAULT_255_2_778
10
2.6002958
20
25.0524009
11
69.0003958
21
25.0524009
0
LINE
8
DEFAULT_255_2_778
10
69.0003958
20
25.0524009
11
69.0003958
21
22.1523009
0
LINE
8
DEFAULT_255_2_778
10
69.0003958
20
22.1523009
11
2.6002958
21
22.1523009
0
LINE
8
DEFAULT_255_2_778
10
2.6002958
20
22.1523009
11
2.6002958
21
25.0524009
0
LINE
8
DEFAULT_255_2_778
10
4.9342
20
21.4777771
11
4.9342
21
21.1247771
0
ARC
8
DEFAULT_255_2_778
10
12.9830473
20
23.6096529
40
0.5501624
50
269.8709699
51
0.1290124
0
ARC
8
DEFAULT_255_2_778
10
12.9805693
20
23.6096528
40
0.5501625
50
179.8709788
51
270.1290337
0
ARC
8
DEFAULT_255_2_778
10
12.9805696
20
23.6121305
40
0.5501626
50
89.8709876
51
180.1290197
0
ARC
8
DEFAULT_255_2_778
10
12.9830472
20
23.6121305
40
0.5501625
50
359.8709803
51
90.1290228
0
LINE
8
DEFAULT_255_2_778
10
13.5332083
20
23.6108917
11
13.5332083
21
23.6108917
0
LINE
8
DEFAULT_255_2_778
10
7.6848677
20
22.6046948
11
8.1560677
21
22.6046948
0
LINE
8
DEFAULT_255_2_778
10
8.1560677
20
22.6046948
11
8.1560677
21
22.4887948
0
LINE
8
DEFAULT_255_2_778
10
8.1560677
20
22.4887948
11
7.6848677
21
22.4887948
0
LINE
8
DEFAULT_255_2_778
10
7.6848677
20
22.4887948
11
7.6848677
21
22.6046948
0
LINE
8
DEFAULT_255_2_778
10
7.4615677
20
22.9933948
11
8.4619677
21
22.9933948
0
LINE
8
DEFAULT_255_2_778
10
8.4619677
20
22.9933948
11
8.4619677
21
22.8941948
0
LINE
8
DEFAULT_255_2_778
10
8.4619677
20
22.8941948
11
7.4615677
21
22.8941948
0
LINE
8
DEFAULT_255_2_778
10
7.4615677
20
22.8941948
11
7.4615677
21
22.9933948
0
LINE
8
DEFAULT_255_2_778
10
7.8832677
20
24.5559948
11
7.8914677
21
23.3735948
0
LINE
8
DEFAULT_255_2_778
10
7.8914677
20
23.3735948
11
7.2797677
21
23.3735948
0
LINE
8
DEFAULT_255_2_778
10
7.2797677
20
23.3735948
11
7.2797677
21
23.2743948
0
LINE
8
DEFAULT_255_2_778
10
7.2797677
20
23.2743948
11
8.6770677
21
23.2743948
0
LINE
8
DEFAULT_255_2_778
10
8.6770677
20
23.2743948
11
8.6770677
21
23.3735948
0
LINE
8
DEFAULT_255_2_778
10
8.6770677
20
23.3735948
11
7.9906677
21
23.3735948
0
LINE
8
DEFAULT_255_2_778
10
7.9906677
20
23.3735948
11
7.9906677
21
24.5559948
0
LINE
8
DEFAULT_255_2_778
10
7.9906677
20
24.5559948
11
7.8832677
21
24.5559948
0
LINE
8
DEFAULT_255_2_778
10
26.9018073
20
68.4434927
11
28.9018073
21
68.4434927
0
LINE
8
DEFAULT_255_2_778
10
28.9018073
20
68.4434927
11
28.9018073
21
66.4434927
0
LINE
8
DEFAULT_255_2_778
10
28.9018073
20
66.4434927
11
26.9018073
21
66.4434927
0
LINE
8
DEFAULT_255_2_778
10
26.9018073
20
66.4434927
11
26.9018073
21
68.4434927
0
LINE
8
DEFAULT_255_2_778
10
30.2017073
20
68.4434927
11
32.2017073
21
68.4434927
0
LINE
8
DEFAULT_255_2_778
10
32.2017073
20
68.4434927
11
32.2017073
21
66.4434927
0
LINE
8
DEFAULT_255_2_778
10
32.2017073
20
66.4434927
11
30.2017073
21
66.4434927
0
LINE
8
DEFAULT_255_2_778
10
30.2017073
20
66.4434927
11
30.2017073
21
68.4434927
0
LINE
8
DEFAULT_255_2_778
10
17.0016073
20
68.4434927
11
19.0016073
21
68.4434927
0
LINE
8
DEFAULT_255_2_778
10
19.0016073
20
68.4434927
11
19.0016073
21
66.4434927
0
LINE
8
DEFAULT_255_2_778
10
19.0016073
20
66.4434927
11
17.0016073
21
66.4434927
0
LINE
8
DEFAULT_255_2_778
10
17.0016073
20
66.4434927
11
17.0016073
21
68.4434927
0
LINE
8
DEFAULT_255_2_778
10
20.3017073
20
68.4434927
11
22.3017073
21
68.4434927
0
LINE
8
DEFAULT_255_2_778
10
22.3017073
20
68.4434927
11
22.3017073
21
66.4434927
0
LINE
8
DEFAULT_255_2_778
10
22.3017073
20
66.4434927
11
20.3017073
21
66.4434927
0
LINE
8
DEFAULT_255_2_778
10
20.3017073
20
66.4434927
11
20.3017073
21
68.4434927
0
LINE
8
DEFAULT_255_2_778
10
23.6016073
20
68.4434927
11
25.6016073
21
68.4434927
0
LINE
8
DEFAULT_255_2_778
10
25.6016073
20
68.4434927
11
25.6016073
21
66.4434927
0
LINE
8
DEFAULT_255_2_778
10
25.6016073
20
66.4434927
11
23.6016073
21
66.4434927
0
LINE
8
DEFAULT_255_2_778
10
23.6016073
20
66.4434927
11
23.6016073
21
68.4434927
0
LINE
8
DEFAULT_255_2_778
10
7.1017073
20
68.4434927
11
9.1017073
21
68.4434927
0
LINE
8
DEFAULT_255_2_778
10
9.1017073
20
68.4434927
11
9.1017073
21
66.4434927
0
LINE
8
DEFAULT_255_2_778
10
9.1017073
20
66.4434927
11
7.1017073
21
66.4434927
0
LINE
8
DEFAULT_255_2_778
10
7.1017073
20
66.4434927
11
7.1017073
21
68.4434927
0
LINE
8
DEFAULT_255_2_778
10
10.4016073
20
68.4434927
11
12.4016073
21
68.4434927
0
LINE
8
DEFAULT_255_2_778
10
12.4016073
20
68.4434927
11
12.4016073
21
66.4434927
0
LINE
8
DEFAULT_255_2_778
10
12.4016073
20
66.4434927
11
10.4016073
21
66.4434927
0
LINE
8
DEFAULT_255_2_778
10
10.4016073
20
66.4434927
11
10.4016073
21
68.4434927
0
LINE
8
DEFAULT_255_2_778
10
13.7017073
20
68.4434927
11
15.7017073
21
68.4434927
0
LINE
8
DEFAULT_255_2_778
10
15.7017073
20
68.4434927
11
15.7017073
21
66.4434927
0
LINE
8
DEFAULT_255_2_778
10
15.7017073
20
66.4434927
11
13.7017073
21
66.4434927
0
LINE
8
DEFAULT_255_2_778
10
13.7017073
20
66.4434927
11
13.7017073
21
68.4434927
0
ARC
8
DEFAULT_255_2_778
10
16.6961638
20
47.779223
40
22.0878157
50
121.3163615
51
121.4374881
0
ARC
8
DEFAULT_255_2_778
10
4.926168
20
67.0013666
40
0.451863
50
280.338577
51
303.5453642
0
ARC
8
DEFAULT_255_2_778
10
4.9214602
20
67.0810217
40
0.5311576
50
269.6410368
51
279.2960806
0
ARC
8
DEFAULT_255_2_778
10
4.9099328
20
66.8253628
40
0.2756103
50
270.0004214
51
271.70485
0
ARC
8
DEFAULT_255_2_778
10
4.917898
20
66.8544594
40
0.3048109
50
221.9760058
51
268.5029803
0
ARC
8
DEFAULT_255_2_778
10
5.1380923
20
67.0789334
40
0.6189521
50
208.0136446
51
223.7915292
0
ARC
8
DEFAULT_255_2_778
10
5.5307524
20
67.2925663
40
1.0659542
50
196.9301319
51
208.2381894
0
ARC
8
DEFAULT_255_2_778
10
6.0370875
20
67.4493396
40
1.5960001
50
186.249631
51
197.0210036
0
ARC
8
DEFAULT_255_2_778
10
6.2573615
20
67.48018
40
1.8183348
50
180.5295053
51
186.4600567
0
ARC
8
DEFAULT_255_2_778
10
6.2398112
20
67.4799854
40
1.8007835
50
180.0007143
51
180.5284744
0
ARC
8
DEFAULT_255_2_778
10
6.0150038
20
67.4892417
40
1.5760033
50
166.4784628
51
180.3373329
0
ARC
8
DEFAULT_255_2_778
10
5.4648744
20
67.6219169
40
1.0101015
50
152.3468388
51
166.4995327
0
ARC
8
DEFAULT_255_2_778
10
5.1024617
20
67.8165519
40
0.5987672
50
129.1313462
51
152.7487534
0
ARC
8
DEFAULT_255_2_778
10
4.9980035
20
67.9357882
40
0.4403899
50
100.4492469
51
128.3795602
0
ARC
8
DEFAULT_255_2_778
10
4.836104
20
67.9317257
40
0.4447783
50
30.0896433
51
79.3723659
0
ARC
8
DEFAULT_255_2_778
10
4.4519976
20
67.6721982
40
0.907802
50
16.2929985
51
32.1085174
0
ARC
8
DEFAULT_255_2_778
10
3.8495879
20
67.4911159
40
1.5368287
50
4.1993492
51
16.4721093
0
ARC
8
DEFAULT_255_2_778
10
3.4176887
20
67.4469187
40
1.9708441
50
359.9659636
51
4.5613502
0
ARC
8
DEFAULT_255_2_778
10
3.3035256
20
67.4459444
40
2.0850068
50
357.5946886
51
359.9946019
0
ARC
8
DEFAULT_255_2_778
10
3.3513676
20
67.4403777
40
2.0369766
50
346.603286
51
357.6946536
0
ARC
8
DEFAULT_255_2_778
10
3.8089909
20
67.3319148
40
1.5666757
50
338.5712495
51
346.5844056
0
ARC
8
DEFAULT_255_2_778
10
4.0889549
20
67.2269365
40
1.26772
50
336.1960717
51
338.3650813
0
ARC
8
DEFAULT_255_2_778
10
5.1012615
20
66.8554842
40
0.098557
50
311.2406019
51
336.1092663
0
ARC
8
DEFAULT_255_2_778
10
4.8277142
20
66.9915976
40
0.4040229
50
334.1708596
51
343.7294583
0
ARC
8
DEFAULT_255_2_778
10
4.2548689
20
67.1660277
40
1.0028201
50
343.3324684
51
348.7515795
0
ARC
8
DEFAULT_255_2_778
10
3.4650291
20
67.3267806
40
1.8088482
50
348.6376703
51
352.738279
0
ARC
8
DEFAULT_255_2_778
10
2.7262119
20
67.4230794
40
2.5539128
50
352.6903031
51
356.841955
0
ARC
8
DEFAULT_255_2_778
10
2.5086551
20
67.4381368
40
2.7719704
50
356.7789283
51
359.9891454
0
ARC
8
DEFAULT_255_2_778
10
2.6591708
20
67.4380596
40
2.6214546
50
359.9902089
51
1.8519315
0
ARC
8
DEFAULT_255_2_778
10
3.3274779
20
67.473958
40
1.9523886
50
1.4327941
51
11.3396358
0
ARC
8
DEFAULT_255_2_778
10
4.2608514
20
67.660331
40
1.0005905
50
11.3848316
51
22.6196392
0
ARC
8
DEFAULT_255_2_778
10
4.7303853
20
67.8595148
40
0.4905763
50
22.2372567
51
40.9681117
0
ARC
8
DEFAULT_255_2_778
10
4.9092098
20
68.018531
40
0.251309
50
40.3240718
51
87.9196767
0
ARC
8
DEFAULT_255_2_778
10
4.9003369
20
68.125975
40
0.144822
50
82.8619843
51
89.9772382
0
ARC
8
DEFAULT_255_2_778
10
4.9073373
20
68.0950428
40
0.1758912
50
92.2621868
51
136.6253569
0
ARC
8
DEFAULT_255_2_778
10
5.0809892
20
67.911167
40
0.4286364
50
134.7005238
51
151.0676079
0
ARC
8
DEFAULT_255_2_778
10
5.4615957
20
67.6940615
40
0.8667905
50
150.6789314
51
160.9955016
0
ARC
8
DEFAULT_255_2_778
10
6.0268151
20
67.4957964
40
1.465769
50
160.8626403
51
169.3440893
0
ARC
8
DEFAULT_255_2_778
10
6.4862068
20
67.4045705
40
1.9341129
50
169.2046692
51
178.3908623
0
ARC
8
DEFAULT_255_2_778
10
6.4587904
20
67.4042653
40
1.9067163
50
178.358558
51
179.9956812
0
ARC
8
DEFAULT_255_2_778
10
6.130954
20
67.3949379
40
1.5789083
50
179.6563098
51
190.9587318
0
ARC
8
DEFAULT_255_2_778
10
5.5129348
20
67.2747683
40
0.9493147
50
190.9290628
51
203.223521
0
ARC
8
DEFAULT_255_2_778
10
5.1268927
20
67.1060257
40
0.5280216
50
202.9146711
51
222.1030005
0
ARC
8
DEFAULT_255_2_778
10
4.9702983
20
66.9631406
40
0.3160399
50
221.9178705
51
263.5932015
0
ARC
8
DEFAULT_255_2_778
10
4.9378827
20
66.8495259
40
0.2004716
50
269.1853703
51
302.0454781
0
ARC
8
DEFAULT_255_2_778
10
4.8150072
20
67.0472267
40
0.4332456
50
301.9468355
51
307.8076877
0
ARC
8
DEFAULT_255_2_778
10
8.8322942
20
61.7754613
40
6.194751
50
127.0970311
51
127.2738966
0
ARC
8
DEFAULT_255_2_778
10
5.3716099
20
66.3537898
40
0.4556387
50
123.9677848
51
127.2480286
0
LINE
8
DEFAULT_255_2_778
10
4.9342325
20
66.8644745
11
5.3477325
21
66.5501745
0
LINE
8
DEFAULT_255_2_778
10
4.9839325
20
66.9139745
11
5.3975325
21
66.5995745
0
LINE
8
DEFAULT_255_2_778
10
70.5712325
20
34.4916745
11
71.3713325
21
33.6917745
0
LINE
8
DEFAULT_255_2_778
10
53.5120325
20
33.7026745
11
53.5180325
21
33.7158745
0
LINE
8
DEFAULT_255_2_778
10
53.5180325
20
33.7158745
11
53.7747325
21
33.7875745
0
LINE
8
DEFAULT_255_2_778
10
53.7747325
20
33.7875745
11
54.0723325
21
33.9044745
0
LINE
8
DEFAULT_255_2_778
10
54.0723325
20
33.9044745
11
54.4123325
21
34.0637745
0
LINE
8
DEFAULT_255_2_778
10
54.4123325
20
34.0637745
11
54.8007325
21
34.2643745
0
LINE
8
DEFAULT_255_2_778
10
54.8007325
20
34.2643745
11
55.2215325
21
34.4916745
0
LINE
8
DEFAULT_255_2_778
10
53.3029325
20
62.1916745
11
53.5180325
21
62.1675745
0
LINE
8
DEFAULT_255_2_778
10
53.5180325
20
62.1675745
11
53.7517325
21
62.0627745
0
LINE
8
DEFAULT_255_2_778
10
53.7517325
20
62.0627745
11
54.0329325
21
61.9386745
0
LINE
8
DEFAULT_255_2_778
10
54.0329325
20
61.9386745
11
54.3885325
21
61.7733745
0
LINE
8
DEFAULT_255_2_778
10
54.3885325
20
61.7733745
11
55.2315325
21
61.3843745
0
LINE
8
DEFAULT_255_2_778
10
55.2315325
20
61.3843745
11
55.2233325
21
59.1766745
0
LINE
8
DEFAULT_255_2_778
10
54.2210325
20
62.1913745
11
54.1210325
21
62.1913745
0
LINE
8
DEFAULT_255_2_778
10
54.1210325
20
62.1913745
11
53.3027325
21
62.1913745
0
LINE
8
DEFAULT_255_2_778
10
71.3711325
20
33.6915745
11
52.5211325
21
33.6915745
0
LINE
8
DEFAULT_255_2_778
10
52.5211325
20
33.6915745
11
52.5211325
21
62.1913745
0
LINE
8
DEFAULT_255_2_778
10
52.5211325
20
62.1913745
11
53.3051325
21
62.1947745
0
LINE
8
DEFAULT_255_2_778
10
56.2210325
20
62.1916745
11
54.2210325
21
62.1916745
0
LINE
8
DEFAULT_255_2_778
10
56.3210325
20
62.1916745
11
64.7710325
21
62.1916745
0
LINE
8
DEFAULT_255_2_778
10
64.7710325
20
62.1916745
11
66.2710325
21
62.1916745
0
LINE
8
DEFAULT_255_2_778
10
66.2710325
20
62.1916745
11
71.3711325
21
62.1916745
0
LINE
8
DEFAULT_255_2_778
10
71.3711325
20
62.1916745
11
70.5710325
21
61.3915745
0
LINE
8
DEFAULT_255_2_778
10
70.5710325
20
61.3915745
11
55.2315325
21
61.3843745
0
LINE
8
DEFAULT_255_2_778
10
55.2315325
20
61.3843745
11
53.5284325
21
62.1617745
0
LINE
8
DEFAULT_255_2_778
10
53.5284325
20
62.1617745
11
53.5202325
21
62.1617745
0
ARC
8
DEFAULT_255_2_778
10
84.5678591
20
47.9408924
40
14.4966462
50
182.3585991
51
195.0897235
0
ARC
8
DEFAULT_255_2_778
10
84.5767695
20
47.941589
40
14.5055776
50
180.0112118
51
182.3599
0
ARC
8
DEFAULT_255_2_778
10
80.1217279
20
47.9408772
40
10.0505359
50
179.9959588
51
180.0121235
0
ARC
8
DEFAULT_255_2_778
10
84.5685817
20
47.9419904
40
14.4973898
50
165.8584311
51
180.0015979
0
ARC
8
DEFAULT_255_2_778
10
84.5589187
20
47.9439079
40
14.4875511
50
164.9078616
51
165.8564482
0
LINE
8
DEFAULT_255_2_778
10
70.5710669
20
51.7160611
11
70.5710669
21
61.3915611
0
LINE
8
DEFAULT_255_2_778
10
70.5710669
20
61.3915611
11
55.2209669
21
61.3915611
0
LINE
8
DEFAULT_255_2_778
10
55.2209669
20
61.3915611
11
55.2209669
21
34.4916611
0
LINE
8
DEFAULT_255_2_778
10
55.2209669
20
34.4916611
11
70.5710669
21
34.4916611
0
LINE
8
DEFAULT_255_2_778
10
70.5710669
20
34.4916611
11
70.5710669
21
44.1669611
0
ARC
8
DEFAULT_255_2_778
10
84.5645466
20
47.9407463
40
14.4934595
50
195.0925137
51
204.391626
0
ARC
8
DEFAULT_255_2_778
10
84.5897108
20
47.9330068
40
14.5202487
50
155.6156959
51
164.8968688
0
ARC
8
DEFAULT_255_2_778
10
65.5194368
20
34.1962154
40
0.9052864
50
302.8585221
51
326.1203437
0
LINE
8
DEFAULT_255_2_778
10
64.0712149
20
46.6913631
11
63.4711149
21
46.6913631
0
LINE
8
DEFAULT_255_2_778
10
63.4711149
20
46.6913631
11
63.4711149
21
49.1914631
0
LINE
8
DEFAULT_255_2_778
10
63.4711149
20
49.1914631
11
64.0712149
21
49.1914631
0
LINE
8
DEFAULT_255_2_778
10
64.0712149
20
49.1914631
11
64.0712149
21
46.6913631
0
LINE
8
DEFAULT_255_2_778
10
65.2711149
20
46.6913631
11
64.6710149
21
46.6913631
0
LINE
8
DEFAULT_255_2_778
10
64.6710149
20
46.6913631
11
64.6710149
21
49.1914631
0
LINE
8
DEFAULT_255_2_778
10
64.6710149
20
49.1914631
11
65.2711149
21
49.1914631
0
LINE
8
DEFAULT_255_2_778
10
65.2711149
20
49.1914631
11
65.2711149
21
46.6913631
0
LINE
8
DEFAULT_255_2_778
10
65.8712149
20
46.6913631
11
68.3712149
21
47.9412631
0
LINE
8
DEFAULT_255_2_778
10
68.3712149
20
47.9412631
11
65.8712149
21
49.1914631
0
LINE
8
DEFAULT_255_2_778
10
65.8712149
20
49.1914631
11
65.8712149
21
46.6913631
0
LINE
8
DEFAULT_255_2_778
10
71.3711149
20
41.7039631
11
71.3703149
21
41.7854631
0
LINE
8
DEFAULT_255_2_778
10
71.3703149
20
41.7854631
11
71.3682149
21
41.8693631
0
LINE
8
DEFAULT_255_2_778
10
71.3682149
20
41.8693631
11
71.3647149
21
41.9553631
0
LINE
8
DEFAULT_255_2_778
10
71.3711149
20
54.1790631
11
71.3703149
21
54.0975631
0
LINE
8
DEFAULT_255_2_778
10
71.3703149
20
54.0975631
11
71.3682149
21
54.0136631
0
LINE
8
DEFAULT_255_2_778
10
71.3682149
20
54.0136631
11
71.3647149
21
53.9277631
0
LINE
8
DEFAULT_255_2_778
10
66.0106149
20
33.4357631
11
66.0947149
21
33.4359631
0
LINE
8
DEFAULT_255_2_778
10
66.0947149
20
33.4359631
11
66.2710149
21
33.4444631
0
LINE
8
DEFAULT_255_2_778
10
66.2710149
20
33.4444631
11
66.2710149
21
33.6915631
0
LINE
8
DEFAULT_255_2_778
10
66.0106149
20
33.4357631
11
66.0106149
21
33.4357631
0
LINE
8
DEFAULT_255_2_778
10
52.0210149
20
33.4915631
11
52.0210149
21
62.2914631
0
LINE
8
DEFAULT_255_2_778
10
51.9404149
20
62.3721631
11
52.0210149
21
62.2914631
0
LINE
8
DEFAULT_255_2_778
10
51.9404149
20
33.4108631
11
52.0208149
21
33.4912631
0
LINE
8
DEFAULT_255_2_778
10
51.9404149
20
33.4108631
11
51.1405149
21
32.6110631
0
LINE
8
DEFAULT_255_2_778
10
51.1405339
20
63.1719808
11
51.1405339
21
32.6109808
0
LINE
8
DEFAULT_255_2_778
10
51.9404339
20
33.4108808
11
70.5710339
21
33.4108808
0
LINE
8
DEFAULT_255_2_778
10
70.5710339
20
33.4108808
11
70.8141339
21
33.3729808
0
LINE
8
DEFAULT_255_2_778
10
70.8141339
20
33.3729808
11
71.0374339
21
33.2608808
0
LINE
8
DEFAULT_255_2_778
10
71.0374339
20
33.2608808
11
71.2168339
21
33.0830808
0
LINE
8
DEFAULT_255_2_778
10
71.2168339
20
33.0830808
11
71.3314339
21
32.8594808
0
LINE
8
DEFAULT_255_2_778
10
71.3314339
20
32.8594808
11
71.3708339
21
32.6109808
0
LINE
8
DEFAULT_255_2_778
10
71.3708339
20
32.6109808
11
51.1405339
21
32.6109808
0
LINE
8
DEFAULT_255_2_778
10
51.9404339
20
62.3718808
11
51.9404339
21
33.4108808
0
LINE
8
DEFAULT_255_2_778
10
51.1965607
20
32.6109808
11
51.9902607
21
33.4727808
0
LINE
8
DEFAULT_255_2_778
10
51.9902607
20
33.4727808
11
51.9442607
21
62.4364808
0
LINE
8
DEFAULT_255_2_778
10
51.9442607
20
62.4364808
11
51.1965607
21
63.1042808
0
LINE
8
DEFAULT_255_2_778
10
52.0577607
20
62.3721808
11
70.5756607
21
62.3721808
0
LINE
8
DEFAULT_255_2_778
10
70.5756607
20
62.3721808
11
70.8214607
21
62.4112808
0
LINE
8
DEFAULT_255_2_778
10
70.8214607
20
62.4112808
11
71.0432607
21
62.5247808
0
LINE
8
DEFAULT_255_2_778
10
71.0432607
20
62.5247808
11
71.2191607
21
62.7017808
0
LINE
8
DEFAULT_255_2_778
10
71.2191607
20
62.7017808
11
71.3321607
21
62.9248808
0
LINE
8
DEFAULT_255_2_778
10
71.3321607
20
62.9248808
11
71.3710607
21
63.1719808
0
LINE
8
DEFAULT_255_2_778
10
71.3710607
20
63.1719808
11
51.1965607
21
63.1719808
0
LINE
8
DEFAULT_255_2_778
10
56.3209607
20
33.6915808
11
56.3209607
21
33.4915808
0
LINE
8
DEFAULT_255_2_778
10
56.2209607
20
33.4372808
11
56.2675607
21
33.4383808
0
LINE
8
DEFAULT_255_2_778
10
56.2675607
20
33.4383808
11
56.3209607
21
33.4441808
0
LINE
8
DEFAULT_255_2_778
10
56.3209607
20
33.4441808
11
56.3209607
21
33.4912808
0
LINE
8
DEFAULT_255_2_778
10
56.221
20
33.4372646
11
56.221
21
33.4367646
0
LINE
8
DEFAULT_255_2_778
10
56.2211073
20
33.6915208
11
56.2211073
21
33.4372208
0
LINE
8
DEFAULT_255_2_778
10
54.2211073
20
33.4375208
11
54.8823073
21
33.4259208
0
LINE
8
DEFAULT_255_2_778
10
54.8823073
20
33.4259208
11
55.8695073
21
33.4285208
0
LINE
8
DEFAULT_255_2_778
10
55.8695073
20
33.4285208
11
56.2211073
21
33.4370208
0
LINE
8
DEFAULT_255_2_778
10
54.2211
20
33.4375969
11
54.2211
21
33.4367969
0
LINE
8
DEFAULT_255_2_778
10
54.2210805
20
33.6915677
11
54.2210805
21
33.4378677
0
LINE
8
DEFAULT_255_2_778
10
54.1210805
20
33.4915677
11
54.1210805
21
33.4444677
0
LINE
8
DEFAULT_255_2_778
10
54.1210805
20
33.4444677
11
54.1744805
21
33.4386677
0
LINE
8
DEFAULT_255_2_778
10
54.1744805
20
33.4386677
11
54.2210805
21
33.4378677
0
LINE
8
DEFAULT_255_2_778
10
54.1210805
20
33.6915673
11
54.1210805
21
33.4915673
0
LINE
8
DEFAULT_255_2_778
10
54.2210805
20
62.3456673
11
54.1744805
21
62.3445673
0
LINE
8
DEFAULT_255_2_778
10
54.1744805
20
62.3445673
11
54.1210805
21
62.3387673
0
LINE
8
DEFAULT_255_2_778
10
54.1210805
20
62.3387673
11
54.1210805
21
62.1916673
0
LINE
8
DEFAULT_255_2_778
10
54.222923
20
62.3435788
11
52.056523
21
62.3435788
0
LINE
8
DEFAULT_255_2_778
10
52.056523
20
62.3435788
11
52.056523
21
33.4377788
0
LINE
8
DEFAULT_255_2_778
10
52.056523
20
33.4377788
11
54.173223
21
33.4377788
0
LINE
8
DEFAULT_255_2_778
10
54.173223
20
33.4377788
11
54.173223
21
33.6693788
0
LINE
8
DEFAULT_255_2_778
10
54.173223
20
33.6693788
11
52.519523
21
33.6693788
0
LINE
8
DEFAULT_255_2_778
10
52.519523
20
33.6693788
11
52.519523
21
62.1781788
0
LINE
8
DEFAULT_255_2_778
10
52.519523
20
62.1781788
11
54.221123
21
62.1913788
0
LINE
8
DEFAULT_255_2_778
10
54.221123
20
62.1913788
11
54.221123
21
62.3461788
0
LINE
8
DEFAULT_255_2_778
10
56.221023
20
62.3451788
11
55.559823
21
62.3567788
0
LINE
8
DEFAULT_255_2_778
10
55.559823
20
62.3567788
11
54.572723
21
62.3541788
0
LINE
8
DEFAULT_255_2_778
10
54.572723
20
62.3541788
11
54.221123
21
62.3456788
0
LINE
8
DEFAULT_255_2_778
10
56.221023
20
62.1913788
11
56.221023
21
62.3459788
0
LINE
8
DEFAULT_255_2_778
10
56.321123
20
62.2913788
11
56.321123
21
62.3384788
0
LINE
8
DEFAULT_255_2_778
10
56.321123
20
62.3384788
11
56.267623
21
62.3443788
0
LINE
8
DEFAULT_255_2_778
10
56.267623
20
62.3443788
11
56.221023
21
62.3451788
0
LINE
8
DEFAULT_255_2_778
10
56.321123
20
62.2913788
11
56.321123
21
62.1913788
0
ARC
8
DEFAULT_255_2_778
10
65.5215751
20
61.6883831
40
0.9033879
50
133.3937856
51
146.1469113
0
LINE
8
DEFAULT_255_2_778
10
56.2210397
20
62.1913292
11
56.3210397
21
62.1913292
0
LINE
8
DEFAULT_255_2_778
10
64.7710397
20
62.2914292
11
64.7710397
21
62.1913292
0
ARC
8
DEFAULT_255_2_778
10
65.5115152
20
61.680181
40
0.9157898
50
33.9365202
51
46.5428502
0
LINE
8
DEFAULT_255_2_778
10
64.7711063
20
62.2914427
11
64.7711063
21
62.3385427
0
LINE
8
DEFAULT_255_2_778
10
64.7711063
20
62.3385427
11
64.9007063
21
62.3446427
0
LINE
8
DEFAULT_255_2_778
10
66.1411063
20
62.3449427
11
65.8969063
21
62.3499427
0
LINE
8
DEFAULT_255_2_778
10
65.8969063
20
62.3499427
11
64.9470063
21
62.3470427
0
LINE
8
DEFAULT_255_2_778
10
64.9470063
20
62.3470427
11
64.9005063
21
62.3449427
0
ARC
8
DEFAULT_255_2_778
10
65.0147334
20
33.4449447
40
0.0196193
50
272.9086753
51
331.0060276
0
ARC
8
DEFAULT_255_2_778
10
65.0007633
20
33.5063094
40
0.0823303
50
269.3428575
51
280.4732072
0
ARC
8
DEFAULT_255_2_778
10
65.0050614
20
33.6355121
40
0.2115926
50
253.7246889
51
268.5802992
0
ARC
8
DEFAULT_255_2_778
10
65.0316574
20
33.7420742
40
0.3213672
50
244.9941762
51
254.4974491
0
ARC
8
DEFAULT_255_2_778
10
65.0002106
20
33.6882527
40
0.2593615
50
215.6645711
51
246.2641212
0
LINE
8
DEFAULT_255_2_778
10
66.2711938
20
62.2914348
11
66.2711938
21
62.3385348
0
LINE
8
DEFAULT_255_2_778
10
66.2711938
20
62.3385348
11
66.2261938
21
62.3429348
0
LINE
8
DEFAULT_255_2_778
10
66.2261938
20
62.3429348
11
66.1415938
21
62.3448348
0
LINE
8
DEFAULT_255_2_778
10
66.2708938
20
62.2914348
11
66.2708938
21
62.1913348
0
LINE
8
DEFAULT_255_2_778
10
64.7564938
20
33.6693348
11
66.2447938
21
33.6693348
0
LINE
8
DEFAULT_255_2_778
10
66.2447938
20
33.6693348
11
65.9801938
21
33.4377348
0
LINE
8
DEFAULT_255_2_778
10
65.9801938
20
33.4377348
11
65.0318938
21
33.4354348
0
LINE
8
DEFAULT_255_2_778
10
64.7894938
20
33.5370348
11
64.7233938
21
33.6693348
0
LINE
8
DEFAULT_255_2_778
10
65.0319075
20
33.435424
11
64.8163075
21
33.439924
0
LINE
8
DEFAULT_255_2_778
10
64.8163075
20
33.439924
11
64.7713075
21
33.444424
0
LINE
8
DEFAULT_255_2_778
10
64.7713075
20
33.444424
11
64.7713075
21
33.491524
0
LINE
8
DEFAULT_255_2_778
10
66.0103075
20
33.435724
11
66.0013075
21
33.429924
0
LINE
8
DEFAULT_255_2_778
10
65.0319075
20
33.435424
11
65.1451075
21
33.433024
0
LINE
8
DEFAULT_255_2_778
10
65.1451075
20
33.433024
11
66.0106075
21
33.435724
0
LINE
8
DEFAULT_255_2_778
10
65.0406075
20
33.429924
11
65.0319075
21
33.435424
0
LINE
8
DEFAULT_255_2_778
10
54.2062075
20
33.437824
11
56.2898075
21
33.437824
0
LINE
8
DEFAULT_255_2_778
10
56.2898075
20
33.437824
11
56.2898075
21
33.669324
0
LINE
8
DEFAULT_255_2_778
10
56.2898075
20
33.669324
11
54.2062075
21
33.669324
0
LINE
8
DEFAULT_255_2_778
10
54.2062075
20
33.669324
11
54.2062075
21
33.437824
0
LINE
8
DEFAULT_255_2_778
10
56.2898762
20
33.4378552
11
64.6572762
21
33.4378552
0
LINE
8
DEFAULT_255_2_778
10
64.6572762
20
33.4378552
11
64.6572762
21
33.6693552
0
LINE
8
DEFAULT_255_2_778
10
64.6572762
20
33.6693552
11
56.2898762
21
33.6693552
0
LINE
8
DEFAULT_255_2_778
10
56.2898762
20
33.6693552
11
56.2898762
21
33.4378552
0
ARC
8
DEFAULT_255_2_778
10
65.0509351
20
62.2146129
40
0.0184447
50
273.2125924
51
321.1059981
0
ARC
8
DEFAULT_255_2_778
10
65.0330943
20
62.3034793
40
0.1089299
50
269.1407252
51
279.978061
0
ARC
8
DEFAULT_255_2_778
10
65.0366351
20
62.505428
40
0.3109094
50
258.4958767
51
269.046404
0
ARC
8
DEFAULT_255_2_778
10
65.0577692
20
62.6298756
40
0.4370913
50
251.9220032
51
259.0346491
0
ARC
8
DEFAULT_255_2_778
10
64.9986655
20
62.4784935
40
0.274996
50
226.6778509
51
253.8413848
0
LINE
8
DEFAULT_255_2_778
10
64.7747908
20
62.3766318
11
66.3439908
21
62.3766318
0
LINE
8
DEFAULT_255_2_778
10
66.3439908
20
62.3766318
11
66.0650908
21
62.2049318
0
LINE
8
DEFAULT_255_2_778
10
66.0650908
20
62.2049318
11
65.0652908
21
62.2030318
0
LINE
8
DEFAULT_255_2_778
10
64.8099908
20
62.2784318
11
64.7400908
21
62.3766318
0
LINE
8
DEFAULT_255_2_778
10
56.3641908
20
62.1946318
11
64.7315908
21
62.1946318
0
LINE
8
DEFAULT_255_2_778
10
64.7315908
20
62.1946318
11
64.7315908
21
62.3681318
0
LINE
8
DEFAULT_255_2_778
10
64.7315908
20
62.3681318
11
56.3641908
21
62.3681318
0
LINE
8
DEFAULT_255_2_778
10
56.3641908
20
62.3681318
11
56.3641908
21
62.1946318
0
LINE
8
DEFAULT_255_2_778
10
54.2311104
20
62.1945833
11
56.2319104
21
62.1945833
0
LINE
8
DEFAULT_255_2_778
10
56.2319104
20
62.1945833
11
56.2319104
21
62.3681833
0
LINE
8
DEFAULT_255_2_778
10
56.2319104
20
62.3681833
11
54.2311104
21
62.3681833
0
LINE
8
DEFAULT_255_2_778
10
54.2311104
20
62.3681833
11
54.2311104
21
62.1945833
0
LINE
8
DEFAULT_255_2_778
10
43.4509344
20
22.889876
11
43.4509344
21
24.352276
0
LINE
8
DEFAULT_255_2_778
10
43.4509344
20
24.352276
11
43.5258344
21
24.352276
0
LINE
8
DEFAULT_255_2_778
10
43.5258344
20
24.352276
11
43.9758344
21
23.489776
0
LINE
8
DEFAULT_255_2_778
10
43.9758344
20
23.489776
11
44.4259344
21
24.352276
0
LINE
8
DEFAULT_255_2_778
10
44.4259344
20
24.352276
11
44.5010344
21
24.352276
0
LINE
8
DEFAULT_255_2_778
10
44.5010344
20
24.352276
11
44.5010344
21
22.889876
0
LINE
8
DEFAULT_255_2_778
10
43.5261344
20
22.889876
11
43.5261344
21
24.277376
0
LINE
8
DEFAULT_255_2_778
10
43.5261344
20
24.277376
11
43.9385344
21
23.414876
0
LINE
8
DEFAULT_255_2_778
10
43.9385344
20
23.414876
11
44.0137344
21
23.414876
0
LINE
8
DEFAULT_255_2_778
10
44.0137344
20
23.414876
11
44.4262344
21
24.277376
0
LINE
8
DEFAULT_255_2_778
10
44.4262344
20
24.277376
11
44.4262344
21
22.889876
0
LINE
8
DEFAULT_255_2_778
10
42.2884
20
23.9685937
11
42.3259
21
24.0810937
0
LINE
8
DEFAULT_255_2_778
10
42.3259
20
24.0810937
11
42.3635
21
24.1561937
0
LINE
8
DEFAULT_255_2_778
10
42.3635
20
24.1561937
11
42.4011
21
24.1937937
0
LINE
8
DEFAULT_255_2_778
10
42.4011
20
24.1937937
11
42.476
21
24.2313937
0
LINE
8
DEFAULT_255_2_778
10
42.476
20
24.2313937
11
42.5884
21
24.2688937
0
LINE
8
DEFAULT_255_2_778
10
42.5884
20
24.2688937
11
42.626
21
24.2688937
0
LINE
8
DEFAULT_255_2_778
10
42.626
20
24.2688937
11
42.7384
21
24.2313937
0
LINE
8
DEFAULT_255_2_778
10
42.7384
20
24.2313937
11
42.8133
21
24.1937937
0
LINE
8
DEFAULT_255_2_778
10
42.8133
20
24.1937937
11
42.8509
21
24.1561937
0
LINE
8
DEFAULT_255_2_778
10
42.8509
20
24.1561937
11
42.8885
21
24.0810937
0
LINE
8
DEFAULT_255_2_778
10
42.8885
20
24.0810937
11
42.926
21
23.9685937
0
LINE
8
DEFAULT_255_2_778
10
42.926
20
23.9685937
11
42.926
21
23.9310937
0
LINE
8
DEFAULT_255_2_778
10
42.926
20
23.9310937
11
42.8885
21
23.8561937
0
LINE
8
DEFAULT_255_2_778
10
42.8885
20
23.8561937
11
42.2135
21
22.9187937
0
LINE
8
DEFAULT_255_2_778
10
42.2135
20
22.9187937
11
42.2135
21
22.8435937
0
LINE
8
DEFAULT_255_2_778
10
42.2135
20
22.8435937
11
42.9636
21
22.8435937
0
LINE
8
DEFAULT_255_2_778
10
42.2135
20
23.9685937
11
42.2135
21
24.0061937
0
LINE
8
DEFAULT_255_2_778
10
42.2135
20
24.0061937
11
42.2511
21
24.1185937
0
LINE
8
DEFAULT_255_2_778
10
42.2511
20
24.1185937
11
42.3259
21
24.2310937
0
LINE
8
DEFAULT_255_2_778
10
42.3259
20
24.2310937
11
42.4384
21
24.3061937
0
LINE
8
DEFAULT_255_2_778
10
42.4384
20
24.3061937
11
42.5508
21
24.3437937
0
LINE
8
DEFAULT_255_2_778
10
42.5508
20
24.3437937
11
42.6633
21
24.3437937
0
LINE
8
DEFAULT_255_2_778
10
42.6633
20
24.3437937
11
42.7757
21
24.3061937
0
LINE
8
DEFAULT_255_2_778
10
42.7757
20
24.3061937
11
42.8882
21
24.2310937
0
LINE
8
DEFAULT_255_2_778
10
42.8882
20
24.2310937
11
42.9633
21
24.1185937
0
LINE
8
DEFAULT_255_2_778
10
42.9633
20
24.1185937
11
43.0009
21
24.0061937
0
LINE
8
DEFAULT_255_2_778
10
43.0009
20
24.0061937
11
43.0009
21
23.8936937
0
LINE
8
DEFAULT_255_2_778
10
43.0009
20
23.8936937
11
42.9633
21
23.7812937
0
LINE
8
DEFAULT_255_2_778
10
42.9633
20
23.7812937
11
42.2884
21
22.9187937
0
LINE
8
DEFAULT_255_2_778
10
42.2884
20
22.9187937
11
42.9633
21
22.9187937
0
LINE
8
DEFAULT_255_2_778
10
18.0125344
20
22.895176
11
18.0125344
21
24.357576
0
LINE
8
DEFAULT_255_2_778
10
18.0125344
20
24.357576
11
18.0874344
21
24.357576
0
LINE
8
DEFAULT_255_2_778
10
18.0874344
20
24.357576
11
18.5374344
21
23.495076
0
LINE
8
DEFAULT_255_2_778
10
18.5374344
20
23.495076
11
18.9875344
21
24.357576
0
LINE
8
DEFAULT_255_2_778
10
18.9875344
20
24.357576
11
19.0626344
21
24.357576
0
LINE
8
DEFAULT_255_2_778
10
19.0626344
20
24.357576
11
19.0626344
21
22.895176
0
LINE
8
DEFAULT_255_2_778
10
18.0876344
20
22.895176
11
18.0876344
21
24.282676
0
LINE
8
DEFAULT_255_2_778
10
18.0876344
20
24.282676
11
18.5001344
21
23.420176
0
LINE
8
DEFAULT_255_2_778
10
18.5001344
20
23.420176
11
18.5753344
21
23.420176
0
LINE
8
DEFAULT_255_2_778
10
18.5753344
20
23.420176
11
18.9878344
21
24.282676
0
LINE
8
DEFAULT_255_2_778
10
18.9878344
20
24.282676
11
18.9878344
21
22.895176
0
LINE
8
DEFAULT_255_2_778
10
16.9706771
20
23.7858083
11
17.4955771
21
24.2359083
0
LINE
8
DEFAULT_255_2_778
10
17.4955771
20
24.2359083
11
17.4955771
21
22.8859083
0
LINE
8
DEFAULT_255_2_778
10
16.9330771
20
23.8234083
11
17.5331771
21
24.3483083
0
LINE
8
DEFAULT_255_2_778
10
17.5331771
20
24.3483083
11
17.5706771
21
24.3483083
0
LINE
8
DEFAULT_255_2_778
10
17.5706771
20
24.3483083
11
17.5706771
21
22.8857083
0
LINE
8
DEFAULT_255_2_778
10
27.9995771
20
23.7985083
11
28.5244771
21
24.2486083
0
LINE
8
DEFAULT_255_2_778
10
28.5244771
20
24.2486083
11
28.5244771
21
22.8986083
0
LINE
8
DEFAULT_255_2_778
10
27.9619771
20
23.8361083
11
28.5620771
21
24.3610083
0
LINE
8
DEFAULT_255_2_778
10
28.5620771
20
24.3610083
11
28.5995771
21
24.3610083
0
LINE
8
DEFAULT_255_2_778
10
28.5995771
20
24.3610083
11
28.5995771
21
22.8984083
0
LINE
8
DEFAULT_255_2_778
10
22.2353052
20
23.0534271
11
22.3102052
21
22.9783271
0
LINE
8
DEFAULT_255_2_778
10
22.3102052
20
22.9783271
11
22.3102052
21
22.9407271
0
LINE
8
DEFAULT_255_2_778
10
22.3102052
20
22.9407271
11
22.2353052
21
22.8655271
0
LINE
8
DEFAULT_255_2_778
10
22.2353052
20
22.8655271
11
22.1977052
21
22.8655271
0
LINE
8
DEFAULT_255_2_778
10
22.1977052
20
22.8655271
11
22.1226052
21
22.9407271
0
LINE
8
DEFAULT_255_2_778
10
22.1226052
20
22.9407271
11
22.1226052
21
22.9783271
0
LINE
8
DEFAULT_255_2_778
10
22.1226052
20
22.9783271
11
22.1977052
21
23.0534271
0
LINE
8
DEFAULT_255_2_778
10
22.1977052
20
23.0534271
11
22.2353052
21
23.0534271
0
LINE
8
DEFAULT_255_2_778
10
22.2353052
20
23.0534271
11
22.3102052
21
22.9783271
0
LINE
8
DEFAULT_255_2_778
10
22.3102052
20
22.9783271
11
22.3102052
21
22.9407271
0
LINE
8
DEFAULT_255_2_778
10
22.3102052
20
22.9407271
11
22.2353052
21
22.8655271
0
LINE
8
DEFAULT_255_2_778
10
22.2353052
20
22.8655271
11
22.1977052
21
22.8655271
0
LINE
8
DEFAULT_255_2_778
10
22.1977052
20
22.8655271
11
22.1226052
21
22.9407271
0
LINE
8
DEFAULT_255_2_778
10
22.1226052
20
22.9407271
11
22.1226052
21
22.9783271
0
LINE
8
DEFAULT_255_2_778
10
22.1226052
20
22.9783271
11
22.1977052
21
23.0534271
0
LINE
8
DEFAULT_255_2_778
10
22.1977052
20
23.0534271
11
22.2353052
21
23.0534271
0
LINE
8
DEFAULT_255_2_778
10
22.1977052
20
22.9783271
11
22.2353052
21
22.9783271
0
LINE
8
DEFAULT_255_2_778
10
22.2353052
20
22.9783271
11
22.2353052
21
22.9407271
0
LINE
8
DEFAULT_255_2_778
10
22.2353052
20
22.9407271
11
22.1977052
21
22.9407271
0
LINE
8
DEFAULT_255_2_778
10
22.1977052
20
22.9407271
11
22.1977052
21
22.9783271
0
LINE
8
DEFAULT_255_2_778
10
32.4061052
20
23.0428271
11
32.4810052
21
22.9677271
0
LINE
8
DEFAULT_255_2_778
10
32.4810052
20
22.9677271
11
32.4810052
21
22.9301271
0
LINE
8
DEFAULT_255_2_778
10
32.4810052
20
22.9301271
11
32.4061052
21
22.8549271
0
LINE
8
DEFAULT_255_2_778
10
32.4061052
20
22.8549271
11
32.3685052
21
22.8549271
0
LINE
8
DEFAULT_255_2_778
10
32.3685052
20
22.8549271
11
32.2934052
21
22.9301271
0
LINE
8
DEFAULT_255_2_778
10
32.2934052
20
22.9301271
11
32.2934052
21
22.9677271
0
LINE
8
DEFAULT_255_2_778
10
32.2934052
20
22.9677271
11
32.3685052
21
23.0428271
0
LINE
8
DEFAULT_255_2_778
10
32.3685052
20
23.0428271
11
32.4061052
21
23.0428271
0
LINE
8
DEFAULT_255_2_778
10
32.4061052
20
23.0428271
11
32.4810052
21
22.9677271
0
LINE
8
DEFAULT_255_2_778
10
32.4810052
20
22.9677271
11
32.4810052
21
22.9301271
0
LINE
8
DEFAULT_255_2_778
10
32.4810052
20
22.9301271
11
32.4061052
21
22.8549271
0
LINE
8
DEFAULT_255_2_778
10
32.4061052
20
22.8549271
11
32.3685052
21
22.8549271
0
LINE
8
DEFAULT_255_2_778
10
32.3685052
20
22.8549271
11
32.2934052
21
22.9301271
0
LINE
8
DEFAULT_255_2_778
10
32.2934052
20
22.9301271
11
32.2934052
21
22.9677271
0
LINE
8
DEFAULT_255_2_778
10
32.2934052
20
22.9677271
11
32.3685052
21
23.0428271
0
LINE
8
DEFAULT_255_2_778
10
32.3685052
20
23.0428271
11
32.4061052
21
23.0428271
0
LINE
8
DEFAULT_255_2_778
10
32.3685052
20
22.9677271
11
32.4061052
21
22.9677271
0
LINE
8
DEFAULT_255_2_778
10
32.4061052
20
22.9677271
11
32.4061052
21
22.9301271
0
LINE
8
DEFAULT_255_2_778
10
32.4061052
20
22.9301271
11
32.3685052
21
22.9301271
0
LINE
8
DEFAULT_255_2_778
10
32.3685052
20
22.9301271
11
32.3685052
21
22.9677271
0
ARC
8
DEFAULT_255_2_778
10
24.1511154
20
23.6126688
40
1.3123091
50
166.2178196
51
180.3053554
0
ARC
8
DEFAULT_255_2_778
10
23.6524876
20
23.7401854
40
0.7976751
50
150.2899812
51
166.5810146
0
ARC
8
DEFAULT_255_2_778
10
23.2533053
20
23.9761789
40
0.3340828
50
121.7095204
51
151.5132202
0
ARC
8
DEFAULT_255_2_778
10
23.1614828
20
24.1141035
40
0.1685778
50
90.4954794
51
119.7988486
0
ARC
8
DEFAULT_255_2_778
10
23.1468012
20
24.0711535
40
0.2119344
50
35.510229
51
86.4226499
0
ARC
8
DEFAULT_255_2_778
10
22.854252
20
23.8268369
40
0.5926914
50
18.9420983
51
38.3099456
0
ARC
8
DEFAULT_255_2_778
10
22.3539628
20
23.643911
40
1.1253187
50
5.292469
51
19.4828178
0
ARC
8
DEFAULT_255_2_778
10
22.063291
20
23.6065659
40
1.4182342
50
359.9640057
51
5.7115912
0
ARC
8
DEFAULT_255_2_778
10
22.168768
20
23.5986706
40
1.3127757
50
346.2202785
51
0.3057051
0
ARC
8
DEFAULT_255_2_778
10
22.6677715
20
23.4710858
40
0.7977609
50
330.2923767
51
346.5833537
0
ARC
8
DEFAULT_255_2_778
10
23.0669888
20
23.235107
40
0.3341453
50
301.7244981
51
331.5135337
0
ARC
8
DEFAULT_255_2_778
10
23.1588653
20
23.0971589
40
0.1685901
50
270.496077
51
299.8172667
0
ARC
8
DEFAULT_255_2_778
10
23.1735442
20
23.1398774
40
0.2117155
50
215.4642526
51
266.4202016
0
ARC
8
DEFAULT_255_2_778
10
23.4666165
20
23.384277
40
0.5929264
50
198.9096769
51
218.269534
0
ARC
8
DEFAULT_255_2_778
10
23.9683302
20
23.5674155
40
1.1269643
50
185.2822525
51
199.4516845
0
ARC
8
DEFAULT_255_2_778
10
24.2596808
20
23.6047865
40
1.420556
50
179.9641627
51
185.7013149
0
ARC
8
DEFAULT_255_2_778
10
24.0886885
20
23.6199388
40
1.3281802
50
165.3283828
51
180.2874696
0
ARC
8
DEFAULT_255_2_778
10
23.639305
20
23.7427664
40
0.8623545
50
148.6168444
51
165.6608062
0
ARC
8
DEFAULT_255_2_778
10
23.2554888
20
23.9850286
40
0.408588
50
120.4654383
51
149.5907207
0
ARC
8
DEFAULT_255_2_778
10
23.1590321
20
24.137051
40
0.2287296
50
90.4025836
51
118.9469675
0
ARC
8
DEFAULT_255_2_778
10
23.14427
20
24.0921086
40
0.2739824
50
38.2733317
51
87.2479463
0
ARC
8
DEFAULT_255_2_778
10
22.8584323
20
23.8343881
40
0.6585044
50
20.5040038
51
40.4730676
0
ARC
8
DEFAULT_255_2_778
10
22.3957453
20
23.6512495
40
1.1560665
50
5.796311
51
20.9733309
0
ARC
8
DEFAULT_255_2_778
10
22.1291385
20
23.6141969
40
1.4250868
50
359.9629324
51
6.1958695
0
ARC
8
DEFAULT_255_2_778
10
22.2255967
20
23.6065513
40
1.3286453
50
345.331359
51
0.2899504
0
ARC
8
DEFAULT_255_2_778
10
22.6761718
20
23.483457
40
0.8615994
50
328.6086094
51
345.6627771
0
ARC
8
DEFAULT_255_2_778
10
23.059577
20
23.2413927
40
0.4082854
50
300.4482542
51
329.5803993
0
ARC
8
DEFAULT_255_2_778
10
23.1558232
20
23.0896212
40
0.2287518
50
270.4012072
51
298.9299783
0
ARC
8
DEFAULT_255_2_778
10
23.1710104
20
23.1360651
40
0.2755252
50
217.8185715
51
267.1737673
0
ARC
8
DEFAULT_255_2_778
10
23.4624724
20
23.3959611
40
0.6656575
50
200.2506497
51
220.1081256
0
ARC
8
DEFAULT_255_2_778
10
23.9232947
20
23.5762636
40
1.160443
50
185.7429352
51
200.7273175
0
ARC
8
DEFAULT_255_2_778
10
24.1860393
20
23.6123707
40
1.4255145
50
179.9636529
51
186.1301671
0
LINE
8
DEFAULT_255_2_778
10
22.839125
20
23.605675
11
22.838825
21
23.605675
0
LINE
8
DEFAULT_255_2_778
10
22.760525
20
23.613275
11
22.760525
21
23.613275
0
LINE
8
DEFAULT_255_2_778
10
33.028
20
23.9860937
11
33.0655
21
24.0985937
0
LINE
8
DEFAULT_255_2_778
10
33.0655
20
24.0985937
11
33.1031
21
24.1736937
0
LINE
8
DEFAULT_255_2_778
10
33.1031
20
24.1736937
11
33.1407
21
24.2112937
0
LINE
8
DEFAULT_255_2_778
10
33.1407
20
24.2112937
11
33.2156
21
24.2488937
0
LINE
8
DEFAULT_255_2_778
10
33.2156
20
24.2488937
11
33.328
21
24.2863937
0
LINE
8
DEFAULT_255_2_778
10
33.328
20
24.2863937
11
33.3656
21
24.2863937
0
LINE
8
DEFAULT_255_2_778
10
33.3656
20
24.2863937
11
33.478
21
24.2488937
0
LINE
8
DEFAULT_255_2_778
10
33.478
20
24.2488937
11
33.5529
21
24.2112937
0
LINE
8
DEFAULT_255_2_778
10
33.5529
20
24.2112937
11
33.5905
21
24.1736937
0
LINE
8
DEFAULT_255_2_778
10
33.5905
20
24.1736937
11
33.6281
21
24.0985937
0
LINE
8
DEFAULT_255_2_778
10
33.6281
20
24.0985937
11
33.6656
21
23.9860937
0
LINE
8
DEFAULT_255_2_778
10
33.6656
20
23.9860937
11
33.6656
21
23.9485937
0
LINE
8
DEFAULT_255_2_778
10
33.6656
20
23.9485937
11
33.6281
21
23.8736937
0
LINE
8
DEFAULT_255_2_778
10
33.6281
20
23.8736937
11
32.9531
21
22.9362937
0
LINE
8
DEFAULT_255_2_778
10
32.9531
20
22.9362937
11
32.9531
21
22.8610937
0
LINE
8
DEFAULT_255_2_778
10
32.9531
20
22.8610937
11
33.7032
21
22.8610937
0
LINE
8
DEFAULT_255_2_778
10
32.9531
20
23.9860937
11
32.9531
21
24.0236937
0
LINE
8
DEFAULT_255_2_778
10
32.9531
20
24.0236937
11
32.9907
21
24.1360937
0
LINE
8
DEFAULT_255_2_778
10
32.9907
20
24.1360937
11
33.0655
21
24.2485937
0
LINE
8
DEFAULT_255_2_778
10
33.0655
20
24.2485937
11
33.178
21
24.3236937
0
LINE
8
DEFAULT_255_2_778
10
33.178
20
24.3236937
11
33.2904
21
24.3612937
0
LINE
8
DEFAULT_255_2_778
10
33.2904
20
24.3612937
11
33.4029
21
24.3612937
0
LINE
8
DEFAULT_255_2_778
10
33.4029
20
24.3612937
11
33.5153
21
24.3236937
0
LINE
8
DEFAULT_255_2_778
10
33.5153
20
24.3236937
11
33.6278
21
24.2485937
0
LINE
8
DEFAULT_255_2_778
10
33.6278
20
24.2485937
11
33.7029
21
24.1360937
0
LINE
8
DEFAULT_255_2_778
10
33.7029
20
24.1360937
11
33.7405
21
24.0236937
0
LINE
8
DEFAULT_255_2_778
10
33.7405
20
24.0236937
11
33.7405
21
23.9111937
0
LINE
8
DEFAULT_255_2_778
10
33.7405
20
23.9111937
11
33.7029
21
23.7987937
0
LINE
8
DEFAULT_255_2_778
10
33.7029
20
23.7987937
11
33.028
21
22.9362937
0
LINE
8
DEFAULT_255_2_778
10
33.028
20
22.9362937
11
33.7029
21
22.9362937
0
LINE
8
DEFAULT_255_2_778
10
37.4797729
20
23.0516271
11
37.5549729
21
22.9765271
0
LINE
8
DEFAULT_255_2_778
10
37.5549729
20
22.9765271
11
37.5549729
21
22.9389271
0
LINE
8
DEFAULT_255_2_778
10
37.5549729
20
22.9389271
11
37.4797729
21
22.8637271
0
LINE
8
DEFAULT_255_2_778
10
37.4797729
20
22.8637271
11
37.4421729
21
22.8637271
0
LINE
8
DEFAULT_255_2_778
10
37.4421729
20
22.8637271
11
37.3670729
21
22.9389271
0
LINE
8
DEFAULT_255_2_778
10
37.3670729
20
22.9389271
11
37.3670729
21
22.9765271
0
LINE
8
DEFAULT_255_2_778
10
37.3670729
20
22.9765271
11
37.4421729
21
23.0516271
0
LINE
8
DEFAULT_255_2_778
10
37.4421729
20
23.0516271
11
37.4797729
21
23.0516271
0
LINE
8
DEFAULT_255_2_778
10
37.4797729
20
23.0516271
11
37.5549729
21
22.9765271
0
LINE
8
DEFAULT_255_2_778
10
37.5549729
20
22.9765271
11
37.5549729
21
22.9389271
0
LINE
8
DEFAULT_255_2_778
10
37.5549729
20
22.9389271
11
37.4797729
21
22.8637271
0
LINE
8
DEFAULT_255_2_778
10
37.4797729
20
22.8637271
11
37.4421729
21
22.8637271
0
LINE
8
DEFAULT_255_2_778
10
37.4421729
20
22.8637271
11
37.3670729
21
22.9389271
0
LINE
8
DEFAULT_255_2_778
10
37.3670729
20
22.9389271
11
37.3670729
21
22.9765271
0
LINE
8
DEFAULT_255_2_778
10
37.3670729
20
22.9765271
11
37.4421729
21
23.0516271
0
LINE
8
DEFAULT_255_2_778
10
37.4421729
20
23.0516271
11
37.4797729
21
23.0516271
0
LINE
8
DEFAULT_255_2_778
10
37.4421729
20
22.9765271
11
37.4797729
21
22.9765271
0
LINE
8
DEFAULT_255_2_778
10
37.4797729
20
22.9765271
11
37.4797729
21
22.9389271
0
LINE
8
DEFAULT_255_2_778
10
37.4797729
20
22.9389271
11
37.4421729
21
22.9389271
0
LINE
8
DEFAULT_255_2_778
10
37.4421729
20
22.9389271
11
37.4421729
21
22.9765271
0
ARC
8
DEFAULT_255_2_778
10
38.4689841
20
23.9612637
40
0.4476819
50
147.9223182
51
174.2674312
0
ARC
8
DEFAULT_255_2_778
10
38.4231736
20
23.9881015
40
0.3946158
50
95.5454639
51
147.6917411
0
ARC
8
DEFAULT_255_2_778
10
38.4201924
20
24.004119
40
0.3783877
50
90.3953513
51
95.3305386
0
ARC
8
DEFAULT_255_2_778
10
38.4201327
20
24.0126854
40
0.3698213
50
90.0000022
51
90.3952643
0
ARC
8
DEFAULT_255_2_778
10
38.4217135
20
24.0239596
40
0.3585504
50
49.9953163
51
90.252609
0
ARC
8
DEFAULT_255_2_778
10
38.4119738
20
24.01234
40
0.3737122
50
43.8803961
51
49.9967198
0
ARC
8
DEFAULT_255_2_778
10
38.2241326
20
23.8911395
40
0.594662
50
34.1397995
51
39.7488631
0
ARC
8
DEFAULT_255_2_778
10
38.2620679
20
23.9173119
40
0.5485759
50
31.071413
51
34.1009154
0
ARC
8
DEFAULT_255_2_778
10
38.3118388
20
23.9456276
40
0.4913343
50
17.9860341
51
31.2386375
0
ARC
8
DEFAULT_255_2_778
10
38.3577267
20
23.9609945
40
0.442944
50
1.6659006
51
17.9282812
0
ARC
8
DEFAULT_255_2_778
10
38.3645424
20
23.9615959
40
0.436114
50
0.0001665
51
1.6129574
0
ARC
8
DEFAULT_255_2_778
10
38.3637426
20
23.9616204
40
0.4369138
50
337.2601246
51
359.9969508
0
ARC
8
DEFAULT_255_2_778
10
38.4211023
20
23.9347612
40
0.3736395
50
318.5471484
51
337.6586906
0
ARC
8
DEFAULT_255_2_778
10
38.5187735
20
23.8506532
40
0.2447605
50
307.1486865
51
318.1679936
0
ARC
8
DEFAULT_255_2_778
10
38.5764222
20
23.7728201
40
0.1479125
50
290.651888
51
307.5562807
0
ARC
8
DEFAULT_255_2_778
10
38.5996261
20
23.7118225
40
0.082651
50
270.8423319
51
290.513462
0
ARC
8
DEFAULT_255_2_778
10
38.4775877
20
23.3458391
40
0.3089883
50
33.6146379
51
66.4909666
0
ARC
8
DEFAULT_255_2_778
10
38.3936616
20
23.3017001
40
0.4034325
50
0.4973473
51
32.236365
0
ARC
8
DEFAULT_255_2_778
10
38.2782309
20
23.2894321
40
0.5190878
50
359.9961739
51
1.7409169
0
ARC
8
DEFAULT_255_2_778
10
38.2559649
20
23.2891748
40
0.5413537
50
338.0513175
51
0.0235661
0
ARC
8
DEFAULT_255_2_778
10
38.4500121
20
23.2077493
40
0.3309499
50
319.1871366
51
338.5695712
0
ARC
8
DEFAULT_255_2_778
10
38.5597635
20
23.1182419
40
0.1894256
50
309.9279107
51
317.9805192
0
ARC
8
DEFAULT_255_2_778
10
38.3778414
20
23.3271554
40
0.4664246
50
276.3391771
51
310.5939479
0
ARC
8
DEFAULT_255_2_778
10
38.3857138
20
23.2791028
40
0.4178043
50
270.0274927
51
275.9937998
0
ARC
8
DEFAULT_255_2_778
10
38.3770734
20
23.1982803
40
0.3370976
50
211.940262
51
271.5028258
0
ARC
8
DEFAULT_255_2_778
10
38.4671279
20
23.2489204
40
0.4403329
50
190.635922
51
211.3327576
0
ARC
8
DEFAULT_255_2_778
10
38.6455682
20
23.2888332
40
0.6231058
50
183.3722345
51
191.2145705
0
ARC
8
DEFAULT_255_2_778
10
38.6047787
20
23.8790534
40
0.5263386
50
151.4317137
51
167.5884451
0
ARC
8
DEFAULT_255_2_778
10
38.4570603
20
23.9606933
40
0.3575662
50
126.9137526
51
151.6016216
0
ARC
8
DEFAULT_255_2_778
10
38.4176615
20
24.0100691
40
0.2944307
50
95.4911388
51
126.5546664
0
ARC
8
DEFAULT_255_2_778
10
38.4170744
20
24.0117094
40
0.2927421
50
89.9982624
51
95.4074773
0
ARC
8
DEFAULT_255_2_778
10
38.417465
20
24.0112447
40
0.293207
50
44.1515144
51
90.0745883
0
ARC
8
DEFAULT_255_2_778
10
38.2404168
20
23.9509642
40
0.4691125
50
6.9737351
51
34.3235408
0
ARC
8
DEFAULT_255_2_778
10
38.2050084
20
23.9418804
40
0.5053839
50
0.0343314
51
7.5085685
0
ARC
8
DEFAULT_255_2_778
10
38.3242679
20
23.9341089
40
0.3862088
50
333.2971868
51
1.1979507
0
ARC
8
DEFAULT_255_2_778
10
38.5055271
20
23.8375325
40
0.1809475
50
270.2848061
51
334.8252724
0
ARC
8
DEFAULT_255_2_778
10
38.5065016
20
23.8637282
40
0.2071411
50
266.4681818
51
269.9792244
0
ARC
8
DEFAULT_255_2_778
10
38.6029215
20
23.370465
40
0.5264143
50
192.427271
51
208.5799302
0
ARC
8
DEFAULT_255_2_778
10
38.4552188
20
23.288795
40
0.3576411
50
208.4101285
51
233.0907169
0
ARC
8
DEFAULT_255_2_778
10
38.4158415
20
23.2394427
40
0.2945373
50
233.4500365
51
264.5000314
0
ARC
8
DEFAULT_255_2_778
10
38.415258
20
23.2378262
40
0.2928726
50
264.583351
51
270.0020711
0
ARC
8
DEFAULT_255_2_778
10
38.415657
20
23.2382803
40
0.293327
50
269.924127
51
315.8265892
0
ARC
8
DEFAULT_255_2_778
10
38.2386151
20
23.2983878
40
0.4691088
50
325.6774883
51
353.0318449
0
ARC
8
DEFAULT_255_2_778
10
38.2031911
20
23.3074771
40
0.5053959
50
352.4962097
51
359.9659188
0
ARC
8
DEFAULT_255_2_778
10
38.3224404
20
23.3152514
40
0.386231
50
358.8020351
51
26.7015036
0
ARC
8
DEFAULT_255_2_778
10
38.5037195
20
23.4118311
40
0.1809505
50
25.1738544
51
89.7162088
0
ARC
8
DEFAULT_255_2_778
10
38.5046827
20
23.3858306
40
0.2069488
50
90.0185288
51
93.5575969
0
LINE
8
DEFAULT_255_2_778
10
47.7120729
20
23.0487271
11
47.7872729
21
22.9736271
0
LINE
8
DEFAULT_255_2_778
10
47.7872729
20
22.9736271
11
47.7872729
21
22.9360271
0
LINE
8
DEFAULT_255_2_778
10
47.7872729
20
22.9360271
11
47.7120729
21
22.8608271
0
LINE
8
DEFAULT_255_2_778
10
47.7120729
20
22.8608271
11
47.6744729
21
22.8608271
0
LINE
8
DEFAULT_255_2_778
10
47.6744729
20
22.8608271
11
47.5993729
21
22.9360271
0
LINE
8
DEFAULT_255_2_778
10
47.5993729
20
22.9360271
11
47.5993729
21
22.9736271
0
LINE
8
DEFAULT_255_2_778
10
47.5993729
20
22.9736271
11
47.6744729
21
23.0487271
0
LINE
8
DEFAULT_255_2_778
10
47.6744729
20
23.0487271
11
47.7120729
21
23.0487271
0
LINE
8
DEFAULT_255_2_778
10
47.7120729
20
23.0487271
11
47.7872729
21
22.9736271
0
LINE
8
DEFAULT_255_2_778
10
47.7872729
20
22.9736271
11
47.7872729
21
22.9360271
0
LINE
8
DEFAULT_255_2_778
10
47.7872729
20
22.9360271
11
47.7120729
21
22.8608271
0
LINE
8
DEFAULT_255_2_778
10
47.7120729
20
22.8608271
11
47.6744729
21
22.8608271
0
LINE
8
DEFAULT_255_2_778
10
47.6744729
20
22.8608271
11
47.5993729
21
22.9360271
0
LINE
8
DEFAULT_255_2_778
10
47.5993729
20
22.9360271
11
47.5993729
21
22.9736271
0
LINE
8
DEFAULT_255_2_778
10
47.5993729
20
22.9736271
11
47.6744729
21
23.0487271
0
LINE
8
DEFAULT_255_2_778
10
47.6744729
20
23.0487271
11
47.7120729
21
23.0487271
0
LINE
8
DEFAULT_255_2_778
10
47.6744729
20
22.9736271
11
47.7120729
21
22.9736271
0
LINE
8
DEFAULT_255_2_778
10
47.7120729
20
22.9736271
11
47.7120729
21
22.9360271
0
LINE
8
DEFAULT_255_2_778
10
47.7120729
20
22.9360271
11
47.6744729
21
22.9360271
0
LINE
8
DEFAULT_255_2_778
10
47.6744729
20
22.9360271
11
47.6744729
21
22.9736271
0
LINE
8
DEFAULT_255_2_778
10
52.7375729
20
23.0487271
11
52.8127729
21
22.9736271
0
LINE
8
DEFAULT_255_2_778
10
52.8127729
20
22.9736271
11
52.8127729
21
22.9360271
0
LINE
8
DEFAULT_255_2_778
10
52.8127729
20
22.9360271
11
52.7375729
21
22.8608271
0
LINE
8
DEFAULT_255_2_778
10
52.7375729
20
22.8608271
11
52.6999729
21
22.8608271
0
LINE
8
DEFAULT_255_2_778
10
52.6999729
20
22.8608271
11
52.6248729
21
22.9360271
0
LINE
8
DEFAULT_255_2_778
10
52.6248729
20
22.9360271
11
52.6248729
21
22.9736271
0
LINE
8
DEFAULT_255_2_778
10
52.6248729
20
22.9736271
11
52.6999729
21
23.0487271
0
LINE
8
DEFAULT_255_2_778
10
52.6999729
20
23.0487271
11
52.7375729
21
23.0487271
0
LINE
8
DEFAULT_255_2_778
10
52.7375729
20
23.0487271
11
52.8127729
21
22.9736271
0
LINE
8
DEFAULT_255_2_778
10
52.8127729
20
22.9736271
11
52.8127729
21
22.9360271
0
LINE
8
DEFAULT_255_2_778
10
52.8127729
20
22.9360271
11
52.7375729
21
22.8608271
0
LINE
8
DEFAULT_255_2_778
10
52.7375729
20
22.8608271
11
52.6999729
21
22.8608271
0
LINE
8
DEFAULT_255_2_778
10
52.6999729
20
22.8608271
11
52.6248729
21
22.9360271
0
LINE
8
DEFAULT_255_2_778
10
52.6248729
20
22.9360271
11
52.6248729
21
22.9736271
0
LINE
8
DEFAULT_255_2_778
10
52.6248729
20
22.9736271
11
52.6999729
21
23.0487271
0
LINE
8
DEFAULT_255_2_778
10
52.6999729
20
23.0487271
11
52.7375729
21
23.0487271
0
LINE
8
DEFAULT_255_2_778
10
52.6999729
20
22.9736271
11
52.7375729
21
22.9736271
0
LINE
8
DEFAULT_255_2_778
10
52.7375729
20
22.9736271
11
52.7375729
21
22.9360271
0
LINE
8
DEFAULT_255_2_778
10
52.7375729
20
22.9360271
11
52.6999729
21
22.9360271
0
LINE
8
DEFAULT_255_2_778
10
52.6999729
20
22.9360271
11
52.6999729
21
22.9736271
0
LINE
8
DEFAULT_255_2_778
10
53.2627
20
23.2360614
11
53.2627
21
23.1984614
0
LINE
8
DEFAULT_255_2_778
10
53.2627
20
23.1984614
11
53.3003
21
23.0860614
0
LINE
8
DEFAULT_255_2_778
10
53.3003
20
23.0860614
11
53.3751
21
22.9735614
0
LINE
8
DEFAULT_255_2_778
10
53.3751
20
22.9735614
11
53.4876
21
22.8986614
0
LINE
8
DEFAULT_255_2_778
10
53.4876
20
22.8986614
11
53.6
21
22.8611614
0
LINE
8
DEFAULT_255_2_778
10
53.6
20
22.8611614
11
53.7125
21
22.8611614
0
LINE
8
DEFAULT_255_2_778
10
53.7125
20
22.8611614
11
53.8249
21
22.8986614
0
LINE
8
DEFAULT_255_2_778
10
53.8249
20
22.8986614
11
53.9374
21
22.9735614
0
LINE
8
DEFAULT_255_2_778
10
53.9374
20
22.9735614
11
54.0125
21
23.0860614
0
LINE
8
DEFAULT_255_2_778
10
54.0125
20
23.0860614
11
54.0501
21
23.1984614
0
LINE
8
DEFAULT_255_2_778
10
54.0501
20
23.1984614
11
54.0501
21
23.4609614
0
LINE
8
DEFAULT_255_2_778
10
54.0501
20
23.4609614
11
54.0125
21
23.5733614
0
LINE
8
DEFAULT_255_2_778
10
54.0125
20
23.5733614
11
53.9374
21
23.6858614
0
LINE
8
DEFAULT_255_2_778
10
53.9374
20
23.6858614
11
53.8249
21
23.7607614
0
LINE
8
DEFAULT_255_2_778
10
53.8249
20
23.7607614
11
53.7125
21
23.7982614
0
LINE
8
DEFAULT_255_2_778
10
53.7125
20
23.7982614
11
53.3376
21
23.7982614
0
LINE
8
DEFAULT_255_2_778
10
53.3376
20
23.7982614
11
53.3376
21
24.2859614
0
LINE
8
DEFAULT_255_2_778
10
53.3376
20
24.2859614
11
54.0125
21
24.2859614
0
LINE
8
DEFAULT_255_2_778
10
53.3376
20
23.2357614
11
53.3751
21
23.1233614
0
LINE
8
DEFAULT_255_2_778
10
53.3751
20
23.1233614
11
53.4127
21
23.0484614
0
LINE
8
DEFAULT_255_2_778
10
53.4127
20
23.0484614
11
53.4503
21
23.0108614
0
LINE
8
DEFAULT_255_2_778
10
53.4503
20
23.0108614
11
53.5252
21
22.9733614
0
LINE
8
DEFAULT_255_2_778
10
53.5252
20
22.9733614
11
53.6376
21
22.9357614
0
LINE
8
DEFAULT_255_2_778
10
53.6376
20
22.9357614
11
53.6752
21
22.9357614
0
LINE
8
DEFAULT_255_2_778
10
53.6752
20
22.9357614
11
53.7876
21
22.9733614
0
LINE
8
DEFAULT_255_2_778
10
53.7876
20
22.9733614
11
53.8625
21
23.0108614
0
LINE
8
DEFAULT_255_2_778
10
53.8625
20
23.0108614
11
53.9001
21
23.0484614
0
LINE
8
DEFAULT_255_2_778
10
53.9001
20
23.0484614
11
53.9377
21
23.1233614
0
LINE
8
DEFAULT_255_2_778
10
53.9377
20
23.1233614
11
53.9752
21
23.2357614
0
LINE
8
DEFAULT_255_2_778
10
53.9752
20
23.2357614
11
53.9752
21
23.4233614
0
LINE
8
DEFAULT_255_2_778
10
53.9752
20
23.4233614
11
53.9377
21
23.5358614
0
LINE
8
DEFAULT_255_2_778
10
53.9377
20
23.5358614
11
53.9001
21
23.6109614
0
LINE
8
DEFAULT_255_2_778
10
53.9001
20
23.6109614
11
53.8625
21
23.6485614
0
LINE
8
DEFAULT_255_2_778
10
53.8625
20
23.6485614
11
53.7876
21
23.6860614
0
LINE
8
DEFAULT_255_2_778
10
53.7876
20
23.6860614
11
53.6752
21
23.7236614
0
LINE
8
DEFAULT_255_2_778
10
53.6752
20
23.7236614
11
53.2627
21
23.7236614
0
LINE
8
DEFAULT_255_2_778
10
53.2627
20
23.7236614
11
53.2627
21
24.3610614
0
LINE
8
DEFAULT_255_2_778
10
53.2627
20
24.3610614
11
54.0128
21
24.3610614
0
LINE
8
DEFAULT_255_2_778
10
48.9873531
20
23.1984083
11
48.8749531
21
23.1984083
0
LINE
8
DEFAULT_255_2_778
10
48.8749531
20
23.1984083
11
48.8749531
21
22.8984083
0
LINE
8
DEFAULT_255_2_778
10
48.8000531
20
22.8984083
11
48.8000531
21
23.1984083
0
LINE
8
DEFAULT_255_2_778
10
48.8000531
20
23.1984083
11
48.2375531
21
23.1984083
0
LINE
8
DEFAULT_255_2_778
10
48.2375531
20
23.1984083
11
48.2375531
21
23.2360083
0
LINE
8
DEFAULT_255_2_778
10
48.2375531
20
23.2360083
11
48.8376531
21
24.3610083
0
LINE
8
DEFAULT_255_2_778
10
48.8376531
20
24.3610083
11
48.8751531
21
24.3610083
0
LINE
8
DEFAULT_255_2_778
10
48.8751531
20
24.3610083
11
48.8751531
21
23.2736083
0
LINE
8
DEFAULT_255_2_778
10
48.8751531
20
23.2736083
11
48.9876531
21
23.2736083
0
LINE
8
DEFAULT_255_2_778
10
48.8000531
20
23.2736083
11
48.3124531
21
23.2736083
0
LINE
8
DEFAULT_255_2_778
10
48.3124531
20
23.2736083
11
48.8000531
21
24.1737083
0
LINE
8
DEFAULT_255_2_778
10
48.8000531
20
24.1737083
11
48.8000531
21
23.2736083
0
LINE
8
DEFAULT_255_2_778
10
57.8071771
20
23.0367583
11
57.7320771
21
22.9616583
0
LINE
8
DEFAULT_255_2_778
10
57.7320771
20
22.9616583
11
57.7320771
21
22.9240583
0
LINE
8
DEFAULT_255_2_778
10
57.7320771
20
22.9240583
11
57.8071771
21
22.8489583
0
LINE
8
DEFAULT_255_2_778
10
57.8071771
20
22.8489583
11
57.8447771
21
22.8489583
0
LINE
8
DEFAULT_255_2_778
10
57.8447771
20
22.8489583
11
57.9199771
21
22.9240583
0
LINE
8
DEFAULT_255_2_778
10
57.9199771
20
22.9240583
11
57.9199771
21
22.9616583
0
LINE
8
DEFAULT_255_2_778
10
57.9199771
20
22.9616583
11
57.8447771
21
23.0367583
0
LINE
8
DEFAULT_255_2_778
10
57.8447771
20
23.0367583
11
57.8071771
21
23.0367583
0
LINE
8
DEFAULT_255_2_778
10
57.8071771
20
22.9243583
11
57.8447771
21
22.9243583
0
LINE
8
DEFAULT_255_2_778
10
57.8447771
20
22.9243583
11
57.8447771
21
22.9619583
0
LINE
8
DEFAULT_255_2_778
10
57.8447771
20
22.9619583
11
57.8071771
21
22.9619583
0
LINE
8
DEFAULT_255_2_778
10
57.8071771
20
22.9619583
11
57.8071771
21
22.9243583
0
LINE
8
DEFAULT_255_2_778
10
59.1570771
20
23.9744583
11
59.1570771
21
24.0120583
0
LINE
8
DEFAULT_255_2_778
10
59.1570771
20
24.0120583
11
59.1195771
21
24.1244583
0
LINE
8
DEFAULT_255_2_778
10
59.1195771
20
24.1244583
11
59.0446771
21
24.2369583
0
LINE
8
DEFAULT_255_2_778
10
59.0446771
20
24.2369583
11
58.9321771
21
24.3120583
0
LINE
8
DEFAULT_255_2_778
10
58.9321771
20
24.3120583
11
58.8197771
21
24.3496583
0
LINE
8
DEFAULT_255_2_778
10
58.8197771
20
24.3496583
11
58.7073771
21
24.3496583
0
LINE
8
DEFAULT_255_2_778
10
58.7073771
20
24.3496583
11
58.5948771
21
24.3120583
0
LINE
8
DEFAULT_255_2_778
10
58.5948771
20
24.3120583
11
58.4824771
21
24.2369583
0
LINE
8
DEFAULT_255_2_778
10
58.4824771
20
24.2369583
11
58.4072771
21
24.1244583
0
LINE
8
DEFAULT_255_2_778
10
58.4072771
20
24.1244583
11
58.3696771
21
24.0120583
0
LINE
8
DEFAULT_255_2_778
10
58.3696771
20
24.0120583
11
58.3696771
21
23.2246583
0
LINE
8
DEFAULT_255_2_778
10
58.3696771
20
23.2246583
11
58.4072771
21
23.1121583
0
LINE
8
DEFAULT_255_2_778
10
58.4072771
20
23.1121583
11
58.4824771
21
22.9997583
0
LINE
8
DEFAULT_255_2_778
10
58.4824771
20
22.9997583
11
58.5948771
21
22.8872583
0
LINE
8
DEFAULT_255_2_778
10
58.5948771
20
22.8872583
11
58.7073771
21
22.8497583
0
LINE
8
DEFAULT_255_2_778
10
58.7073771
20
22.8497583
11
58.8197771
21
22.8497583
0
LINE
8
DEFAULT_255_2_778
10
58.8197771
20
22.8497583
11
58.9321771
21
22.8872583
0
LINE
8
DEFAULT_255_2_778
10
58.9321771
20
22.8872583
11
59.0446771
21
22.9997583
0
LINE
8
DEFAULT_255_2_778
10
59.0446771
20
22.9997583
11
59.1195771
21
23.1121583
0
LINE
8
DEFAULT_255_2_778
10
59.1195771
20
23.1121583
11
59.1570771
21
23.2246583
0
LINE
8
DEFAULT_255_2_778
10
59.1570771
20
23.2246583
11
59.1570771
21
23.3370583
0
LINE
8
DEFAULT_255_2_778
10
59.1570771
20
23.3370583
11
59.1195771
21
23.4495583
0
LINE
8
DEFAULT_255_2_778
10
59.1195771
20
23.4495583
11
59.0446771
21
23.5619583
0
LINE
8
DEFAULT_255_2_778
10
59.0446771
20
23.5619583
11
58.9321771
21
23.6744583
0
LINE
8
DEFAULT_255_2_778
10
58.9321771
20
23.6744583
11
58.8197771
21
23.7120583
0
LINE
8
DEFAULT_255_2_778
10
58.8197771
20
23.7120583
11
58.7073771
21
23.7120583
0
LINE
8
DEFAULT_255_2_778
10
58.7073771
20
23.7120583
11
58.5948771
21
23.6744583
0
LINE
8
DEFAULT_255_2_778
10
58.5948771
20
23.6744583
11
58.4824771
21
23.5619583
0
LINE
8
DEFAULT_255_2_778
10
58.4824771
20
23.5619583
11
58.4448771
21
23.4871583
0
LINE
8
DEFAULT_255_2_778
10
58.4448771
20
23.4871583
11
58.4448771
21
23.9744583
0
LINE
8
DEFAULT_255_2_778
10
58.4448771
20
23.9744583
11
58.4824771
21
24.0869583
0
LINE
8
DEFAULT_255_2_778
10
58.4824771
20
24.0869583
11
58.5199771
21
24.1617583
0
LINE
8
DEFAULT_255_2_778
10
58.5199771
20
24.1617583
11
58.5575771
21
24.1993583
0
LINE
8
DEFAULT_255_2_778
10
58.5575771
20
24.1993583
11
58.6324771
21
24.2369583
0
LINE
8
DEFAULT_255_2_778
10
58.6324771
20
24.2369583
11
58.7448771
21
24.2745583
0
LINE
8
DEFAULT_255_2_778
10
58.7448771
20
24.2745583
11
58.7824771
21
24.2745583
0
LINE
8
DEFAULT_255_2_778
10
58.7824771
20
24.2745583
11
58.8948771
21
24.2369583
0
LINE
8
DEFAULT_255_2_778
10
58.8948771
20
24.2369583
11
58.9697771
21
24.1993583
0
LINE
8
DEFAULT_255_2_778
10
58.9697771
20
24.1993583
11
59.0073771
21
24.1617583
0
LINE
8
DEFAULT_255_2_778
10
59.0073771
20
24.1617583
11
59.0449771
21
24.0869583
0
LINE
8
DEFAULT_255_2_778
10
59.0449771
20
24.0869583
11
59.0824771
21
23.9744583
0
LINE
8
DEFAULT_255_2_778
10
59.0076771
20
23.4871583
11
58.8951771
21
23.5995583
0
LINE
8
DEFAULT_255_2_778
10
58.8951771
20
23.5995583
11
58.7827771
21
23.6371583
0
LINE
8
DEFAULT_255_2_778
10
58.7827771
20
23.6371583
11
58.7451771
21
23.6371583
0
LINE
8
DEFAULT_255_2_778
10
58.7451771
20
23.6371583
11
58.6326771
21
23.5995583
0
LINE
8
DEFAULT_255_2_778
10
58.6326771
20
23.5995583
11
58.5202771
21
23.4871583
0
LINE
8
DEFAULT_255_2_778
10
58.5202771
20
23.4871583
11
58.4826771
21
23.4119583
0
LINE
8
DEFAULT_255_2_778
10
58.4826771
20
23.4119583
11
58.4451771
21
23.2995583
0
LINE
8
DEFAULT_255_2_778
10
58.4451771
20
23.2995583
11
58.4451771
21
23.2619583
0
LINE
8
DEFAULT_255_2_778
10
58.4451771
20
23.2619583
11
58.4826771
21
23.1495583
0
LINE
8
DEFAULT_255_2_778
10
58.4826771
20
23.1495583
11
58.5202771
21
23.0743583
0
LINE
8
DEFAULT_255_2_778
10
58.5202771
20
23.0743583
11
58.6326771
21
22.9619583
0
LINE
8
DEFAULT_255_2_778
10
58.6326771
20
22.9619583
11
58.7451771
21
22.9243583
0
LINE
8
DEFAULT_255_2_778
10
58.7451771
20
22.9243583
11
58.7827771
21
22.9243583
0
LINE
8
DEFAULT_255_2_778
10
58.7827771
20
22.9243583
11
58.8951771
21
22.9619583
0
LINE
8
DEFAULT_255_2_778
10
58.8951771
20
22.9619583
11
59.0076771
21
23.0743583
0
LINE
8
DEFAULT_255_2_778
10
59.0076771
20
23.0743583
11
59.0451771
21
23.1495583
0
LINE
8
DEFAULT_255_2_778
10
59.0451771
20
23.1495583
11
59.0827771
21
23.2619583
0
LINE
8
DEFAULT_255_2_778
10
59.0827771
20
23.2619583
11
59.0827771
21
23.2995583
0
LINE
8
DEFAULT_255_2_778
10
59.0827771
20
23.2995583
11
59.0451771
21
23.4119583
0
LINE
8
DEFAULT_255_2_778
10
59.0451771
20
23.4119583
11
59.0076771
21
23.4871583
0
LINE
8
DEFAULT_255_2_778
10
62.9198052
20
23.0698271
11
62.8449052
21
22.9947271
0
LINE
8
DEFAULT_255_2_778
10
62.8449052
20
22.9947271
11
62.8449052
21
22.9571271
0
LINE
8
DEFAULT_255_2_778
10
62.8449052
20
22.9571271
11
62.9198052
21
22.8819271
0
LINE
8
DEFAULT_255_2_778
10
62.9198052
20
22.8819271
11
62.9573052
21
22.8819271
0
LINE
8
DEFAULT_255_2_778
10
62.9573052
20
22.8819271
11
63.0325052
21
22.9571271
0
LINE
8
DEFAULT_255_2_778
10
63.0325052
20
22.9571271
11
63.0325052
21
22.9947271
0
LINE
8
DEFAULT_255_2_778
10
63.0325052
20
22.9947271
11
62.9573052
21
23.0698271
0
LINE
8
DEFAULT_255_2_778
10
62.9573052
20
23.0698271
11
62.9198052
21
23.0698271
0
LINE
8
DEFAULT_255_2_778
10
62.9198052
20
22.9574271
11
62.9573052
21
22.9574271
0
LINE
8
DEFAULT_255_2_778
10
62.9573052
20
22.9574271
11
62.9573052
21
22.9949271
0
LINE
8
DEFAULT_255_2_778
10
62.9573052
20
22.9949271
11
62.9198052
21
22.9949271
0
LINE
8
DEFAULT_255_2_778
10
62.9198052
20
22.9949271
11
62.9198052
21
22.9574271
0
LINE
8
DEFAULT_255_2_778
10
63.4825531
20
24.2700937
11
63.4825531
21
24.3824937
0
LINE
8
DEFAULT_255_2_778
10
63.4825531
20
24.3824937
11
64.2326531
21
24.3824937
0
LINE
8
DEFAULT_255_2_778
10
64.2326531
20
24.3824937
11
64.2326531
21
24.3448937
0
LINE
8
DEFAULT_255_2_778
10
64.2326531
20
24.3448937
11
63.5201531
21
22.8822937
0
LINE
8
DEFAULT_255_2_778
10
63.4825531
20
22.9198937
11
64.1575531
21
24.3073937
0
LINE
8
DEFAULT_255_2_778
10
64.1575531
20
24.3073937
11
63.5574531
21
24.3073937
0
LINE
8
DEFAULT_255_2_778
10
63.5574531
20
24.3073937
11
63.5574531
21
24.2697937
0
LINE
8
DEFAULT_255_2_778
10
27.5775052
20
23.0428271
11
27.6524052
21
22.9677271
0
LINE
8
DEFAULT_255_2_778
10
27.6524052
20
22.9677271
11
27.6524052
21
22.9301271
0
LINE
8
DEFAULT_255_2_778
10
27.6524052
20
22.9301271
11
27.5775052
21
22.8549271
0
LINE
8
DEFAULT_255_2_778
10
27.5775052
20
22.8549271
11
27.5399052
21
22.8549271
0
LINE
8
DEFAULT_255_2_778
10
27.5399052
20
22.8549271
11
27.4648052
21
22.9301271
0
LINE
8
DEFAULT_255_2_778
10
27.4648052
20
22.9301271
11
27.4648052
21
22.9677271
0
LINE
8
DEFAULT_255_2_778
10
27.4648052
20
22.9677271
11
27.5399052
21
23.0428271
0
LINE
8
DEFAULT_255_2_778
10
27.5399052
20
23.0428271
11
27.5775052
21
23.0428271
0
LINE
8
DEFAULT_255_2_778
10
27.5775052
20
23.0428271
11
27.6524052
21
22.9677271
0
LINE
8
DEFAULT_255_2_778
10
27.6524052
20
22.9677271
11
27.6524052
21
22.9301271
0
LINE
8
DEFAULT_255_2_778
10
27.6524052
20
22.9301271
11
27.5775052
21
22.8549271
0
LINE
8
DEFAULT_255_2_778
10
27.5775052
20
22.8549271
11
27.5399052
21
22.8549271
0
LINE
8
DEFAULT_255_2_778
10
27.5399052
20
22.8549271
11
27.4648052
21
22.9301271
0
LINE
8
DEFAULT_255_2_778
10
27.4648052
20
22.9301271
11
27.4648052
21
22.9677271
0
LINE
8
DEFAULT_255_2_778
10
27.4648052
20
22.9677271
11
27.5399052
21
23.0428271
0
LINE
8
DEFAULT_255_2_778
10
27.5399052
20
23.0428271
11
27.5775052
21
23.0428271
0
LINE
8
DEFAULT_255_2_778
10
27.5399052
20
22.9677271
11
27.5775052
21
22.9677271
0
LINE
8
DEFAULT_255_2_778
10
27.5775052
20
22.9677271
11
27.5775052
21
22.9301271
0
LINE
8
DEFAULT_255_2_778
10
27.5775052
20
22.9301271
11
27.5399052
21
22.9301271
0
LINE
8
DEFAULT_255_2_778
10
27.5399052
20
22.9301271
11
27.5399052
21
22.9677271
0
LINE
8
DEFAULT_255_2_778
10
14.3862323
20
31.8272937
11
14.4237323
21
31.9397937
0
LINE
8
DEFAULT_255_2_778
10
14.4237323
20
31.9397937
11
14.4613323
21
32.0148937
0
LINE
8
DEFAULT_255_2_778
10
14.4613323
20
32.0148937
11
14.4989323
21
32.0524937
0
LINE
8
DEFAULT_255_2_778
10
14.4989323
20
32.0524937
11
14.5738323
21
32.0900937
0
LINE
8
DEFAULT_255_2_778
10
14.5738323
20
32.0900937
11
14.6862323
21
32.1275937
0
LINE
8
DEFAULT_255_2_778
10
14.6862323
20
32.1275937
11
14.7238323
21
32.1275937
0
LINE
8
DEFAULT_255_2_778
10
14.7238323
20
32.1275937
11
14.8362323
21
32.0900937
0
LINE
8
DEFAULT_255_2_778
10
14.8362323
20
32.0900937
11
14.9111323
21
32.0524937
0
LINE
8
DEFAULT_255_2_778
10
14.9111323
20
32.0524937
11
14.9487323
21
32.0148937
0
LINE
8
DEFAULT_255_2_778
10
14.9487323
20
32.0148937
11
14.9863323
21
31.9397937
0
LINE
8
DEFAULT_255_2_778
10
14.9863323
20
31.9397937
11
15.0238323
21
31.8272937
0
LINE
8
DEFAULT_255_2_778
10
15.0238323
20
31.8272937
11
15.0238323
21
31.7897937
0
LINE
8
DEFAULT_255_2_778
10
15.0238323
20
31.7897937
11
14.9863323
21
31.7148937
0
LINE
8
DEFAULT_255_2_778
10
14.9863323
20
31.7148937
11
14.3113323
21
30.7774937
0
LINE
8
DEFAULT_255_2_778
10
14.3113323
20
30.7774937
11
14.3113323
21
30.7022937
0
LINE
8
DEFAULT_255_2_778
10
14.3113323
20
30.7022937
11
15.0614323
21
30.7022937
0
LINE
8
DEFAULT_255_2_778
10
14.3113323
20
31.8272937
11
14.3113323
21
31.8648937
0
LINE
8
DEFAULT_255_2_778
10
14.3113323
20
31.8648937
11
14.3489323
21
31.9772937
0
LINE
8
DEFAULT_255_2_778
10
14.3489323
20
31.9772937
11
14.4237323
21
32.0897937
0
LINE
8
DEFAULT_255_2_778
10
14.4237323
20
32.0897937
11
14.5362323
21
32.1648937
0
LINE
8
DEFAULT_255_2_778
10
14.5362323
20
32.1648937
11
14.6486323
21
32.2024937
0
LINE
8
DEFAULT_255_2_778
10
14.6486323
20
32.2024937
11
14.7611323
21
32.2024937
0
LINE
8
DEFAULT_255_2_778
10
14.7611323
20
32.2024937
11
14.8735323
21
32.1648937
0
LINE
8
DEFAULT_255_2_778
10
14.8735323
20
32.1648937
11
14.9860323
21
32.0897937
0
LINE
8
DEFAULT_255_2_778
10
14.9860323
20
32.0897937
11
15.0609323
21
31.9772937
0
LINE
8
DEFAULT_255_2_778
10
15.0609323
20
31.9772937
11
15.0984323
21
31.8648937
0
LINE
8
DEFAULT_255_2_778
10
15.0984323
20
31.8648937
11
15.0984323
21
31.7523937
0
LINE
8
DEFAULT_255_2_778
10
15.0984323
20
31.7523937
11
15.0609323
21
31.6399937
0
LINE
8
DEFAULT_255_2_778
10
15.0609323
20
31.6399937
11
14.3859323
21
30.7774937
0
LINE
8
DEFAULT_255_2_778
10
14.3859323
20
30.7774937
11
15.0609323
21
30.7774937
0
LINE
8
DEFAULT_255_2_778
10
11.1490771
20
31.6397083
11
11.6739771
21
32.0898083
0
LINE
8
DEFAULT_255_2_778
10
11.6739771
20
32.0898083
11
11.6739771
21
30.7398083
0
LINE
8
DEFAULT_255_2_778
10
11.1114771
20
31.6773083
11
11.7115771
21
32.2022083
0
LINE
8
DEFAULT_255_2_778
10
11.7115771
20
32.2022083
11
11.7490771
21
32.2022083
0
LINE
8
DEFAULT_255_2_778
10
11.7490771
20
32.2022083
11
11.7490771
21
30.7396083
0
LINE
8
DEFAULT_255_2_778
10
17.0862375
20
30.8899271
11
17.1611375
21
30.8148271
0
LINE
8
DEFAULT_255_2_778
10
17.1611375
20
30.8148271
11
17.1611375
21
30.7772271
0
LINE
8
DEFAULT_255_2_778
10
17.1611375
20
30.7772271
11
17.0862375
21
30.7020271
0
LINE
8
DEFAULT_255_2_778
10
17.0862375
20
30.7020271
11
17.0487375
21
30.7020271
0
LINE
8
DEFAULT_255_2_778
10
17.0487375
20
30.7020271
11
16.9738375
21
30.7772271
0
LINE
8
DEFAULT_255_2_778
10
16.9738375
20
30.7772271
11
16.9738375
21
30.8148271
0
LINE
8
DEFAULT_255_2_778
10
16.9738375
20
30.8148271
11
17.0487375
21
30.8899271
0
LINE
8
DEFAULT_255_2_778
10
17.0487375
20
30.8899271
11
17.0862375
21
30.8899271
0
LINE
8
DEFAULT_255_2_778
10
17.0862375
20
30.8899271
11
17.1611375
21
30.8148271
0
LINE
8
DEFAULT_255_2_778
10
17.1611375
20
30.8148271
11
17.1611375
21
30.7772271
0
LINE
8
DEFAULT_255_2_778
10
17.1611375
20
30.7772271
11
17.0862375
21
30.7020271
0
LINE
8
DEFAULT_255_2_778
10
17.0862375
20
30.7020271
11
17.0487375
21
30.7020271
0
LINE
8
DEFAULT_255_2_778
10
17.0487375
20
30.7020271
11
16.9738375
21
30.7772271
0
LINE
8
DEFAULT_255_2_778
10
16.9738375
20
30.7772271
11
16.9738375
21
30.8148271
0
LINE
8
DEFAULT_255_2_778
10
16.9738375
20
30.8148271
11
17.0487375
21
30.8899271
0
LINE
8
DEFAULT_255_2_778
10
17.0487375
20
30.8899271
11
17.0862375
21
30.8899271
0
LINE
8
DEFAULT_255_2_778
10
17.0487375
20
30.8148271
11
17.0862375
21
30.8148271
0
LINE
8
DEFAULT_255_2_778
10
17.0862375
20
30.8148271
11
17.0862375
21
30.7772271
0
LINE
8
DEFAULT_255_2_778
10
17.0862375
20
30.7772271
11
17.0487375
21
30.7772271
0
LINE
8
DEFAULT_255_2_778
10
17.0487375
20
30.7772271
11
17.0487375
21
30.8148271
0
LINE
8
DEFAULT_255_2_778
10
20.4113052
20
30.8899271
11
20.4862052
21
30.8148271
0
LINE
8
DEFAULT_255_2_778
10
20.4862052
20
30.8148271
11
20.4862052
21
30.7772271
0
LINE
8
DEFAULT_255_2_778
10
20.4862052
20
30.7772271
11
20.4113052
21
30.7020271
0
LINE
8
DEFAULT_255_2_778
10
20.4113052
20
30.7020271
11
20.3737052
21
30.7020271
0
LINE
8
DEFAULT_255_2_778
10
20.3737052
20
30.7020271
11
20.2986052
21
30.7772271
0
LINE
8
DEFAULT_255_2_778
10
20.2986052
20
30.7772271
11
20.2986052
21
30.8148271
0
LINE
8
DEFAULT_255_2_778
10
20.2986052
20
30.8148271
11
20.3737052
21
30.8899271
0
LINE
8
DEFAULT_255_2_778
10
20.3737052
20
30.8899271
11
20.4113052
21
30.8899271
0
LINE
8
DEFAULT_255_2_778
10
20.4113052
20
30.8899271
11
20.4862052
21
30.8148271
0
LINE
8
DEFAULT_255_2_778
10
20.4862052
20
30.8148271
11
20.4862052
21
30.7772271
0
LINE
8
DEFAULT_255_2_778
10
20.4862052
20
30.7772271
11
20.4113052
21
30.7020271
0
LINE
8
DEFAULT_255_2_778
10
20.4113052
20
30.7020271
11
20.3737052
21
30.7020271
0
LINE
8
DEFAULT_255_2_778
10
20.3737052
20
30.7020271
11
20.2986052
21
30.7772271
0
LINE
8
DEFAULT_255_2_778
10
20.2986052
20
30.7772271
11
20.2986052
21
30.8148271
0
LINE
8
DEFAULT_255_2_778
10
20.2986052
20
30.8148271
11
20.3737052
21
30.8899271
0
LINE
8
DEFAULT_255_2_778
10
20.3737052
20
30.8899271
11
20.4113052
21
30.8899271
0
LINE
8
DEFAULT_255_2_778
10
20.3737052
20
30.8148271
11
20.4113052
21
30.8148271
0
LINE
8
DEFAULT_255_2_778
10
20.4113052
20
30.8148271
11
20.4113052
21
30.7772271
0
LINE
8
DEFAULT_255_2_778
10
20.4113052
20
30.7772271
11
20.3737052
21
30.7772271
0
LINE
8
DEFAULT_255_2_778
10
20.3737052
20
30.7772271
11
20.3737052
21
30.8148271
0
LINE
8
DEFAULT_255_2_778
10
23.6863052
20
30.8899271
11
23.7612052
21
30.8148271
0
LINE
8
DEFAULT_255_2_778
10
23.7612052
20
30.8148271
11
23.7612052
21
30.7772271
0
LINE
8
DEFAULT_255_2_778
10
23.7612052
20
30.7772271
11
23.6863052
21
30.7020271
0
LINE
8
DEFAULT_255_2_778
10
23.6863052
20
30.7020271
11
23.6487052
21
30.7020271
0
LINE
8
DEFAULT_255_2_778
10
23.6487052
20
30.7020271
11
23.5736052
21
30.7772271
0
LINE
8
DEFAULT_255_2_778
10
23.5736052
20
30.7772271
11
23.5736052
21
30.8148271
0
LINE
8
DEFAULT_255_2_778
10
23.5736052
20
30.8148271
11
23.6487052
21
30.8899271
0
LINE
8
DEFAULT_255_2_778
10
23.6487052
20
30.8899271
11
23.6863052
21
30.8899271
0
LINE
8
DEFAULT_255_2_778
10
23.6863052
20
30.8899271
11
23.7612052
21
30.8148271
0
LINE
8
DEFAULT_255_2_778
10
23.7612052
20
30.8148271
11
23.7612052
21
30.7772271
0
LINE
8
DEFAULT_255_2_778
10
23.7612052
20
30.7772271
11
23.6863052
21
30.7020271
0
LINE
8
DEFAULT_255_2_778
10
23.6863052
20
30.7020271
11
23.6487052
21
30.7020271
0
LINE
8
DEFAULT_255_2_778
10
23.6487052
20
30.7020271
11
23.5736052
21
30.7772271
0
LINE
8
DEFAULT_255_2_778
10
23.5736052
20
30.7772271
11
23.5736052
21
30.8148271
0
LINE
8
DEFAULT_255_2_778
10
23.5736052
20
30.8148271
11
23.6487052
21
30.8899271
0
LINE
8
DEFAULT_255_2_778
10
23.6487052
20
30.8899271
11
23.6863052
21
30.8899271
0
LINE
8
DEFAULT_255_2_778
10
23.6487052
20
30.8148271
11
23.6863052
21
30.8148271
0
LINE
8
DEFAULT_255_2_778
10
23.6863052
20
30.8148271
11
23.6863052
21
30.7772271
0
LINE
8
DEFAULT_255_2_778
10
23.6863052
20
30.7772271
11
23.6487052
21
30.7772271
0
LINE
8
DEFAULT_255_2_778
10
23.6487052
20
30.7772271
11
23.6487052
21
30.8148271
0
LINE
8
DEFAULT_255_2_778
10
7.1863729
20
30.8899271
11
7.2615729
21
30.8148271
0
LINE
8
DEFAULT_255_2_778
10
7.2615729
20
30.8148271
11
7.2615729
21
30.7772271
0
LINE
8
DEFAULT_255_2_778
10
7.2615729
20
30.7772271
11
7.1863729
21
30.7020271
0
LINE
8
DEFAULT_255_2_778
10
7.1863729
20
30.7020271
11
7.1487729
21
30.7020271
0
LINE
8
DEFAULT_255_2_778
10
7.1487729
20
30.7020271
11
7.0736729
21
30.7772271
0
LINE
8
DEFAULT_255_2_778
10
7.0736729
20
30.7772271
11
7.0736729
21
30.8148271
0
LINE
8
DEFAULT_255_2_778
10
7.0736729
20
30.8148271
11
7.1487729
21
30.8899271
0
LINE
8
DEFAULT_255_2_778
10
7.1487729
20
30.8899271
11
7.1863729
21
30.8899271
0
LINE
8
DEFAULT_255_2_778
10
7.1863729
20
30.8899271
11
7.2615729
21
30.8148271
0
LINE
8
DEFAULT_255_2_778
10
7.2615729
20
30.8148271
11
7.2615729
21
30.7772271
0
LINE
8
DEFAULT_255_2_778
10
7.2615729
20
30.7772271
11
7.1863729
21
30.7020271
0
LINE
8
DEFAULT_255_2_778
10
7.1863729
20
30.7020271
11
7.1487729
21
30.7020271
0
LINE
8
DEFAULT_255_2_778
10
7.1487729
20
30.7020271
11
7.0736729
21
30.7772271
0
LINE
8
DEFAULT_255_2_778
10
7.0736729
20
30.7772271
11
7.0736729
21
30.8148271
0
LINE
8
DEFAULT_255_2_778
10
7.0736729
20
30.8148271
11
7.1487729
21
30.8899271
0
LINE
8
DEFAULT_255_2_778
10
7.1487729
20
30.8899271
11
7.1863729
21
30.8899271
0
LINE
8
DEFAULT_255_2_778
10
7.1487729
20
30.8148271
11
7.1863729
21
30.8148271
0
LINE
8
DEFAULT_255_2_778
10
7.1863729
20
30.8148271
11
7.1863729
21
30.7772271
0
LINE
8
DEFAULT_255_2_778
10
7.1863729
20
30.7772271
11
7.1487729
21
30.7772271
0
LINE
8
DEFAULT_255_2_778
10
7.1487729
20
30.7772271
11
7.1487729
21
30.8148271
0
LINE
8
DEFAULT_255_2_778
10
10.5865052
20
30.8899271
11
10.6617052
21
30.8148271
0
LINE
8
DEFAULT_255_2_778
10
10.6617052
20
30.8148271
11
10.6617052
21
30.7772271
0
LINE
8
DEFAULT_255_2_778
10
10.6617052
20
30.7772271
11
10.5865052
21
30.7020271
0
LINE
8
DEFAULT_255_2_778
10
10.5865052
20
30.7020271
11
10.5490052
21
30.7020271
0
LINE
8
DEFAULT_255_2_778
10
10.5490052
20
30.7020271
11
10.4741052
21
30.7772271
0
LINE
8
DEFAULT_255_2_778
10
10.4741052
20
30.7772271
11
10.4741052
21
30.8148271
0
LINE
8
DEFAULT_255_2_778
10
10.4741052
20
30.8148271
11
10.5490052
21
30.8899271
0
LINE
8
DEFAULT_255_2_778
10
10.5490052
20
30.8899271
11
10.5865052
21
30.8899271
0
LINE
8
DEFAULT_255_2_778
10
10.5865052
20
30.8899271
11
10.6617052
21
30.8148271
0
LINE
8
DEFAULT_255_2_778
10
10.6617052
20
30.8148271
11
10.6617052
21
30.7772271
0
LINE
8
DEFAULT_255_2_778
10
10.6617052
20
30.7772271
11
10.5865052
21
30.7020271
0
LINE
8
DEFAULT_255_2_778
10
10.5865052
20
30.7020271
11
10.5490052
21
30.7020271
0
LINE
8
DEFAULT_255_2_778
10
10.5490052
20
30.7020271
11
10.4741052
21
30.7772271
0
LINE
8
DEFAULT_255_2_778
10
10.4741052
20
30.7772271
11
10.4741052
21
30.8148271
0
LINE
8
DEFAULT_255_2_778
10
10.4741052
20
30.8148271
11
10.5490052
21
30.8899271
0
LINE
8
DEFAULT_255_2_778
10
10.5490052
20
30.8899271
11
10.5865052
21
30.8899271
0
LINE
8
DEFAULT_255_2_778
10
10.5490052
20
30.8148271
11
10.5865052
21
30.8148271
0
LINE
8
DEFAULT_255_2_778
10
10.5865052
20
30.8148271
11
10.5865052
21
30.7772271
0
LINE
8
DEFAULT_255_2_778
10
10.5865052
20
30.7772271
11
10.5490052
21
30.7772271
0
LINE
8
DEFAULT_255_2_778
10
10.5490052
20
30.7772271
11
10.5490052
21
30.8148271
0
LINE
8
DEFAULT_255_2_778
10
13.7863052
20
30.8899271
11
13.8615052
21
30.8148271
0
LINE
8
DEFAULT_255_2_778
10
13.8615052
20
30.8148271
11
13.8615052
21
30.7772271
0
LINE
8
DEFAULT_255_2_778
10
13.8615052
20
30.7772271
11
13.7863052
21
30.7020271
0
LINE
8
DEFAULT_255_2_778
10
13.7863052
20
30.7020271
11
13.7488052
21
30.7020271
0
LINE
8
DEFAULT_255_2_778
10
13.7488052
20
30.7020271
11
13.6739052
21
30.7772271
0
LINE
8
DEFAULT_255_2_778
10
13.6739052
20
30.7772271
11
13.6739052
21
30.8148271
0
LINE
8
DEFAULT_255_2_778
10
13.6739052
20
30.8148271
11
13.7488052
21
30.8899271
0
LINE
8
DEFAULT_255_2_778
10
13.7488052
20
30.8899271
11
13.7863052
21
30.8899271
0
LINE
8
DEFAULT_255_2_778
10
13.7863052
20
30.8899271
11
13.8615052
21
30.8148271
0
LINE
8
DEFAULT_255_2_778
10
13.8615052
20
30.8148271
11
13.8615052
21
30.7772271
0
LINE
8
DEFAULT_255_2_778
10
13.8615052
20
30.7772271
11
13.7863052
21
30.7020271
0
LINE
8
DEFAULT_255_2_778
10
13.7863052
20
30.7020271
11
13.7488052
21
30.7020271
0
LINE
8
DEFAULT_255_2_778
10
13.7488052
20
30.7020271
11
13.6739052
21
30.7772271
0
LINE
8
DEFAULT_255_2_778
10
13.6739052
20
30.7772271
11
13.6739052
21
30.8148271
0
LINE
8
DEFAULT_255_2_778
10
13.6739052
20
30.8148271
11
13.7488052
21
30.8899271
0
LINE
8
DEFAULT_255_2_778
10
13.7488052
20
30.8899271
11
13.7863052
21
30.8899271
0
LINE
8
DEFAULT_255_2_778
10
13.7488052
20
30.8148271
11
13.7863052
21
30.8148271
0
LINE
8
DEFAULT_255_2_778
10
13.7863052
20
30.8148271
11
13.7863052
21
30.7772271
0
LINE
8
DEFAULT_255_2_778
10
13.7863052
20
30.7772271
11
13.7488052
21
30.7772271
0
LINE
8
DEFAULT_255_2_778
10
13.7488052
20
30.7772271
11
13.7488052
21
30.8148271
0
ARC
8
DEFAULT_255_2_778
10
9.1019154
20
31.4490688
40
1.3123091
50
166.2178196
51
180.3053554
0
ARC
8
DEFAULT_255_2_778
10
8.6032876
20
31.5765854
40
0.7976751
50
150.2899812
51
166.5810146
0
ARC
8
DEFAULT_255_2_778
10
8.2041053
20
31.8125789
40
0.3340828
50
121.7095204
51
151.5132202
0
ARC
8
DEFAULT_255_2_778
10
8.1122828
20
31.9505035
40
0.1685778
50
90.4954794
51
119.7988486
0
ARC
8
DEFAULT_255_2_778
10
8.0976057
20
31.9077672
40
0.2117208
50
35.4661693
51
86.4202671
0
ARC
8
DEFAULT_255_2_778
10
7.8045668
20
31.6633764
40
0.5929003
50
18.9122355
51
38.271538
0
ARC
8
DEFAULT_255_2_778
10
7.3030854
20
31.4802952
40
1.1267004
50
5.2837549
51
19.4542242
0
ARC
8
DEFAULT_255_2_778
10
7.0121165
20
31.4429615
40
1.4199087
50
359.9642257
51
5.7026178
0
ARC
8
DEFAULT_255_2_778
10
7.1196585
20
31.4351111
40
1.312385
50
346.2182528
51
0.3040275
0
ARC
8
DEFAULT_255_2_778
10
7.6178296
20
31.3077003
40
0.7982199
50
330.298623
51
346.5819121
0
ARC
8
DEFAULT_255_2_778
10
8.0173355
20
31.0716013
40
0.3342952
50
301.7395303
51
331.5213095
0
ARC
8
DEFAULT_255_2_778
10
8.1093605
20
30.9334914
40
0.1685227
50
270.4979094
51
299.832281
0
ARC
8
DEFAULT_255_2_778
10
8.1240442
20
30.9762774
40
0.2117155
50
215.4642526
51
266.4202016
0
ARC
8
DEFAULT_255_2_778
10
8.4171165
20
31.220677
40
0.5929264
50
198.9096769
51
218.269534
0
ARC
8
DEFAULT_255_2_778
10
8.9188302
20
31.4038155
40
1.1269643
50
185.2822525
51
199.4516845
0
ARC
8
DEFAULT_255_2_778
10
9.2101808
20
31.4411865
40
1.420556
50
179.9641627
51
185.7013149
0
ARC
8
DEFAULT_255_2_778
10
9.0394885
20
31.4563388
40
1.3281802
50
165.3283828
51
180.2874696
0
ARC
8
DEFAULT_255_2_778
10
8.590105
20
31.5791664
40
0.8623545
50
148.6168444
51
165.6608062
0
ARC
8
DEFAULT_255_2_778
10
8.2062888
20
31.8214286
40
0.408588
50
120.4654383
51
149.5907207
0
ARC
8
DEFAULT_255_2_778
10
8.1098321
20
31.973451
40
0.2287296
50
90.4025836
51
118.9469675
0
ARC
8
DEFAULT_255_2_778
10
8.09507
20
31.9285086
40
0.2739824
50
38.2733317
51
87.2479463
0
ARC
8
DEFAULT_255_2_778
10
7.8092323
20
31.6707881
40
0.6585044
50
20.5040038
51
40.4730676
0
ARC
8
DEFAULT_255_2_778
10
7.3465453
20
31.4876495
40
1.1560665
50
5.796311
51
20.9733309
0
ARC
8
DEFAULT_255_2_778
10
7.0799385
20
31.4505969
40
1.4250868
50
359.9629324
51
6.1958695
0
ARC
8
DEFAULT_255_2_778
10
7.1763967
20
31.4429513
40
1.3286453
50
345.331359
51
0.2899504
0
ARC
8
DEFAULT_255_2_778
10
7.6269718
20
31.319857
40
0.8615994
50
328.6086094
51
345.6627771
0
ARC
8
DEFAULT_255_2_778
10
8.010377
20
31.0777927
40
0.4082854
50
300.4482542
51
329.5803993
0
ARC
8
DEFAULT_255_2_778
10
8.1066232
20
30.9260212
40
0.2287518
50
270.4012072
51
298.9299783
0
ARC
8
DEFAULT_255_2_778
10
8.1218104
20
30.9724651
40
0.2755252
50
217.8185715
51
267.1737673
0
ARC
8
DEFAULT_255_2_778
10
8.4132724
20
31.2323611
40
0.6656575
50
200.2506497
51
220.1081256
0
ARC
8
DEFAULT_255_2_778
10
8.8740947
20
31.4126636
40
1.160443
50
185.7429352
51
200.7273175
0
ARC
8
DEFAULT_255_2_778
10
9.1368393
20
31.4487707
40
1.4255145
50
179.9636529
51
186.1301671
0
LINE
8
DEFAULT_255_2_778
10
7.789625
20
31.442075
11
7.789625
21
31.442075
0
LINE
8
DEFAULT_255_2_778
10
7.711325
20
31.449675
11
7.711325
21
31.449675
0
LINE
8
DEFAULT_255_2_778
10
24.2112
20
31.0771937
11
24.2112
21
31.0395937
0
LINE
8
DEFAULT_255_2_778
10
24.2112
20
31.0395937
11
24.2488
21
30.9271937
0
LINE
8
DEFAULT_255_2_778
10
24.2488
20
30.9271937
11
24.3236
21
30.8146937
0
LINE
8
DEFAULT_255_2_778
10
24.3236
20
30.8146937
11
24.4361
21
30.7395937
0
LINE
8
DEFAULT_255_2_778
10
24.4361
20
30.7395937
11
24.5485
21
30.7019937
0
LINE
8
DEFAULT_255_2_778
10
24.5485
20
30.7019937
11
24.661
21
30.7019937
0
LINE
8
DEFAULT_255_2_778
10
24.661
20
30.7019937
11
24.7734
21
30.7395937
0
LINE
8
DEFAULT_255_2_778
10
24.7734
20
30.7395937
11
24.8859
21
30.8146937
0
LINE
8
DEFAULT_255_2_778
10
24.8859
20
30.8146937
11
24.961
21
30.9271937
0
LINE
8
DEFAULT_255_2_778
10
24.961
20
30.9271937
11
24.9986
21
31.0395937
0
LINE
8
DEFAULT_255_2_778
10
24.9986
20
31.0395937
11
24.9986
21
31.3020937
0
LINE
8
DEFAULT_255_2_778
10
24.9986
20
31.3020937
11
24.961
21
31.4144937
0
LINE
8
DEFAULT_255_2_778
10
24.961
20
31.4144937
11
24.8859
21
31.5269937
0
LINE
8
DEFAULT_255_2_778
10
24.8859
20
31.5269937
11
24.7734
21
31.6018937
0
LINE
8
DEFAULT_255_2_778
10
24.7734
20
31.6018937
11
24.661
21
31.6393937
0
LINE
8
DEFAULT_255_2_778
10
24.661
20
31.6393937
11
24.2861
21
31.6393937
0
LINE
8
DEFAULT_255_2_778
10
24.2861
20
31.6393937
11
24.2861
21
32.1270937
0
LINE
8
DEFAULT_255_2_778
10
24.2861
20
32.1270937
11
24.961
21
32.1270937
0
LINE
8
DEFAULT_255_2_778
10
24.2861
20
31.0768937
11
24.3236
21
30.9644937
0
LINE
8
DEFAULT_255_2_778
10
24.3236
20
30.9644937
11
24.3612
21
30.8895937
0
LINE
8
DEFAULT_255_2_778
10
24.3612
20
30.8895937
11
24.3988
21
30.8519937
0
LINE
8
DEFAULT_255_2_778
10
24.3988
20
30.8519937
11
24.4737
21
30.8144937
0
LINE
8
DEFAULT_255_2_778
10
24.4737
20
30.8144937
11
24.5861
21
30.7768937
0
LINE
8
DEFAULT_255_2_778
10
24.5861
20
30.7768937
11
24.6237
21
30.7768937
0
LINE
8
DEFAULT_255_2_778
10
24.6237
20
30.7768937
11
24.7361
21
30.8144937
0
LINE
8
DEFAULT_255_2_778
10
24.7361
20
30.8144937
11
24.811
21
30.8519937
0
LINE
8
DEFAULT_255_2_778
10
24.811
20
30.8519937
11
24.8486
21
30.8895937
0
LINE
8
DEFAULT_255_2_778
10
24.8486
20
30.8895937
11
24.8862
21
30.9644937
0
LINE
8
DEFAULT_255_2_778
10
24.8862
20
30.9644937
11
24.9237
21
31.0768937
0
LINE
8
DEFAULT_255_2_778
10
24.9237
20
31.0768937
11
24.9237
21
31.2644937
0
LINE
8
DEFAULT_255_2_778
10
24.9237
20
31.2644937
11
24.8862
21
31.3769937
0
LINE
8
DEFAULT_255_2_778
10
24.8862
20
31.3769937
11
24.8486
21
31.4520937
0
LINE
8
DEFAULT_255_2_778
10
24.8486
20
31.4520937
11
24.811
21
31.4896937
0
LINE
8
DEFAULT_255_2_778
10
24.811
20
31.4896937
11
24.7361
21
31.5271937
0
LINE
8
DEFAULT_255_2_778
10
24.7361
20
31.5271937
11
24.6237
21
31.5647937
0
LINE
8
DEFAULT_255_2_778
10
24.6237
20
31.5647937
11
24.2112
21
31.5647937
0
LINE
8
DEFAULT_255_2_778
10
24.2112
20
31.5647937
11
24.2112
21
32.2021937
0
LINE
8
DEFAULT_255_2_778
10
24.2112
20
32.2021937
11
24.9613
21
32.2021937
0
LINE
8
DEFAULT_255_2_778
10
21.6865531
20
31.0396083
11
21.5741531
21
31.0396083
0
LINE
8
DEFAULT_255_2_778
10
21.5741531
20
31.0396083
11
21.5741531
21
30.7396083
0
LINE
8
DEFAULT_255_2_778
10
21.4992531
20
30.7396083
11
21.4992531
21
31.0396083
0
LINE
8
DEFAULT_255_2_778
10
21.4992531
20
31.0396083
11
20.9367531
21
31.0396083
0
LINE
8
DEFAULT_255_2_778
10
20.9367531
20
31.0396083
11
20.9367531
21
31.0772083
0
LINE
8
DEFAULT_255_2_778
10
20.9367531
20
31.0772083
11
21.5368531
21
32.2022083
0
LINE
8
DEFAULT_255_2_778
10
21.5368531
20
32.2022083
11
21.5743531
21
32.2022083
0
LINE
8
DEFAULT_255_2_778
10
21.5743531
20
32.2022083
11
21.5743531
21
31.1148083
0
LINE
8
DEFAULT_255_2_778
10
21.5743531
20
31.1148083
11
21.6868531
21
31.1148083
0
LINE
8
DEFAULT_255_2_778
10
21.4992531
20
31.1148083
11
21.0116531
21
31.1148083
0
LINE
8
DEFAULT_255_2_778
10
21.0116531
20
31.1148083
11
21.4992531
21
32.0149083
0
LINE
8
DEFAULT_255_2_778
10
21.4992531
20
32.0149083
11
21.4992531
21
31.1148083
0
ARC
8
DEFAULT_255_2_778
10
18.0756774
20
31.7995705
40
0.4476733
50
147.9220387
51
174.2675561
0
ARC
8
DEFAULT_255_2_778
10
18.0298201
20
31.8264457
40
0.3945478
50
95.5383667
51
147.6923709
0
ARC
8
DEFAULT_255_2_778
10
18.0268352
20
31.842509
40
0.378274
50
90.386547
51
95.323184
0
ARC
8
DEFAULT_255_2_778
10
18.0267459
20
31.8510101
40
0.3697725
50
89.9954044
51
90.3816015
0
ARC
8
DEFAULT_255_2_778
10
18.028349
20
31.8622448
40
0.3585413
50
49.9815773
51
90.2514357
0
ARC
8
DEFAULT_255_2_778
10
18.018488
20
31.850475
40
0.3738959
50
43.8682186
51
49.9840981
0
ARC
8
DEFAULT_255_2_778
10
17.8311097
20
31.7294437
40
0.5943869
50
34.1298796
51
39.7584947
0
ARC
8
DEFAULT_255_2_778
10
17.8690771
20
31.7556288
40
0.5482672
50
31.0510112
51
34.0909227
0
ARC
8
DEFAULT_255_2_778
10
17.9188359
20
31.7839227
40
0.4910465
50
17.9742354
51
31.2173966
0
ARC
8
DEFAULT_255_2_778
10
17.9646547
20
31.7992543
40
0.4427327
50
1.6651575
51
17.9167524
0
ARC
8
DEFAULT_255_2_778
10
17.9711825
20
31.7998498
40
0.4361907
50
0.0010982
51
1.6118887
0
ARC
8
DEFAULT_255_2_778
10
17.9707667
20
31.7998764
40
0.4366064
50
337.2240665
51
359.9976094
0
ARC
8
DEFAULT_255_2_778
10
18.0282929
20
31.7729026
40
0.3731325
50
318.4816231
51
337.6233897
0
ARC
8
DEFAULT_255_2_778
10
18.1258816
20
31.6886682
40
0.2442334
50
307.0313669
51
318.1021042
0
ARC
8
DEFAULT_255_2_778
10
18.1831859
20
31.6110004
40
0.1477228
50
290.5555435
51
307.4305781
0
ARC
8
DEFAULT_255_2_778
10
18.2061424
20
31.55036
40
0.0828831
50
270.8298859
51
290.4151317
0
ARC
8
DEFAULT_255_2_778
10
18.0840732
20
31.1842334
40
0.3089129
50
33.6094558
51
66.4816234
0
ARC
8
DEFAULT_255_2_778
10
17.9999395
20
31.1399623
40
0.403604
50
0.5141951
51
32.2322833
0
ARC
8
DEFAULT_255_2_778
10
17.8839244
20
31.1276456
40
0.5198471
50
359.9962266
51
1.7569872
0
ARC
8
DEFAULT_255_2_778
10
17.8620192
20
31.1273798
40
0.5417524
50
338.0806694
51
0.0244858
0
ARC
8
DEFAULT_255_2_778
10
18.0566166
20
31.0458454
40
0.330799
50
319.2308251
51
338.5997598
0
ARC
8
DEFAULT_255_2_778
10
18.1666423
20
30.9562413
40
0.1890008
50
309.9656545
51
318.0221104
0
ARC
8
DEFAULT_255_2_778
10
17.9844625
20
31.1654572
40
0.4663986
50
276.3494942
51
310.609722
0
ARC
8
DEFAULT_255_2_778
10
17.9923594
20
31.1173052
40
0.4176763
50
270.0272917
51
276.0033717
0
ARC
8
DEFAULT_255_2_778
10
17.9837252
20
31.0365483
40
0.3370351
50
211.935406
51
271.501796
0
ARC
8
DEFAULT_255_2_778
10
18.0738303
20
31.087227
40
0.4403339
50
190.6349699
51
211.3298274
0
ARC
8
DEFAULT_255_2_778
10
18.2522876
20
31.1271428
40
0.6231241
50
183.3725477
51
191.2138556
0
ARC
8
DEFAULT_255_2_778
10
18.2112136
20
31.7174034
40
0.5260684
50
151.4357025
51
167.5869816
0
ARC
8
DEFAULT_255_2_778
10
18.0631683
20
31.7993523
40
0.3568616
50
126.5137879
51
151.6262997
0
ARC
8
DEFAULT_255_2_778
10
18.0244785
20
31.8482832
40
0.2945206
50
95.5604574
51
126.1284348
0
ARC
8
DEFAULT_255_2_778
10
18.0239046
20
31.8499948
40
0.2927618
50
89.997563
51
95.4811305
0
ARC
8
DEFAULT_255_2_778
10
18.0243787
20
31.8500511
40
0.2927059
50
44.1100158
51
90.0903515
0
ARC
8
DEFAULT_255_2_778
10
17.8471184
20
31.7892693
40
0.4691125
50
6.9737351
51
34.3235408
0
ARC
8
DEFAULT_255_2_778
10
17.8117101
20
31.7801855
40
0.5053839
50
0.0343314
51
7.5085685
0
ARC
8
DEFAULT_255_2_778
10
17.9309696
20
31.772414
40
0.3862088
50
333.2971868
51
1.1979507
0
ARC
8
DEFAULT_255_2_778
10
18.1122288
20
31.6758376
40
0.1809475
50
270.2848061
51
334.8252724
0
ARC
8
DEFAULT_255_2_778
10
18.1132033
20
31.7020333
40
0.2071411
50
266.4681818
51
269.9792244
0
ARC
8
DEFAULT_255_2_778
10
18.2111009
20
31.2090797
40
0.5278264
50
192.4279161
51
208.3214344
0
ARC
8
DEFAULT_255_2_778
10
18.0626782
20
31.1276865
40
0.3585577
50
208.1239176
51
232.9173407
0
ARC
8
DEFAULT_255_2_778
10
18.0225556
20
31.0777183
40
0.2945083
50
233.2829593
51
264.5117998
0
ARC
8
DEFAULT_255_2_778
10
18.0219642
20
31.0760641
40
0.2928055
50
264.5960188
51
270.0021682
0
ARC
8
DEFAULT_255_2_778
10
18.0223598
20
31.0765827
40
0.2933243
50
269.924903
51
315.8268074
0
ARC
8
DEFAULT_255_2_778
10
17.8450569
20
31.1367754
40
0.46937
50
325.6870463
51
353.0163927
0
ARC
8
DEFAULT_255_2_778
10
17.8098237
20
31.1458334
40
0.5054651
50
352.4828481
51
359.9657046
0
ARC
8
DEFAULT_255_2_778
10
17.9291581
20
31.1536095
40
0.386215
50
358.8014226
51
26.7076354
0
ARC
8
DEFAULT_255_2_778
10
18.1103508
20
31.2501552
40
0.1810259
50
25.1849207
51
89.7205726
0
ARC
8
DEFAULT_255_2_778
10
18.1113089
20
31.2238553
40
0.2073236
50
90.0207999
51
93.5302625
0
LINE
8
DEFAULT_255_2_778
10
26.9371771
20
30.879326
11
26.8620771
21
30.804226
0
LINE
8
DEFAULT_255_2_778
10
26.8620771
20
30.804226
11
26.8620771
21
30.766626
0
LINE
8
DEFAULT_255_2_778
10
26.8620771
20
30.766626
11
26.9371771
21
30.691426
0
LINE
8
DEFAULT_255_2_778
10
26.9371771
20
30.691426
11
26.9747771
21
30.691426
0
LINE
8
DEFAULT_255_2_778
10
26.9747771
20
30.691426
11
27.0496771
21
30.766626
0
LINE
8
DEFAULT_255_2_778
10
27.0496771
20
30.766626
11
27.0496771
21
30.804226
0
LINE
8
DEFAULT_255_2_778
10
27.0496771
20
30.804226
11
26.9747771
21
30.879326
0
LINE
8
DEFAULT_255_2_778
10
26.9747771
20
30.879326
11
26.9371771
21
30.879326
0
LINE
8
DEFAULT_255_2_778
10
26.9371771
20
30.766926
11
26.9747771
21
30.766926
0
LINE
8
DEFAULT_255_2_778
10
26.9747771
20
30.766926
11
26.9747771
21
30.804426
0
LINE
8
DEFAULT_255_2_778
10
26.9747771
20
30.804426
11
26.9371771
21
30.804426
0
LINE
8
DEFAULT_255_2_778
10
26.9371771
20
30.804426
11
26.9371771
21
30.766926
0
LINE
8
DEFAULT_255_2_778
10
28.2870771
20
31.816726
11
28.2870771
21
31.854326
0
LINE
8
DEFAULT_255_2_778
10
28.2870771
20
31.854326
11
28.2495771
21
31.966726
0
LINE
8
DEFAULT_255_2_778
10
28.2495771
20
31.966726
11
28.1746771
21
32.079226
0
LINE
8
DEFAULT_255_2_778
10
28.1746771
20
32.079226
11
28.0621771
21
32.154326
0
LINE
8
DEFAULT_255_2_778
10
28.0621771
20
32.154326
11
27.9497771
21
32.191926
0
LINE
8
DEFAULT_255_2_778
10
27.9497771
20
32.191926
11
27.8373771
21
32.191926
0
LINE
8
DEFAULT_255_2_778
10
27.8373771
20
32.191926
11
27.7248771
21
32.154326
0
LINE
8
DEFAULT_255_2_778
10
27.7248771
20
32.154326
11
27.6124771
21
32.079226
0
LINE
8
DEFAULT_255_2_778
10
27.6124771
20
32.079226
11
27.5372771
21
31.966726
0
LINE
8
DEFAULT_255_2_778
10
27.5372771
20
31.966726
11
27.4996771
21
31.854326
0
LINE
8
DEFAULT_255_2_778
10
27.4996771
20
31.854326
11
27.4996771
21
31.066926
0
LINE
8
DEFAULT_255_2_778
10
27.4996771
20
31.066926
11
27.5372771
21
30.954426
0
LINE
8
DEFAULT_255_2_778
10
27.5372771
20
30.954426
11
27.6124771
21
30.842026
0
LINE
8
DEFAULT_255_2_778
10
27.6124771
20
30.842026
11
27.7248771
21
30.729526
0
LINE
8
DEFAULT_255_2_778
10
27.7248771
20
30.729526
11
27.8373771
21
30.692026
0
LINE
8
DEFAULT_255_2_778
10
27.8373771
20
30.692026
11
27.9497771
21
30.692026
0
LINE
8
DEFAULT_255_2_778
10
27.9497771
20
30.692026
11
28.0621771
21
30.729526
0
LINE
8
DEFAULT_255_2_778
10
28.0621771
20
30.729526
11
28.1746771
21
30.842026
0
LINE
8
DEFAULT_255_2_778
10
28.1746771
20
30.842026
11
28.2495771
21
30.954426
0
LINE
8
DEFAULT_255_2_778
10
28.2495771
20
30.954426
11
28.2870771
21
31.066926
0
LINE
8
DEFAULT_255_2_778
10
28.2870771
20
31.066926
11
28.2870771
21
31.179326
0
LINE
8
DEFAULT_255_2_778
10
28.2870771
20
31.179326
11
28.2495771
21
31.291826
0
LINE
8
DEFAULT_255_2_778
10
28.2495771
20
31.291826
11
28.1746771
21
31.404226
0
LINE
8
DEFAULT_255_2_778
10
28.1746771
20
31.404226
11
28.0621771
21
31.516726
0
LINE
8
DEFAULT_255_2_778
10
28.0621771
20
31.516726
11
27.9497771
21
31.554326
0
LINE
8
DEFAULT_255_2_778
10
27.9497771
20
31.554326
11
27.8373771
21
31.554326
0
LINE
8
DEFAULT_255_2_778
10
27.8373771
20
31.554326
11
27.7248771
21
31.516726
0
LINE
8
DEFAULT_255_2_778
10
27.7248771
20
31.516726
11
27.6124771
21
31.404226
0
LINE
8
DEFAULT_255_2_778
10
27.6124771
20
31.404226
11
27.5748771
21
31.329426
0
LINE
8
DEFAULT_255_2_778
10
27.5748771
20
31.329426
11
27.5748771
21
31.817026
0
LINE
8
DEFAULT_255_2_778
10
27.5748771
20
31.817026
11
27.6124771
21
31.929426
0
LINE
8
DEFAULT_255_2_778
10
27.6124771
20
31.929426
11
27.6499771
21
32.004326
0
LINE
8
DEFAULT_255_2_778
10
27.6499771
20
32.004326
11
27.6875771
21
32.041926
0
LINE
8
DEFAULT_255_2_778
10
27.6875771
20
32.041926
11
27.7624771
21
32.079526
0
LINE
8
DEFAULT_255_2_778
10
27.7624771
20
32.079526
11
27.8748771
21
32.117026
0
LINE
8
DEFAULT_255_2_778
10
27.8748771
20
32.117026
11
27.9124771
21
32.117026
0
LINE
8
DEFAULT_255_2_778
10
27.9124771
20
32.117026
11
28.0248771
21
32.079526
0
LINE
8
DEFAULT_255_2_778
10
28.0248771
20
32.079526
11
28.0997771
21
32.041926
0
LINE
8
DEFAULT_255_2_778
10
28.0997771
20
32.041926
11
28.1373771
21
32.004326
0
LINE
8
DEFAULT_255_2_778
10
28.1373771
20
32.004326
11
28.1749771
21
31.929426
0
LINE
8
DEFAULT_255_2_778
10
28.1749771
20
31.929426
11
28.2124771
21
31.817026
0
LINE
8
DEFAULT_255_2_778
10
28.1376771
20
31.329426
11
28.0251771
21
31.441826
0
LINE
8
DEFAULT_255_2_778
10
28.0251771
20
31.441826
11
27.9127771
21
31.479426
0
LINE
8
DEFAULT_255_2_778
10
27.9127771
20
31.479426
11
27.8751771
21
31.479426
0
LINE
8
DEFAULT_255_2_778
10
27.8751771
20
31.479426
11
27.7626771
21
31.441826
0
LINE
8
DEFAULT_255_2_778
10
27.7626771
20
31.441826
11
27.6502771
21
31.329426
0
LINE
8
DEFAULT_255_2_778
10
27.6502771
20
31.329426
11
27.6126771
21
31.254526
0
LINE
8
DEFAULT_255_2_778
10
27.6126771
20
31.254526
11
27.5751771
21
31.142026
0
LINE
8
DEFAULT_255_2_778
10
27.5751771
20
31.142026
11
27.5751771
21
31.104526
0
LINE
8
DEFAULT_255_2_778
10
27.5751771
20
31.104526
11
27.6126771
21
30.992026
0
LINE
8
DEFAULT_255_2_778
10
27.6126771
20
30.992026
11
27.6502771
21
30.916926
0
LINE
8
DEFAULT_255_2_778
10
27.6502771
20
30.916926
11
27.7626771
21
30.804426
0
LINE
8
DEFAULT_255_2_778
10
27.7626771
20
30.804426
11
27.8751771
21
30.766926
0
LINE
8
DEFAULT_255_2_778
10
27.8751771
20
30.766926
11
27.9127771
21
30.766926
0
LINE
8
DEFAULT_255_2_778
10
27.9127771
20
30.766926
11
28.0251771
21
30.804426
0
LINE
8
DEFAULT_255_2_778
10
28.0251771
20
30.804426
11
28.1376771
21
30.916926
0
LINE
8
DEFAULT_255_2_778
10
28.1376771
20
30.916926
11
28.1751771
21
30.992026
0
LINE
8
DEFAULT_255_2_778
10
28.1751771
20
30.992026
11
28.2127771
21
31.104526
0
LINE
8
DEFAULT_255_2_778
10
28.2127771
20
31.104526
11
28.2127771
21
31.142026
0
LINE
8
DEFAULT_255_2_778
10
28.2127771
20
31.142026
11
28.1751771
21
31.254526
0
LINE
8
DEFAULT_255_2_778
10
28.1751771
20
31.254526
11
28.1376771
21
31.329426
0
LINE
8
DEFAULT_255_2_778
10
30.2620052
20
30.8793271
11
30.1871052
21
30.8042271
0
LINE
8
DEFAULT_255_2_778
10
30.1871052
20
30.8042271
11
30.1871052
21
30.7666271
0
LINE
8
DEFAULT_255_2_778
10
30.1871052
20
30.7666271
11
30.2620052
21
30.6914271
0
LINE
8
DEFAULT_255_2_778
10
30.2620052
20
30.6914271
11
30.2995052
21
30.6914271
0
LINE
8
DEFAULT_255_2_778
10
30.2995052
20
30.6914271
11
30.3747052
21
30.7666271
0
LINE
8
DEFAULT_255_2_778
10
30.3747052
20
30.7666271
11
30.3747052
21
30.8042271
0
LINE
8
DEFAULT_255_2_778
10
30.3747052
20
30.8042271
11
30.2995052
21
30.8793271
0
LINE
8
DEFAULT_255_2_778
10
30.2995052
20
30.8793271
11
30.2620052
21
30.8793271
0
LINE
8
DEFAULT_255_2_778
10
30.2620052
20
30.7669271
11
30.2995052
21
30.7669271
0
LINE
8
DEFAULT_255_2_778
10
30.2995052
20
30.7669271
11
30.2995052
21
30.8044271
0
LINE
8
DEFAULT_255_2_778
10
30.2995052
20
30.8044271
11
30.2620052
21
30.8044271
0
LINE
8
DEFAULT_255_2_778
10
30.2620052
20
30.8044271
11
30.2620052
21
30.7669271
0
LINE
8
DEFAULT_255_2_778
10
30.8247531
20
32.0791937
11
30.8247531
21
32.1915937
0
LINE
8
DEFAULT_255_2_778
10
30.8247531
20
32.1915937
11
31.5748531
21
32.1915937
0
LINE
8
DEFAULT_255_2_778
10
31.5748531
20
32.1915937
11
31.5748531
21
32.1539937
0
LINE
8
DEFAULT_255_2_778
10
31.5748531
20
32.1539937
11
30.8623531
21
30.6913937
0
LINE
8
DEFAULT_255_2_778
10
30.8247531
20
30.7289937
11
31.4997531
21
32.1164937
0
LINE
8
DEFAULT_255_2_778
10
31.4997531
20
32.1164937
11
30.8996531
21
32.1164937
0
LINE
8
DEFAULT_255_2_778
10
30.8996531
20
32.1164937
11
30.8996531
21
32.0788937
0
LINE
8
DEFAULT_255_2_778
10
14.3364323
20
64.8086937
11
14.3739323
21
64.9210937
0
LINE
8
DEFAULT_255_2_778
10
14.3739323
20
64.9210937
11
14.4115323
21
64.9961937
0
LINE
8
DEFAULT_255_2_778
10
14.4115323
20
64.9961937
11
14.4491323
21
65.0337937
0
LINE
8
DEFAULT_255_2_778
10
14.4491323
20
65.0337937
11
14.5240323
21
65.0713937
0
LINE
8
DEFAULT_255_2_778
10
14.5240323
20
65.0713937
11
14.6364323
21
65.1089937
0
LINE
8
DEFAULT_255_2_778
10
14.6364323
20
65.1089937
11
14.6740323
21
65.1089937
0
LINE
8
DEFAULT_255_2_778
10
14.6740323
20
65.1089937
11
14.7864323
21
65.0713937
0
LINE
8
DEFAULT_255_2_778
10
14.7864323
20
65.0713937
11
14.8613323
21
65.0337937
0
LINE
8
DEFAULT_255_2_778
10
14.8613323
20
65.0337937
11
14.8989323
21
64.9961937
0
LINE
8
DEFAULT_255_2_778
10
14.8989323
20
64.9961937
11
14.9365323
21
64.9210937
0
LINE
8
DEFAULT_255_2_778
10
14.9365323
20
64.9210937
11
14.9740323
21
64.8086937
0
LINE
8
DEFAULT_255_2_778
10
14.9740323
20
64.8086937
11
14.9740323
21
64.7710937
0
LINE
8
DEFAULT_255_2_778
10
14.9740323
20
64.7710937
11
14.9365323
21
64.6961937
0
LINE
8
DEFAULT_255_2_778
10
14.9365323
20
64.6961937
11
14.2615323
21
63.7587937
0
LINE
8
DEFAULT_255_2_778
10
14.2615323
20
63.7587937
11
14.2615323
21
63.6838937
0
LINE
8
DEFAULT_255_2_778
10
14.2615323
20
63.6838937
11
15.0116323
21
63.6838937
0
LINE
8
DEFAULT_255_2_778
10
14.2615323
20
64.8088937
11
14.2615323
21
64.8464937
0
LINE
8
DEFAULT_255_2_778
10
14.2615323
20
64.8464937
11
14.2991323
21
64.9588937
0
LINE
8
DEFAULT_255_2_778
10
14.2991323
20
64.9588937
11
14.3739323
21
65.0713937
0
LINE
8
DEFAULT_255_2_778
10
14.3739323
20
65.0713937
11
14.4864323
21
65.1464937
0
LINE
8
DEFAULT_255_2_778
10
14.4864323
20
65.1464937
11
14.5988323
21
65.1840937
0
LINE
8
DEFAULT_255_2_778
10
14.5988323
20
65.1840937
11
14.7113323
21
65.1840937
0
LINE
8
DEFAULT_255_2_778
10
14.7113323
20
65.1840937
11
14.8237323
21
65.1464937
0
LINE
8
DEFAULT_255_2_778
10
14.8237323
20
65.1464937
11
14.9362323
21
65.0713937
0
LINE
8
DEFAULT_255_2_778
10
14.9362323
20
65.0713937
11
15.0111323
21
64.9588937
0
LINE
8
DEFAULT_255_2_778
10
15.0111323
20
64.9588937
11
15.0486323
21
64.8464937
0
LINE
8
DEFAULT_255_2_778
10
15.0486323
20
64.8464937
11
15.0486323
21
64.7339937
0
LINE
8
DEFAULT_255_2_778
10
15.0486323
20
64.7339937
11
15.0111323
21
64.6215937
0
LINE
8
DEFAULT_255_2_778
10
15.0111323
20
64.6215937
11
14.3361323
21
63.7590937
0
LINE
8
DEFAULT_255_2_778
10
14.3361323
20
63.7590937
11
15.0111323
21
63.7590937
0
LINE
8
DEFAULT_255_2_778
10
11.0992771
20
64.6211083
11
11.6241771
21
65.0712083
0
LINE
8
DEFAULT_255_2_778
10
11.6241771
20
65.0712083
11
11.6241771
21
63.7212083
0
LINE
8
DEFAULT_255_2_778
10
11.0616771
20
64.6587083
11
11.6617771
21
65.1836083
0
LINE
8
DEFAULT_255_2_778
10
11.6617771
20
65.1836083
11
11.6992771
21
65.1836083
0
LINE
8
DEFAULT_255_2_778
10
11.6992771
20
65.1836083
11
11.6992771
21
63.7210083
0
LINE
8
DEFAULT_255_2_778
10
17.0365052
20
63.8712948
11
17.1116052
21
63.7961948
0
LINE
8
DEFAULT_255_2_778
10
17.1116052
20
63.7961948
11
17.1116052
21
63.7585948
0
LINE
8
DEFAULT_255_2_778
10
17.1116052
20
63.7585948
11
17.0365052
21
63.6836948
0
LINE
8
DEFAULT_255_2_778
10
17.0365052
20
63.6836948
11
16.9992052
21
63.6836948
0
LINE
8
DEFAULT_255_2_778
10
16.9992052
20
63.6836948
11
16.9243052
21
63.7585948
0
LINE
8
DEFAULT_255_2_778
10
16.9243052
20
63.7585948
11
16.9243052
21
63.7961948
0
LINE
8
DEFAULT_255_2_778
10
16.9243052
20
63.7961948
11
16.9992052
21
63.8712948
0
LINE
8
DEFAULT_255_2_778
10
16.9992052
20
63.8712948
11
17.0367052
21
63.8712948
0
LINE
8
DEFAULT_255_2_778
10
17.0367052
20
63.8712948
11
17.1119052
21
63.7961948
0
LINE
8
DEFAULT_255_2_778
10
17.1119052
20
63.7961948
11
17.1119052
21
63.7585948
0
LINE
8
DEFAULT_255_2_778
10
17.1119052
20
63.7585948
11
17.0367052
21
63.6836948
0
LINE
8
DEFAULT_255_2_778
10
17.0367052
20
63.6836948
11
16.9992052
21
63.6836948
0
LINE
8
DEFAULT_255_2_778
10
16.9992052
20
63.6836948
11
16.9243052
21
63.7585948
0
LINE
8
DEFAULT_255_2_778
10
16.9243052
20
63.7585948
11
16.9243052
21
63.7961948
0
LINE
8
DEFAULT_255_2_778
10
16.9243052
20
63.7961948
11
16.9992052
21
63.8712948
0
LINE
8
DEFAULT_255_2_778
10
16.9992052
20
63.8712948
11
17.0367052
21
63.8712948
0
LINE
8
DEFAULT_255_2_778
10
16.9992052
20
63.7961948
11
17.0367052
21
63.7961948
0
LINE
8
DEFAULT_255_2_778
10
17.0367052
20
63.7961948
11
17.0367052
21
63.7585948
0
LINE
8
DEFAULT_255_2_778
10
17.0367052
20
63.7585948
11
16.9992052
21
63.7585948
0
LINE
8
DEFAULT_255_2_778
10
16.9992052
20
63.7585948
11
16.9992052
21
63.7961948
0
LINE
8
DEFAULT_255_2_778
10
20.3615052
20
63.8712948
11
20.4364052
21
63.7961948
0
LINE
8
DEFAULT_255_2_778
10
20.4364052
20
63.7961948
11
20.4364052
21
63.7585948
0
LINE
8
DEFAULT_255_2_778
10
20.4364052
20
63.7585948
11
20.3615052
21
63.6836948
0
LINE
8
DEFAULT_255_2_778
10
20.3615052
20
63.6836948
11
20.3239052
21
63.6836948
0
LINE
8
DEFAULT_255_2_778
10
20.3239052
20
63.6836948
11
20.2488052
21
63.7585948
0
LINE
8
DEFAULT_255_2_778
10
20.2488052
20
63.7585948
11
20.2488052
21
63.7961948
0
LINE
8
DEFAULT_255_2_778
10
20.2488052
20
63.7961948
11
20.3239052
21
63.8712948
0
LINE
8
DEFAULT_255_2_778
10
20.3239052
20
63.8712948
11
20.3615052
21
63.8712948
0
LINE
8
DEFAULT_255_2_778
10
20.3615052
20
63.8712948
11
20.4364052
21
63.7961948
0
LINE
8
DEFAULT_255_2_778
10
20.4364052
20
63.7961948
11
20.4364052
21
63.7585948
0
LINE
8
DEFAULT_255_2_778
10
20.4364052
20
63.7585948
11
20.3615052
21
63.6836948
0
LINE
8
DEFAULT_255_2_778
10
20.3615052
20
63.6836948
11
20.3239052
21
63.6836948
0
LINE
8
DEFAULT_255_2_778
10
20.3239052
20
63.6836948
11
20.2488052
21
63.7585948
0
LINE
8
DEFAULT_255_2_778
10
20.2488052
20
63.7585948
11
20.2488052
21
63.7961948
0
LINE
8
DEFAULT_255_2_778
10
20.2488052
20
63.7961948
11
20.3239052
21
63.8712948
0
LINE
8
DEFAULT_255_2_778
10
20.3239052
20
63.8712948
11
20.3615052
21
63.8712948
0
LINE
8
DEFAULT_255_2_778
10
20.3239052
20
63.7961948
11
20.3615052
21
63.7961948
0
LINE
8
DEFAULT_255_2_778
10
20.3615052
20
63.7961948
11
20.3615052
21
63.7585948
0
LINE
8
DEFAULT_255_2_778
10
20.3615052
20
63.7585948
11
20.3239052
21
63.7585948
0
LINE
8
DEFAULT_255_2_778
10
20.3239052
20
63.7585948
11
20.3239052
21
63.7961948
0
LINE
8
DEFAULT_255_2_778
10
23.6365052
20
63.8712948
11
23.7114052
21
63.7961948
0
LINE
8
DEFAULT_255_2_778
10
23.7114052
20
63.7961948
11
23.7114052
21
63.7585948
0
LINE
8
DEFAULT_255_2_778
10
23.7114052
20
63.7585948
11
23.6365052
21
63.6836948
0
LINE
8
DEFAULT_255_2_778
10
23.6365052
20
63.6836948
11
23.5989052
21
63.6836948
0
LINE
8
DEFAULT_255_2_778
10
23.5989052
20
63.6836948
11
23.5238052
21
63.7585948
0
LINE
8
DEFAULT_255_2_778
10
23.5238052
20
63.7585948
11
23.5238052
21
63.7961948
0
LINE
8
DEFAULT_255_2_778
10
23.5238052
20
63.7961948
11
23.5989052
21
63.8712948
0
LINE
8
DEFAULT_255_2_778
10
23.5989052
20
63.8712948
11
23.6365052
21
63.8712948
0
LINE
8
DEFAULT_255_2_778
10
23.6365052
20
63.8712948
11
23.7114052
21
63.7961948
0
LINE
8
DEFAULT_255_2_778
10
23.7114052
20
63.7961948
11
23.7114052
21
63.7585948
0
LINE
8
DEFAULT_255_2_778
10
23.7114052
20
63.7585948
11
23.6365052
21
63.6836948
0
LINE
8
DEFAULT_255_2_778
10
23.6365052
20
63.6836948
11
23.5989052
21
63.6836948
0
LINE
8
DEFAULT_255_2_778
10
23.5989052
20
63.6836948
11
23.5238052
21
63.7585948
0
LINE
8
DEFAULT_255_2_778
10
23.5238052
20
63.7585948
11
23.5238052
21
63.7961948
0
LINE
8
DEFAULT_255_2_778
10
23.5238052
20
63.7961948
11
23.5989052
21
63.8712948
0
LINE
8
DEFAULT_255_2_778
10
23.5989052
20
63.8712948
11
23.6365052
21
63.8712948
0
LINE
8
DEFAULT_255_2_778
10
23.5989052
20
63.7961948
11
23.6365052
21
63.7961948
0
LINE
8
DEFAULT_255_2_778
10
23.6365052
20
63.7961948
11
23.6365052
21
63.7585948
0
LINE
8
DEFAULT_255_2_778
10
23.6365052
20
63.7585948
11
23.5989052
21
63.7585948
0
LINE
8
DEFAULT_255_2_778
10
23.5989052
20
63.7585948
11
23.5989052
21
63.7961948
0
LINE
8
DEFAULT_255_2_778
10
7.1365729
20
63.8712948
11
7.2117729
21
63.7961948
0
LINE
8
DEFAULT_255_2_778
10
7.2117729
20
63.7961948
11
7.2117729
21
63.7585948
0
LINE
8
DEFAULT_255_2_778
10
7.2117729
20
63.7585948
11
7.1365729
21
63.6836948
0
LINE
8
DEFAULT_255_2_778
10
7.1365729
20
63.6836948
11
7.0989729
21
63.6836948
0
LINE
8
DEFAULT_255_2_778
10
7.0989729
20
63.6836948
11
7.0238729
21
63.7585948
0
LINE
8
DEFAULT_255_2_778
10
7.0238729
20
63.7585948
11
7.0238729
21
63.7961948
0
LINE
8
DEFAULT_255_2_778
10
7.0238729
20
63.7961948
11
7.0989729
21
63.8712948
0
LINE
8
DEFAULT_255_2_778
10
7.0989729
20
63.8712948
11
7.1365729
21
63.8712948
0
LINE
8
DEFAULT_255_2_778
10
7.1365729
20
63.8712948
11
7.2117729
21
63.7961948
0
LINE
8
DEFAULT_255_2_778
10
7.2117729
20
63.7961948
11
7.2117729
21
63.7585948
0
LINE
8
DEFAULT_255_2_778
10
7.2117729
20
63.7585948
11
7.1365729
21
63.6836948
0
LINE
8
DEFAULT_255_2_778
10
7.1365729
20
63.6836948
11
7.0989729
21
63.6836948
0
LINE
8
DEFAULT_255_2_778
10
7.0989729
20
63.6836948
11
7.0238729
21
63.7585948
0
LINE
8
DEFAULT_255_2_778
10
7.0238729
20
63.7585948
11
7.0238729
21
63.7961948
0
LINE
8
DEFAULT_255_2_778
10
7.0238729
20
63.7961948
11
7.0989729
21
63.8712948
0
LINE
8
DEFAULT_255_2_778
10
7.0989729
20
63.8712948
11
7.1365729
21
63.8712948
0
LINE
8
DEFAULT_255_2_778
10
7.0989729
20
63.7961948
11
7.1365729
21
63.7961948
0
LINE
8
DEFAULT_255_2_778
10
7.1365729
20
63.7961948
11
7.1365729
21
63.7585948
0
LINE
8
DEFAULT_255_2_778
10
7.1365729
20
63.7585948
11
7.0989729
21
63.7585948
0
LINE
8
DEFAULT_255_2_778
10
7.0989729
20
63.7585948
11
7.0989729
21
63.7961948
0
LINE
8
DEFAULT_255_2_778
10
10.5364052
20
63.8712948
11
10.6116052
21
63.7961948
0
LINE
8
DEFAULT_255_2_778
10
10.6116052
20
63.7961948
11
10.6116052
21
63.7585948
0
LINE
8
DEFAULT_255_2_778
10
10.6116052
20
63.7585948
11
10.5364052
21
63.6836948
0
LINE
8
DEFAULT_255_2_778
10
10.5364052
20
63.6836948
11
10.4989052
21
63.6836948
0
LINE
8
DEFAULT_255_2_778
10
10.4989052
20
63.6836948
11
10.4240052
21
63.7585948
0
LINE
8
DEFAULT_255_2_778
10
10.4240052
20
63.7585948
11
10.4240052
21
63.7961948
0
LINE
8
DEFAULT_255_2_778
10
10.4240052
20
63.7961948
11
10.4989052
21
63.8712948
0
LINE
8
DEFAULT_255_2_778
10
10.4989052
20
63.8712948
11
10.5364052
21
63.8712948
0
LINE
8
DEFAULT_255_2_778
10
10.5364052
20
63.8712948
11
10.6116052
21
63.7961948
0
LINE
8
DEFAULT_255_2_778
10
10.6116052
20
63.7961948
11
10.6116052
21
63.7585948
0
LINE
8
DEFAULT_255_2_778
10
10.6116052
20
63.7585948
11
10.5364052
21
63.6836948
0
LINE
8
DEFAULT_255_2_778
10
10.5364052
20
63.6836948
11
10.4989052
21
63.6836948
0
LINE
8
DEFAULT_255_2_778
10
10.4989052
20
63.6836948
11
10.4240052
21
63.7585948
0
LINE
8
DEFAULT_255_2_778
10
10.4240052
20
63.7585948
11
10.4240052
21
63.7961948
0
LINE
8
DEFAULT_255_2_778
10
10.4240052
20
63.7961948
11
10.4989052
21
63.8712948
0
LINE
8
DEFAULT_255_2_778
10
10.4989052
20
63.8712948
11
10.5364052
21
63.8712948
0
LINE
8
DEFAULT_255_2_778
10
10.4989052
20
63.7961948
11
10.5364052
21
63.7961948
0
LINE
8
DEFAULT_255_2_778
10
10.5364052
20
63.7961948
11
10.5364052
21
63.7585948
0
LINE
8
DEFAULT_255_2_778
10
10.5364052
20
63.7585948
11
10.4989052
21
63.7585948
0
LINE
8
DEFAULT_255_2_778
10
10.4989052
20
63.7585948
11
10.4989052
21
63.7961948
0
LINE
8
DEFAULT_255_2_778
10
13.7366052
20
63.8712948
11
13.8118052
21
63.7961948
0
LINE
8
DEFAULT_255_2_778
10
13.8118052
20
63.7961948
11
13.8118052
21
63.7585948
0
LINE
8
DEFAULT_255_2_778
10
13.8118052
20
63.7585948
11
13.7366052
21
63.6836948
0
LINE
8
DEFAULT_255_2_778
10
13.7366052
20
63.6836948
11
13.6991052
21
63.6836948
0
LINE
8
DEFAULT_255_2_778
10
13.6991052
20
63.6836948
11
13.6242052
21
63.7585948
0
LINE
8
DEFAULT_255_2_778
10
13.6242052
20
63.7585948
11
13.6242052
21
63.7961948
0
LINE
8
DEFAULT_255_2_778
10
13.6242052
20
63.7961948
11
13.6991052
21
63.8712948
0
LINE
8
DEFAULT_255_2_778
10
13.6991052
20
63.8712948
11
13.7366052
21
63.8712948
0
LINE
8
DEFAULT_255_2_778
10
13.7366052
20
63.8712948
11
13.8118052
21
63.7961948
0
LINE
8
DEFAULT_255_2_778
10
13.8118052
20
63.7961948
11
13.8118052
21
63.7585948
0
LINE
8
DEFAULT_255_2_778
10
13.8118052
20
63.7585948
11
13.7366052
21
63.6836948
0
LINE
8
DEFAULT_255_2_778
10
13.7366052
20
63.6836948
11
13.6991052
21
63.6836948
0
LINE
8
DEFAULT_255_2_778
10
13.6991052
20
63.6836948
11
13.6242052
21
63.7585948
0
LINE
8
DEFAULT_255_2_778
10
13.6242052
20
63.7585948
11
13.6242052
21
63.7961948
0
LINE
8
DEFAULT_255_2_778
10
13.6242052
20
63.7961948
11
13.6991052
21
63.8712948
0
LINE
8
DEFAULT_255_2_778
10
13.6991052
20
63.8712948
11
13.7366052
21
63.8712948
0
LINE
8
DEFAULT_255_2_778
10
13.6991052
20
63.7961948
11
13.7366052
21
63.7961948
0
LINE
8
DEFAULT_255_2_778
10
13.7366052
20
63.7961948
11
13.7366052
21
63.7585948
0
LINE
8
DEFAULT_255_2_778
10
13.7366052
20
63.7585948
11
13.6991052
21
63.7585948
0
LINE
8
DEFAULT_255_2_778
10
13.6991052
20
63.7585948
11
13.6991052
21
63.7961948
0
ARC
8
DEFAULT_255_2_778
10
9.0521154
20
64.4304688
40
1.3123091
50
166.2178196
51
180.3053554
0
ARC
8
DEFAULT_255_2_778
10
8.5534876
20
64.5579854
40
0.7976751
50
150.2899812
51
166.5810146
0
ARC
8
DEFAULT_255_2_778
10
8.1543053
20
64.7939789
40
0.3340828
50
121.7095204
51
151.5132202
0
ARC
8
DEFAULT_255_2_778
10
8.0624828
20
64.9319035
40
0.1685778
50
90.4954794
51
119.7988486
0
ARC
8
DEFAULT_255_2_778
10
8.0478321
20
64.8891554
40
0.211731
50
35.4823969
51
86.4275897
0
ARC
8
DEFAULT_255_2_778
10
7.7551372
20
64.6449752
40
0.592513
50
18.9134377
51
38.2818866
0
ARC
8
DEFAULT_255_2_778
10
7.2534703
20
64.4618309
40
1.1265092
50
5.2807361
51
19.4549301
0
ARC
8
DEFAULT_255_2_778
10
6.9613025
20
64.42437
40
1.4209228
50
359.9639084
51
5.700582
0
ARC
8
DEFAULT_255_2_778
10
7.069468
20
64.4164706
40
1.3127757
50
346.2202785
51
0.3057051
0
ARC
8
DEFAULT_255_2_778
10
7.5684715
20
64.2888858
40
0.7977609
50
330.2923767
51
346.5833537
0
ARC
8
DEFAULT_255_2_778
10
7.9676888
20
64.052907
40
0.3341453
50
301.7244981
51
331.5135337
0
ARC
8
DEFAULT_255_2_778
10
8.0595653
20
63.9149589
40
0.1685901
50
270.496077
51
299.8172667
0
ARC
8
DEFAULT_255_2_778
10
8.0742172
20
63.9576884
40
0.2117248
50
215.4804113
51
266.4276997
0
ARC
8
DEFAULT_255_2_778
10
8.3669462
20
64.2018781
40
0.5925391
50
198.9108785
51
218.2798815
0
ARC
8
DEFAULT_255_2_778
10
8.8688453
20
64.3850798
40
1.1267731
50
185.2792348
51
199.4523902
0
ARC
8
DEFAULT_255_2_778
10
9.1613932
20
64.4225778
40
1.4215684
50
179.9638398
51
185.6992819
0
ARC
8
DEFAULT_255_2_778
10
8.9902597
20
64.4377963
40
1.3287517
50
165.3315081
51
180.2898242
0
ARC
8
DEFAULT_255_2_778
10
8.5396922
20
64.5608912
40
0.861713
50
148.6085165
51
165.6631344
0
ARC
8
DEFAULT_255_2_778
10
8.1562505
20
64.8029809
40
0.408355
50
120.445884
51
149.5803904
0
ARC
8
DEFAULT_255_2_778
10
8.0600237
20
64.9547277
40
0.2288528
50
90.4002429
51
118.9274876
0
ARC
8
DEFAULT_255_2_778
10
8.04527
20
64.9099086
40
0.2739824
50
38.2733317
51
87.2479463
0
ARC
8
DEFAULT_255_2_778
10
7.7594323
20
64.6521881
40
0.6585044
50
20.5040038
51
40.4730676
0
ARC
8
DEFAULT_255_2_778
10
7.2967453
20
64.4690495
40
1.1560665
50
5.796311
51
20.9733309
0
ARC
8
DEFAULT_255_2_778
10
7.0301385
20
64.4319969
40
1.4250868
50
359.9629324
51
6.1958695
0
ARC
8
DEFAULT_255_2_778
10
7.1265967
20
64.4243513
40
1.3286453
50
345.331359
51
0.2899504
0
ARC
8
DEFAULT_255_2_778
10
7.5771718
20
64.301257
40
0.8615994
50
328.6086094
51
345.6627771
0
ARC
8
DEFAULT_255_2_778
10
7.960577
20
64.0591927
40
0.4082854
50
300.4482542
51
329.5803993
0
ARC
8
DEFAULT_255_2_778
10
8.0568232
20
63.9074212
40
0.2287518
50
270.4012072
51
298.9299783
0
ARC
8
DEFAULT_255_2_778
10
8.0720104
20
63.9538651
40
0.2755252
50
217.8185715
51
267.1737673
0
ARC
8
DEFAULT_255_2_778
10
8.3634724
20
64.2137611
40
0.6656575
50
200.2506497
51
220.1081256
0
ARC
8
DEFAULT_255_2_778
10
8.8242947
20
64.3940636
40
1.160443
50
185.7429352
51
200.7273175
0
ARC
8
DEFAULT_255_2_778
10
9.0870393
20
64.4301707
40
1.4255145
50
179.9636529
51
186.1301671
0
LINE
8
DEFAULT_255_2_778
10
7.739825
20
64.423475
11
7.739825
21
64.423475
0
LINE
8
DEFAULT_255_2_778
10
7.661525
20
64.431075
11
7.661525
21
64.431075
0
LINE
8
DEFAULT_255_2_778
10
24.1615
20
64.0585937
11
24.1615
21
64.0209937
0
LINE
8
DEFAULT_255_2_778
10
24.1615
20
64.0209937
11
24.1991
21
63.9085937
0
LINE
8
DEFAULT_255_2_778
10
24.1991
20
63.9085937
11
24.2739
21
63.7960937
0
LINE
8
DEFAULT_255_2_778
10
24.2739
20
63.7960937
11
24.3864
21
63.7209937
0
LINE
8
DEFAULT_255_2_778
10
24.3864
20
63.7209937
11
24.4988
21
63.6833937
0
LINE
8
DEFAULT_255_2_778
10
24.4988
20
63.6833937
11
24.6113
21
63.6833937
0
LINE
8
DEFAULT_255_2_778
10
24.6113
20
63.6833937
11
24.7237
21
63.7209937
0
LINE
8
DEFAULT_255_2_778
10
24.7237
20
63.7209937
11
24.8362
21
63.7960937
0
LINE
8
DEFAULT_255_2_778
10
24.8362
20
63.7960937
11
24.9113
21
63.9085937
0
LINE
8
DEFAULT_255_2_778
10
24.9113
20
63.9085937
11
24.9489
21
64.0209937
0
LINE
8
DEFAULT_255_2_778
10
24.9489
20
64.0209937
11
24.9489
21
64.2834937
0
LINE
8
DEFAULT_255_2_778
10
24.9489
20
64.2834937
11
24.9113
21
64.3958937
0
LINE
8
DEFAULT_255_2_778
10
24.9113
20
64.3958937
11
24.8362
21
64.5083937
0
LINE
8
DEFAULT_255_2_778
10
24.8362
20
64.5083937
11
24.7237
21
64.5832937
0
LINE
8
DEFAULT_255_2_778
10
24.7237
20
64.5832937
11
24.6113
21
64.6207937
0
LINE
8
DEFAULT_255_2_778
10
24.6113
20
64.6207937
11
24.2364
21
64.6207937
0
LINE
8
DEFAULT_255_2_778
10
24.2364
20
64.6207937
11
24.2364
21
65.1084937
0
LINE
8
DEFAULT_255_2_778
10
24.2364
20
65.1084937
11
24.9113
21
65.1084937
0
LINE
8
DEFAULT_255_2_778
10
24.2364
20
64.0582937
11
24.2739
21
63.9458937
0
LINE
8
DEFAULT_255_2_778
10
24.2739
20
63.9458937
11
24.3115
21
63.8709937
0
LINE
8
DEFAULT_255_2_778
10
24.3115
20
63.8709937
11
24.3491
21
63.8333937
0
LINE
8
DEFAULT_255_2_778
10
24.3491
20
63.8333937
11
24.424
21
63.7958937
0
LINE
8
DEFAULT_255_2_778
10
24.424
20
63.7958937
11
24.5364
21
63.7582937
0
LINE
8
DEFAULT_255_2_778
10
24.5364
20
63.7582937
11
24.574
21
63.7582937
0
LINE
8
DEFAULT_255_2_778
10
24.574
20
63.7582937
11
24.6864
21
63.7958937
0
LINE
8
DEFAULT_255_2_778
10
24.6864
20
63.7958937
11
24.7613
21
63.8333937
0
LINE
8
DEFAULT_255_2_778
10
24.7613
20
63.8333937
11
24.7989
21
63.8709937
0
LINE
8
DEFAULT_255_2_778
10
24.7989
20
63.8709937
11
24.8365
21
63.9458937
0
LINE
8
DEFAULT_255_2_778
10
24.8365
20
63.9458937
11
24.874
21
64.0582937
0
LINE
8
DEFAULT_255_2_778
10
24.874
20
64.0582937
11
24.874
21
64.2458937
0
LINE
8
DEFAULT_255_2_778
10
24.874
20
64.2458937
11
24.8365
21
64.3583937
0
LINE
8
DEFAULT_255_2_778
10
24.8365
20
64.3583937
11
24.7989
21
64.4334937
0
LINE
8
DEFAULT_255_2_778
10
24.7989
20
64.4334937
11
24.7613
21
64.4710937
0
LINE
8
DEFAULT_255_2_778
10
24.7613
20
64.4710937
11
24.6864
21
64.5085937
0
LINE
8
DEFAULT_255_2_778
10
24.6864
20
64.5085937
11
24.574
21
64.5461937
0
LINE
8
DEFAULT_255_2_778
10
24.574
20
64.5461937
11
24.1615
21
64.5461937
0
LINE
8
DEFAULT_255_2_778
10
24.1615
20
64.5461937
11
24.1615
21
65.1835937
0
LINE
8
DEFAULT_255_2_778
10
24.1615
20
65.1835937
11
24.9116
21
65.1835937
0
LINE
8
DEFAULT_255_2_778
10
21.6367531
20
64.0210083
11
21.5243531
21
64.0210083
0
LINE
8
DEFAULT_255_2_778
10
21.5243531
20
64.0210083
11
21.5243531
21
63.7210083
0
LINE
8
DEFAULT_255_2_778
10
21.4494531
20
63.7210083
11
21.4494531
21
64.0210083
0
LINE
8
DEFAULT_255_2_778
10
21.4494531
20
64.0210083
11
20.8869531
21
64.0210083
0
LINE
8
DEFAULT_255_2_778
10
20.8869531
20
64.0210083
11
20.8869531
21
64.0586083
0
LINE
8
DEFAULT_255_2_778
10
20.8869531
20
64.0586083
11
21.4870531
21
65.1836083
0
LINE
8
DEFAULT_255_2_778
10
21.4870531
20
65.1836083
11
21.5245531
21
65.1836083
0
LINE
8
DEFAULT_255_2_778
10
21.5245531
20
65.1836083
11
21.5245531
21
64.0962083
0
LINE
8
DEFAULT_255_2_778
10
21.5245531
20
64.0962083
11
21.6370531
21
64.0962083
0
LINE
8
DEFAULT_255_2_778
10
21.4494531
20
64.0962083
11
20.9618531
21
64.0962083
0
LINE
8
DEFAULT_255_2_778
10
20.9618531
20
64.0962083
11
21.4494531
21
64.9963083
0
LINE
8
DEFAULT_255_2_778
10
21.4494531
20
64.9963083
11
21.4494531
21
64.0962083
0
ARC
8
DEFAULT_255_2_778
10
18.0259858
20
64.7808635
40
0.4476819
50
147.9223182
51
174.2674312
0
ARC
8
DEFAULT_255_2_778
10
17.9801753
20
64.8077013
40
0.3946158
50
95.5454639
51
147.6917411
0
ARC
8
DEFAULT_255_2_778
10
17.9771941
20
64.8237189
40
0.3783877
50
90.3953513
51
95.3305386
0
ARC
8
DEFAULT_255_2_778
10
17.9771344
20
64.8322852
40
0.3698213
50
90.0000022
51
90.3952643
0
ARC
8
DEFAULT_255_2_778
10
17.9787152
20
64.8435595
40
0.3585504
50
49.9953163
51
90.252609
0
ARC
8
DEFAULT_255_2_778
10
17.9689755
20
64.8319398
40
0.3737122
50
43.8803961
51
49.9967198
0
ARC
8
DEFAULT_255_2_778
10
17.7810208
20
64.7106456
40
0.5948092
50
34.1411039
51
39.7488194
0
ARC
8
DEFAULT_255_2_778
10
17.8188519
20
64.736753
40
0.5488458
50
31.0738005
51
34.1018603
0
ARC
8
DEFAULT_255_2_778
10
17.8687929
20
64.7651793
40
0.4914012
50
17.9885348
51
31.24046
0
ARC
8
DEFAULT_255_2_778
10
17.9147729
20
64.7805741
40
0.4429147
50
1.6667205
51
17.9313033
0
ARC
8
DEFAULT_255_2_778
10
17.921506
20
64.7811803
40
0.4361671
50
0.0001665
51
1.6128529
0
ARC
8
DEFAULT_255_2_778
10
17.9209848
20
64.7811962
40
0.4366884
50
337.2262243
51
359.9980738
0
ARC
8
DEFAULT_255_2_778
10
17.9785808
20
64.7541971
40
0.3731404
50
318.4830813
51
337.6253528
0
ARC
8
DEFAULT_255_2_778
10
18.0761919
20
64.6699462
40
0.2442135
50
307.0318911
51
318.1037153
0
ARC
8
DEFAULT_255_2_778
10
18.1334887
20
64.5922893
40
0.1477161
50
290.5553556
51
307.4312318
0
ARC
8
DEFAULT_255_2_778
10
18.1564424
20
64.5316548
40
0.0828831
50
270.8298876
51
290.4151351
0
ARC
8
DEFAULT_255_2_778
10
18.0342222
20
64.1654091
40
0.3090824
50
33.6066313
51
66.4647651
0
ARC
8
DEFAULT_255_2_778
10
17.9501835
20
64.1212009
40
0.4036598
50
0.5158906
51
32.2303372
0
ARC
8
DEFAULT_255_2_778
10
17.8346508
20
64.1088967
40
0.5194207
50
359.995528
51
1.7584285
0
ARC
8
DEFAULT_255_2_778
10
17.8122415
20
64.1086311
40
0.5418301
50
338.0822668
51
0.0237963
0
ARC
8
DEFAULT_255_2_778
10
18.006643
20
64.0271827
40
0.3310906
50
319.2448068
51
338.6007644
0
ARC
8
DEFAULT_255_2_778
10
18.116695
20
63.9376017
40
0.1892866
50
309.9908409
51
318.0379035
0
ARC
8
DEFAULT_255_2_778
10
17.9348431
20
64.1467553
40
0.4664246
50
276.3391771
51
310.5939479
0
ARC
8
DEFAULT_255_2_778
10
17.9427154
20
64.0987027
40
0.4178043
50
270.0274927
51
275.9937998
0
ARC
8
DEFAULT_255_2_778
10
17.9340751
20
64.0178801
40
0.3370976
50
211.940262
51
271.5028258
0
ARC
8
DEFAULT_255_2_778
10
18.0241296
20
64.0685203
40
0.4403329
50
190.635922
51
211.3327576
0
ARC
8
DEFAULT_255_2_778
10
18.2025698
20
64.1084331
40
0.6231058
50
183.3722345
51
191.2145705
0
ARC
8
DEFAULT_255_2_778
10
18.1615136
20
64.6986982
40
0.5260684
50
151.4357025
51
167.5869816
0
ARC
8
DEFAULT_255_2_778
10
18.0134683
20
64.7806471
40
0.3568616
50
126.5137879
51
151.6262997
0
ARC
8
DEFAULT_255_2_778
10
17.9747785
20
64.829578
40
0.2945206
50
95.5604574
51
126.1284348
0
ARC
8
DEFAULT_255_2_778
10
17.9742046
20
64.8312896
40
0.2927618
50
89.997563
51
95.4811305
0
ARC
8
DEFAULT_255_2_778
10
17.9746787
20
64.8313459
40
0.2927059
50
44.1100158
51
90.0903515
0
ARC
8
DEFAULT_255_2_778
10
17.7974184
20
64.7705641
40
0.4691125
50
6.9737351
51
34.3235408
0
ARC
8
DEFAULT_255_2_778
10
17.7620101
20
64.7614803
40
0.5053839
50
0.0343314
51
7.5085685
0
ARC
8
DEFAULT_255_2_778
10
17.8812696
20
64.7537088
40
0.3862088
50
333.2971868
51
1.1979507
0
ARC
8
DEFAULT_255_2_778
10
18.0625288
20
64.6571324
40
0.1809475
50
270.2848061
51
334.8252724
0
ARC
8
DEFAULT_255_2_778
10
18.0635033
20
64.6833281
40
0.2071411
50
266.4681818
51
269.9792244
0
ARC
8
DEFAULT_255_2_778
10
18.1614009
20
64.1903745
40
0.5278264
50
192.4279161
51
208.3214344
0
ARC
8
DEFAULT_255_2_778
10
18.0129782
20
64.1089813
40
0.3585577
50
208.1239176
51
232.9173407
0
ARC
8
DEFAULT_255_2_778
10
17.9728556
20
64.0590131
40
0.2945083
50
233.2829593
51
264.5117998
0
ARC
8
DEFAULT_255_2_778
10
17.9722642
20
64.0573589
40
0.2928055
50
264.5960188
51
270.0021682
0
ARC
8
DEFAULT_255_2_778
10
17.9726598
20
64.0578775
40
0.2933243
50
269.924903
51
315.8268074
0
ARC
8
DEFAULT_255_2_778
10
17.7956168
20
64.1179876
40
0.4691088
50
325.6774883
51
353.0318449
0
ARC
8
DEFAULT_255_2_778
10
17.7601927
20
64.127077
40
0.5053959
50
352.4962097
51
359.9659188
0
ARC
8
DEFAULT_255_2_778
10
17.8794421
20
64.1348513
40
0.386231
50
358.8020351
51
26.7015036
0
ARC
8
DEFAULT_255_2_778
10
18.0607212
20
64.231431
40
0.1809505
50
25.1738544
51
89.7162088
0
ARC
8
DEFAULT_255_2_778
10
18.0616844
20
64.2054304
40
0.2069488
50
90.0185288
51
93.5575969
0
LINE
8
DEFAULT_255_2_778
10
26.8874052
20
63.8606948
11
26.8123052
21
63.7855948
0
LINE
8
DEFAULT_255_2_778
10
26.8123052
20
63.7855948
11
26.8123052
21
63.7479948
0
LINE
8
DEFAULT_255_2_778
10
26.8123052
20
63.7479948
11
26.8874052
21
63.6730948
0
LINE
8
DEFAULT_255_2_778
10
26.8874052
20
63.6730948
11
26.9250052
21
63.6730948
0
LINE
8
DEFAULT_255_2_778
10
26.9250052
20
63.6730948
11
26.9999052
21
63.7479948
0
LINE
8
DEFAULT_255_2_778
10
26.9999052
20
63.7479948
11
26.9999052
21
63.7855948
0
LINE
8
DEFAULT_255_2_778
10
26.9999052
20
63.7855948
11
26.9250052
21
63.8606948
0
LINE
8
DEFAULT_255_2_778
10
26.9250052
20
63.8606948
11
26.8874052
21
63.8606948
0
LINE
8
DEFAULT_255_2_778
10
26.8874052
20
63.7482948
11
26.9250052
21
63.7482948
0
LINE
8
DEFAULT_255_2_778
10
26.9250052
20
63.7482948
11
26.9250052
21
63.7857948
0
LINE
8
DEFAULT_255_2_778
10
26.9250052
20
63.7857948
11
26.8874052
21
63.7857948
0
LINE
8
DEFAULT_255_2_778
10
26.8874052
20
63.7857948
11
26.8874052
21
63.7482948
0
LINE
8
DEFAULT_255_2_778
10
28.2371
20
64.7980614
11
28.2371
21
64.8356614
0
LINE
8
DEFAULT_255_2_778
10
28.2371
20
64.8356614
11
28.1995
21
64.9480614
0
LINE
8
DEFAULT_255_2_778
10
28.1995
20
64.9480614
11
28.1247
21
65.0605614
0
LINE
8
DEFAULT_255_2_778
10
28.1247
20
65.0605614
11
28.0122
21
65.1356614
0
LINE
8
DEFAULT_255_2_778
10
28.0122
20
65.1356614
11
27.8998
21
65.1732614
0
LINE
8
DEFAULT_255_2_778
10
27.8998
20
65.1732614
11
27.7873
21
65.1732614
0
LINE
8
DEFAULT_255_2_778
10
27.7873
20
65.1732614
11
27.6749
21
65.1356614
0
LINE
8
DEFAULT_255_2_778
10
27.6749
20
65.1356614
11
27.5624
21
65.0605614
0
LINE
8
DEFAULT_255_2_778
10
27.5624
20
65.0605614
11
27.4873
21
64.9480614
0
LINE
8
DEFAULT_255_2_778
10
27.4873
20
64.9480614
11
27.4497
21
64.8356614
0
LINE
8
DEFAULT_255_2_778
10
27.4497
20
64.8356614
11
27.4497
21
64.0482614
0
LINE
8
DEFAULT_255_2_778
10
27.4497
20
64.0482614
11
27.4873
21
63.9357614
0
LINE
8
DEFAULT_255_2_778
10
27.4873
20
63.9357614
11
27.5624
21
63.8233614
0
LINE
8
DEFAULT_255_2_778
10
27.5624
20
63.8233614
11
27.6749
21
63.7108614
0
LINE
8
DEFAULT_255_2_778
10
27.6749
20
63.7108614
11
27.7873
21
63.6733614
0
LINE
8
DEFAULT_255_2_778
10
27.7873
20
63.6733614
11
27.8998
21
63.6733614
0
LINE
8
DEFAULT_255_2_778
10
27.8998
20
63.6733614
11
28.0122
21
63.7108614
0
LINE
8
DEFAULT_255_2_778
10
28.0122
20
63.7108614
11
28.1247
21
63.8233614
0
LINE
8
DEFAULT_255_2_778
10
28.1247
20
63.8233614
11
28.1995
21
63.9357614
0
LINE
8
DEFAULT_255_2_778
10
28.1995
20
63.9357614
11
28.2371
21
64.0482614
0
LINE
8
DEFAULT_255_2_778
10
28.2371
20
64.0482614
11
28.2371
21
64.1606614
0
LINE
8
DEFAULT_255_2_778
10
28.2371
20
64.1606614
11
28.1995
21
64.2731614
0
LINE
8
DEFAULT_255_2_778
10
28.1995
20
64.2731614
11
28.1247
21
64.3855614
0
LINE
8
DEFAULT_255_2_778
10
28.1247
20
64.3855614
11
28.0122
21
64.4980614
0
LINE
8
DEFAULT_255_2_778
10
28.0122
20
64.4980614
11
27.8998
21
64.5356614
0
LINE
8
DEFAULT_255_2_778
10
27.8998
20
64.5356614
11
27.7873
21
64.5356614
0
LINE
8
DEFAULT_255_2_778
10
27.7873
20
64.5356614
11
27.6749
21
64.4980614
0
LINE
8
DEFAULT_255_2_778
10
27.6749
20
64.4980614
11
27.5624
21
64.3855614
0
LINE
8
DEFAULT_255_2_778
10
27.5624
20
64.3855614
11
27.5248
21
64.3107614
0
LINE
8
DEFAULT_255_2_778
10
27.5248
20
64.3107614
11
27.5248
21
64.7983614
0
LINE
8
DEFAULT_255_2_778
10
27.5248
20
64.7983614
11
27.5624
21
64.9107614
0
LINE
8
DEFAULT_255_2_778
10
27.5624
20
64.9107614
11
27.6
21
64.9856614
0
LINE
8
DEFAULT_255_2_778
10
27.6
20
64.9856614
11
27.6376
21
65.0232614
0
LINE
8
DEFAULT_255_2_778
10
27.6376
20
65.0232614
11
27.7124
21
65.0608614
0
LINE
8
DEFAULT_255_2_778
10
27.7124
20
65.0608614
11
27.8249
21
65.0983614
0
LINE
8
DEFAULT_255_2_778
10
27.8249
20
65.0983614
11
27.8624
21
65.0983614
0
LINE
8
DEFAULT_255_2_778
10
27.8624
20
65.0983614
11
27.9749
21
65.0608614
0
LINE
8
DEFAULT_255_2_778
10
27.9749
20
65.0608614
11
28.0498
21
65.0232614
0
LINE
8
DEFAULT_255_2_778
10
28.0498
20
65.0232614
11
28.0873
21
64.9856614
0
LINE
8
DEFAULT_255_2_778
10
28.0873
20
64.9856614
11
28.1249
21
64.9107614
0
LINE
8
DEFAULT_255_2_778
10
28.1249
20
64.9107614
11
28.1625
21
64.7983614
0
LINE
8
DEFAULT_255_2_778
10
28.0876
20
64.3107614
11
27.9752
21
64.4231614
0
LINE
8
DEFAULT_255_2_778
10
27.9752
20
64.4231614
11
27.8627
21
64.4607614
0
LINE
8
DEFAULT_255_2_778
10
27.8627
20
64.4607614
11
27.8251
21
64.4607614
0
LINE
8
DEFAULT_255_2_778
10
27.8251
20
64.4607614
11
27.7127
21
64.4231614
0
LINE
8
DEFAULT_255_2_778
10
27.7127
20
64.4231614
11
27.6002
21
64.3107614
0
LINE
8
DEFAULT_255_2_778
10
27.6002
20
64.3107614
11
27.5627
21
64.2355614
0
LINE
8
DEFAULT_255_2_778
10
27.5627
20
64.2355614
11
27.5251
21
64.1231614
0
LINE
8
DEFAULT_255_2_778
10
27.5251
20
64.1231614
11
27.5251
21
64.0855614
0
LINE
8
DEFAULT_255_2_778
10
27.5251
20
64.0855614
11
27.5627
21
63.9731614
0
LINE
8
DEFAULT_255_2_778
10
27.5627
20
63.9731614
11
27.6002
21
63.8979614
0
LINE
8
DEFAULT_255_2_778
10
27.6002
20
63.8979614
11
27.7127
21
63.7855614
0
LINE
8
DEFAULT_255_2_778
10
27.7127
20
63.7855614
11
27.8251
21
63.7479614
0
LINE
8
DEFAULT_255_2_778
10
27.8251
20
63.7479614
11
27.8627
21
63.7479614
0
LINE
8
DEFAULT_255_2_778
10
27.8627
20
63.7479614
11
27.9752
21
63.7855614
0
LINE
8
DEFAULT_255_2_778
10
27.9752
20
63.7855614
11
28.0876
21
63.8979614
0
LINE
8
DEFAULT_255_2_778
10
28.0876
20
63.8979614
11
28.1252
21
63.9731614
0
LINE
8
DEFAULT_255_2_778
10
28.1252
20
63.9731614
11
28.1628
21
64.0855614
0
LINE
8
DEFAULT_255_2_778
10
28.1628
20
64.0855614
11
28.1628
21
64.1231614
0
LINE
8
DEFAULT_255_2_778
10
28.1628
20
64.1231614
11
28.1252
21
64.2355614
0
LINE
8
DEFAULT_255_2_778
10
28.1252
20
64.2355614
11
28.0876
21
64.3107614
0
LINE
8
DEFAULT_255_2_778
10
30.2123052
20
63.8606948
11
30.1374052
21
63.7855948
0
LINE
8
DEFAULT_255_2_778
10
30.1374052
20
63.7855948
11
30.1374052
21
63.7479948
0
LINE
8
DEFAULT_255_2_778
10
30.1374052
20
63.7479948
11
30.2123052
21
63.6730948
0
LINE
8
DEFAULT_255_2_778
10
30.2123052
20
63.6730948
11
30.2498052
21
63.6730948
0
LINE
8
DEFAULT_255_2_778
10
30.2498052
20
63.6730948
11
30.3250052
21
63.7479948
0
LINE
8
DEFAULT_255_2_778
10
30.3250052
20
63.7479948
11
30.3250052
21
63.7855948
0
LINE
8
DEFAULT_255_2_778
10
30.3250052
20
63.7855948
11
30.2498052
21
63.8606948
0
LINE
8
DEFAULT_255_2_778
10
30.2498052
20
63.8606948
11
30.2123052
21
63.8606948
0
LINE
8
DEFAULT_255_2_778
10
30.2123052
20
63.7482948
11
30.2498052
21
63.7482948
0
LINE
8
DEFAULT_255_2_778
10
30.2498052
20
63.7482948
11
30.2498052
21
63.7857948
0
LINE
8
DEFAULT_255_2_778
10
30.2498052
20
63.7857948
11
30.2123052
21
63.7857948
0
LINE
8
DEFAULT_255_2_778
10
30.2123052
20
63.7857948
11
30.2123052
21
63.7482948
0
LINE
8
DEFAULT_255_2_778
10
30.7747531
20
65.0605937
11
30.7747531
21
65.1729937
0
LINE
8
DEFAULT_255_2_778
10
30.7747531
20
65.1729937
11
31.5248531
21
65.1729937
0
LINE
8
DEFAULT_255_2_778
10
31.5248531
20
65.1729937
11
31.5248531
21
65.1353937
0
LINE
8
DEFAULT_255_2_778
10
31.5248531
20
65.1353937
11
30.8123531
21
63.6727937
0
LINE
8
DEFAULT_255_2_778
10
30.7747531
20
63.7103937
11
31.4497531
21
65.0978937
0
LINE
8
DEFAULT_255_2_778
10
31.4497531
20
65.0978937
11
30.8496531
21
65.0978937
0
LINE
8
DEFAULT_255_2_778
10
30.8496531
20
65.0978937
11
30.8496531
21
65.0602937
0
LINE
8
DEFAULT_255_2_778
10
11.6300771
20
72.5157083
11
12.1549771
21
72.9658083
0
LINE
8
DEFAULT_255_2_778
10
12.1549771
20
72.9658083
11
12.1549771
21
71.6158083
0
LINE
8
DEFAULT_255_2_778
10
11.5924771
20
72.5533083
11
12.1925771
21
73.0782083
0
LINE
8
DEFAULT_255_2_778
10
12.1925771
20
73.0782083
11
12.2300771
21
73.0782083
0
LINE
8
DEFAULT_255_2_778
10
12.2300771
20
73.0782083
11
12.2300771
21
71.6156083
0
LINE
8
DEFAULT_255_2_778
10
7.8660667
20
71.5896083
11
7.8660667
21
73.0520083
0
LINE
8
DEFAULT_255_2_778
10
7.8660667
20
73.0520083
11
7.9409667
21
73.0520083
0
LINE
8
DEFAULT_255_2_778
10
7.9409667
20
73.0520083
11
8.3909667
21
72.1895083
0
LINE
8
DEFAULT_255_2_778
10
8.3909667
20
72.1895083
11
8.8410667
21
73.0520083
0
LINE
8
DEFAULT_255_2_778
10
8.8410667
20
73.0520083
11
8.9159667
21
73.0520083
0
LINE
8
DEFAULT_255_2_778
10
8.9159667
20
73.0520083
11
8.9159667
21
71.5894083
0
LINE
8
DEFAULT_255_2_778
10
7.9409667
20
71.5894083
11
7.9409667
21
72.9769083
0
LINE
8
DEFAULT_255_2_778
10
7.9409667
20
72.9769083
11
8.3534667
21
72.1143083
0
LINE
8
DEFAULT_255_2_778
10
8.3534667
20
72.1143083
11
8.4285667
21
72.1143083
0
LINE
8
DEFAULT_255_2_778
10
8.4285667
20
72.1143083
11
8.8410667
21
72.9769083
0
LINE
8
DEFAULT_255_2_778
10
8.8410667
20
72.9769083
11
8.8410667
21
71.5894083
0
LINE
8
DEFAULT_255_2_778
10
37.1565
20
72.6686937
11
37.194
21
72.7810937
0
LINE
8
DEFAULT_255_2_778
10
37.194
20
72.7810937
11
37.2316
21
72.8561937
0
LINE
8
DEFAULT_255_2_778
10
37.2316
20
72.8561937
11
37.2692
21
72.8937937
0
LINE
8
DEFAULT_255_2_778
10
37.2692
20
72.8937937
11
37.3441
21
72.9313937
0
LINE
8
DEFAULT_255_2_778
10
37.3441
20
72.9313937
11
37.4565
21
72.9689937
0
LINE
8
DEFAULT_255_2_778
10
37.4565
20
72.9689937
11
37.4941
21
72.9689937
0
LINE
8
DEFAULT_255_2_778
10
37.4941
20
72.9689937
11
37.6065
21
72.9313937
0
LINE
8
DEFAULT_255_2_778
10
37.6065
20
72.9313937
11
37.6814
21
72.8937937
0
LINE
8
DEFAULT_255_2_778
10
37.6814
20
72.8937937
11
37.719
21
72.8561937
0
LINE
8
DEFAULT_255_2_778
10
37.719
20
72.8561937
11
37.7566
21
72.7810937
0
LINE
8
DEFAULT_255_2_778
10
37.7566
20
72.7810937
11
37.7941
21
72.6686937
0
LINE
8
DEFAULT_255_2_778
10
37.7941
20
72.6686937
11
37.7941
21
72.6310937
0
LINE
8
DEFAULT_255_2_778
10
37.7941
20
72.6310937
11
37.7566
21
72.5561937
0
LINE
8
DEFAULT_255_2_778
10
37.7566
20
72.5561937
11
37.0816
21
71.6187937
0
LINE
8
DEFAULT_255_2_778
10
37.0816
20
71.6187937
11
37.0816
21
71.5438937
0
LINE
8
DEFAULT_255_2_778
10
37.0816
20
71.5438937
11
37.8317
21
71.5438937
0
LINE
8
DEFAULT_255_2_778
10
37.0816
20
72.6688937
11
37.0816
21
72.7064937
0
LINE
8
DEFAULT_255_2_778
10
37.0816
20
72.7064937
11
37.1192
21
72.8188937
0
LINE
8
DEFAULT_255_2_778
10
37.1192
20
72.8188937
11
37.194
21
72.9313937
0
LINE
8
DEFAULT_255_2_778
10
37.194
20
72.9313937
11
37.3065
21
73.0064937
0
LINE
8
DEFAULT_255_2_778
10
37.3065
20
73.0064937
11
37.4189
21
73.0440937
0
LINE
8
DEFAULT_255_2_778
10
37.4189
20
73.0440937
11
37.5314
21
73.0440937
0
LINE
8
DEFAULT_255_2_778
10
37.5314
20
73.0440937
11
37.6438
21
73.0064937
0
LINE
8
DEFAULT_255_2_778
10
37.6438
20
73.0064937
11
37.7563
21
72.9313937
0
LINE
8
DEFAULT_255_2_778
10
37.7563
20
72.9313937
11
37.8314
21
72.8188937
0
LINE
8
DEFAULT_255_2_778
10
37.8314
20
72.8188937
11
37.869
21
72.7064937
0
LINE
8
DEFAULT_255_2_778
10
37.869
20
72.7064937
11
37.869
21
72.5939937
0
LINE
8
DEFAULT_255_2_778
10
37.869
20
72.5939937
11
37.8314
21
72.4815937
0
LINE
8
DEFAULT_255_2_778
10
37.8314
20
72.4815937
11
37.1565
21
71.6190937
0
LINE
8
DEFAULT_255_2_778
10
37.1565
20
71.6190937
11
37.8314
21
71.6190937
0
LINE
8
DEFAULT_255_2_778
10
6.7818771
20
72.4443083
11
7.3067771
21
72.8944083
0
LINE
8
DEFAULT_255_2_778
10
7.3067771
20
72.8944083
11
7.3067771
21
71.5444083
0
LINE
8
DEFAULT_255_2_778
10
6.7442771
20
72.4819083
11
7.3443771
21
73.0068083
0
LINE
8
DEFAULT_255_2_778
10
7.3443771
20
73.0068083
11
7.3818771
21
73.0068083
0
LINE
8
DEFAULT_255_2_778
10
7.3818771
20
73.0068083
11
7.3818771
21
71.5442083
0
LINE
8
DEFAULT_255_2_778
10
12.6436531
20
73.0097083
11
12.6436531
21
71.5471083
0
LINE
8
DEFAULT_255_2_778
10
12.6436531
20
71.5471083
11
13.3937531
21
71.5471083
0
LINE
8
DEFAULT_255_2_778
10
12.7187531
20
73.0097083
11
12.7187531
21
71.6222083
0
LINE
8
DEFAULT_255_2_778
10
12.7187531
20
71.6222083
11
13.3937531
21
71.6222083
0
LINE
8
DEFAULT_255_2_778
10
14.5930438
20
72.2590635
11
14.2930438
21
72.2590635
0
LINE
8
DEFAULT_255_2_778
10
14.2930438
20
72.2590635
11
14.2951438
21
72.5596635
0
LINE
8
DEFAULT_255_2_778
10
14.2951438
20
72.5596635
11
14.2215438
21
72.5588635
0
LINE
8
DEFAULT_255_2_778
10
14.2215438
20
72.5588635
11
14.2215438
21
72.2588635
0
LINE
8
DEFAULT_255_2_778
10
14.2215438
20
72.2588635
11
13.9215438
21
72.2588635
0
LINE
8
DEFAULT_255_2_778
10
13.9215438
20
72.2588635
11
13.9231438
21
72.1791635
0
LINE
8
DEFAULT_255_2_778
10
13.9231438
20
72.1791635
11
14.2181438
21
72.1839635
0
LINE
8
DEFAULT_255_2_778
10
14.2181438
20
72.1839635
11
14.2207438
21
71.8815635
0
LINE
8
DEFAULT_255_2_778
10
14.2207438
20
71.8815635
11
14.2951438
21
71.8815635
0
LINE
8
DEFAULT_255_2_778
10
14.2951438
20
71.8815635
11
14.2930438
21
72.1839635
0
LINE
8
DEFAULT_255_2_778
10
14.2930438
20
72.1839635
11
14.5930438
21
72.1839635
0
LINE
8
DEFAULT_255_2_778
10
14.5930438
20
72.1839635
11
14.5927438
21
72.2619635
0
LINE
8
DEFAULT_255_2_778
10
27.9681
20
72.6693937
11
28.0056
21
72.7818937
0
LINE
8
DEFAULT_255_2_778
10
28.0056
20
72.7818937
11
28.0432
21
72.8569937
0
LINE
8
DEFAULT_255_2_778
10
28.0432
20
72.8569937
11
28.0808
21
72.8945937
0
LINE
8
DEFAULT_255_2_778
10
28.0808
20
72.8945937
11
28.1557
21
72.9321937
0
LINE
8
DEFAULT_255_2_778
10
28.1557
20
72.9321937
11
28.2681
21
72.9696937
0
LINE
8
DEFAULT_255_2_778
10
28.2681
20
72.9696937
11
28.3057
21
72.9696937
0
LINE
8
DEFAULT_255_2_778
10
28.3057
20
72.9696937
11
28.4181
21
72.9321937
0
LINE
8
DEFAULT_255_2_778
10
28.4181
20
72.9321937
11
28.493
21
72.8945937
0
LINE
8
DEFAULT_255_2_778
10
28.493
20
72.8945937
11
28.5306
21
72.8569937
0
LINE
8
DEFAULT_255_2_778
10
28.5306
20
72.8569937
11
28.5682
21
72.7818937
0
LINE
8
DEFAULT_255_2_778
10
28.5682
20
72.7818937
11
28.6057
21
72.6693937
0
LINE
8
DEFAULT_255_2_778
10
28.6057
20
72.6693937
11
28.6057
21
72.6318937
0
LINE
8
DEFAULT_255_2_778
10
28.6057
20
72.6318937
11
28.5682
21
72.5569937
0
LINE
8
DEFAULT_255_2_778
10
28.5682
20
72.5569937
11
27.8932
21
71.6195937
0
LINE
8
DEFAULT_255_2_778
10
27.8932
20
71.6195937
11
27.8932
21
71.5443937
0
LINE
8
DEFAULT_255_2_778
10
27.8932
20
71.5443937
11
28.6433
21
71.5443937
0
LINE
8
DEFAULT_255_2_778
10
27.8932
20
72.6693937
11
27.8932
21
72.7069937
0
LINE
8
DEFAULT_255_2_778
10
27.8932
20
72.7069937
11
27.9308
21
72.8193937
0
LINE
8
DEFAULT_255_2_778
10
27.9308
20
72.8193937
11
28.0056
21
72.9318937
0
LINE
8
DEFAULT_255_2_778
10
28.0056
20
72.9318937
11
28.1181
21
73.0069937
0
LINE
8
DEFAULT_255_2_778
10
28.1181
20
73.0069937
11
28.2305
21
73.0445937
0
LINE
8
DEFAULT_255_2_778
10
28.2305
20
73.0445937
11
28.343
21
73.0445937
0
LINE
8
DEFAULT_255_2_778
10
28.343
20
73.0445937
11
28.4554
21
73.0069937
0
LINE
8
DEFAULT_255_2_778
10
28.4554
20
73.0069937
11
28.5679
21
72.9318937
0
LINE
8
DEFAULT_255_2_778
10
28.5679
20
72.9318937
11
28.643
21
72.8193937
0
LINE
8
DEFAULT_255_2_778
10
28.643
20
72.8193937
11
28.6806
21
72.7069937
0
LINE
8
DEFAULT_255_2_778
10
28.6806
20
72.7069937
11
28.6806
21
72.5944937
0
LINE
8
DEFAULT_255_2_778
10
28.6806
20
72.5944937
11
28.643
21
72.4820937
0
LINE
8
DEFAULT_255_2_778
10
28.643
20
72.4820937
11
27.9681
21
71.6195937
0
LINE
8
DEFAULT_255_2_778
10
27.9681
20
71.6195937
11
28.643
21
71.6195937
0
LINE
8
DEFAULT_255_2_778
10
22.9396771
20
72.4818083
11
23.4645771
21
72.9319083
0
LINE
8
DEFAULT_255_2_778
10
23.4645771
20
72.9319083
11
23.4645771
21
71.5819083
0
LINE
8
DEFAULT_255_2_778
10
22.9020771
20
72.5194083
11
23.5021771
21
73.0443083
0
LINE
8
DEFAULT_255_2_778
10
23.5021771
20
73.0443083
11
23.5396771
21
73.0443083
0
LINE
8
DEFAULT_255_2_778
10
23.5396771
20
73.0443083
11
23.5396771
21
71.5817083
0
LINE
8
DEFAULT_255_2_778
10
32.4196052
20
71.7346948
11
32.4945052
21
71.6595948
0
LINE
8
DEFAULT_255_2_778
10
32.4945052
20
71.6595948
11
32.4945052
21
71.6219948
0
LINE
8
DEFAULT_255_2_778
10
32.4945052
20
71.6219948
11
32.4196052
21
71.5470948
0
LINE
8
DEFAULT_255_2_778
10
32.4196052
20
71.5470948
11
32.3820052
21
71.5470948
0
LINE
8
DEFAULT_255_2_778
10
32.3820052
20
71.5470948
11
32.3069052
21
71.6219948
0
LINE
8
DEFAULT_255_2_778
10
32.3069052
20
71.6219948
11
32.3069052
21
71.6595948
0
LINE
8
DEFAULT_255_2_778
10
32.3069052
20
71.6595948
11
32.3820052
21
71.7346948
0
LINE
8
DEFAULT_255_2_778
10
32.3820052
20
71.7346948
11
32.4196052
21
71.7346948
0
LINE
8
DEFAULT_255_2_778
10
32.4196052
20
71.7346948
11
32.4945052
21
71.6595948
0
LINE
8
DEFAULT_255_2_778
10
32.4945052
20
71.6595948
11
32.4945052
21
71.6219948
0
LINE
8
DEFAULT_255_2_778
10
32.4945052
20
71.6219948
11
32.4196052
21
71.5470948
0
LINE
8
DEFAULT_255_2_778
10
32.4196052
20
71.5470948
11
32.3820052
21
71.5470948
0
LINE
8
DEFAULT_255_2_778
10
32.3820052
20
71.5470948
11
32.3069052
21
71.6219948
0
LINE
8
DEFAULT_255_2_778
10
32.3069052
20
71.6219948
11
32.3069052
21
71.6595948
0
LINE
8
DEFAULT_255_2_778
10
32.3069052
20
71.6595948
11
32.3820052
21
71.7346948
0
LINE
8
DEFAULT_255_2_778
10
32.3820052
20
71.7346948
11
32.4196052
21
71.7346948
0
LINE
8
DEFAULT_255_2_778
10
32.3820052
20
71.6595948
11
32.4196052
21
71.6595948
0
LINE
8
DEFAULT_255_2_778
10
32.4196052
20
71.6595948
11
32.4196052
21
71.6219948
0
LINE
8
DEFAULT_255_2_778
10
32.4196052
20
71.6219948
11
32.3820052
21
71.6219948
0
LINE
8
DEFAULT_255_2_778
10
32.3820052
20
71.6219948
11
32.3820052
21
71.6595948
0
LINE
8
DEFAULT_255_2_778
10
17.1844052
20
71.7367948
11
17.2596052
21
71.6616948
0
LINE
8
DEFAULT_255_2_778
10
17.2596052
20
71.6616948
11
17.2596052
21
71.6240948
0
LINE
8
DEFAULT_255_2_778
10
17.2596052
20
71.6240948
11
17.1844052
21
71.5491948
0
LINE
8
DEFAULT_255_2_778
10
17.1844052
20
71.5491948
11
17.1469052
21
71.5491948
0
LINE
8
DEFAULT_255_2_778
10
17.1469052
20
71.5491948
11
17.0720052
21
71.6240948
0
LINE
8
DEFAULT_255_2_778
10
17.0720052
20
71.6240948
11
17.0720052
21
71.6616948
0
LINE
8
DEFAULT_255_2_778
10
17.0720052
20
71.6616948
11
17.1469052
21
71.7367948
0
LINE
8
DEFAULT_255_2_778
10
17.1469052
20
71.7367948
11
17.1844052
21
71.7367948
0
LINE
8
DEFAULT_255_2_778
10
17.1844052
20
71.7367948
11
17.2596052
21
71.6616948
0
LINE
8
DEFAULT_255_2_778
10
17.2596052
20
71.6616948
11
17.2596052
21
71.6240948
0
LINE
8
DEFAULT_255_2_778
10
17.2596052
20
71.6240948
11
17.1844052
21
71.5491948
0
LINE
8
DEFAULT_255_2_778
10
17.1844052
20
71.5491948
11
17.1469052
21
71.5491948
0
LINE
8
DEFAULT_255_2_778
10
17.1469052
20
71.5491948
11
17.0720052
21
71.6240948
0
LINE
8
DEFAULT_255_2_778
10
17.0720052
20
71.6240948
11
17.0720052
21
71.6616948
0
LINE
8
DEFAULT_255_2_778
10
17.0720052
20
71.6616948
11
17.1469052
21
71.7367948
0
LINE
8
DEFAULT_255_2_778
10
17.1469052
20
71.7367948
11
17.1844052
21
71.7367948
0
LINE
8
DEFAULT_255_2_778
10
17.1469052
20
71.6616948
11
17.1844052
21
71.6616948
0
LINE
8
DEFAULT_255_2_778
10
17.1844052
20
71.6616948
11
17.1844052
21
71.6240948
0
LINE
8
DEFAULT_255_2_778
10
17.1844052
20
71.6240948
11
17.1469052
21
71.6240948
0
LINE
8
DEFAULT_255_2_778
10
17.1469052
20
71.6240948
11
17.1469052
21
71.6616948
0
LINE
8
DEFAULT_255_2_778
10
22.3769052
20
71.7317948
11
22.4518052
21
71.6566948
0
LINE
8
DEFAULT_255_2_778
10
22.4518052
20
71.6566948
11
22.4518052
21
71.6190948
0
LINE
8
DEFAULT_255_2_778
10
22.4518052
20
71.6190948
11
22.3769052
21
71.5441948
0
LINE
8
DEFAULT_255_2_778
10
22.3769052
20
71.5441948
11
22.3393052
21
71.5441948
0
LINE
8
DEFAULT_255_2_778
10
22.3393052
20
71.5441948
11
22.2642052
21
71.6190948
0
LINE
8
DEFAULT_255_2_778
10
22.2642052
20
71.6190948
11
22.2642052
21
71.6566948
0
LINE
8
DEFAULT_255_2_778
10
22.2642052
20
71.6566948
11
22.3393052
21
71.7317948
0
LINE
8
DEFAULT_255_2_778
10
22.3393052
20
71.7317948
11
22.3769052
21
71.7317948
0
LINE
8
DEFAULT_255_2_778
10
22.3769052
20
71.7317948
11
22.4518052
21
71.6566948
0
LINE
8
DEFAULT_255_2_778
10
22.4518052
20
71.6566948
11
22.4518052
21
71.6190948
0
LINE
8
DEFAULT_255_2_778
10
22.4518052
20
71.6190948
11
22.3769052
21
71.5441948
0
LINE
8
DEFAULT_255_2_778
10
22.3769052
20
71.5441948
11
22.3393052
21
71.5441948
0
LINE
8
DEFAULT_255_2_778
10
22.3393052
20
71.5441948
11
22.2642052
21
71.6190948
0
LINE
8
DEFAULT_255_2_778
10
22.2642052
20
71.6190948
11
22.2642052
21
71.6566948
0
LINE
8
DEFAULT_255_2_778
10
22.2642052
20
71.6566948
11
22.3393052
21
71.7317948
0
LINE
8
DEFAULT_255_2_778
10
22.3393052
20
71.7317948
11
22.3769052
21
71.7317948
0
LINE
8
DEFAULT_255_2_778
10
22.3393052
20
71.6566948
11
22.3769052
21
71.6566948
0
LINE
8
DEFAULT_255_2_778
10
22.3769052
20
71.6566948
11
22.3769052
21
71.6190948
0
LINE
8
DEFAULT_255_2_778
10
22.3769052
20
71.6190948
11
22.3393052
21
71.6190948
0
LINE
8
DEFAULT_255_2_778
10
22.3393052
20
71.6190948
11
22.3393052
21
71.6566948
0
LINE
8
DEFAULT_255_2_778
10
27.3682052
20
71.7317948
11
27.4431052
21
71.6566948
0
LINE
8
DEFAULT_255_2_778
10
27.4431052
20
71.6566948
11
27.4431052
21
71.6190948
0
LINE
8
DEFAULT_255_2_778
10
27.4431052
20
71.6190948
11
27.3682052
21
71.5441948
0
LINE
8
DEFAULT_255_2_778
10
27.3682052
20
71.5441948
11
27.3306052
21
71.5441948
0
LINE
8
DEFAULT_255_2_778
10
27.3306052
20
71.5441948
11
27.2555052
21
71.6190948
0
LINE
8
DEFAULT_255_2_778
10
27.2555052
20
71.6190948
11
27.2555052
21
71.6566948
0
LINE
8
DEFAULT_255_2_778
10
27.2555052
20
71.6566948
11
27.3306052
21
71.7317948
0
LINE
8
DEFAULT_255_2_778
10
27.3306052
20
71.7317948
11
27.3682052
21
71.7317948
0
LINE
8
DEFAULT_255_2_778
10
27.3682052
20
71.7317948
11
27.4431052
21
71.6566948
0
LINE
8
DEFAULT_255_2_778
10
27.4431052
20
71.6566948
11
27.4431052
21
71.6190948
0
LINE
8
DEFAULT_255_2_778
10
27.4431052
20
71.6190948
11
27.3682052
21
71.5441948
0
LINE
8
DEFAULT_255_2_778
10
27.3682052
20
71.5441948
11
27.3306052
21
71.5441948
0
LINE
8
DEFAULT_255_2_778
10
27.3306052
20
71.5441948
11
27.2555052
21
71.6190948
0
LINE
8
DEFAULT_255_2_778
10
27.2555052
20
71.6190948
11
27.2555052
21
71.6566948
0
LINE
8
DEFAULT_255_2_778
10
27.2555052
20
71.6566948
11
27.3306052
21
71.7317948
0
LINE
8
DEFAULT_255_2_778
10
27.3306052
20
71.7317948
11
27.3682052
21
71.7317948
0
LINE
8
DEFAULT_255_2_778
10
27.3306052
20
71.6566948
11
27.3682052
21
71.6566948
0
LINE
8
DEFAULT_255_2_778
10
27.3682052
20
71.6566948
11
27.3682052
21
71.6190948
0
LINE
8
DEFAULT_255_2_778
10
27.3682052
20
71.6190948
11
27.3306052
21
71.6190948
0
LINE
8
DEFAULT_255_2_778
10
27.3306052
20
71.6190948
11
27.3306052
21
71.6566948
0
ARC
8
DEFAULT_255_2_778
10
19.1002154
20
72.2959688
40
1.3123091
50
166.2178196
51
180.3053554
0
ARC
8
DEFAULT_255_2_778
10
18.6015876
20
72.4234854
40
0.7976751
50
150.2899812
51
166.5810146
0
ARC
8
DEFAULT_255_2_778
10
18.2024053
20
72.6594789
40
0.3340828
50
121.7095204
51
151.5132202
0
ARC
8
DEFAULT_255_2_778
10
18.1105828
20
72.7974035
40
0.1685778
50
90.4954794
51
119.7988486
0
ARC
8
DEFAULT_255_2_778
10
18.0959321
20
72.7546554
40
0.211731
50
35.4823969
51
86.4275897
0
ARC
8
DEFAULT_255_2_778
10
17.8032372
20
72.5104752
40
0.592513
50
18.9134377
51
38.2818866
0
ARC
8
DEFAULT_255_2_778
10
17.3015703
20
72.3273309
40
1.1265092
50
5.2807361
51
19.4549301
0
ARC
8
DEFAULT_255_2_778
10
17.0094025
20
72.28987
40
1.4209228
50
359.9639084
51
5.700582
0
ARC
8
DEFAULT_255_2_778
10
17.117568
20
72.2819706
40
1.3127757
50
346.2202785
51
0.3057051
0
ARC
8
DEFAULT_255_2_778
10
17.6165715
20
72.1543858
40
0.7977609
50
330.2923767
51
346.5833537
0
ARC
8
DEFAULT_255_2_778
10
18.0157888
20
71.918407
40
0.3341453
50
301.7244981
51
331.5135337
0
ARC
8
DEFAULT_255_2_778
10
18.1076653
20
71.7804589
40
0.1685901
50
270.496077
51
299.8172667
0
ARC
8
DEFAULT_255_2_778
10
18.1223172
20
71.8231884
40
0.2117248
50
215.4804113
51
266.4276997
0
ARC
8
DEFAULT_255_2_778
10
18.4150462
20
72.0673781
40
0.5925391
50
198.9108785
51
218.2798815
0
ARC
8
DEFAULT_255_2_778
10
18.9169453
20
72.2505798
40
1.1267731
50
185.2792348
51
199.4523902
0
ARC
8
DEFAULT_255_2_778
10
19.2094932
20
72.2880778
40
1.4215684
50
179.9638398
51
185.6992819
0
ARC
8
DEFAULT_255_2_778
10
19.0383597
20
72.3032963
40
1.3287517
50
165.3315081
51
180.2898242
0
ARC
8
DEFAULT_255_2_778
10
18.5877922
20
72.4263912
40
0.861713
50
148.6085165
51
165.6631344
0
ARC
8
DEFAULT_255_2_778
10
18.2043505
20
72.6684809
40
0.408355
50
120.445884
51
149.5803904
0
ARC
8
DEFAULT_255_2_778
10
18.1081237
20
72.8202277
40
0.2288528
50
90.4002429
51
118.9274876
0
ARC
8
DEFAULT_255_2_778
10
18.09337
20
72.7754086
40
0.2739824
50
38.2733317
51
87.2479463
0
ARC
8
DEFAULT_255_2_778
10
17.8075323
20
72.5176881
40
0.6585044
50
20.5040038
51
40.4730676
0
ARC
8
DEFAULT_255_2_778
10
17.3448453
20
72.3345495
40
1.1560665
50
5.796311
51
20.9733309
0
ARC
8
DEFAULT_255_2_778
10
17.0782385
20
72.2974969
40
1.4250868
50
359.9629324
51
6.1958695
0
ARC
8
DEFAULT_255_2_778
10
17.1746967
20
72.2898513
40
1.3286453
50
345.331359
51
0.2899504
0
ARC
8
DEFAULT_255_2_778
10
17.6252718
20
72.166757
40
0.8615994
50
328.6086094
51
345.6627771
0
ARC
8
DEFAULT_255_2_778
10
18.008677
20
71.9246927
40
0.4082854
50
300.4482542
51
329.5803993
0
ARC
8
DEFAULT_255_2_778
10
18.1049232
20
71.7729212
40
0.2287518
50
270.4012072
51
298.9299783
0
ARC
8
DEFAULT_255_2_778
10
18.1201104
20
71.8193651
40
0.2755252
50
217.8185715
51
267.1737673
0
ARC
8
DEFAULT_255_2_778
10
18.4115724
20
72.0792611
40
0.6656575
50
200.2506497
51
220.1081256
0
ARC
8
DEFAULT_255_2_778
10
18.8723947
20
72.2595636
40
1.160443
50
185.7429352
51
200.7273175
0
ARC
8
DEFAULT_255_2_778
10
19.1351393
20
72.2956707
40
1.4255145
50
179.9636529
51
186.1301671
0
LINE
8
DEFAULT_255_2_778
10
17.787925
20
72.288975
11
17.787925
21
72.288975
0
LINE
8
DEFAULT_255_2_778
10
17.709625
20
72.296575
11
17.709625
21
72.296575
0
ARC
8
DEFAULT_255_2_778
10
33.4090774
20
72.6445679
40
0.4476733
50
147.9220387
51
174.2675561
0
ARC
8
DEFAULT_255_2_778
10
33.3632201
20
72.6714431
40
0.3945478
50
95.5383667
51
147.6923709
0
ARC
8
DEFAULT_255_2_778
10
33.3602352
20
72.6875064
40
0.378274
50
90.386547
51
95.323184
0
ARC
8
DEFAULT_255_2_778
10
33.3601459
20
72.6960074
40
0.3697725
50
89.9954044
51
90.3816015
0
ARC
8
DEFAULT_255_2_778
10
33.361749
20
72.7072421
40
0.3585413
50
49.9815773
51
90.2514357
0
ARC
8
DEFAULT_255_2_778
10
33.351888
20
72.6954724
40
0.3738959
50
43.8682186
51
49.9840981
0
ARC
8
DEFAULT_255_2_778
10
33.1645097
20
72.574441
40
0.5943869
50
34.1298796
51
39.7584947
0
ARC
8
DEFAULT_255_2_778
10
33.2024771
20
72.6006261
40
0.5482672
50
31.0510112
51
34.0909227
0
ARC
8
DEFAULT_255_2_778
10
33.2522359
20
72.6289201
40
0.4910465
50
17.9742354
51
31.2173966
0
ARC
8
DEFAULT_255_2_778
10
33.2980547
20
72.6442517
40
0.4427327
50
1.6651575
51
17.9167524
0
ARC
8
DEFAULT_255_2_778
10
33.3045825
20
72.6448472
40
0.4361907
50
0.0010982
51
1.6118887
0
ARC
8
DEFAULT_255_2_778
10
33.3041667
20
72.6448738
40
0.4366064
50
337.2240665
51
359.9976094
0
ARC
8
DEFAULT_255_2_778
10
33.3616929
20
72.6179
40
0.3731325
50
318.4816231
51
337.6233897
0
ARC
8
DEFAULT_255_2_778
10
33.4592816
20
72.5336655
40
0.2442334
50
307.0313669
51
318.1021042
0
ARC
8
DEFAULT_255_2_778
10
33.5165859
20
72.4559977
40
0.1477228
50
290.5555435
51
307.4305781
0
ARC
8
DEFAULT_255_2_778
10
33.5395424
20
72.3953574
40
0.0828831
50
270.8298859
51
290.4151317
0
ARC
8
DEFAULT_255_2_778
10
33.4174758
20
72.029235
40
0.3089081
50
33.6037321
51
66.4817414
0
ARC
8
DEFAULT_255_2_778
10
33.3332783
20
71.9849398
40
0.4036665
50
0.505962
51
32.2259486
0
ARC
8
DEFAULT_255_2_778
10
33.2172518
20
71.9726235
40
0.5199199
50
359.9969267
51
1.7503739
0
ARC
8
DEFAULT_255_2_778
10
33.1952042
20
71.9723719
40
0.5419674
50
338.0850739
51
0.0236489
0
ARC
8
DEFAULT_255_2_778
10
33.3897223
20
71.8908848
40
0.3311055
50
319.2472928
51
338.6040097
0
ARC
8
DEFAULT_255_2_778
10
33.4998259
20
71.8012667
40
0.189238
50
309.9909704
51
318.0402476
0
ARC
8
DEFAULT_255_2_778
10
33.3179431
20
72.0104578
40
0.4664246
50
276.3391771
51
310.5939479
0
ARC
8
DEFAULT_255_2_778
10
33.3258154
20
71.9624052
40
0.4178043
50
270.0274927
51
275.9937998
0
ARC
8
DEFAULT_255_2_778
10
33.3171751
20
71.8815827
40
0.3370976
50
211.940262
51
271.5028258
0
ARC
8
DEFAULT_255_2_778
10
33.4072296
20
71.9322228
40
0.4403329
50
190.635922
51
211.3327576
0
ARC
8
DEFAULT_255_2_778
10
33.5856698
20
71.9721357
40
0.6231058
50
183.3722345
51
191.2145705
0
ARC
8
DEFAULT_255_2_778
10
33.5446136
20
72.5624007
40
0.5260684
50
151.4357025
51
167.5869816
0
ARC
8
DEFAULT_255_2_778
10
33.3965683
20
72.6443496
40
0.3568616
50
126.5137879
51
151.6262997
0
ARC
8
DEFAULT_255_2_778
10
33.3578785
20
72.6932805
40
0.2945206
50
95.5604574
51
126.1284348
0
ARC
8
DEFAULT_255_2_778
10
33.3573046
20
72.6949922
40
0.2927618
50
89.997563
51
95.4811305
0
ARC
8
DEFAULT_255_2_778
10
33.3577787
20
72.6950484
40
0.2927059
50
44.1100158
51
90.0903515
0
ARC
8
DEFAULT_255_2_778
10
33.1805184
20
72.6342666
40
0.4691125
50
6.9737351
51
34.3235408
0
ARC
8
DEFAULT_255_2_778
10
33.1451101
20
72.6251828
40
0.5053839
50
0.0343314
51
7.5085685
0
ARC
8
DEFAULT_255_2_778
10
33.2643696
20
72.6174113
40
0.3862088
50
333.2971868
51
1.1979507
0
ARC
8
DEFAULT_255_2_778
10
33.4456288
20
72.5208349
40
0.1809475
50
270.2848061
51
334.8252724
0
ARC
8
DEFAULT_255_2_778
10
33.4466033
20
72.5470306
40
0.2071411
50
266.4681818
51
269.9792244
0
ARC
8
DEFAULT_255_2_778
10
33.5445009
20
72.0540771
40
0.5278264
50
192.4279161
51
208.3214344
0
ARC
8
DEFAULT_255_2_778
10
33.3960782
20
71.9726839
40
0.3585577
50
208.1239176
51
232.9173407
0
ARC
8
DEFAULT_255_2_778
10
33.3559556
20
71.9227157
40
0.2945083
50
233.2829593
51
264.5117998
0
ARC
8
DEFAULT_255_2_778
10
33.3553642
20
71.9210614
40
0.2928055
50
264.5960188
51
270.0021682
0
ARC
8
DEFAULT_255_2_778
10
33.3557598
20
71.9215801
40
0.2933243
50
269.924903
51
315.8268074
0
ARC
8
DEFAULT_255_2_778
10
33.1784569
20
71.9817728
40
0.46937
50
325.6870463
51
353.0163927
0
ARC
8
DEFAULT_255_2_778
10
33.1432237
20
71.9908307
40
0.5054651
50
352.4828481
51
359.9657046
0
ARC
8
DEFAULT_255_2_778
10
33.2625581
20
71.9986069
40
0.386215
50
358.8014226
51
26.7076354
0
ARC
8
DEFAULT_255_2_778
10
33.4437508
20
72.0951525
40
0.1810259
50
25.1849207
51
89.7205726
0
ARC
8
DEFAULT_255_2_778
10
33.4447089
20
72.0688527
40
0.2073236
50
90.0207999
51
93.5302625
0
LINE
8
DEFAULT_255_2_778
10
41.919
20
72.6686937
11
41.9565
21
72.7810937
0
LINE
8
DEFAULT_255_2_778
10
41.9565
20
72.7810937
11
41.9941
21
72.8561937
0
LINE
8
DEFAULT_255_2_778
10
41.9941
20
72.8561937
11
42.0317
21
72.8937937
0
LINE
8
DEFAULT_255_2_778
10
42.0317
20
72.8937937
11
42.1066
21
72.9313937
0
LINE
8
DEFAULT_255_2_778
10
42.1066
20
72.9313937
11
42.219
21
72.9689937
0
LINE
8
DEFAULT_255_2_778
10
42.219
20
72.9689937
11
42.2566
21
72.9689937
0
LINE
8
DEFAULT_255_2_778
10
42.2566
20
72.9689937
11
42.369
21
72.9313937
0
LINE
8
DEFAULT_255_2_778
10
42.369
20
72.9313937
11
42.4439
21
72.8937937
0
LINE
8
DEFAULT_255_2_778
10
42.4439
20
72.8937937
11
42.4815
21
72.8561937
0
LINE
8
DEFAULT_255_2_778
10
42.4815
20
72.8561937
11
42.5191
21
72.7810937
0
LINE
8
DEFAULT_255_2_778
10
42.5191
20
72.7810937
11
42.5566
21
72.6686937
0
LINE
8
DEFAULT_255_2_778
10
42.5566
20
72.6686937
11
42.5566
21
72.6310937
0
LINE
8
DEFAULT_255_2_778
10
42.5566
20
72.6310937
11
42.5191
21
72.5561937
0
LINE
8
DEFAULT_255_2_778
10
42.5191
20
72.5561937
11
41.8441
21
71.6187937
0
LINE
8
DEFAULT_255_2_778
10
41.8441
20
71.6187937
11
41.8441
21
71.5438937
0
LINE
8
DEFAULT_255_2_778
10
41.8441
20
71.5438937
11
42.5942
21
71.5438937
0
LINE
8
DEFAULT_255_2_778
10
41.8441
20
72.6688937
11
41.8441
21
72.7064937
0
LINE
8
DEFAULT_255_2_778
10
41.8441
20
72.7064937
11
41.8817
21
72.8188937
0
LINE
8
DEFAULT_255_2_778
10
41.8817
20
72.8188937
11
41.9565
21
72.9313937
0
LINE
8
DEFAULT_255_2_778
10
41.9565
20
72.9313937
11
42.069
21
73.0064937
0
LINE
8
DEFAULT_255_2_778
10
42.069
20
73.0064937
11
42.1814
21
73.0440937
0
LINE
8
DEFAULT_255_2_778
10
42.1814
20
73.0440937
11
42.2939
21
73.0440937
0
LINE
8
DEFAULT_255_2_778
10
42.2939
20
73.0440937
11
42.4063
21
73.0064937
0
LINE
8
DEFAULT_255_2_778
10
42.4063
20
73.0064937
11
42.5188
21
72.9313937
0
LINE
8
DEFAULT_255_2_778
10
42.5188
20
72.9313937
11
42.5939
21
72.8188937
0
LINE
8
DEFAULT_255_2_778
10
42.5939
20
72.8188937
11
42.6315
21
72.7064937
0
LINE
8
DEFAULT_255_2_778
10
42.6315
20
72.7064937
11
42.6315
21
72.5939937
0
LINE
8
DEFAULT_255_2_778
10
42.6315
20
72.5939937
11
42.5939
21
72.4815937
0
LINE
8
DEFAULT_255_2_778
10
42.5939
20
72.4815937
11
41.919
21
71.6190937
0
LINE
8
DEFAULT_255_2_778
10
41.919
20
71.6190937
11
42.5939
21
71.6190937
0
LINE
8
DEFAULT_255_2_778
10
43.0905531
20
73.0097083
11
43.0905531
21
71.5471083
0
LINE
8
DEFAULT_255_2_778
10
43.0905531
20
71.5471083
11
43.8406531
21
71.5471083
0
LINE
8
DEFAULT_255_2_778
10
43.165424
20
73.0097375
11
43.165424
21
71.6222375
0
LINE
8
DEFAULT_255_2_778
10
43.165424
20
71.6222375
11
43.840424
21
71.6222375
0
LINE
8
DEFAULT_255_2_778
10
45.0400438
20
72.2590635
11
44.7400438
21
72.2590635
0
LINE
8
DEFAULT_255_2_778
10
44.7400438
20
72.2590635
11
44.7421438
21
72.5596635
0
LINE
8
DEFAULT_255_2_778
10
44.7421438
20
72.5596635
11
44.6685438
21
72.5588635
0
LINE
8
DEFAULT_255_2_778
10
44.6685438
20
72.5588635
11
44.6685438
21
72.2588635
0
LINE
8
DEFAULT_255_2_778
10
44.6685438
20
72.2588635
11
44.3685438
21
72.2588635
0
LINE
8
DEFAULT_255_2_778
10
44.3685438
20
72.2588635
11
44.3701438
21
72.1791635
0
LINE
8
DEFAULT_255_2_778
10
44.3701438
20
72.1791635
11
44.6651438
21
72.1839635
0
LINE
8
DEFAULT_255_2_778
10
44.6651438
20
72.1839635
11
44.6677438
21
71.8815635
0
LINE
8
DEFAULT_255_2_778
10
44.6677438
20
71.8815635
11
44.7421438
21
71.8815635
0
LINE
8
DEFAULT_255_2_778
10
44.7421438
20
71.8815635
11
44.7400438
21
72.1839635
0
LINE
8
DEFAULT_255_2_778
10
44.7400438
20
72.1839635
11
45.0400438
21
72.1839635
0
LINE
8
DEFAULT_255_2_778
10
45.0400438
20
72.1839635
11
45.0397438
21
72.2619635
0
LINE
8
DEFAULT_255_2_778
10
39.3160792
20
71.5788385
11
39.3297792
21
72.9469385
0
LINE
8
DEFAULT_255_2_778
10
39.3297792
20
72.9469385
11
38.9022792
21
72.1016385
0
LINE
8
DEFAULT_255_2_778
10
38.9022792
20
72.1016385
11
38.8270792
21
72.1016385
0
LINE
8
DEFAULT_255_2_778
10
38.8270792
20
72.1016385
11
38.3994792
21
72.9469385
0
LINE
8
DEFAULT_255_2_778
10
38.3994792
20
72.9469385
11
38.4132792
21
71.5788385
0
LINE
8
DEFAULT_255_2_778
10
38.4132792
20
71.5788385
11
38.3397792
21
71.5772385
0
LINE
8
DEFAULT_255_2_778
10
38.3397792
20
71.5772385
11
38.3378792
21
73.0488385
0
LINE
8
DEFAULT_255_2_778
10
38.3378792
20
73.0488385
11
38.4129792
21
73.0488385
0
LINE
8
DEFAULT_255_2_778
10
38.4129792
20
73.0488385
11
38.8643792
21
72.1900385
0
LINE
8
DEFAULT_255_2_778
10
38.8643792
20
72.1900385
11
39.3157792
21
73.0488385
0
LINE
8
DEFAULT_255_2_778
10
39.3157792
20
73.0488385
11
39.3908792
21
73.0488385
0
LINE
8
DEFAULT_255_2_778
10
39.3908792
20
73.0488385
11
39.3898792
21
71.5769385
0
LINE
8
DEFAULT_255_2_778
10
39.3898792
20
71.5769385
11
39.3138792
21
71.5769385
0
LINE
8
DEFAULT_255_2_778
10
47.7768729
20
71.7200948
11
47.8520729
21
71.6449948
0
LINE
8
DEFAULT_255_2_778
10
47.8520729
20
71.6449948
11
47.8520729
21
71.6073948
0
LINE
8
DEFAULT_255_2_778
10
47.8520729
20
71.6073948
11
47.7768729
21
71.5324948
0
LINE
8
DEFAULT_255_2_778
10
47.7768729
20
71.5324948
11
47.7392729
21
71.5324948
0
LINE
8
DEFAULT_255_2_778
10
47.7392729
20
71.5324948
11
47.6641729
21
71.6073948
0
LINE
8
DEFAULT_255_2_778
10
47.6641729
20
71.6073948
11
47.6641729
21
71.6449948
0
LINE
8
DEFAULT_255_2_778
10
47.6641729
20
71.6449948
11
47.7392729
21
71.7200948
0
LINE
8
DEFAULT_255_2_778
10
47.7392729
20
71.7200948
11
47.7768729
21
71.7200948
0
LINE
8
DEFAULT_255_2_778
10
47.7768729
20
71.7200948
11
47.8520729
21
71.6449948
0
LINE
8
DEFAULT_255_2_778
10
47.8520729
20
71.6449948
11
47.8520729
21
71.6073948
0
LINE
8
DEFAULT_255_2_778
10
47.8520729
20
71.6073948
11
47.7768729
21
71.5324948
0
LINE
8
DEFAULT_255_2_778
10
47.7768729
20
71.5324948
11
47.7392729
21
71.5324948
0
LINE
8
DEFAULT_255_2_778
10
47.7392729
20
71.5324948
11
47.6641729
21
71.6073948
0
LINE
8
DEFAULT_255_2_778
10
47.6641729
20
71.6073948
11
47.6641729
21
71.6449948
0
LINE
8
DEFAULT_255_2_778
10
47.6641729
20
71.6449948
11
47.7392729
21
71.7200948
0
LINE
8
DEFAULT_255_2_778
10
47.7392729
20
71.7200948
11
47.7768729
21
71.7200948
0
LINE
8
DEFAULT_255_2_778
10
47.7392729
20
71.6449948
11
47.7768729
21
71.6449948
0
LINE
8
DEFAULT_255_2_778
10
47.7768729
20
71.6449948
11
47.7768729
21
71.6073948
0
LINE
8
DEFAULT_255_2_778
10
47.7768729
20
71.6073948
11
47.7392729
21
71.6073948
0
LINE
8
DEFAULT_255_2_778
10
47.7392729
20
71.6073948
11
47.7392729
21
71.6449948
0
LINE
8
DEFAULT_255_2_778
10
52.8343729
20
71.7317948
11
52.9095729
21
71.6566948
0
LINE
8
DEFAULT_255_2_778
10
52.9095729
20
71.6566948
11
52.9095729
21
71.6190948
0
LINE
8
DEFAULT_255_2_778
10
52.9095729
20
71.6190948
11
52.8343729
21
71.5441948
0
LINE
8
DEFAULT_255_2_778
10
52.8343729
20
71.5441948
11
52.7967729
21
71.5441948
0
LINE
8
DEFAULT_255_2_778
10
52.7967729
20
71.5441948
11
52.7216729
21
71.6190948
0
LINE
8
DEFAULT_255_2_778
10
52.7216729
20
71.6190948
11
52.7216729
21
71.6566948
0
LINE
8
DEFAULT_255_2_778
10
52.7216729
20
71.6566948
11
52.7967729
21
71.7317948
0
LINE
8
DEFAULT_255_2_778
10
52.7967729
20
71.7317948
11
52.8343729
21
71.7317948
0
LINE
8
DEFAULT_255_2_778
10
52.8343729
20
71.7317948
11
52.9095729
21
71.6566948
0
LINE
8
DEFAULT_255_2_778
10
52.9095729
20
71.6566948
11
52.9095729
21
71.6190948
0
LINE
8
DEFAULT_255_2_778
10
52.9095729
20
71.6190948
11
52.8343729
21
71.5441948
0
LINE
8
DEFAULT_255_2_778
10
52.8343729
20
71.5441948
11
52.7967729
21
71.5441948
0
LINE
8
DEFAULT_255_2_778
10
52.7967729
20
71.5441948
11
52.7216729
21
71.6190948
0
LINE
8
DEFAULT_255_2_778
10
52.7216729
20
71.6190948
11
52.7216729
21
71.6566948
0
LINE
8
DEFAULT_255_2_778
10
52.7216729
20
71.6566948
11
52.7967729
21
71.7317948
0
LINE
8
DEFAULT_255_2_778
10
52.7967729
20
71.7317948
11
52.8343729
21
71.7317948
0
LINE
8
DEFAULT_255_2_778
10
52.7967729
20
71.6566948
11
52.8343729
21
71.6566948
0
LINE
8
DEFAULT_255_2_778
10
52.8343729
20
71.6566948
11
52.8343729
21
71.6190948
0
LINE
8
DEFAULT_255_2_778
10
52.8343729
20
71.6190948
11
52.7967729
21
71.6190948
0
LINE
8
DEFAULT_255_2_778
10
52.7967729
20
71.6190948
11
52.7967729
21
71.6566948
0
LINE
8
DEFAULT_255_2_778
10
53.3593
20
71.9193937
11
53.3593
21
71.8817937
0
LINE
8
DEFAULT_255_2_778
10
53.3593
20
71.8817937
11
53.3969
21
71.7693937
0
LINE
8
DEFAULT_255_2_778
10
53.3969
20
71.7693937
11
53.4717
21
71.6568937
0
LINE
8
DEFAULT_255_2_778
10
53.4717
20
71.6568937
11
53.5842
21
71.5817937
0
LINE
8
DEFAULT_255_2_778
10
53.5842
20
71.5817937
11
53.6966
21
71.5441937
0
LINE
8
DEFAULT_255_2_778
10
53.6966
20
71.5441937
11
53.8091
21
71.5441937
0
LINE
8
DEFAULT_255_2_778
10
53.8091
20
71.5441937
11
53.9215
21
71.5817937
0
LINE
8
DEFAULT_255_2_778
10
53.9215
20
71.5817937
11
54.034
21
71.6568937
0
LINE
8
DEFAULT_255_2_778
10
54.034
20
71.6568937
11
54.1091
21
71.7693937
0
LINE
8
DEFAULT_255_2_778
10
54.1091
20
71.7693937
11
54.1467
21
71.8817937
0
LINE
8
DEFAULT_255_2_778
10
54.1467
20
71.8817937
11
54.1467
21
72.1442937
0
LINE
8
DEFAULT_255_2_778
10
54.1467
20
72.1442937
11
54.1091
21
72.2566937
0
LINE
8
DEFAULT_255_2_778
10
54.1091
20
72.2566937
11
54.034
21
72.3691937
0
LINE
8
DEFAULT_255_2_778
10
54.034
20
72.3691937
11
53.9215
21
72.4440937
0
LINE
8
DEFAULT_255_2_778
10
53.9215
20
72.4440937
11
53.8091
21
72.4815937
0
LINE
8
DEFAULT_255_2_778
10
53.8091
20
72.4815937
11
53.4342
21
72.4815937
0
LINE
8
DEFAULT_255_2_778
10
53.4342
20
72.4815937
11
53.4342
21
72.9692937
0
LINE
8
DEFAULT_255_2_778
10
53.4342
20
72.9692937
11
54.1091
21
72.9692937
0
LINE
8
DEFAULT_255_2_778
10
53.4342
20
71.9190937
11
53.4717
21
71.8066937
0
LINE
8
DEFAULT_255_2_778
10
53.4717
20
71.8066937
11
53.5093
21
71.7317937
0
LINE
8
DEFAULT_255_2_778
10
53.5093
20
71.7317937
11
53.5469
21
71.6941937
0
LINE
8
DEFAULT_255_2_778
10
53.5469
20
71.6941937
11
53.6218
21
71.6566937
0
LINE
8
DEFAULT_255_2_778
10
53.6218
20
71.6566937
11
53.7342
21
71.6190937
0
LINE
8
DEFAULT_255_2_778
10
53.7342
20
71.6190937
11
53.7718
21
71.6190937
0
LINE
8
DEFAULT_255_2_778
10
53.7718
20
71.6190937
11
53.8842
21
71.6566937
0
LINE
8
DEFAULT_255_2_778
10
53.8842
20
71.6566937
11
53.9591
21
71.6941937
0
LINE
8
DEFAULT_255_2_778
10
53.9591
20
71.6941937
11
53.9967
21
71.7317937
0
LINE
8
DEFAULT_255_2_778
10
53.9967
20
71.7317937
11
54.0343
21
71.8066937
0
LINE
8
DEFAULT_255_2_778
10
54.0343
20
71.8066937
11
54.0718
21
71.9190937
0
LINE
8
DEFAULT_255_2_778
10
54.0718
20
71.9190937
11
54.0718
21
72.1066937
0
LINE
8
DEFAULT_255_2_778
10
54.0718
20
72.1066937
11
54.0343
21
72.2191937
0
LINE
8
DEFAULT_255_2_778
10
54.0343
20
72.2191937
11
53.9967
21
72.2942937
0
LINE
8
DEFAULT_255_2_778
10
53.9967
20
72.2942937
11
53.9591
21
72.3318937
0
LINE
8
DEFAULT_255_2_778
10
53.9591
20
72.3318937
11
53.8842
21
72.3693937
0
LINE
8
DEFAULT_255_2_778
10
53.8842
20
72.3693937
11
53.7718
21
72.4069937
0
LINE
8
DEFAULT_255_2_778
10
53.7718
20
72.4069937
11
53.3593
21
72.4069937
0
LINE
8
DEFAULT_255_2_778
10
53.3593
20
72.4069937
11
53.3593
21
73.0443937
0
LINE
8
DEFAULT_255_2_778
10
53.3593
20
73.0443937
11
54.1094
21
73.0443937
0
LINE
8
DEFAULT_255_2_778
10
49.0521531
20
71.8701083
11
48.9397531
21
71.8701083
0
LINE
8
DEFAULT_255_2_778
10
48.9397531
20
71.8701083
11
48.9397531
21
71.5701083
0
LINE
8
DEFAULT_255_2_778
10
48.8648531
20
71.5701083
11
48.8648531
21
71.8701083
0
LINE
8
DEFAULT_255_2_778
10
48.8648531
20
71.8701083
11
48.3023531
21
71.8701083
0
LINE
8
DEFAULT_255_2_778
10
48.3023531
20
71.8701083
11
48.3023531
21
71.9077083
0
LINE
8
DEFAULT_255_2_778
10
48.3023531
20
71.9077083
11
48.9024531
21
73.0327083
0
LINE
8
DEFAULT_255_2_778
10
48.9024531
20
73.0327083
11
48.9399531
21
73.0327083
0
LINE
8
DEFAULT_255_2_778
10
48.9399531
20
73.0327083
11
48.9399531
21
71.9453083
0
LINE
8
DEFAULT_255_2_778
10
48.9399531
20
71.9453083
11
49.0524531
21
71.9453083
0
LINE
8
DEFAULT_255_2_778
10
48.8648531
20
71.9453083
11
48.3772531
21
71.9453083
0
LINE
8
DEFAULT_255_2_778
10
48.3772531
20
71.9453083
11
48.8648531
21
72.8454083
0
LINE
8
DEFAULT_255_2_778
10
48.8648531
20
72.8454083
11
48.8648531
21
71.9453083
0
LINE
8
DEFAULT_255_2_778
10
57.8595729
20
71.7531948
11
57.7844729
21
71.6780948
0
LINE
8
DEFAULT_255_2_778
10
57.7844729
20
71.6780948
11
57.7844729
21
71.6404948
0
LINE
8
DEFAULT_255_2_778
10
57.7844729
20
71.6404948
11
57.8595729
21
71.5655948
0
LINE
8
DEFAULT_255_2_778
10
57.8595729
20
71.5655948
11
57.8971729
21
71.5655948
0
LINE
8
DEFAULT_255_2_778
10
57.8971729
20
71.5655948
11
57.9723729
21
71.6404948
0
LINE
8
DEFAULT_255_2_778
10
57.9723729
20
71.6404948
11
57.9723729
21
71.6780948
0
LINE
8
DEFAULT_255_2_778
10
57.9723729
20
71.6780948
11
57.8971729
21
71.7531948
0
LINE
8
DEFAULT_255_2_778
10
57.8971729
20
71.7531948
11
57.8595729
21
71.7531948
0
LINE
8
DEFAULT_255_2_778
10
57.8595729
20
71.6407948
11
57.8971729
21
71.6407948
0
LINE
8
DEFAULT_255_2_778
10
57.8971729
20
71.6407948
11
57.8971729
21
71.6782948
0
LINE
8
DEFAULT_255_2_778
10
57.8971729
20
71.6782948
11
57.8595729
21
71.6782948
0
LINE
8
DEFAULT_255_2_778
10
57.8595729
20
71.6782948
11
57.8595729
21
71.6407948
0
LINE
8
DEFAULT_255_2_778
10
59.2098
20
72.6908614
11
59.2098
21
72.7284614
0
LINE
8
DEFAULT_255_2_778
10
59.2098
20
72.7284614
11
59.1722
21
72.8408614
0
LINE
8
DEFAULT_255_2_778
10
59.1722
20
72.8408614
11
59.0974
21
72.9533614
0
LINE
8
DEFAULT_255_2_778
10
59.0974
20
72.9533614
11
58.9849
21
73.0284614
0
LINE
8
DEFAULT_255_2_778
10
58.9849
20
73.0284614
11
58.8725
21
73.0660614
0
LINE
8
DEFAULT_255_2_778
10
58.8725
20
73.0660614
11
58.76
21
73.0660614
0
LINE
8
DEFAULT_255_2_778
10
58.76
20
73.0660614
11
58.6476
21
73.0284614
0
LINE
8
DEFAULT_255_2_778
10
58.6476
20
73.0284614
11
58.5351
21
72.9533614
0
LINE
8
DEFAULT_255_2_778
10
58.5351
20
72.9533614
11
58.46
21
72.8408614
0
LINE
8
DEFAULT_255_2_778
10
58.46
20
72.8408614
11
58.4224
21
72.7284614
0
LINE
8
DEFAULT_255_2_778
10
58.4224
20
72.7284614
11
58.4224
21
71.9410614
0
LINE
8
DEFAULT_255_2_778
10
58.4224
20
71.9410614
11
58.46
21
71.8285614
0
LINE
8
DEFAULT_255_2_778
10
58.46
20
71.8285614
11
58.5351
21
71.7161614
0
LINE
8
DEFAULT_255_2_778
10
58.5351
20
71.7161614
11
58.6476
21
71.6036614
0
LINE
8
DEFAULT_255_2_778
10
58.6476
20
71.6036614
11
58.76
21
71.5661614
0
LINE
8
DEFAULT_255_2_778
10
58.76
20
71.5661614
11
58.8725
21
71.5661614
0
LINE
8
DEFAULT_255_2_778
10
58.8725
20
71.5661614
11
58.9849
21
71.6036614
0
LINE
8
DEFAULT_255_2_778
10
58.9849
20
71.6036614
11
59.0974
21
71.7161614
0
LINE
8
DEFAULT_255_2_778
10
59.0974
20
71.7161614
11
59.1722
21
71.8285614
0
LINE
8
DEFAULT_255_2_778
10
59.1722
20
71.8285614
11
59.2098
21
71.9410614
0
LINE
8
DEFAULT_255_2_778
10
59.2098
20
71.9410614
11
59.2098
21
72.0534614
0
LINE
8
DEFAULT_255_2_778
10
59.2098
20
72.0534614
11
59.1722
21
72.1659614
0
LINE
8
DEFAULT_255_2_778
10
59.1722
20
72.1659614
11
59.0974
21
72.2783614
0
LINE
8
DEFAULT_255_2_778
10
59.0974
20
72.2783614
11
58.9849
21
72.3908614
0
LINE
8
DEFAULT_255_2_778
10
58.9849
20
72.3908614
11
58.8725
21
72.4284614
0
LINE
8
DEFAULT_255_2_778
10
58.8725
20
72.4284614
11
58.76
21
72.4284614
0
LINE
8
DEFAULT_255_2_778
10
58.76
20
72.4284614
11
58.6476
21
72.3908614
0
LINE
8
DEFAULT_255_2_778
10
58.6476
20
72.3908614
11
58.5351
21
72.2783614
0
LINE
8
DEFAULT_255_2_778
10
58.5351
20
72.2783614
11
58.4975
21
72.2035614
0
LINE
8
DEFAULT_255_2_778
10
58.4975
20
72.2035614
11
58.4975
21
72.6911614
0
LINE
8
DEFAULT_255_2_778
10
58.4975
20
72.6911614
11
58.5351
21
72.8035614
0
LINE
8
DEFAULT_255_2_778
10
58.5351
20
72.8035614
11
58.5727
21
72.8784614
0
LINE
8
DEFAULT_255_2_778
10
58.5727
20
72.8784614
11
58.6103
21
72.9160614
0
LINE
8
DEFAULT_255_2_778
10
58.6103
20
72.9160614
11
58.6851
21
72.9536614
0
LINE
8
DEFAULT_255_2_778
10
58.6851
20
72.9536614
11
58.7976
21
72.9911614
0
LINE
8
DEFAULT_255_2_778
10
58.7976
20
72.9911614
11
58.8351
21
72.9911614
0
LINE
8
DEFAULT_255_2_778
10
58.8351
20
72.9911614
11
58.9476
21
72.9536614
0
LINE
8
DEFAULT_255_2_778
10
58.9476
20
72.9536614
11
59.0225
21
72.9160614
0
LINE
8
DEFAULT_255_2_778
10
59.0225
20
72.9160614
11
59.06
21
72.8784614
0
LINE
8
DEFAULT_255_2_778
10
59.06
20
72.8784614
11
59.0976
21
72.8035614
0
LINE
8
DEFAULT_255_2_778
10
59.0976
20
72.8035614
11
59.1352
21
72.6911614
0
LINE
8
DEFAULT_255_2_778
10
59.0603
20
72.2035614
11
58.9479
21
72.3159614
0
LINE
8
DEFAULT_255_2_778
10
58.9479
20
72.3159614
11
58.8354
21
72.3535614
0
LINE
8
DEFAULT_255_2_778
10
58.8354
20
72.3535614
11
58.7978
21
72.3535614
0
LINE
8
DEFAULT_255_2_778
10
58.7978
20
72.3535614
11
58.6854
21
72.3159614
0
LINE
8
DEFAULT_255_2_778
10
58.6854
20
72.3159614
11
58.5729
21
72.2035614
0
LINE
8
DEFAULT_255_2_778
10
58.5729
20
72.2035614
11
58.5354
21
72.1283614
0
LINE
8
DEFAULT_255_2_778
10
58.5354
20
72.1283614
11
58.4978
21
72.0159614
0
LINE
8
DEFAULT_255_2_778
10
58.4978
20
72.0159614
11
58.4978
21
71.9783614
0
LINE
8
DEFAULT_255_2_778
10
58.4978
20
71.9783614
11
58.5354
21
71.8659614
0
LINE
8
DEFAULT_255_2_778
10
58.5354
20
71.8659614
11
58.5729
21
71.7907614
0
LINE
8
DEFAULT_255_2_778
10
58.5729
20
71.7907614
11
58.6854
21
71.6783614
0
LINE
8
DEFAULT_255_2_778
10
58.6854
20
71.6783614
11
58.7978
21
71.6407614
0
LINE
8
DEFAULT_255_2_778
10
58.7978
20
71.6407614
11
58.8354
21
71.6407614
0
LINE
8
DEFAULT_255_2_778
10
58.8354
20
71.6407614
11
58.9479
21
71.6783614
0
LINE
8
DEFAULT_255_2_778
10
58.9479
20
71.6783614
11
59.0603
21
71.7907614
0
LINE
8
DEFAULT_255_2_778
10
59.0603
20
71.7907614
11
59.0979
21
71.8659614
0
LINE
8
DEFAULT_255_2_778
10
59.0979
20
71.8659614
11
59.1355
21
71.9783614
0
LINE
8
DEFAULT_255_2_778
10
59.1355
20
71.9783614
11
59.1355
21
72.0159614
0
LINE
8
DEFAULT_255_2_778
10
59.1355
20
72.0159614
11
59.0979
21
72.1283614
0
LINE
8
DEFAULT_255_2_778
10
59.0979
20
72.1283614
11
59.0603
21
72.2035614
0
LINE
8
DEFAULT_255_2_778
10
62.9544052
20
71.7531948
11
62.8795052
21
71.6780948
0
LINE
8
DEFAULT_255_2_778
10
62.8795052
20
71.6780948
11
62.8795052
21
71.6404948
0
LINE
8
DEFAULT_255_2_778
10
62.8795052
20
71.6404948
11
62.9544052
21
71.5655948
0
LINE
8
DEFAULT_255_2_778
10
62.9544052
20
71.5655948
11
62.9919052
21
71.5655948
0
LINE
8
DEFAULT_255_2_778
10
62.9919052
20
71.5655948
11
63.0671052
21
71.6404948
0
LINE
8
DEFAULT_255_2_778
10
63.0671052
20
71.6404948
11
63.0671052
21
71.6780948
0
LINE
8
DEFAULT_255_2_778
10
63.0671052
20
71.6780948
11
62.9919052
21
71.7531948
0
LINE
8
DEFAULT_255_2_778
10
62.9919052
20
71.7531948
11
62.9544052
21
71.7531948
0
LINE
8
DEFAULT_255_2_778
10
62.9544052
20
71.6407948
11
62.9919052
21
71.6407948
0
LINE
8
DEFAULT_255_2_778
10
62.9919052
20
71.6407948
11
62.9919052
21
71.6782948
0
LINE
8
DEFAULT_255_2_778
10
62.9919052
20
71.6782948
11
62.9544052
21
71.6782948
0
LINE
8
DEFAULT_255_2_778
10
62.9544052
20
71.6782948
11
62.9544052
21
71.6407948
0
LINE
8
DEFAULT_255_2_778
10
63.5171531
20
72.9533937
11
63.5171531
21
73.0657937
0
LINE
8
DEFAULT_255_2_778
10
63.5171531
20
73.0657937
11
64.2672531
21
73.0657937
0
LINE
8
DEFAULT_255_2_778
10
64.2672531
20
73.0657937
11
64.2672531
21
73.0281937
0
LINE
8
DEFAULT_255_2_778
10
64.2672531
20
73.0281937
11
63.5547531
21
71.5655937
0
LINE
8
DEFAULT_255_2_778
10
63.5171531
20
71.6031937
11
64.1921531
21
72.9906937
0
LINE
8
DEFAULT_255_2_778
10
64.1921531
20
72.9906937
11
63.5920531
21
72.9906937
0
LINE
8
DEFAULT_255_2_778
10
63.5920531
20
72.9906937
11
63.5920531
21
72.9530937
0
LINE
8
DEFAULT_255_2_778
10
64.2421573
20
68.7501583
11
64.2860573
21
68.8874583
0
LINE
8
DEFAULT_255_2_778
10
64.2860573
20
68.8874583
11
64.3299573
21
68.9789583
0
LINE
8
DEFAULT_255_2_778
10
64.3299573
20
68.9789583
11
64.3738573
21
69.0247583
0
LINE
8
DEFAULT_255_2_778
10
64.3738573
20
69.0247583
11
64.4614573
21
69.0705583
0
LINE
8
DEFAULT_255_2_778
10
64.4614573
20
69.0705583
11
64.5929573
21
69.1163583
0
LINE
8
DEFAULT_255_2_778
10
64.5929573
20
69.1163583
11
64.6368573
21
69.1163583
0
LINE
8
DEFAULT_255_2_778
10
64.6368573
20
69.1163583
11
64.7683573
21
69.0705583
0
LINE
8
DEFAULT_255_2_778
10
64.7683573
20
69.0705583
11
64.8559573
21
69.0247583
0
LINE
8
DEFAULT_255_2_778
10
64.8559573
20
69.0247583
11
64.8998573
21
68.9789583
0
LINE
8
DEFAULT_255_2_778
10
64.8998573
20
68.9789583
11
64.9438573
21
68.8874583
0
LINE
8
DEFAULT_255_2_778
10
64.9438573
20
68.8874583
11
64.9874573
21
68.7501583
0
LINE
8
DEFAULT_255_2_778
10
64.9874573
20
68.7501583
11
64.9874573
21
68.7043583
0
LINE
8
DEFAULT_255_2_778
10
64.9874573
20
68.7043583
11
64.9438573
21
68.6128583
0
LINE
8
DEFAULT_255_2_778
10
64.9438573
20
68.6128583
11
64.1553573
21
67.4684583
0
LINE
8
DEFAULT_255_2_778
10
64.1553573
20
67.4684583
11
64.1553573
21
67.3769583
0
LINE
8
DEFAULT_255_2_778
10
64.1553573
20
67.3769583
11
65.0313573
21
67.3769583
0
LINE
8
DEFAULT_255_2_778
10
64.1553573
20
68.7501583
11
64.1553573
21
68.7958583
0
LINE
8
DEFAULT_255_2_778
10
64.1553573
20
68.7958583
11
64.1992573
21
68.9332583
0
LINE
8
DEFAULT_255_2_778
10
64.1992573
20
68.9332583
11
64.2868573
21
69.0705583
0
LINE
8
DEFAULT_255_2_778
10
64.2868573
20
69.0705583
11
64.4183573
21
69.1620583
0
LINE
8
DEFAULT_255_2_778
10
64.4183573
20
69.1620583
11
64.5498573
21
69.2078583
0
LINE
8
DEFAULT_255_2_778
10
64.5498573
20
69.2078583
11
64.6813573
21
69.2078583
0
LINE
8
DEFAULT_255_2_778
10
64.6813573
20
69.2078583
11
64.8128573
21
69.1620583
0
LINE
8
DEFAULT_255_2_778
10
64.8128573
20
69.1620583
11
64.9443573
21
69.0705583
0
LINE
8
DEFAULT_255_2_778
10
64.9443573
20
69.0705583
11
65.0319573
21
68.9332583
0
LINE
8
DEFAULT_255_2_778
10
65.0319573
20
68.9332583
11
65.0758573
21
68.7958583
0
LINE
8
DEFAULT_255_2_778
10
65.0758573
20
68.7958583
11
65.0758573
21
68.6585583
0
LINE
8
DEFAULT_255_2_778
10
65.0758573
20
68.6585583
11
65.0319573
21
68.5212583
0
LINE
8
DEFAULT_255_2_778
10
65.0319573
20
68.5212583
11
64.2434573
21
67.4687583
0
LINE
8
DEFAULT_255_2_778
10
64.2434573
20
67.4687583
11
65.0319573
21
67.4687583
0
LINE
8
DEFAULT_255_2_778
10
65.6973573
20
68.7501583
11
65.7412573
21
68.8874583
0
LINE
8
DEFAULT_255_2_778
10
65.7412573
20
68.8874583
11
65.7851573
21
68.9789583
0
LINE
8
DEFAULT_255_2_778
10
65.7851573
20
68.9789583
11
65.8290573
21
69.0247583
0
LINE
8
DEFAULT_255_2_778
10
65.8290573
20
69.0247583
11
65.9166573
21
69.0705583
0
LINE
8
DEFAULT_255_2_778
10
65.9166573
20
69.0705583
11
66.0481573
21
69.1163583
0
LINE
8
DEFAULT_255_2_778
10
66.0481573
20
69.1163583
11
66.0920573
21
69.1163583
0
LINE
8
DEFAULT_255_2_778
10
66.0920573
20
69.1163583
11
66.2235573
21
69.0705583
0
LINE
8
DEFAULT_255_2_778
10
66.2235573
20
69.0705583
11
66.3111573
21
69.0247583
0
LINE
8
DEFAULT_255_2_778
10
66.3111573
20
69.0247583
11
66.3550573
21
68.9789583
0
LINE
8
DEFAULT_255_2_778
10
66.3550573
20
68.9789583
11
66.3990573
21
68.8874583
0
LINE
8
DEFAULT_255_2_778
10
66.3990573
20
68.8874583
11
66.4426573
21
68.7501583
0
LINE
8
DEFAULT_255_2_778
10
66.4426573
20
68.7501583
11
66.4426573
21
68.7043583
0
LINE
8
DEFAULT_255_2_778
10
66.4426573
20
68.7043583
11
66.3990573
21
68.6128583
0
LINE
8
DEFAULT_255_2_778
10
66.3990573
20
68.6128583
11
65.6105573
21
67.4684583
0
LINE
8
DEFAULT_255_2_778
10
65.6105573
20
67.4684583
11
65.6105573
21
67.3769583
0
LINE
8
DEFAULT_255_2_778
10
65.6105573
20
67.3769583
11
66.4865573
21
67.3769583
0
LINE
8
DEFAULT_255_2_778
10
65.6105573
20
68.7501583
11
65.6105573
21
68.7958583
0
LINE
8
DEFAULT_255_2_778
10
65.6105573
20
68.7958583
11
65.6544573
21
68.9332583
0
LINE
8
DEFAULT_255_2_778
10
65.6544573
20
68.9332583
11
65.7420573
21
69.0705583
0
LINE
8
DEFAULT_255_2_778
10
65.7420573
20
69.0705583
11
65.8735573
21
69.1620583
0
LINE
8
DEFAULT_255_2_778
10
65.8735573
20
69.1620583
11
66.0050573
21
69.2078583
0
LINE
8
DEFAULT_255_2_778
10
66.0050573
20
69.2078583
11
66.1365573
21
69.2078583
0
LINE
8
DEFAULT_255_2_778
10
66.1365573
20
69.2078583
11
66.2680573
21
69.1620583
0
LINE
8
DEFAULT_255_2_778
10
66.2680573
20
69.1620583
11
66.3995573
21
69.0705583
0
LINE
8
DEFAULT_255_2_778
10
66.3995573
20
69.0705583
11
66.4871573
21
68.9332583
0
LINE
8
DEFAULT_255_2_778
10
66.4871573
20
68.9332583
11
66.5310573
21
68.7958583
0
LINE
8
DEFAULT_255_2_778
10
66.5310573
20
68.7958583
11
66.5310573
21
68.6585583
0
LINE
8
DEFAULT_255_2_778
10
66.5310573
20
68.6585583
11
66.4871573
21
68.5212583
0
LINE
8
DEFAULT_255_2_778
10
66.4871573
20
68.5212583
11
65.6986573
21
67.4687583
0
LINE
8
DEFAULT_255_2_778
10
65.6986573
20
67.4687583
11
66.4871573
21
67.4687583
0
ARC
8
DEFAULT_255_2_778
10
67.721113
20
68.6973319
40
0.5990212
50
153.5696761
51
174.5026217
0
ARC
8
DEFAULT_255_2_778
10
67.6248319
20
68.745424
40
0.4913976
50
121.5373123
51
153.5941274
0
ARC
8
DEFAULT_255_2_778
10
67.5993347
20
68.7856495
40
0.4437775
50
90.6859277
51
121.4480772
0
ARC
8
DEFAULT_255_2_778
10
67.5972201
20
68.8032652
40
0.4261419
50
90.0000028
51
90.4299834
0
ARC
8
DEFAULT_255_2_778
10
67.5979592
20
68.8182185
40
0.4111894
50
54.0914932
51
90.10299
0
ARC
8
DEFAULT_255_2_778
10
67.5781563
20
68.7903933
40
0.4453409
50
42.1271413
51
54.1274894
0
ARC
8
DEFAULT_255_2_778
10
67.3193725
20
68.6258963
40
0.7493886
50
32.9156645
51
38.1799325
0
ARC
8
DEFAULT_255_2_778
10
67.3615889
20
68.6536128
40
0.698888
50
29.6286455
51
32.8888893
0
ARC
8
DEFAULT_255_2_778
10
67.4138246
20
68.681899
40
0.6394993
50
17.9401883
51
29.7394161
0
ARC
8
DEFAULT_255_2_778
10
67.4606133
20
68.6974775
40
0.5901871
50
3.8787444
51
17.9004804
0
ARC
8
DEFAULT_255_2_778
10
67.4692732
20
68.6984505
40
0.5814813
50
0.0000288
51
3.840813
0
ARC
8
DEFAULT_255_2_778
10
67.4706559
20
68.6983067
40
0.5800986
50
340.9713131
51
0.0142296
0
ARC
8
DEFAULT_255_2_778
10
67.5346903
20
68.6739526
40
0.5116274
50
325.0151832
51
341.2115722
0
ARC
8
DEFAULT_255_2_778
10
67.6810595
20
68.5697562
40
0.3319676
50
309.1807924
51
325.2648174
0
ARC
8
DEFAULT_255_2_778
10
67.7773392
20
68.4528028
40
0.1804854
50
293.9472368
51
308.9445665
0
ARC
8
DEFAULT_255_2_778
10
67.8104072
20
68.3768217
40
0.0976248
50
271.1972565
51
294.3104233
0
ARC
8
DEFAULT_255_2_778
10
67.6536752
20
67.9392623
40
0.3752047
50
30.1911882
51
64.9657192
0
ARC
8
DEFAULT_255_2_778
10
67.5090757
20
67.866081
40
0.5370749
50
0.5084735
51
29.1816293
0
ARC
8
DEFAULT_255_2_778
10
67.3525205
20
67.8507878
40
0.6938989
50
359.9970701
51
1.6565534
0
ARC
8
DEFAULT_255_2_778
10
67.3215499
20
67.8508254
40
0.7248695
50
341.0673027
51
359.9942214
0
ARC
8
DEFAULT_255_2_778
10
67.5482031
20
67.769952
40
0.4842473
50
325.8342973
51
341.4174069
0
ARC
8
DEFAULT_255_2_778
10
67.7332278
20
67.6464117
40
0.2617814
50
312.0157106
51
325.4647608
0
ARC
8
DEFAULT_255_2_778
10
67.5387768
20
67.8577129
40
0.5489311
50
284.1718033
51
312.332844
0
ARC
8
DEFAULT_255_2_778
10
67.5530718
20
67.8093115
40
0.498507
50
276.3371273
51
283.9408062
0
ARC
8
DEFAULT_255_2_778
10
67.5563013
20
67.7810541
40
0.4700657
50
270.0296843
51
276.326064
0
ARC
8
DEFAULT_255_2_778
10
67.549514
20
67.7059759
40
0.3950498
50
217.278382
51
271.0197676
0
ARC
8
DEFAULT_255_2_778
10
67.6355684
20
67.7669252
40
0.5004529
50
196.6784257
51
216.8634093
0
ARC
8
DEFAULT_255_2_778
10
67.868741
20
67.8393853
40
0.7446162
50
183.6938695
51
196.8701142
0
ARC
8
DEFAULT_255_2_778
10
68.0507357
20
67.8582579
40
0.927476
50
183.3526227
51
184.1329994
0
ARC
8
DEFAULT_255_2_778
10
67.9028229
20
68.5897573
40
0.7134393
50
155.4067656
51
168.0879528
0
ARC
8
DEFAULT_255_2_778
10
67.6988667
20
68.6847938
40
0.4884358
50
136.8140186
51
155.5867259
0
ARC
8
DEFAULT_255_2_778
10
67.6039336
20
68.7748808
40
0.3575644
50
106.3998401
51
136.92882
0
ARC
8
DEFAULT_255_2_778
10
67.5936887
20
68.800769
40
0.3298465
50
95.8047762
51
105.9623111
0
ARC
8
DEFAULT_255_2_778
10
67.5936532
20
68.8008139
40
0.3297983
50
89.998206
51
95.7994311
0
ARC
8
DEFAULT_255_2_778
10
67.592367
20
68.7907231
40
0.3398915
50
42.1279321
51
89.7814291
0
ARC
8
DEFAULT_255_2_778
10
67.3297348
20
68.6878038
40
0.6119094
50
6.4904858
51
32.7374306
0
ARC
8
DEFAULT_255_2_778
10
67.2698466
20
68.6738946
40
0.6730229
50
0.0309615
51
7.0907108
0
ARC
8
DEFAULT_255_2_778
10
67.4105025
20
68.6664852
40
0.5324238
50
338.275669
51
0.8365251
0
ARC
8
DEFAULT_255_2_778
10
67.6699345
20
68.5553866
40
0.2503987
50
295.9206181
51
339.9191072
0
ARC
8
DEFAULT_255_2_778
10
67.7012806
20
68.5132895
40
0.1990752
50
269.5747729
51
293.101562
0
ARC
8
DEFAULT_255_2_778
10
67.6998904
20
68.5473823
40
0.2331627
50
266.2515274
51
269.9785537
0
ARC
8
DEFAULT_255_2_778
10
67.900691
20
67.9580009
40
0.7137062
50
191.9093098
51
204.5883241
0
ARC
8
DEFAULT_255_2_778
10
67.6965952
20
67.8629201
40
0.4885573
50
204.4082351
51
223.1791705
0
ARC
8
DEFAULT_255_2_778
10
67.6015702
20
67.7727654
40
0.3575728
50
223.0640421
51
253.5944448
0
ARC
8
DEFAULT_255_2_778
10
67.5913115
20
67.7468604
40
0.3298347
50
254.0329982
51
264.1910479
0
ARC
8
DEFAULT_255_2_778
10
67.5912672
20
67.7467167
40
0.3296873
50
264.1961703
51
270.002459
0
ARC
8
DEFAULT_255_2_778
10
67.5899817
20
67.7568951
40
0.3398681
50
270.2190972
51
317.8726917
0
ARC
8
DEFAULT_255_2_778
10
67.3273258
20
67.8598217
40
0.611911
50
327.26389
51
353.5264669
0
ARC
8
DEFAULT_255_2_778
10
67.267409
20
67.8737239
40
0.6730501
50
352.9255936
51
359.9691937
0
ARC
8
DEFAULT_255_2_778
10
67.4094599
20
67.8813198
40
0.5310586
50
359.1414107
51
21.9865731
0
ARC
8
DEFAULT_255_2_778
10
67.6698905
20
67.9944429
40
0.247327
50
20.2735541
51
65.6035432
0
ARC
8
DEFAULT_255_2_778
10
67.6984037
20
68.0333399
40
0.2003706
50
68.435852
51
90.3881638
0
ARC
8
DEFAULT_255_2_778
10
67.6971305
20
68.0001694
40
0.2335364
50
90.0206703
51
93.7031597
0
LINE
8
DEFAULT_255_2_778
10
60.272347
20
67.3773183
11
59.372247
21
67.3773183
0
LINE
8
DEFAULT_255_2_778
10
59.372247
20
67.3773183
11
59.372247
21
69.1772183
0
LINE
8
DEFAULT_255_2_778
10
59.372247
20
69.1772183
11
60.272347
21
69.1772183
0
LINE
8
DEFAULT_255_2_778
10
60.272347
20
69.1772183
11
60.272347
21
69.0822183
0
LINE
8
DEFAULT_255_2_778
10
60.272347
20
69.0822183
11
59.462247
21
69.0822183
0
LINE
8
DEFAULT_255_2_778
10
59.462247
20
69.0822183
11
59.462247
21
68.3216183
0
LINE
8
DEFAULT_255_2_778
10
59.462247
20
68.3216183
11
60.098747
21
68.3216183
0
LINE
8
DEFAULT_255_2_778
10
60.098747
20
68.3216183
11
60.098747
21
68.2305183
0
LINE
8
DEFAULT_255_2_778
10
60.098747
20
68.2305183
11
59.462247
21
68.2305183
0
LINE
8
DEFAULT_255_2_778
10
59.462247
20
68.2305183
11
59.462247
21
67.4699183
0
LINE
8
DEFAULT_255_2_778
10
59.462247
20
67.4699183
11
60.272647
21
67.4699183
0
LINE
8
DEFAULT_255_2_778
10
60.272647
20
67.4699183
11
60.272647
21
67.3789183
0
LINE
8
DEFAULT_255_2_778
10
62.027047
20
67.4058183
11
62.043747
21
69.0542183
0
LINE
8
DEFAULT_255_2_778
10
62.043747
20
69.0542183
11
61.532247
21
68.0358183
0
LINE
8
DEFAULT_255_2_778
10
61.532247
20
68.0358183
11
61.442347
21
68.0358183
0
LINE
8
DEFAULT_255_2_778
10
61.442347
20
68.0358183
11
60.930947
21
69.0542183
0
LINE
8
DEFAULT_255_2_778
10
60.930947
20
69.0542183
11
60.947547
21
67.4058183
0
LINE
8
DEFAULT_255_2_778
10
60.947547
20
67.4058183
11
60.859747
21
67.4040183
0
LINE
8
DEFAULT_255_2_778
10
60.859747
20
67.4040183
11
60.857647
21
69.1772183
0
LINE
8
DEFAULT_255_2_778
10
60.857647
20
69.1772183
11
60.947547
21
69.1772183
0
LINE
8
DEFAULT_255_2_778
10
60.947547
20
69.1772183
11
61.487547
21
68.1422183
0
LINE
8
DEFAULT_255_2_778
10
61.487547
20
68.1422183
11
62.027647
21
69.1772183
0
LINE
8
DEFAULT_255_2_778
10
62.027647
20
69.1772183
11
62.117547
21
69.1772183
0
LINE
8
DEFAULT_255_2_778
10
62.117547
20
69.1772183
11
62.116447
21
67.4040183
0
LINE
8
DEFAULT_255_2_778
10
62.116447
20
67.4040183
11
62.025447
21
67.4040183
0
LINE
8
DEFAULT_255_2_778
10
68.0098188
20
65.4523479
11
67.9648188
21
65.5873479
0
LINE
8
DEFAULT_255_2_778
10
67.9648188
20
65.5873479
11
67.9198188
21
65.6772479
0
LINE
8
DEFAULT_255_2_778
10
67.9198188
20
65.6772479
11
67.8299188
21
65.7672479
0
LINE
8
DEFAULT_255_2_778
10
67.8299188
20
65.7672479
11
67.6500188
21
65.8122479
0
LINE
8
DEFAULT_255_2_778
10
67.6500188
20
65.8122479
11
67.6050188
21
65.8122479
0
LINE
8
DEFAULT_255_2_778
10
67.6050188
20
65.8122479
11
67.4701188
21
65.7672479
0
LINE
8
DEFAULT_255_2_778
10
67.4701188
20
65.7672479
11
67.3801188
21
65.7222479
0
LINE
8
DEFAULT_255_2_778
10
67.3801188
20
65.7222479
11
67.3351188
21
65.6772479
0
LINE
8
DEFAULT_255_2_778
10
67.3351188
20
65.6772479
11
67.2901188
21
65.5873479
0
LINE
8
DEFAULT_255_2_778
10
67.2901188
20
65.5873479
11
67.2452188
21
65.4523479
0
LINE
8
DEFAULT_255_2_778
10
67.2452188
20
65.4523479
11
67.2452188
21
64.5522479
0
LINE
8
DEFAULT_255_2_778
10
67.2452188
20
64.5522479
11
67.2901188
21
64.4173479
0
LINE
8
DEFAULT_255_2_778
10
67.2901188
20
64.4173479
11
67.3351188
21
64.3273479
0
LINE
8
DEFAULT_255_2_778
10
67.3351188
20
64.3273479
11
67.3801188
21
64.2824479
0
LINE
8
DEFAULT_255_2_778
10
67.3801188
20
64.2824479
11
67.4701188
21
64.2374479
0
LINE
8
DEFAULT_255_2_778
10
67.4701188
20
64.2374479
11
67.6050188
21
64.1924479
0
LINE
8
DEFAULT_255_2_778
10
67.6050188
20
64.1924479
11
67.6500188
21
64.1924479
0
LINE
8
DEFAULT_255_2_778
10
67.6500188
20
64.1924479
11
67.7849188
21
64.2374479
0
LINE
8
DEFAULT_255_2_778
10
67.7849188
20
64.2374479
11
67.8749188
21
64.2824479
0
LINE
8
DEFAULT_255_2_778
10
67.8749188
20
64.2824479
11
67.9198188
21
64.3273479
0
LINE
8
DEFAULT_255_2_778
10
67.9198188
20
64.3273479
11
67.9648188
21
64.4173479
0
LINE
8
DEFAULT_255_2_778
10
67.9648188
20
64.4173479
11
68.0098188
21
64.5522479
0
LINE
8
DEFAULT_255_2_778
10
68.0098188
20
64.5522479
11
67.9648188
21
64.4173479
0
LINE
8
DEFAULT_255_2_778
10
67.9648188
20
64.4173479
11
67.9198188
21
64.3273479
0
LINE
8
DEFAULT_255_2_778
10
67.9198188
20
64.3273479
11
67.8749188
21
64.2824479
0
LINE
8
DEFAULT_255_2_778
10
67.8749188
20
64.2824479
11
67.7849188
21
64.2374479
0
LINE
8
DEFAULT_255_2_778
10
67.7849188
20
64.2374479
11
67.6500188
21
64.1924479
0
LINE
8
DEFAULT_255_2_778
10
67.6500188
20
64.1924479
11
67.6050188
21
64.1924479
0
LINE
8
DEFAULT_255_2_778
10
67.6050188
20
64.1924479
11
67.4701188
21
64.2374479
0
LINE
8
DEFAULT_255_2_778
10
67.4701188
20
64.2374479
11
67.3801188
21
64.2824479
0
LINE
8
DEFAULT_255_2_778
10
67.3801188
20
64.2824479
11
67.3351188
21
64.3273479
0
LINE
8
DEFAULT_255_2_778
10
67.3351188
20
64.3273479
11
67.2901188
21
64.4173479
0
LINE
8
DEFAULT_255_2_778
10
67.2901188
20
64.4173479
11
67.2452188
21
64.5522479
0
LINE
8
DEFAULT_255_2_778
10
67.2452188
20
64.5522479
11
67.2452188
21
65.4523479
0
LINE
8
DEFAULT_255_2_778
10
67.2452188
20
65.4523479
11
67.2901188
21
65.5873479
0
LINE
8
DEFAULT_255_2_778
10
67.2901188
20
65.5873479
11
67.3351188
21
65.6772479
0
LINE
8
DEFAULT_255_2_778
10
67.3351188
20
65.6772479
11
67.3801188
21
65.7222479
0
LINE
8
DEFAULT_255_2_778
10
67.3801188
20
65.7222479
11
67.4701188
21
65.7672479
0
LINE
8
DEFAULT_255_2_778
10
67.4701188
20
65.7672479
11
67.6050188
21
65.8122479
0
LINE
8
DEFAULT_255_2_778
10
67.6050188
20
65.8122479
11
67.6500188
21
65.8122479
0
LINE
8
DEFAULT_255_2_778
10
67.6500188
20
65.8122479
11
67.8299188
21
65.7672479
0
LINE
8
DEFAULT_255_2_778
10
67.8299188
20
65.7672479
11
67.9198188
21
65.6772479
0
LINE
8
DEFAULT_255_2_778
10
67.9198188
20
65.6772479
11
67.9648188
21
65.5873479
0
LINE
8
DEFAULT_255_2_778
10
67.9648188
20
65.5873479
11
68.0098188
21
65.4523479
0
LINE
8
DEFAULT_255_2_778
10
68.0998188
20
64.5525479
11
68.0998188
21
64.5075479
0
LINE
8
DEFAULT_255_2_778
10
68.0998188
20
64.5075479
11
68.0548188
21
64.3726479
0
LINE
8
DEFAULT_255_2_778
10
68.0548188
20
64.3726479
11
67.9648188
21
64.2376479
0
LINE
8
DEFAULT_255_2_778
10
67.9648188
20
64.2376479
11
67.8299188
21
64.1477479
0
LINE
8
DEFAULT_255_2_778
10
67.8299188
20
64.1477479
11
67.6949188
21
64.1027479
0
LINE
8
DEFAULT_255_2_778
10
67.6949188
20
64.1027479
11
67.5600188
21
64.1027479
0
LINE
8
DEFAULT_255_2_778
10
67.5600188
20
64.1027479
11
67.4251188
21
64.1477479
0
LINE
8
DEFAULT_255_2_778
10
67.4251188
20
64.1477479
11
67.2901188
21
64.2376479
0
LINE
8
DEFAULT_255_2_778
10
67.2901188
20
64.2376479
11
67.2002188
21
64.3726479
0
LINE
8
DEFAULT_255_2_778
10
67.2002188
20
64.3726479
11
67.1552188
21
64.5075479
0
LINE
8
DEFAULT_255_2_778
10
67.1552188
20
64.5075479
11
67.1552188
21
65.4976479
0
LINE
8
DEFAULT_255_2_778
10
67.1552188
20
65.4976479
11
67.2002188
21
65.6325479
0
LINE
8
DEFAULT_255_2_778
10
67.2002188
20
65.6325479
11
67.2901188
21
65.7675479
0
LINE
8
DEFAULT_255_2_778
10
67.2901188
20
65.7675479
11
67.4251188
21
65.8574479
0
LINE
8
DEFAULT_255_2_778
10
67.4251188
20
65.8574479
11
67.5600188
21
65.9024479
0
LINE
8
DEFAULT_255_2_778
10
67.5600188
20
65.9024479
11
67.6949188
21
65.9024479
0
LINE
8
DEFAULT_255_2_778
10
67.6949188
20
65.9024479
11
67.8299188
21
65.8574479
0
LINE
8
DEFAULT_255_2_778
10
67.8299188
20
65.8574479
11
67.9648188
21
65.7675479
0
LINE
8
DEFAULT_255_2_778
10
67.9648188
20
65.7675479
11
68.0548188
21
65.6325479
0
LINE
8
DEFAULT_255_2_778
10
68.0548188
20
65.6325479
11
68.0998188
21
65.4976479
0
LINE
8
DEFAULT_255_2_778
10
68.0998188
20
65.4976479
11
68.0998188
21
65.4526479
0
LINE
8
DEFAULT_255_2_778
10
66.4889761
20
65.5782802
11
66.5339761
21
65.4433802
0
LINE
8
DEFAULT_255_2_778
10
66.5339761
20
65.4433802
11
66.5339761
21
64.5432802
0
LINE
8
DEFAULT_255_2_778
10
66.5339761
20
64.5432802
11
66.4889761
21
64.4082802
0
LINE
8
DEFAULT_255_2_778
10
66.4889761
20
64.4082802
11
66.4439761
21
64.3183802
0
LINE
8
DEFAULT_255_2_778
10
66.4439761
20
64.3183802
11
66.3990761
21
64.2733802
0
LINE
8
DEFAULT_255_2_778
10
66.3990761
20
64.2733802
11
66.3090761
21
64.2283802
0
LINE
8
DEFAULT_255_2_778
10
66.3090761
20
64.2283802
11
66.1741761
21
64.1833802
0
LINE
8
DEFAULT_255_2_778
10
66.1741761
20
64.1833802
11
65.8140761
21
64.1833802
0
LINE
8
DEFAULT_255_2_778
10
65.8140761
20
64.1833802
11
65.8140761
21
65.8034802
0
LINE
8
DEFAULT_255_2_778
10
65.8140761
20
65.8034802
11
66.1741761
21
65.8034802
0
LINE
8
DEFAULT_255_2_778
10
66.1741761
20
65.8034802
11
66.3090761
21
65.7584802
0
LINE
8
DEFAULT_255_2_778
10
66.3090761
20
65.7584802
11
66.3990761
21
65.7134802
0
LINE
8
DEFAULT_255_2_778
10
66.3990761
20
65.7134802
11
66.4439761
21
65.6684802
0
LINE
8
DEFAULT_255_2_778
10
66.4439761
20
65.6684802
11
66.4889761
21
65.5785802
0
LINE
8
DEFAULT_255_2_778
10
66.4889761
20
65.5785802
11
66.5339761
21
65.4435802
0
LINE
8
DEFAULT_255_2_778
10
66.5339761
20
65.4435802
11
66.5339761
21
64.5434802
0
LINE
8
DEFAULT_255_2_778
10
66.5339761
20
64.5434802
11
66.4889761
21
64.4085802
0
LINE
8
DEFAULT_255_2_778
10
66.4889761
20
64.4085802
11
66.4439761
21
64.3185802
0
LINE
8
DEFAULT_255_2_778
10
66.4439761
20
64.3185802
11
66.3990761
21
64.2736802
0
LINE
8
DEFAULT_255_2_778
10
66.3990761
20
64.2736802
11
66.3090761
21
64.2286802
0
LINE
8
DEFAULT_255_2_778
10
66.3090761
20
64.2286802
11
66.1741761
21
64.1836802
0
LINE
8
DEFAULT_255_2_778
10
66.1741761
20
64.1836802
11
65.8140761
21
64.1836802
0
LINE
8
DEFAULT_255_2_778
10
65.8140761
20
64.1836802
11
65.8140761
21
65.8036802
0
LINE
8
DEFAULT_255_2_778
10
65.8140761
20
65.8036802
11
66.1741761
21
65.8036802
0
LINE
8
DEFAULT_255_2_778
10
66.1741761
20
65.8036802
11
66.3090761
21
65.7587802
0
LINE
8
DEFAULT_255_2_778
10
66.3090761
20
65.7587802
11
66.3990761
21
65.7137802
0
LINE
8
DEFAULT_255_2_778
10
66.3990761
20
65.7137802
11
66.4439761
21
65.6687802
0
LINE
8
DEFAULT_255_2_778
10
66.4439761
20
65.6687802
11
66.4889761
21
65.5785802
0
LINE
8
DEFAULT_255_2_778
10
66.5789761
20
65.6235802
11
66.6238761
21
65.4885802
0
LINE
8
DEFAULT_255_2_778
10
66.6238761
20
65.4885802
11
66.6238761
21
64.4985802
0
LINE
8
DEFAULT_255_2_778
10
66.6238761
20
64.4985802
11
66.5789761
21
64.3635802
0
LINE
8
DEFAULT_255_2_778
10
66.5789761
20
64.3635802
11
66.4889761
21
64.2286802
0
LINE
8
DEFAULT_255_2_778
10
66.4889761
20
64.2286802
11
66.3540761
21
64.1386802
0
LINE
8
DEFAULT_255_2_778
10
66.3540761
20
64.1386802
11
66.2190761
21
64.0936802
0
LINE
8
DEFAULT_255_2_778
10
66.2190761
20
64.0936802
11
65.7240761
21
64.0936802
0
LINE
8
DEFAULT_255_2_778
10
65.7240761
20
64.0936802
11
65.7240761
21
65.8936802
0
LINE
8
DEFAULT_255_2_778
10
65.7240761
20
65.8936802
11
66.2190761
21
65.8936802
0
LINE
8
DEFAULT_255_2_778
10
66.2190761
20
65.8936802
11
66.3540761
21
65.8486802
0
LINE
8
DEFAULT_255_2_778
10
66.3540761
20
65.8486802
11
66.4889761
21
65.7587802
0
LINE
8
DEFAULT_255_2_778
10
66.4889761
20
65.7587802
11
66.5789761
21
65.6235802
0
LINE
8
DEFAULT_255_2_778
10
62.0590761
20
65.5277802
11
62.1040761
21
65.3928802
0
LINE
8
DEFAULT_255_2_778
10
62.1040761
20
65.3928802
11
62.1040761
21
64.4927802
0
LINE
8
DEFAULT_255_2_778
10
62.1040761
20
64.4927802
11
62.0590761
21
64.3577802
0
LINE
8
DEFAULT_255_2_778
10
62.0590761
20
64.3577802
11
62.0140761
21
64.2678802
0
LINE
8
DEFAULT_255_2_778
10
62.0140761
20
64.2678802
11
61.9691761
21
64.2228802
0
LINE
8
DEFAULT_255_2_778
10
61.9691761
20
64.2228802
11
61.8791761
21
64.1778802
0
LINE
8
DEFAULT_255_2_778
10
61.8791761
20
64.1778802
11
61.7442761
21
64.1328802
0
LINE
8
DEFAULT_255_2_778
10
61.7442761
20
64.1328802
11
61.3841761
21
64.1328802
0
LINE
8
DEFAULT_255_2_778
10
61.3841761
20
64.1328802
11
61.3841761
21
65.7529802
0
LINE
8
DEFAULT_255_2_778
10
61.3841761
20
65.7529802
11
61.7442761
21
65.7529802
0
LINE
8
DEFAULT_255_2_778
10
61.7442761
20
65.7529802
11
61.8791761
21
65.7079802
0
LINE
8
DEFAULT_255_2_778
10
61.8791761
20
65.7079802
11
61.9691761
21
65.6629802
0
LINE
8
DEFAULT_255_2_778
10
61.9691761
20
65.6629802
11
62.0140761
21
65.6179802
0
LINE
8
DEFAULT_255_2_778
10
62.0140761
20
65.6179802
11
62.0590761
21
65.5280802
0
LINE
8
DEFAULT_255_2_778
10
62.0590761
20
65.5280802
11
62.1040761
21
65.3930802
0
LINE
8
DEFAULT_255_2_778
10
62.1040761
20
65.3930802
11
62.1040761
21
64.4929802
0
LINE
8
DEFAULT_255_2_778
10
62.1040761
20
64.4929802
11
62.0590761
21
64.3580802
0
LINE
8
DEFAULT_255_2_778
10
62.0590761
20
64.3580802
11
62.0140761
21
64.2680802
0
LINE
8
DEFAULT_255_2_778
10
62.0140761
20
64.2680802
11
61.9691761
21
64.2231802
0
LINE
8
DEFAULT_255_2_778
10
61.9691761
20
64.2231802
11
61.8791761
21
64.1781802
0
LINE
8
DEFAULT_255_2_778
10
61.8791761
20
64.1781802
11
61.7442761
21
64.1331802
0
LINE
8
DEFAULT_255_2_778
10
61.7442761
20
64.1331802
11
61.3841761
21
64.1331802
0
LINE
8
DEFAULT_255_2_778
10
61.3841761
20
64.1331802
11
61.3841761
21
65.7531802
0
LINE
8
DEFAULT_255_2_778
10
61.3841761
20
65.7531802
11
61.7442761
21
65.7531802
0
LINE
8
DEFAULT_255_2_778
10
61.7442761
20
65.7531802
11
61.8791761
21
65.7082802
0
LINE
8
DEFAULT_255_2_778
10
61.8791761
20
65.7082802
11
61.9691761
21
65.6632802
0
LINE
8
DEFAULT_255_2_778
10
61.9691761
20
65.6632802
11
62.0140761
21
65.6182802
0
LINE
8
DEFAULT_255_2_778
10
62.0140761
20
65.6182802
11
62.0590761
21
65.5280802
0
LINE
8
DEFAULT_255_2_778
10
62.1490761
20
65.5730802
11
62.1939761
21
65.4380802
0
LINE
8
DEFAULT_255_2_778
10
62.1939761
20
65.4380802
11
62.1939761
21
64.4480802
0
LINE
8
DEFAULT_255_2_778
10
62.1939761
20
64.4480802
11
62.1490761
21
64.3130802
0
LINE
8
DEFAULT_255_2_778
10
62.1490761
20
64.3130802
11
62.0590761
21
64.1781802
0
LINE
8
DEFAULT_255_2_778
10
62.0590761
20
64.1781802
11
61.9241761
21
64.0881802
0
LINE
8
DEFAULT_255_2_778
10
61.9241761
20
64.0881802
11
61.7891761
21
64.0431802
0
LINE
8
DEFAULT_255_2_778
10
61.7891761
20
64.0431802
11
61.2941761
21
64.0431802
0
LINE
8
DEFAULT_255_2_778
10
61.2941761
20
64.0431802
11
61.2941761
21
65.8431802
0
LINE
8
DEFAULT_255_2_778
10
61.2941761
20
65.8431802
11
61.7891761
21
65.8431802
0
LINE
8
DEFAULT_255_2_778
10
61.7891761
20
65.8431802
11
61.9241761
21
65.7981802
0
LINE
8
DEFAULT_255_2_778
10
61.9241761
20
65.7981802
11
62.0590761
21
65.7082802
0
LINE
8
DEFAULT_255_2_778
10
62.0590761
20
65.7082802
11
62.1490761
21
65.5730802
0
LINE
8
DEFAULT_255_2_778
10
63.589156
20
65.3927968
11
63.544156
21
65.5277968
0
LINE
8
DEFAULT_255_2_778
10
63.544156
20
65.5277968
11
63.499156
21
65.6176968
0
LINE
8
DEFAULT_255_2_778
10
63.499156
20
65.6176968
11
63.409256
21
65.7076968
0
LINE
8
DEFAULT_255_2_778
10
63.409256
20
65.7076968
11
63.229356
21
65.7526968
0
LINE
8
DEFAULT_255_2_778
10
63.229356
20
65.7526968
11
63.184356
21
65.7526968
0
LINE
8
DEFAULT_255_2_778
10
63.184356
20
65.7526968
11
63.049356
21
65.7076968
0
LINE
8
DEFAULT_255_2_778
10
63.049356
20
65.7076968
11
62.959456
21
65.6626968
0
LINE
8
DEFAULT_255_2_778
10
62.959456
20
65.6626968
11
62.914456
21
65.6176968
0
LINE
8
DEFAULT_255_2_778
10
62.914456
20
65.6176968
11
62.869456
21
65.5277968
0
LINE
8
DEFAULT_255_2_778
10
62.869456
20
65.5277968
11
62.824556
21
65.3927968
0
LINE
8
DEFAULT_255_2_778
10
62.824556
20
65.3927968
11
62.824556
21
64.4926968
0
LINE
8
DEFAULT_255_2_778
10
62.824556
20
64.4926968
11
62.869456
21
64.3577968
0
LINE
8
DEFAULT_255_2_778
10
62.869456
20
64.3577968
11
62.914456
21
64.2677968
0
LINE
8
DEFAULT_255_2_778
10
62.914456
20
64.2677968
11
62.959456
21
64.2228968
0
LINE
8
DEFAULT_255_2_778
10
62.959456
20
64.2228968
11
63.049356
21
64.1778968
0
LINE
8
DEFAULT_255_2_778
10
63.049356
20
64.1778968
11
63.184356
21
64.1328968
0
LINE
8
DEFAULT_255_2_778
10
63.184356
20
64.1328968
11
63.229356
21
64.1328968
0
LINE
8
DEFAULT_255_2_778
10
63.229356
20
64.1328968
11
63.364256
21
64.1778968
0
LINE
8
DEFAULT_255_2_778
10
63.364256
20
64.1778968
11
63.454256
21
64.2228968
0
LINE
8
DEFAULT_255_2_778
10
63.454256
20
64.2228968
11
63.499156
21
64.2677968
0
LINE
8
DEFAULT_255_2_778
10
63.499156
20
64.2677968
11
63.544156
21
64.3577968
0
LINE
8
DEFAULT_255_2_778
10
63.544156
20
64.3577968
11
63.589156
21
64.4926968
0
LINE
8
DEFAULT_255_2_778
10
63.589156
20
64.4926968
11
63.544156
21
64.3577968
0
LINE
8
DEFAULT_255_2_778
10
63.544156
20
64.3577968
11
63.499156
21
64.2677968
0
LINE
8
DEFAULT_255_2_778
10
63.499156
20
64.2677968
11
63.454256
21
64.2228968
0
LINE
8
DEFAULT_255_2_778
10
63.454256
20
64.2228968
11
63.364256
21
64.1778968
0
LINE
8
DEFAULT_255_2_778
10
63.364256
20
64.1778968
11
63.229356
21
64.1328968
0
LINE
8
DEFAULT_255_2_778
10
63.229356
20
64.1328968
11
63.184356
21
64.1328968
0
LINE
8
DEFAULT_255_2_778
10
63.184356
20
64.1328968
11
63.049356
21
64.1778968
0
LINE
8
DEFAULT_255_2_778
10
63.049356
20
64.1778968
11
62.959456
21
64.2228968
0
LINE
8
DEFAULT_255_2_778
10
62.959456
20
64.2228968
11
62.914456
21
64.2677968
0
LINE
8
DEFAULT_255_2_778
10
62.914456
20
64.2677968
11
62.869456
21
64.3577968
0
LINE
8
DEFAULT_255_2_778
10
62.869456
20
64.3577968
11
62.824556
21
64.4926968
0
LINE
8
DEFAULT_255_2_778
10
62.824556
20
64.4926968
11
62.824556
21
65.3927968
0
LINE
8
DEFAULT_255_2_778
10
62.824556
20
65.3927968
11
62.869456
21
65.5277968
0
LINE
8
DEFAULT_255_2_778
10
62.869456
20
65.5277968
11
62.914456
21
65.6176968
0
LINE
8
DEFAULT_255_2_778
10
62.914456
20
65.6176968
11
62.959456
21
65.6626968
0
LINE
8
DEFAULT_255_2_778
10
62.959456
20
65.6626968
11
63.049356
21
65.7076968
0
LINE
8
DEFAULT_255_2_778
10
63.049356
20
65.7076968
11
63.184356
21
65.7526968
0
LINE
8
DEFAULT_255_2_778
10
63.184356
20
65.7526968
11
63.229356
21
65.7526968
0
LINE
8
DEFAULT_255_2_778
10
63.229356
20
65.7526968
11
63.409256
21
65.7076968
0
LINE
8
DEFAULT_255_2_778
10
63.409256
20
65.7076968
11
63.499156
21
65.6176968
0
LINE
8
DEFAULT_255_2_778
10
63.499156
20
65.6176968
11
63.544156
21
65.5277968
0
LINE
8
DEFAULT_255_2_778
10
63.544156
20
65.5277968
11
63.589156
21
65.3927968
0
LINE
8
DEFAULT_255_2_778
10
63.679056
20
64.4929968
11
63.679056
21
64.4479968
0
LINE
8
DEFAULT_255_2_778
10
63.679056
20
64.4479968
11
63.634156
21
64.3130968
0
LINE
8
DEFAULT_255_2_778
10
63.634156
20
64.3130968
11
63.544156
21
64.1780968
0
LINE
8
DEFAULT_255_2_778
10
63.544156
20
64.1780968
11
63.409256
21
64.0881968
0
LINE
8
DEFAULT_255_2_778
10
63.409256
20
64.0881968
11
63.274256
21
64.0431968
0
LINE
8
DEFAULT_255_2_778
10
63.274256
20
64.0431968
11
63.139356
21
64.0431968
0
LINE
8
DEFAULT_255_2_778
10
63.139356
20
64.0431968
11
63.004456
21
64.0881968
0
LINE
8
DEFAULT_255_2_778
10
63.004456
20
64.0881968
11
62.869456
21
64.1780968
0
LINE
8
DEFAULT_255_2_778
10
62.869456
20
64.1780968
11
62.779556
21
64.3130968
0
LINE
8
DEFAULT_255_2_778
10
62.779556
20
64.3130968
11
62.734556
21
64.4479968
0
LINE
8
DEFAULT_255_2_778
10
62.734556
20
64.4479968
11
62.734556
21
65.4380968
0
LINE
8
DEFAULT_255_2_778
10
62.734556
20
65.4380968
11
62.779556
21
65.5729968
0
LINE
8
DEFAULT_255_2_778
10
62.779556
20
65.5729968
11
62.869456
21
65.7079968
0
LINE
8
DEFAULT_255_2_778
10
62.869456
20
65.7079968
11
63.004456
21
65.7978968
0
LINE
8
DEFAULT_255_2_778
10
63.004456
20
65.7978968
11
63.139356
21
65.8428968
0
LINE
8
DEFAULT_255_2_778
10
63.139356
20
65.8428968
11
63.274256
21
65.8428968
0
LINE
8
DEFAULT_255_2_778
10
63.274256
20
65.8428968
11
63.409256
21
65.7978968
0
LINE
8
DEFAULT_255_2_778
10
63.409256
20
65.7978968
11
63.544156
21
65.7079968
0
LINE
8
DEFAULT_255_2_778
10
63.544156
20
65.7079968
11
63.634156
21
65.5729968
0
LINE
8
DEFAULT_255_2_778
10
63.634156
20
65.5729968
11
63.679056
21
65.4380968
0
LINE
8
DEFAULT_255_2_778
10
63.679056
20
65.4380968
11
63.679056
21
65.3930968
0
LINE
8
DEFAULT_255_2_778
10
64.272556
20
64.2389968
11
65.172656
21
65.9489968
0
LINE
8
DEFAULT_255_2_778
10
64.317556
20
64.1489968
11
65.217656
21
65.8589968
0
ARC
8
DEFAULT_255_2_778
10
12.9451894
20
80.8532441
40
2.0085923
50
156.5693287
51
180.0982465
0
ARC
8
DEFAULT_255_2_778
10
12.9386759
20
80.8539277
40
2.0023451
50
100.1984339
51
156.5131642
0
ARC
8
DEFAULT_255_2_778
10
12.9421817
20
80.822629
40
2.0337712
50
89.9713109
51
100.1395175
0
ARC
8
DEFAULT_255_2_778
10
12.9466442
20
80.8478106
40
2.0085923
50
66.5693287
51
90.0982465
0
ARC
8
DEFAULT_255_2_778
10
12.9473278
20
80.8543241
40
2.0023451
50
10.1984339
51
66.5131642
0
ARC
8
DEFAULT_255_2_778
10
12.9160291
20
80.8508183
40
2.0337712
50
359.9713109
51
10.1395175
0
ARC
8
DEFAULT_255_2_778
10
12.9412107
20
80.8463558
40
2.0085923
50
336.5693287
51
0.0982465
0
ARC
8
DEFAULT_255_2_778
10
12.9477242
20
80.8456722
40
2.0023451
50
280.1984339
51
336.5131642
0
ARC
8
DEFAULT_255_2_778
10
12.9442184
20
80.8769709
40
2.0337712
50
269.9713109
51
280.1395175
0
ARC
8
DEFAULT_255_2_778
10
12.9397559
20
80.8517893
40
2.0085923
50
246.5693287
51
270.0982465
0
ARC
8
DEFAULT_255_2_778
10
12.9390723
20
80.8452758
40
2.0023451
50
190.1984339
51
246.5131642
0
ARC
8
DEFAULT_255_2_778
10
12.970371
20
80.8487816
40
2.0337712
50
179.9713109
51
190.1395175
0
LINE
8
DEFAULT_255_2_778
10
10.9366001
20
80.8497999
11
10.9366001
21
80.8497999
0
ARC
8
DEFAULT_255_2_778
10
7.8651894
20
80.8532441
40
2.0085923
50
156.5693287
51
180.0982465
0
ARC
8
DEFAULT_255_2_778
10
7.8586759
20
80.8539277
40
2.0023451
50
100.1984339
51
156.5131642
0
ARC
8
DEFAULT_255_2_778
10
7.8621817
20
80.822629
40
2.0337712
50
89.9713109
51
100.1395175
0
ARC
8
DEFAULT_255_2_778
10
7.86666
20
80.8476821
40
2.0087208
50
66.5700845
51
90.0986899
0
ARC
8
DEFAULT_255_2_778
10
7.8674139
20
80.8544107
40
2.0022483
50
10.1964141
51
66.5133195
0
ARC
8
DEFAULT_255_2_778
10
7.8358269
20
80.8508183
40
2.0339734
50
359.9713149
51
10.1385001
0
ARC
8
DEFAULT_255_2_778
10
7.8610829
20
80.8463481
40
2.0087201
50
336.5711449
51
0.098458
0
ARC
8
DEFAULT_255_2_778
10
7.8678215
20
80.8455643
40
2.0022264
50
280.1969768
51
336.5150524
0
ARC
8
DEFAULT_255_2_778
10
7.8642217
20
80.8772292
40
2.0340295
50
269.9712226
51
280.1388726
0
ARC
8
DEFAULT_255_2_778
10
7.8597559
20
80.8517893
40
2.0085923
50
246.5693287
51
270.0982465
0
ARC
8
DEFAULT_255_2_778
10
7.8590723
20
80.8452758
40
2.0023451
50
190.1984339
51
246.5131642
0
ARC
8
DEFAULT_255_2_778
10
7.890371
20
80.8487816
40
2.0337712
50
179.9713109
51
190.1395175
0
LINE
8
DEFAULT_255_2_778
10
5.8566001
20
80.8497999
11
5.8566001
21
80.8497999
0
ARC
8
DEFAULT_255_2_778
10
23.1051894
20
80.8532441
40
2.0085923
50
156.5693287
51
180.0982465
0
ARC
8
DEFAULT_255_2_778
10
23.0986759
20
80.8539277
40
2.0023451
50
100.1984339
51
156.5131642
0
ARC
8
DEFAULT_255_2_778
10
23.1021817
20
80.822629
40
2.0337712
50
89.9713109
51
100.1395175
0
ARC
8
DEFAULT_255_2_778
10
23.10666
20
80.8476821
40
2.0087208
50
66.5700845
51
90.0986899
0
ARC
8
DEFAULT_255_2_778
10
23.1074139
20
80.8544107
40
2.0022483
50
10.1964141
51
66.5133195
0
ARC
8
DEFAULT_255_2_778
10
23.0758269
20
80.8508183
40
2.0339734
50
359.9713149
51
10.1385001
0
ARC
8
DEFAULT_255_2_778
10
23.1010829
20
80.8463481
40
2.0087201
50
336.5711449
51
0.098458
0
ARC
8
DEFAULT_255_2_778
10
23.1078215
20
80.8455643
40
2.0022264
50
280.1969768
51
336.5150524
0
ARC
8
DEFAULT_255_2_778
10
23.1042217
20
80.8772292
40
2.0340295
50
269.9712226
51
280.1388726
0
ARC
8
DEFAULT_255_2_778
10
23.0997559
20
80.8517893
40
2.0085923
50
246.5693287
51
270.0982465
0
ARC
8
DEFAULT_255_2_778
10
23.0990723
20
80.8452758
40
2.0023451
50
190.1984339
51
246.5131642
0
ARC
8
DEFAULT_255_2_778
10
23.130371
20
80.8487816
40
2.0337712
50
179.9713109
51
190.1395175
0
LINE
8
DEFAULT_255_2_778
10
21.0966001
20
80.8497999
11
21.0966001
21
80.8497999
0
ARC
8
DEFAULT_255_2_778
10
18.0253172
20
80.8532518
40
2.0087201
50
156.5711449
51
180.098458
0
ARC
8
DEFAULT_255_2_778
10
18.0185786
20
80.8540356
40
2.0022264
50
100.1969768
51
156.5150524
0
ARC
8
DEFAULT_255_2_778
10
18.0221784
20
80.8223707
40
2.0340295
50
89.9712226
51
100.1388726
0
ARC
8
DEFAULT_255_2_778
10
18.0266442
20
80.8478106
40
2.0085923
50
66.5693287
51
90.0982465
0
ARC
8
DEFAULT_255_2_778
10
18.0273278
20
80.8543241
40
2.0023451
50
10.1984339
51
66.5131642
0
ARC
8
DEFAULT_255_2_778
10
17.9960291
20
80.8508183
40
2.0337712
50
359.9713109
51
10.1395175
0
ARC
8
DEFAULT_255_2_778
10
18.0212107
20
80.8463558
40
2.0085923
50
336.5693287
51
0.0982465
0
ARC
8
DEFAULT_255_2_778
10
18.0277242
20
80.8456722
40
2.0023451
50
280.1984339
51
336.5131642
0
ARC
8
DEFAULT_255_2_778
10
18.0242184
20
80.8769709
40
2.0337712
50
269.9713109
51
280.1395175
0
ARC
8
DEFAULT_255_2_778
10
18.0197401
20
80.8519178
40
2.0087208
50
246.5700845
51
270.0986899
0
ARC
8
DEFAULT_255_2_778
10
18.0189862
20
80.8451892
40
2.0022483
50
190.1964141
51
246.5133195
0
ARC
8
DEFAULT_255_2_778
10
18.0505732
20
80.8487816
40
2.0339734
50
179.9713149
51
190.1385001
0
LINE
8
DEFAULT_255_2_778
10
16.0166001
20
80.8497999
11
16.0166001
21
80.8497999
0
ARC
8
DEFAULT_255_2_778
10
33.2651894
20
80.8532441
40
2.0085923
50
156.5693287
51
180.0982465
0
ARC
8
DEFAULT_255_2_778
10
33.2586759
20
80.8539277
40
2.0023451
50
100.1984339
51
156.5131642
0
ARC
8
DEFAULT_255_2_778
10
33.2621817
20
80.822629
40
2.0337712
50
89.9713109
51
100.1395175
0
ARC
8
DEFAULT_255_2_778
10
33.2666442
20
80.8478106
40
2.0085923
50
66.5693287
51
90.0982465
0
ARC
8
DEFAULT_255_2_778
10
33.2673278
20
80.8543241
40
2.0023451
50
10.1984339
51
66.5131642
0
ARC
8
DEFAULT_255_2_778
10
33.2360291
20
80.8508183
40
2.0337712
50
359.9713109
51
10.1395175
0
ARC
8
DEFAULT_255_2_778
10
33.2612107
20
80.8463558
40
2.0085923
50
336.5693287
51
0.0982465
0
ARC
8
DEFAULT_255_2_778
10
33.2677242
20
80.8456722
40
2.0023451
50
280.1984339
51
336.5131642
0
ARC
8
DEFAULT_255_2_778
10
33.2642184
20
80.8769709
40
2.0337712
50
269.9713109
51
280.1395175
0
ARC
8
DEFAULT_255_2_778
10
33.2597559
20
80.8517893
40
2.0085923
50
246.5693287
51
270.0982465
0
ARC
8
DEFAULT_255_2_778
10
33.2590723
20
80.8452758
40
2.0023451
50
190.1984339
51
246.5131642
0
ARC
8
DEFAULT_255_2_778
10
33.290371
20
80.8487816
40
2.0337712
50
179.9713109
51
190.1395175
0
LINE
8
DEFAULT_255_2_778
10
31.2566001
20
80.8497999
11
31.2566001
21
80.8497999
0
ARC
8
DEFAULT_255_2_778
10
28.1853172
20
80.8532518
40
2.0087201
50
156.5711449
51
180.098458
0
ARC
8
DEFAULT_255_2_778
10
28.1785786
20
80.8540356
40
2.0022264
50
100.1969768
51
156.5150524
0
ARC
8
DEFAULT_255_2_778
10
28.1821784
20
80.8223707
40
2.0340295
50
89.9712226
51
100.1388726
0
ARC
8
DEFAULT_255_2_778
10
28.1866442
20
80.8478106
40
2.0085923
50
66.5693287
51
90.0982465
0
ARC
8
DEFAULT_255_2_778
10
28.1873278
20
80.8543241
40
2.0023451
50
10.1984339
51
66.5131642
0
ARC
8
DEFAULT_255_2_778
10
28.1560291
20
80.8508183
40
2.0337712
50
359.9713109
51
10.1395175
0
ARC
8
DEFAULT_255_2_778
10
28.1812107
20
80.8463558
40
2.0085923
50
336.5693287
51
0.0982465
0
ARC
8
DEFAULT_255_2_778
10
28.1877242
20
80.8456722
40
2.0023451
50
280.1984339
51
336.5131642
0
ARC
8
DEFAULT_255_2_778
10
28.1842184
20
80.8769709
40
2.0337712
50
269.9713109
51
280.1395175
0
ARC
8
DEFAULT_255_2_778
10
28.1797401
20
80.8519178
40
2.0087208
50
246.5700845
51
270.0986899
0
ARC
8
DEFAULT_255_2_778
10
28.1789862
20
80.8451892
40
2.0022483
50
190.1964141
51
246.5133195
0
ARC
8
DEFAULT_255_2_778
10
28.2105732
20
80.8487816
40
2.0339734
50
179.9713149
51
190.1385001
0
LINE
8
DEFAULT_255_2_778
10
26.1766001
20
80.8497999
11
26.1766001
21
80.8497999
0
ARC
8
DEFAULT_255_2_778
10
43.4253172
20
80.8532518
40
2.0087201
50
156.5711449
51
180.098458
0
ARC
8
DEFAULT_255_2_778
10
43.4185786
20
80.8540356
40
2.0022264
50
100.1969768
51
156.5150524
0
ARC
8
DEFAULT_255_2_778
10
43.4221784
20
80.8223707
40
2.0340295
50
89.9712226
51
100.1388726
0
ARC
8
DEFAULT_255_2_778
10
43.4266442
20
80.8478106
40
2.0085923
50
66.5693287
51
90.0982465
0
ARC
8
DEFAULT_255_2_778
10
43.4273278
20
80.8543241
40
2.0023451
50
10.1984339
51
66.5131642
0
ARC
8
DEFAULT_255_2_778
10
43.3960291
20
80.8508183
40
2.0337712
50
359.9713109
51
10.1395175
0
ARC
8
DEFAULT_255_2_778
10
43.4212107
20
80.8463558
40
2.0085923
50
336.5693287
51
0.0982465
0
ARC
8
DEFAULT_255_2_778
10
43.4277242
20
80.8456722
40
2.0023451
50
280.1984339
51
336.5131642
0
ARC
8
DEFAULT_255_2_778
10
43.4242184
20
80.8769709
40
2.0337712
50
269.9713109
51
280.1395175
0
ARC
8
DEFAULT_255_2_778
10
43.4197401
20
80.8519178
40
2.0087208
50
246.5700845
51
270.0986899
0
ARC
8
DEFAULT_255_2_778
10
43.4189862
20
80.8451892
40
2.0022483
50
190.1964141
51
246.5133195
0
ARC
8
DEFAULT_255_2_778
10
43.4505732
20
80.8487816
40
2.0339734
50
179.9713149
51
190.1385001
0
LINE
8
DEFAULT_255_2_778
10
41.4166001
20
80.8497999
11
41.4166001
21
80.8497999
0
ARC
8
DEFAULT_255_2_778
10
38.3453172
20
80.8532518
40
2.0087201
50
156.5711449
51
180.098458
0
ARC
8
DEFAULT_255_2_778
10
38.3385786
20
80.8540356
40
2.0022264
50
100.1969768
51
156.5150524
0
ARC
8
DEFAULT_255_2_778
10
38.3421784
20
80.8223707
40
2.0340295
50
89.9712226
51
100.1388726
0
ARC
8
DEFAULT_255_2_778
10
38.3466442
20
80.8478106
40
2.0085923
50
66.5693287
51
90.0982465
0
ARC
8
DEFAULT_255_2_778
10
38.3473278
20
80.8543241
40
2.0023451
50
10.1984339
51
66.5131642
0
ARC
8
DEFAULT_255_2_778
10
38.3160291
20
80.8508183
40
2.0337712
50
359.9713109
51
10.1395175
0
ARC
8
DEFAULT_255_2_778
10
38.3412107
20
80.8463558
40
2.0085923
50
336.5693287
51
0.0982465
0
ARC
8
DEFAULT_255_2_778
10
38.3477242
20
80.8456722
40
2.0023451
50
280.1984339
51
336.5131642
0
ARC
8
DEFAULT_255_2_778
10
38.3442184
20
80.8769709
40
2.0337712
50
269.9713109
51
280.1395175
0
ARC
8
DEFAULT_255_2_778
10
38.3397401
20
80.8519178
40
2.0087208
50
246.5700845
51
270.0986899
0
ARC
8
DEFAULT_255_2_778
10
38.3389862
20
80.8451892
40
2.0022483
50
190.1964141
51
246.5133195
0
ARC
8
DEFAULT_255_2_778
10
38.3705732
20
80.8487816
40
2.0339734
50
179.9713149
51
190.1385001
0
LINE
8
DEFAULT_255_2_778
10
36.3366001
20
80.8497999
11
36.3366001
21
80.8497999
0
ARC
8
DEFAULT_255_2_778
10
53.5853172
20
80.8532518
40
2.0087201
50
156.5711449
51
180.098458
0
ARC
8
DEFAULT_255_2_778
10
53.5785786
20
80.8540356
40
2.0022264
50
100.1969768
51
156.5150524
0
ARC
8
DEFAULT_255_2_778
10
53.5821784
20
80.8223707
40
2.0340295
50
89.9712226
51
100.1388726
0
ARC
8
DEFAULT_255_2_778
10
53.5866442
20
80.8478106
40
2.0085923
50
66.5693287
51
90.0982465
0
ARC
8
DEFAULT_255_2_778
10
53.5873278
20
80.8543241
40
2.0023451
50
10.1984339
51
66.5131642
0
ARC
8
DEFAULT_255_2_778
10
53.5560291
20
80.8508183
40
2.0337712
50
359.9713109
51
10.1395175
0
ARC
8
DEFAULT_255_2_778
10
53.5812107
20
80.8463558
40
2.0085923
50
336.5693287
51
0.0982465
0
ARC
8
DEFAULT_255_2_778
10
53.5877242
20
80.8456722
40
2.0023451
50
280.1984339
51
336.5131642
0
ARC
8
DEFAULT_255_2_778
10
53.5842184
20
80.8769709
40
2.0337712
50
269.9713109
51
280.1395175
0
ARC
8
DEFAULT_255_2_778
10
53.5797401
20
80.8519178
40
2.0087208
50
246.5700845
51
270.0986899
0
ARC
8
DEFAULT_255_2_778
10
53.5789862
20
80.8451892
40
2.0022483
50
190.1964141
51
246.5133195
0
ARC
8
DEFAULT_255_2_778
10
53.6105732
20
80.8487816
40
2.0339734
50
179.9713149
51
190.1385001
0
LINE
8
DEFAULT_255_2_778
10
51.5766001
20
80.8497999
11
51.5766001
21
80.8497999
0
ARC
8
DEFAULT_255_2_778
10
48.5053172
20
80.8532518
40
2.0087201
50
156.5711449
51
180.098458
0
ARC
8
DEFAULT_255_2_778
10
48.4985786
20
80.8540356
40
2.0022264
50
100.1969768
51
156.5150524
0
ARC
8
DEFAULT_255_2_778
10
48.5021784
20
80.8223707
40
2.0340295
50
89.9712226
51
100.1388726
0
ARC
8
DEFAULT_255_2_778
10
48.5066442
20
80.8478106
40
2.0085923
50
66.5693287
51
90.0982465
0
ARC
8
DEFAULT_255_2_778
10
48.5073278
20
80.8543241
40
2.0023451
50
10.1984339
51
66.5131642
0
ARC
8
DEFAULT_255_2_778
10
48.4760291
20
80.8508183
40
2.0337712
50
359.9713109
51
10.1395175
0
ARC
8
DEFAULT_255_2_778
10
48.5012107
20
80.8463558
40
2.0085923
50
336.5693287
51
0.0982465
0
ARC
8
DEFAULT_255_2_778
10
48.5077242
20
80.8456722
40
2.0023451
50
280.1984339
51
336.5131642
0
ARC
8
DEFAULT_255_2_778
10
48.5042184
20
80.8769709
40
2.0337712
50
269.9713109
51
280.1395175
0
ARC
8
DEFAULT_255_2_778
10
48.4997401
20
80.8519178
40
2.0087208
50
246.5700845
51
270.0986899
0
ARC
8
DEFAULT_255_2_778
10
48.4989862
20
80.8451892
40
2.0022483
50
190.1964141
51
246.5133195
0
ARC
8
DEFAULT_255_2_778
10
48.5305732
20
80.8487816
40
2.0339734
50
179.9713149
51
190.1385001
0
LINE
8
DEFAULT_255_2_778
10
46.4966001
20
80.8497999
11
46.4966001
21
80.8497999
0
ARC
8
DEFAULT_255_2_778
10
63.7453172
20
80.8532518
40
2.0087201
50
156.5711449
51
180.098458
0
ARC
8
DEFAULT_255_2_778
10
63.7385786
20
80.8540356
40
2.0022264
50
100.1969768
51
156.5150524
0
ARC
8
DEFAULT_255_2_778
10
63.7421784
20
80.8223707
40
2.0340295
50
89.9712226
51
100.1388726
0
ARC
8
DEFAULT_255_2_778
10
63.7466442
20
80.8478106
40
2.0085923
50
66.5693287
51
90.0982465
0
ARC
8
DEFAULT_255_2_778
10
63.7473278
20
80.8543241
40
2.0023451
50
10.1984339
51
66.5131642
0
ARC
8
DEFAULT_255_2_778
10
63.7160291
20
80.8508183
40
2.0337712
50
359.9713109
51
10.1395175
0
ARC
8
DEFAULT_255_2_778
10
63.7412107
20
80.8463558
40
2.0085923
50
336.5693287
51
0.0982465
0
ARC
8
DEFAULT_255_2_778
10
63.7477242
20
80.8456722
40
2.0023451
50
280.1984339
51
336.5131642
0
ARC
8
DEFAULT_255_2_778
10
63.7442184
20
80.8769709
40
2.0337712
50
269.9713109
51
280.1395175
0
ARC
8
DEFAULT_255_2_778
10
63.7397401
20
80.8519178
40
2.0087208
50
246.5700845
51
270.0986899
0
ARC
8
DEFAULT_255_2_778
10
63.7389862
20
80.8451892
40
2.0022483
50
190.1964141
51
246.5133195
0
ARC
8
DEFAULT_255_2_778
10
63.7705732
20
80.8487816
40
2.0339734
50
179.9713149
51
190.1385001
0
LINE
8
DEFAULT_255_2_778
10
61.7366001
20
80.8497999
11
61.7366001
21
80.8497999
0
ARC
8
DEFAULT_255_2_778
10
58.6653172
20
80.8532518
40
2.0087201
50
156.5711449
51
180.098458
0
ARC
8
DEFAULT_255_2_778
10
58.6585786
20
80.8540356
40
2.0022264
50
100.1969768
51
156.5150524
0
ARC
8
DEFAULT_255_2_778
10
58.6621784
20
80.8223707
40
2.0340295
50
89.9712226
51
100.1388726
0
ARC
8
DEFAULT_255_2_778
10
58.6666442
20
80.8478106
40
2.0085923
50
66.5693287
51
90.0982465
0
ARC
8
DEFAULT_255_2_778
10
58.6673278
20
80.8543241
40
2.0023451
50
10.1984339
51
66.5131642
0
ARC
8
DEFAULT_255_2_778
10
58.6360291
20
80.8508183
40
2.0337712
50
359.9713109
51
10.1395175
0
ARC
8
DEFAULT_255_2_778
10
58.6612107
20
80.8463558
40
2.0085923
50
336.5693287
51
0.0982465
0
ARC
8
DEFAULT_255_2_778
10
58.6677242
20
80.8456722
40
2.0023451
50
280.1984339
51
336.5131642
0
ARC
8
DEFAULT_255_2_778
10
58.6642184
20
80.8769709
40
2.0337712
50
269.9713109
51
280.1395175
0
ARC
8
DEFAULT_255_2_778
10
58.6597401
20
80.8519178
40
2.0087208
50
246.5700845
51
270.0986899
0
ARC
8
DEFAULT_255_2_778
10
58.6589862
20
80.8451892
40
2.0022483
50
190.1964141
51
246.5133195
0
ARC
8
DEFAULT_255_2_778
10
58.6905732
20
80.8487816
40
2.0339734
50
179.9713149
51
190.1385001
0
LINE
8
DEFAULT_255_2_778
10
56.6566001
20
80.8497999
11
56.6566001
21
80.8497999
0
ARC
8
DEFAULT_255_2_778
10
12.9410829
20
15.0738481
40
2.0087201
50
336.5711449
51
0.098458
0
ARC
8
DEFAULT_255_2_778
10
12.9478215
20
15.0730643
40
2.0022264
50
280.1969768
51
336.5150524
0
ARC
8
DEFAULT_255_2_778
10
12.9442217
20
15.1047292
40
2.0340295
50
269.9712226
51
280.1388726
0
ARC
8
DEFAULT_255_2_778
10
12.9397559
20
15.0792893
40
2.0085923
50
246.5693287
51
270.0982465
0
ARC
8
DEFAULT_255_2_778
10
12.9390723
20
15.0727758
40
2.0023451
50
190.1984339
51
246.5131642
0
ARC
8
DEFAULT_255_2_778
10
12.970371
20
15.0762816
40
2.0337712
50
179.9713109
51
190.1395175
0
ARC
8
DEFAULT_255_2_778
10
12.9451894
20
15.0807441
40
2.0085923
50
156.5693287
51
180.0982465
0
ARC
8
DEFAULT_255_2_778
10
12.9386759
20
15.0814277
40
2.0023451
50
100.1984339
51
156.5131642
0
ARC
8
DEFAULT_255_2_778
10
12.9421817
20
15.050129
40
2.0337712
50
89.9713109
51
100.1395175
0
ARC
8
DEFAULT_255_2_778
10
12.94666
20
15.0751821
40
2.0087208
50
66.5700845
51
90.0986899
0
ARC
8
DEFAULT_255_2_778
10
12.9474139
20
15.0819107
40
2.0022483
50
10.1964141
51
66.5133195
0
ARC
8
DEFAULT_255_2_778
10
12.9158269
20
15.0783183
40
2.0339734
50
359.9713149
51
10.1385001
0
LINE
8
DEFAULT_255_2_778
10
14.9498001
20
15.0772999
11
14.9498001
21
15.0772999
0
ARC
8
DEFAULT_255_2_778
10
7.8610829
20
15.0738481
40
2.0087201
50
336.5711449
51
0.098458
0
ARC
8
DEFAULT_255_2_778
10
7.8678215
20
15.0730643
40
2.0022264
50
280.1969768
51
336.5150524
0
ARC
8
DEFAULT_255_2_778
10
7.8642217
20
15.1047292
40
2.0340295
50
269.9712226
51
280.1388726
0
ARC
8
DEFAULT_255_2_778
10
7.8597559
20
15.0792893
40
2.0085923
50
246.5693287
51
270.0982465
0
ARC
8
DEFAULT_255_2_778
10
7.8590723
20
15.0727758
40
2.0023451
50
190.1984339
51
246.5131642
0
ARC
8
DEFAULT_255_2_778
10
7.890371
20
15.0762816
40
2.0337712
50
179.9713109
51
190.1395175
0
ARC
8
DEFAULT_255_2_778
10
7.8651894
20
15.0807441
40
2.0085923
50
156.5693287
51
180.0982465
0
ARC
8
DEFAULT_255_2_778
10
7.8586759
20
15.0814277
40
2.0023451
50
100.1984339
51
156.5131642
0
ARC
8
DEFAULT_255_2_778
10
7.8621817
20
15.050129
40
2.0337712
50
89.9713109
51
100.1395175
0
ARC
8
DEFAULT_255_2_778
10
7.86666
20
15.0751821
40
2.0087208
50
66.5700845
51
90.0986899
0
ARC
8
DEFAULT_255_2_778
10
7.8674139
20
15.0819107
40
2.0022483
50
10.1964141
51
66.5133195
0
ARC
8
DEFAULT_255_2_778
10
7.8358269
20
15.0783183
40
2.0339734
50
359.9713149
51
10.1385001
0
LINE
8
DEFAULT_255_2_778
10
9.8698001
20
15.0772999
11
9.8698001
21
15.0772999
0
ARC
8
DEFAULT_255_2_778
10
23.1010829
20
15.0738481
40
2.0087201
50
336.5711449
51
0.098458
0
ARC
8
DEFAULT_255_2_778
10
23.1078215
20
15.0730643
40
2.0022264
50
280.1969768
51
336.5150524
0
ARC
8
DEFAULT_255_2_778
10
23.1042217
20
15.1047292
40
2.0340295
50
269.9712226
51
280.1388726
0
ARC
8
DEFAULT_255_2_778
10
23.0997559
20
15.0792893
40
2.0085923
50
246.5693287
51
270.0982465
0
ARC
8
DEFAULT_255_2_778
10
23.0990723
20
15.0727758
40
2.0023451
50
190.1984339
51
246.5131642
0
ARC
8
DEFAULT_255_2_778
10
23.130371
20
15.0762816
40
2.0337712
50
179.9713109
51
190.1395175
0
ARC
8
DEFAULT_255_2_778
10
23.1051894
20
15.0807441
40
2.0085923
50
156.5693287
51
180.0982465
0
ARC
8
DEFAULT_255_2_778
10
23.0986759
20
15.0814277
40
2.0023451
50
100.1984339
51
156.5131642
0
ARC
8
DEFAULT_255_2_778
10
23.1021817
20
15.050129
40
2.0337712
50
89.9713109
51
100.1395175
0
ARC
8
DEFAULT_255_2_778
10
23.10666
20
15.0751821
40
2.0087208
50
66.5700845
51
90.0986899
0
ARC
8
DEFAULT_255_2_778
10
23.1074139
20
15.0819107
40
2.0022483
50
10.1964141
51
66.5133195
0
ARC
8
DEFAULT_255_2_778
10
23.0758269
20
15.0783183
40
2.0339734
50
359.9713149
51
10.1385001
0
LINE
8
DEFAULT_255_2_778
10
25.1098001
20
15.0772999
11
25.1098001
21
15.0772999
0
ARC
8
DEFAULT_255_2_778
10
18.0212107
20
15.0738558
40
2.0085923
50
336.5693287
51
0.0982465
0
ARC
8
DEFAULT_255_2_778
10
18.0277242
20
15.0731722
40
2.0023451
50
280.1984339
51
336.5131642
0
ARC
8
DEFAULT_255_2_778
10
18.0242184
20
15.1044709
40
2.0337712
50
269.9713109
51
280.1395175
0
ARC
8
DEFAULT_255_2_778
10
18.0197401
20
15.0794178
40
2.0087208
50
246.5700845
51
270.0986899
0
ARC
8
DEFAULT_255_2_778
10
18.0189862
20
15.0726892
40
2.0022483
50
190.1964141
51
246.5133195
0
ARC
8
DEFAULT_255_2_778
10
18.0505732
20
15.0762816
40
2.0339734
50
179.9713149
51
190.1385001
0
ARC
8
DEFAULT_255_2_778
10
18.0253172
20
15.0807518
40
2.0087201
50
156.5711449
51
180.098458
0
ARC
8
DEFAULT_255_2_778
10
18.0185786
20
15.0815356
40
2.0022264
50
100.1969768
51
156.5150524
0
ARC
8
DEFAULT_255_2_778
10
18.0221784
20
15.0498707
40
2.0340295
50
89.9712226
51
100.1388726
0
ARC
8
DEFAULT_255_2_778
10
18.0266442
20
15.0753106
40
2.0085923
50
66.5693287
51
90.0982465
0
ARC
8
DEFAULT_255_2_778
10
18.0273278
20
15.0818241
40
2.0023451
50
10.1984339
51
66.5131642
0
ARC
8
DEFAULT_255_2_778
10
17.9960291
20
15.0783183
40
2.0337712
50
359.9713109
51
10.1395175
0
LINE
8
DEFAULT_255_2_778
10
20.0298001
20
15.0772999
11
20.0298001
21
15.0772999
0
ARC
8
DEFAULT_255_2_778
10
33.2612107
20
15.0738558
40
2.0085923
50
336.5693287
51
0.0982465
0
ARC
8
DEFAULT_255_2_778
10
33.2677242
20
15.0731722
40
2.0023451
50
280.1984339
51
336.5131642
0
ARC
8
DEFAULT_255_2_778
10
33.2642184
20
15.1044709
40
2.0337712
50
269.9713109
51
280.1395175
0
ARC
8
DEFAULT_255_2_778
10
33.2597559
20
15.0792893
40
2.0085923
50
246.5693287
51
270.0982465
0
ARC
8
DEFAULT_255_2_778
10
33.2590723
20
15.0727758
40
2.0023451
50
190.1984339
51
246.5131642
0
ARC
8
DEFAULT_255_2_778
10
33.290371
20
15.0762816
40
2.0337712
50
179.9713109
51
190.1395175
0
ARC
8
DEFAULT_255_2_778
10
33.2651894
20
15.0807441
40
2.0085923
50
156.5693287
51
180.0982465
0
ARC
8
DEFAULT_255_2_778
10
33.2586759
20
15.0814277
40
2.0023451
50
100.1984339
51
156.5131642
0
ARC
8
DEFAULT_255_2_778
10
33.2621817
20
15.050129
40
2.0337712
50
89.9713109
51
100.1395175
0
ARC
8
DEFAULT_255_2_778
10
33.2666442
20
15.0753106
40
2.0085923
50
66.5693287
51
90.0982465
0
ARC
8
DEFAULT_255_2_778
10
33.2673278
20
15.0818241
40
2.0023451
50
10.1984339
51
66.5131642
0
ARC
8
DEFAULT_255_2_778
10
33.2360291
20
15.0783183
40
2.0337712
50
359.9713109
51
10.1395175
0
LINE
8
DEFAULT_255_2_778
10
35.2698001
20
15.0772999
11
35.2698001
21
15.0772999
0
ARC
8
DEFAULT_255_2_778
10
28.1812107
20
15.0738558
40
2.0085923
50
336.5693287
51
0.0982465
0
ARC
8
DEFAULT_255_2_778
10
28.1877242
20
15.0731722
40
2.0023451
50
280.1984339
51
336.5131642
0
ARC
8
DEFAULT_255_2_778
10
28.1842184
20
15.1044709
40
2.0337712
50
269.9713109
51
280.1395175
0
ARC
8
DEFAULT_255_2_778
10
28.1797401
20
15.0794178
40
2.0087208
50
246.5700845
51
270.0986899
0
ARC
8
DEFAULT_255_2_778
10
28.1789862
20
15.0726892
40
2.0022483
50
190.1964141
51
246.5133195
0
ARC
8
DEFAULT_255_2_778
10
28.2105732
20
15.0762816
40
2.0339734
50
179.9713149
51
190.1385001
0
ARC
8
DEFAULT_255_2_778
10
28.1853172
20
15.0807518
40
2.0087201
50
156.5711449
51
180.098458
0
ARC
8
DEFAULT_255_2_778
10
28.1785786
20
15.0815356
40
2.0022264
50
100.1969768
51
156.5150524
0
ARC
8
DEFAULT_255_2_778
10
28.1821784
20
15.0498707
40
2.0340295
50
89.9712226
51
100.1388726
0
ARC
8
DEFAULT_255_2_778
10
28.1866442
20
15.0753106
40
2.0085923
50
66.5693287
51
90.0982465
0
ARC
8
DEFAULT_255_2_778
10
28.1873278
20
15.0818241
40
2.0023451
50
10.1984339
51
66.5131642
0
ARC
8
DEFAULT_255_2_778
10
28.1560291
20
15.0783183
40
2.0337712
50
359.9713109
51
10.1395175
0
LINE
8
DEFAULT_255_2_778
10
30.1898001
20
15.0772999
11
30.1898001
21
15.0772999
0
ARC
8
DEFAULT_255_2_778
10
43.4212107
20
15.0738558
40
2.0085923
50
336.5693287
51
0.0982465
0
ARC
8
DEFAULT_255_2_778
10
43.4277242
20
15.0731722
40
2.0023451
50
280.1984339
51
336.5131642
0
ARC
8
DEFAULT_255_2_778
10
43.4242184
20
15.1044709
40
2.0337712
50
269.9713109
51
280.1395175
0
ARC
8
DEFAULT_255_2_778
10
43.4197401
20
15.0794178
40
2.0087208
50
246.5700845
51
270.0986899
0
ARC
8
DEFAULT_255_2_778
10
43.4189862
20
15.0726892
40
2.0022483
50
190.1964141
51
246.5133195
0
ARC
8
DEFAULT_255_2_778
10
43.4505732
20
15.0762816
40
2.0339734
50
179.9713149
51
190.1385001
0
ARC
8
DEFAULT_255_2_778
10
43.4253172
20
15.0807518
40
2.0087201
50
156.5711449
51
180.098458
0
ARC
8
DEFAULT_255_2_778
10
43.4185786
20
15.0815356
40
2.0022264
50
100.1969768
51
156.5150524
0
ARC
8
DEFAULT_255_2_778
10
43.4221784
20
15.0498707
40
2.0340295
50
89.9712226
51
100.1388726
0
ARC
8
DEFAULT_255_2_778
10
43.4266442
20
15.0753106
40
2.0085923
50
66.5693287
51
90.0982465
0
ARC
8
DEFAULT_255_2_778
10
43.4273278
20
15.0818241
40
2.0023451
50
10.1984339
51
66.5131642
0
ARC
8
DEFAULT_255_2_778
10
43.3960291
20
15.0783183
40
2.0337712
50
359.9713109
51
10.1395175
0
LINE
8
DEFAULT_255_2_778
10
45.4298001
20
15.0772999
11
45.4298001
21
15.0772999
0
ARC
8
DEFAULT_255_2_778
10
38.3412107
20
15.0738558
40
2.0085923
50
336.5693287
51
0.0982465
0
ARC
8
DEFAULT_255_2_778
10
38.3477242
20
15.0731722
40
2.0023451
50
280.1984339
51
336.5131642
0
ARC
8
DEFAULT_255_2_778
10
38.3442184
20
15.1044709
40
2.0337712
50
269.9713109
51
280.1395175
0
ARC
8
DEFAULT_255_2_778
10
38.3397401
20
15.0794178
40
2.0087208
50
246.5700845
51
270.0986899
0
ARC
8
DEFAULT_255_2_778
10
38.3389862
20
15.0726892
40
2.0022483
50
190.1964141
51
246.5133195
0
ARC
8
DEFAULT_255_2_778
10
38.3705732
20
15.0762816
40
2.0339734
50
179.9713149
51
190.1385001
0
ARC
8
DEFAULT_255_2_778
10
38.3453172
20
15.0807518
40
2.0087201
50
156.5711449
51
180.098458
0
ARC
8
DEFAULT_255_2_778
10
38.3385786
20
15.0815356
40
2.0022264
50
100.1969768
51
156.5150524
0
ARC
8
DEFAULT_255_2_778
10
38.3421784
20
15.0498707
40
2.0340295
50
89.9712226
51
100.1388726
0
ARC
8
DEFAULT_255_2_778
10
38.3466442
20
15.0753106
40
2.0085923
50
66.5693287
51
90.0982465
0
ARC
8
DEFAULT_255_2_778
10
38.3473278
20
15.0818241
40
2.0023451
50
10.1984339
51
66.5131642
0
ARC
8
DEFAULT_255_2_778
10
38.3160291
20
15.0783183
40
2.0337712
50
359.9713109
51
10.1395175
0
LINE
8
DEFAULT_255_2_778
10
40.3498001
20
15.0772999
11
40.3498001
21
15.0772999
0
ARC
8
DEFAULT_255_2_778
10
53.5810829
20
15.0738481
40
2.0087201
50
336.5711449
51
0.098458
0
ARC
8
DEFAULT_255_2_778
10
53.5878215
20
15.0730643
40
2.0022264
50
280.1969768
51
336.5150524
0
ARC
8
DEFAULT_255_2_778
10
53.5842217
20
15.1047292
40
2.0340295
50
269.9712226
51
280.1388726
0
ARC
8
DEFAULT_255_2_778
10
53.5797559
20
15.0792893
40
2.0085923
50
246.5693287
51
270.0982465
0
ARC
8
DEFAULT_255_2_778
10
53.5790723
20
15.0727758
40
2.0023451
50
190.1984339
51
246.5131642
0
ARC
8
DEFAULT_255_2_778
10
53.610371
20
15.0762816
40
2.0337712
50
179.9713109
51
190.1395175
0
ARC
8
DEFAULT_255_2_778
10
53.5851894
20
15.0807441
40
2.0085923
50
156.5693287
51
180.0982465
0
ARC
8
DEFAULT_255_2_778
10
53.5786759
20
15.0814277
40
2.0023451
50
100.1984339
51
156.5131642
0
ARC
8
DEFAULT_255_2_778
10
53.5821817
20
15.050129
40
2.0337712
50
89.9713109
51
100.1395175
0
ARC
8
DEFAULT_255_2_778
10
53.58666
20
15.0751821
40
2.0087208
50
66.5700845
51
90.0986899
0
ARC
8
DEFAULT_255_2_778
10
53.5874139
20
15.0819107
40
2.0022483
50
10.1964141
51
66.5133195
0
ARC
8
DEFAULT_255_2_778
10
53.5558269
20
15.0783183
40
2.0339734
50
359.9713149
51
10.1385001
0
LINE
8
DEFAULT_255_2_778
10
55.5898001
20
15.0772999
11
55.5898001
21
15.0772999
0
ARC
8
DEFAULT_255_2_778
10
48.5012107
20
15.0738558
40
2.0085923
50
336.5693287
51
0.0982465
0
ARC
8
DEFAULT_255_2_778
10
48.5077242
20
15.0731722
40
2.0023451
50
280.1984339
51
336.5131642
0
ARC
8
DEFAULT_255_2_778
10
48.5042184
20
15.1044709
40
2.0337712
50
269.9713109
51
280.1395175
0
ARC
8
DEFAULT_255_2_778
10
48.4997401
20
15.0794178
40
2.0087208
50
246.5700845
51
270.0986899
0
ARC
8
DEFAULT_255_2_778
10
48.4989862
20
15.0726892
40
2.0022483
50
190.1964141
51
246.5133195
0
ARC
8
DEFAULT_255_2_778
10
48.5305732
20
15.0762816
40
2.0339734
50
179.9713149
51
190.1385001
0
ARC
8
DEFAULT_255_2_778
10
48.5053172
20
15.0807518
40
2.0087201
50
156.5711449
51
180.098458
0
ARC
8
DEFAULT_255_2_778
10
48.4985786
20
15.0815356
40
2.0022264
50
100.1969768
51
156.5150524
0
ARC
8
DEFAULT_255_2_778
10
48.5021784
20
15.0498707
40
2.0340295
50
89.9712226
51
100.1388726
0
ARC
8
DEFAULT_255_2_778
10
48.5066442
20
15.0753106
40
2.0085923
50
66.5693287
51
90.0982465
0
ARC
8
DEFAULT_255_2_778
10
48.5073278
20
15.0818241
40
2.0023451
50
10.1984339
51
66.5131642
0
ARC
8
DEFAULT_255_2_778
10
48.4760291
20
15.0783183
40
2.0337712
50
359.9713109
51
10.1395175
0
LINE
8
DEFAULT_255_2_778
10
50.5098001
20
15.0772999
11
50.5098001
21
15.0772999
0
ARC
8
DEFAULT_255_2_778
10
63.7412107
20
15.0738558
40
2.0085923
50
336.5693287
51
0.0982465
0
ARC
8
DEFAULT_255_2_778
10
63.7477242
20
15.0731722
40
2.0023451
50
280.1984339
51
336.5131642
0
ARC
8
DEFAULT_255_2_778
10
63.7442184
20
15.1044709
40
2.0337712
50
269.9713109
51
280.1395175
0
ARC
8
DEFAULT_255_2_778
10
63.7397401
20
15.0794178
40
2.0087208
50
246.5700845
51
270.0986899
0
ARC
8
DEFAULT_255_2_778
10
63.7389862
20
15.0726892
40
2.0022483
50
190.1964141
51
246.5133195
0
ARC
8
DEFAULT_255_2_778
10
63.7705732
20
15.0762816
40
2.0339734
50
179.9713149
51
190.1385001
0
ARC
8
DEFAULT_255_2_778
10
63.7453172
20
15.0807518
40
2.0087201
50
156.5711449
51
180.098458
0
ARC
8
DEFAULT_255_2_778
10
63.7385786
20
15.0815356
40
2.0022264
50
100.1969768
51
156.5150524
0
ARC
8
DEFAULT_255_2_778
10
63.7421784
20
15.0498707
40
2.0340295
50
89.9712226
51
100.1388726
0
ARC
8
DEFAULT_255_2_778
10
63.7466442
20
15.0753106
40
2.0085923
50
66.5693287
51
90.0982465
0
ARC
8
DEFAULT_255_2_778
10
63.7473278
20
15.0818241
40
2.0023451
50
10.1984339
51
66.5131642
0
ARC
8
DEFAULT_255_2_778
10
63.7160291
20
15.0783183
40
2.0337712
50
359.9713109
51
10.1395175
0
LINE
8
DEFAULT_255_2_778
10
65.7498001
20
15.0772999
11
65.7498001
21
15.0772999
0
ARC
8
DEFAULT_255_2_778
10
58.6612107
20
15.0738558
40
2.0085923
50
336.5693287
51
0.0982465
0
ARC
8
DEFAULT_255_2_778
10
58.6677242
20
15.0731722
40
2.0023451
50
280.1984339
51
336.5131642
0
ARC
8
DEFAULT_255_2_778
10
58.6642184
20
15.1044709
40
2.0337712
50
269.9713109
51
280.1395175
0
ARC
8
DEFAULT_255_2_778
10
58.6597559
20
15.0792893
40
2.0085923
50
246.5693287
51
270.0982465
0
ARC
8
DEFAULT_255_2_778
10
58.6590723
20
15.0727758
40
2.0023451
50
190.1984339
51
246.5131642
0
ARC
8
DEFAULT_255_2_778
10
58.690371
20
15.0762816
40
2.0337712
50
179.9713109
51
190.1395175
0
ARC
8
DEFAULT_255_2_778
10
58.6651894
20
15.0807441
40
2.0085923
50
156.5693287
51
180.0982465
0
ARC
8
DEFAULT_255_2_778
10
58.6586759
20
15.0814277
40
2.0023451
50
100.1984339
51
156.5131642
0
ARC
8
DEFAULT_255_2_778
10
58.6621817
20
15.050129
40
2.0337712
50
89.9713109
51
100.1395175
0
ARC
8
DEFAULT_255_2_778
10
58.6666442
20
15.0753106
40
2.0085923
50
66.5693287
51
90.0982465
0
ARC
8
DEFAULT_255_2_778
10
58.6673278
20
15.0818241
40
2.0023451
50
10.1984339
51
66.5131642
0
ARC
8
DEFAULT_255_2_778
10
58.6360291
20
15.0783183
40
2.0337712
50
359.9713109
51
10.1395175
0
LINE
8
DEFAULT_255_2_778
10
60.6698001
20
15.0772999
11
60.6698001
21
15.0772999
0
LINE
8
DEFAULT_255_2_778
10
52.4634656
20
28.3625792
11
53.3183656
21
28.3625792
0
LINE
8
DEFAULT_255_2_778
10
52.4634656
20
28.2725792
11
53.3183656
21
28.2725792
0
ARC
8
DEFAULT_255_2_778
10
48.325742
20
28.9461037
40
0.4845437
50
325.7171977
51
335.3933745
0
ARC
8
DEFAULT_255_2_778
10
48.4390253
20
28.8946059
40
0.3601051
50
335.3379434
51
348.4875146
0
ARC
8
DEFAULT_255_2_778
10
48.498032
20
28.8816973
40
0.2997106
50
348.6542762
51
359.9130516
0
ARC
8
DEFAULT_255_2_778
10
48.4936262
20
28.8781488
40
0.3041317
50
0.5828329
51
34.8277811
0
ARC
8
DEFAULT_255_2_778
10
48.3805381
20
28.8047128
40
0.4389238
50
34.2658935
51
49.9483047
0
ARC
8
DEFAULT_255_2_778
10
48.3473321
20
28.769936
40
0.486921
50
49.5905987
51
58.6688623
0
ARC
8
DEFAULT_255_2_778
10
48.4268032
20
28.9035123
40
0.3315035
50
58.3966248
51
66.5921489
0
ARC
8
DEFAULT_255_2_778
10
48.5157509
20
29.1126042
40
0.1042932
50
65.8013528
51
78.409671
0
ARC
8
DEFAULT_255_2_778
10
48.4280583
20
28.7651556
40
0.4625558
50
76.4152879
51
88.2522243
0
ARC
8
DEFAULT_255_2_778
10
48.4327167
20
28.8413476
40
0.3862644
50
88.598188
51
89.9948234
0
ARC
8
DEFAULT_255_2_778
10
48.4290188
20
28.9110984
40
0.3165356
50
89.3243305
51
145.0564069
0
ARC
8
DEFAULT_255_2_778
10
48.6605262
20
28.7328009
40
0.6085803
50
143.7803307
51
160.1593517
0
ARC
8
DEFAULT_255_2_778
10
48.9710871
20
28.6068372
40
0.9435497
50
159.3650319
51
163.1798379
0
ARC
8
DEFAULT_255_2_778
10
48.4682911
20
28.8421377
40
0.5213537
50
145.0551106
51
175.8495654
0
ARC
8
DEFAULT_255_2_778
10
48.4296425
20
28.8680561
40
0.4748283
50
90.2701096
51
144.9474696
0
ARC
8
DEFAULT_255_2_778
10
48.4273857
20
28.8799868
40
0.4628923
50
81.4328244
51
89.9977269
0
ARC
8
DEFAULT_255_2_778
10
48.4251115
20
28.8682625
40
0.4748249
50
65.2672636
51
81.3722232
0
ARC
8
DEFAULT_255_2_778
10
48.4167921
20
28.8483619
40
0.4963813
50
63.7025368
51
65.3561268
0
ARC
8
DEFAULT_255_2_778
10
48.4513962
20
28.8543111
40
0.4765635
50
46.2032784
51
67.1174551
0
ARC
8
DEFAULT_255_2_778
10
48.4768631
20
28.8860103
40
0.4360719
50
11.7304877
51
45.7359125
0
ARC
8
DEFAULT_255_2_778
10
48.4437342
20
28.8763354
40
0.4704837
50
8.089263
51
12.0638531
0
ARC
8
DEFAULT_255_2_778
10
48.4346686
20
28.8751079
40
0.4796318
50
359.9922292
51
8.0820449
0
ARC
8
DEFAULT_255_2_778
10
48.4621427
20
28.8725395
40
0.4521647
50
336.9138094
51
0.317213
0
ARC
8
DEFAULT_255_2_778
10
48.5677571
20
28.8291358
40
0.3379923
50
322.5836768
51
336.6620369
0
LINE
8
DEFAULT_255_2_778
10
48.8659047
20
27.5405709
11
47.9581047
21
27.5405709
0
LINE
8
DEFAULT_255_2_778
10
47.9581047
20
27.5405709
11
47.9581047
21
27.6389709
0
LINE
8
DEFAULT_255_2_778
10
47.9581047
20
27.6389709
11
48.7261047
21
28.6731709
0
LINE
8
DEFAULT_255_2_778
10
48.0679047
20
28.8798709
11
47.9483047
21
28.8798709
0
LINE
8
DEFAULT_255_2_778
10
48.8362047
20
28.6237709
11
48.1078047
21
27.6389709
0
LINE
8
DEFAULT_255_2_778
10
48.1078047
20
27.6389709
11
48.8661047
21
27.6389709
0
LINE
8
DEFAULT_255_2_778
10
48.8661047
20
27.6389709
11
48.8659047
21
27.5405709
0
LINE
8
DEFAULT_255_2_778
10
55.9294761
20
29.1348802
11
55.8845761
21
29.1798802
0
LINE
8
DEFAULT_255_2_778
10
55.8845761
20
29.1798802
11
55.7945761
21
29.2248802
0
LINE
8
DEFAULT_255_2_778
10
55.7945761
20
29.2248802
11
55.6596761
21
29.2698802
0
LINE
8
DEFAULT_255_2_778
10
55.6596761
20
29.2698802
11
55.2995761
21
29.2698802
0
LINE
8
DEFAULT_255_2_778
10
55.2995761
20
29.2698802
11
55.2995761
21
28.5049802
0
LINE
8
DEFAULT_255_2_778
10
55.2995761
20
28.5049802
11
55.6596761
21
28.5049802
0
LINE
8
DEFAULT_255_2_778
10
55.6596761
20
28.5049802
11
55.7945761
21
28.5498802
0
LINE
8
DEFAULT_255_2_778
10
55.7945761
20
28.5498802
11
55.8845761
21
28.5948802
0
LINE
8
DEFAULT_255_2_778
10
55.8845761
20
28.5948802
11
55.9294761
21
28.6398802
0
LINE
8
DEFAULT_255_2_778
10
55.9294761
20
28.6398802
11
55.9744761
21
28.7298802
0
LINE
8
DEFAULT_255_2_778
10
55.9744761
20
28.7298802
11
56.0194761
21
28.8647802
0
LINE
8
DEFAULT_255_2_778
10
56.0194761
20
28.8647802
11
56.0194761
21
28.9097802
0
LINE
8
DEFAULT_255_2_778
10
56.0194761
20
28.9097802
11
55.9744761
21
29.0446802
0
LINE
8
DEFAULT_255_2_778
10
55.9744761
20
29.0446802
11
55.9294761
21
29.1348802
0
LINE
8
DEFAULT_255_2_778
10
55.9294761
20
28.2800802
11
55.8845761
21
28.3250802
0
LINE
8
DEFAULT_255_2_778
10
55.8845761
20
28.3250802
11
55.7945761
21
28.3699802
0
LINE
8
DEFAULT_255_2_778
10
55.7945761
20
28.3699802
11
55.6596761
21
28.4149802
0
LINE
8
DEFAULT_255_2_778
10
55.6596761
20
28.4149802
11
55.2995761
21
28.4149802
0
LINE
8
DEFAULT_255_2_778
10
55.2995761
20
28.4149802
11
55.2995761
21
27.6500802
0
LINE
8
DEFAULT_255_2_778
10
55.2995761
20
27.6500802
11
55.6596761
21
27.6500802
0
LINE
8
DEFAULT_255_2_778
10
55.6596761
20
27.6500802
11
55.7945761
21
27.6950802
0
LINE
8
DEFAULT_255_2_778
10
55.7945761
20
27.6950802
11
55.8845761
21
27.7400802
0
LINE
8
DEFAULT_255_2_778
10
55.8845761
20
27.7400802
11
55.9294761
21
27.7849802
0
LINE
8
DEFAULT_255_2_778
10
55.9294761
20
27.7849802
11
55.9744761
21
27.8749802
0
LINE
8
DEFAULT_255_2_778
10
55.9744761
20
27.8749802
11
56.0194761
21
28.0098802
0
LINE
8
DEFAULT_255_2_778
10
56.0194761
20
28.0098802
11
56.0194761
21
28.0548802
0
LINE
8
DEFAULT_255_2_778
10
56.0194761
20
28.0548802
11
55.9744761
21
28.1897802
0
LINE
8
DEFAULT_255_2_778
10
55.9744761
20
28.1897802
11
55.9294761
21
28.2800802
0
LINE
8
DEFAULT_255_2_778
10
55.9744761
20
29.2251802
11
55.8395761
21
29.3150802
0
LINE
8
DEFAULT_255_2_778
10
55.8395761
20
29.3150802
11
55.7045761
21
29.3600802
0
LINE
8
DEFAULT_255_2_778
10
55.7045761
20
29.3600802
11
55.2095761
21
29.3600802
0
LINE
8
DEFAULT_255_2_778
10
55.2095761
20
29.3600802
11
55.2095761
21
27.5600802
0
LINE
8
DEFAULT_255_2_778
10
55.2095761
20
27.5600802
11
55.7045761
21
27.5600802
0
LINE
8
DEFAULT_255_2_778
10
55.7045761
20
27.5600802
11
55.8395761
21
27.6050802
0
LINE
8
DEFAULT_255_2_778
10
55.8395761
20
27.6050802
11
55.9744761
21
27.6950802
0
LINE
8
DEFAULT_255_2_778
10
55.9744761
20
27.6950802
11
56.0644761
21
27.8299802
0
LINE
8
DEFAULT_255_2_778
10
56.0644761
20
27.8299802
11
56.1093761
21
27.9649802
0
LINE
8
DEFAULT_255_2_778
10
56.1093761
20
27.9649802
11
56.1093761
21
28.0998802
0
LINE
8
DEFAULT_255_2_778
10
56.1093761
20
28.0998802
11
56.0644761
21
28.2347802
0
LINE
8
DEFAULT_255_2_778
10
56.0644761
20
28.2347802
11
55.9744761
21
28.3697802
0
LINE
8
DEFAULT_255_2_778
10
55.9744761
20
28.3697802
11
55.7945761
21
28.4596802
0
LINE
8
DEFAULT_255_2_778
10
55.7945761
20
28.4596802
11
55.9744761
21
28.5496802
0
LINE
8
DEFAULT_255_2_778
10
55.9744761
20
28.5496802
11
56.0644761
21
28.6845802
0
LINE
8
DEFAULT_255_2_778
10
56.0644761
20
28.6845802
11
56.1093761
21
28.8195802
0
LINE
8
DEFAULT_255_2_778
10
56.1093761
20
28.8195802
11
56.1093761
21
28.9544802
0
LINE
8
DEFAULT_255_2_778
10
56.1093761
20
28.9544802
11
56.0644761
21
29.0893802
0
LINE
8
DEFAULT_255_2_778
10
56.0644761
20
29.0893802
11
55.9744761
21
29.2251802
0
ARC
8
DEFAULT_255_2_778
10
59.91236
20
28.9614346
40
0.4843284
50
325.7089514
51
335.3872823
0
ARC
8
DEFAULT_255_2_778
10
60.0256016
20
28.9099412
40
0.3599295
50
335.3318453
51
348.4847259
0
ARC
8
DEFAULT_255_2_778
10
60.0845717
20
28.8970365
40
0.2995716
50
348.6516526
51
359.9130538
0
ARC
8
DEFAULT_255_2_778
10
60.0800672
20
28.8934739
40
0.3040916
50
0.5856031
51
34.85697
0
ARC
8
DEFAULT_255_2_778
10
59.9668893
20
28.8199334
40
0.4390153
50
34.2907434
51
49.949895
0
ARC
8
DEFAULT_255_2_778
10
59.9337251
20
28.7851962
40
0.4869552
50
49.5928327
51
58.6702485
0
ARC
8
DEFAULT_255_2_778
10
60.0131975
20
28.918787
40
0.3315245
50
58.3975588
51
66.5925056
0
ARC
8
DEFAULT_255_2_778
10
60.1021516
20
29.127899
40
0.1042932
50
65.8013568
51
78.4096733
0
ARC
8
DEFAULT_255_2_778
10
60.014459
20
28.7804502
40
0.4625558
50
76.4152879
51
88.2522243
0
ARC
8
DEFAULT_255_2_778
10
60.0191174
20
28.8566423
40
0.3862644
50
88.598188
51
89.9948234
0
ARC
8
DEFAULT_255_2_778
10
60.0154196
20
28.9263931
40
0.3165356
50
89.3243305
51
145.0564069
0
ARC
8
DEFAULT_255_2_778
10
60.2469269
20
28.7480955
40
0.6085803
50
143.7803307
51
160.1593517
0
ARC
8
DEFAULT_255_2_778
10
60.5574878
20
28.6221318
40
0.9435497
50
159.3650319
51
163.1798379
0
ARC
8
DEFAULT_255_2_778
10
60.0546018
20
28.8574449
40
0.521263
50
145.0505799
51
175.8502356
0
ARC
8
DEFAULT_255_2_778
10
60.0160525
20
28.8832598
40
0.4748784
50
90.2667345
51
144.9391281
0
ARC
8
DEFAULT_255_2_778
10
60.013824
20
28.8950317
40
0.4631013
50
81.4414226
51
89.9978099
0
ARC
8
DEFAULT_255_2_778
10
60.0115559
20
28.8833444
40
0.4749961
50
65.2825691
51
81.380681
0
ARC
8
DEFAULT_255_2_778
10
60.0033892
20
28.8637467
40
0.4962137
50
63.7182518
51
65.3721929
0
ARC
8
DEFAULT_255_2_778
10
60.0377969
20
28.8696057
40
0.4765635
50
46.2032784
51
67.1174551
0
ARC
8
DEFAULT_255_2_778
10
60.0632639
20
28.9013049
40
0.4360719
50
11.7304877
51
45.7359125
0
ARC
8
DEFAULT_255_2_778
10
60.0301349
20
28.89163
40
0.4704837
50
8.089263
51
12.0638531
0
ARC
8
DEFAULT_255_2_778
10
60.0210693
20
28.8904026
40
0.4796318
50
359.9922292
51
8.0820449
0
ARC
8
DEFAULT_255_2_778
10
60.0485434
20
28.8878341
40
0.4521647
50
336.9138094
51
0.317213
0
ARC
8
DEFAULT_255_2_778
10
60.1541578
20
28.8444304
40
0.3379923
50
322.5836768
51
336.6620369
0
LINE
8
DEFAULT_255_2_778
10
60.4523054
20
27.5558655
11
59.5445054
21
27.5558655
0
LINE
8
DEFAULT_255_2_778
10
59.5445054
20
27.5558655
11
59.5445054
21
27.6542655
0
LINE
8
DEFAULT_255_2_778
10
59.5445054
20
27.6542655
11
60.3125054
21
28.6885655
0
LINE
8
DEFAULT_255_2_778
10
59.6543054
20
28.8951655
11
59.5347054
21
28.8951655
0
LINE
8
DEFAULT_255_2_778
10
60.4226054
20
28.6390655
11
59.6942054
21
27.6542655
0
LINE
8
DEFAULT_255_2_778
10
59.6942054
20
27.6542655
11
60.4525054
21
27.6542655
0
LINE
8
DEFAULT_255_2_778
10
60.4525054
20
27.6542655
11
60.4523054
21
27.5558655
0
ARC
8
DEFAULT_255_2_778
10
58.4274009
20
28.9612792
40
0.4842016
50
325.7209802
51
335.397579
0
ARC
8
DEFAULT_255_2_778
10
58.5405254
20
28.9098654
40
0.3599424
50
335.3419362
51
348.4897384
0
ARC
8
DEFAULT_255_2_778
10
58.5994645
20
28.8969727
40
0.2996172
50
348.6566037
51
359.9131369
0
ARC
8
DEFAULT_255_2_778
10
58.5949442
20
28.8934091
40
0.3041529
50
0.5857379
51
34.8563271
0
ARC
8
DEFAULT_255_2_778
10
58.4817407
20
28.8198513
40
0.4391075
50
34.290347
51
49.9490141
0
ARC
8
DEFAULT_255_2_778
10
58.4485549
20
28.7850852
40
0.4870835
50
49.5923713
51
58.6691889
0
ARC
8
DEFAULT_255_2_778
10
58.5280386
20
28.9186792
40
0.3316442
50
58.3974871
51
66.5909876
0
ARC
8
DEFAULT_255_2_778
10
58.6170445
20
29.1278956
40
0.1042966
50
65.799866
51
78.4097069
0
ARC
8
DEFAULT_255_2_778
10
58.5293525
20
28.7804502
40
0.4625558
50
76.4152879
51
88.2522243
0
ARC
8
DEFAULT_255_2_778
10
58.5340109
20
28.8566423
40
0.3862644
50
88.598188
51
89.9948234
0
ARC
8
DEFAULT_255_2_778
10
58.530313
20
28.9263931
40
0.3165356
50
89.3243305
51
145.0564069
0
ARC
8
DEFAULT_255_2_778
10
58.7618204
20
28.7480955
40
0.6085803
50
143.7803307
51
160.1593517
0
ARC
8
DEFAULT_255_2_778
10
59.0723813
20
28.6221318
40
0.9435497
50
159.3650319
51
163.1798379
0
ARC
8
DEFAULT_255_2_778
10
58.5694953
20
28.8574449
40
0.521263
50
145.0505799
51
175.8502356
0
ARC
8
DEFAULT_255_2_778
10
58.5309459
20
28.8832598
40
0.4748784
50
90.2667345
51
144.9391281
0
ARC
8
DEFAULT_255_2_778
10
58.5287175
20
28.8950317
40
0.4631013
50
81.4414226
51
89.9978099
0
ARC
8
DEFAULT_255_2_778
10
58.5264494
20
28.8833444
40
0.4749961
50
65.2825691
51
81.380681
0
ARC
8
DEFAULT_255_2_778
10
58.5182827
20
28.8637467
40
0.4962137
50
63.7182518
51
65.3721929
0
ARC
8
DEFAULT_255_2_778
10
58.5526904
20
28.8696057
40
0.4765635
50
46.2032784
51
67.1174551
0
ARC
8
DEFAULT_255_2_778
10
58.5781573
20
28.9013049
40
0.4360719
50
11.7304877
51
45.7359125
0
ARC
8
DEFAULT_255_2_778
10
58.5450284
20
28.89163
40
0.4704837
50
8.089263
51
12.0638531
0
ARC
8
DEFAULT_255_2_778
10
58.5359628
20
28.8904026
40
0.4796318
50
359.9922292
51
8.0820449
0
ARC
8
DEFAULT_255_2_778
10
58.5634369
20
28.8878341
40
0.4521647
50
336.9138094
51
0.317213
0
ARC
8
DEFAULT_255_2_778
10
58.6690513
20
28.8444304
40
0.3379923
50
322.5836768
51
336.6620369
0
LINE
8
DEFAULT_255_2_778
10
58.9671989
20
27.5558655
11
58.0593989
21
27.5558655
0
LINE
8
DEFAULT_255_2_778
10
58.0593989
20
27.5558655
11
58.0593989
21
27.6542655
0
LINE
8
DEFAULT_255_2_778
10
58.0593989
20
27.6542655
11
58.8274989
21
28.6885655
0
LINE
8
DEFAULT_255_2_778
10
58.1691989
20
28.8951655
11
58.0495989
21
28.8951655
0
LINE
8
DEFAULT_255_2_778
10
58.9374989
20
28.6390655
11
58.2090989
21
27.6542655
0
LINE
8
DEFAULT_255_2_778
10
58.2090989
20
27.6542655
11
58.9673989
21
27.6542655
0
LINE
8
DEFAULT_255_2_778
10
58.9673989
20
27.6542655
11
58.9671989
21
27.5558655
0
LINE
8
DEFAULT_255_2_778
10
65.9741511
20
29.2701031
11
66.2903511
21
28.1465031
0
LINE
8
DEFAULT_255_2_778
10
66.2903511
20
28.1465031
11
65.6582511
21
28.1465031
0
LINE
8
DEFAULT_255_2_778
10
65.6582511
20
28.1465031
11
65.9741511
21
29.2701031
0
LINE
8
DEFAULT_255_2_778
10
66.4699511
20
27.6072031
11
66.5612511
21
27.6072031
0
LINE
8
DEFAULT_255_2_778
10
66.5612511
20
27.6072031
11
66.0193511
21
29.3601031
0
LINE
8
DEFAULT_255_2_778
10
66.0193511
20
29.3601031
11
65.9291511
21
29.3601031
0
LINE
8
DEFAULT_255_2_778
10
65.9291511
20
29.3601031
11
65.3872511
21
27.6072031
0
LINE
8
DEFAULT_255_2_778
10
65.3872511
20
27.6072031
11
65.4743511
21
27.6072031
0
LINE
8
DEFAULT_255_2_778
10
65.4743511
20
27.6072031
11
65.6129511
21
28.0568031
0
LINE
8
DEFAULT_255_2_778
10
65.6129511
20
28.0568031
11
66.3355511
21
28.0568031
0
LINE
8
DEFAULT_255_2_778
10
66.3355511
20
28.0568031
11
66.4699511
21
27.6072031
0
LINE
8
DEFAULT_255_2_778
10
64.0146511
20
29.3765031
11
64.4197511
21
28.5661031
0
LINE
8
DEFAULT_255_2_778
10
64.4197511
20
28.5661031
11
64.8247511
21
29.3762031
0
LINE
8
DEFAULT_255_2_778
10
64.8247511
20
29.3762031
11
64.9076511
21
29.3432031
0
LINE
8
DEFAULT_255_2_778
10
64.9076511
20
29.3432031
11
64.4694511
21
28.4751031
0
LINE
8
DEFAULT_255_2_778
10
64.4694511
20
28.4751031
11
64.8993511
21
27.6070031
0
LINE
8
DEFAULT_255_2_778
10
64.8993511
20
27.6070031
11
64.8250511
21
27.5739031
0
LINE
8
DEFAULT_255_2_778
10
64.8250511
20
27.5739031
11
64.4281511
21
28.3843031
0
LINE
8
DEFAULT_255_2_778
10
64.4281511
20
28.3843031
11
64.0148511
21
27.5739031
0
LINE
8
DEFAULT_255_2_778
10
64.0148511
20
27.5739031
11
63.9405511
21
27.6070031
0
LINE
8
DEFAULT_255_2_778
10
63.9405511
20
27.6070031
11
64.3786511
21
28.4751031
0
LINE
8
DEFAULT_255_2_778
10
64.3786511
20
28.4751031
11
63.9487511
21
29.3432031
0
LINE
8
DEFAULT_255_2_778
10
63.9487511
20
29.3432031
11
64.0146511
21
29.3765031
0
ARC
8
DEFAULT_255_2_778
10
68.7393698
20
28.4701124
40
1.600006
50
166.549388
51
180.2336209
0
ARC
8
DEFAULT_255_2_778
10
68.2615854
20
28.5886719
40
1.107757
50
152.0357631
51
166.7651459
0
ARC
8
DEFAULT_255_2_778
10
67.8098741
20
28.8352201
40
0.5932056
50
130.3695565
51
152.6099518
0
ARC
8
DEFAULT_255_2_778
10
67.6170451
20
29.0650468
40
0.2932131
50
91.2639907
51
130.7504323
0
ARC
8
DEFAULT_255_2_778
10
67.5970356
20
29.0397864
40
0.3186899
50
40.1592942
51
87.5646991
0
ARC
8
DEFAULT_255_2_778
10
67.302681
20
28.7579924
40
0.7258339
50
23.0580089
51
42.1748877
0
ARC
8
DEFAULT_255_2_778
10
66.8079828
20
28.5377672
40
1.2672953
50
9.2028598
51
23.4593158
0
ARC
8
DEFAULT_255_2_778
10
66.4257233
20
28.4665096
40
1.6560564
50
359.8989369
51
9.5213493
0
ARC
8
DEFAULT_255_2_778
10
66.4840792
20
28.4568581
40
1.597712
50
346.3562166
51
0.2413629
0
ARC
8
DEFAULT_255_2_778
10
66.9721573
20
28.3337602
40
1.0943794
50
331.4757095
51
346.5914979
0
ARC
8
DEFAULT_255_2_778
10
67.4248195
20
28.0809057
40
0.5759491
50
309.1183873
51
332.0727402
0
ARC
8
DEFAULT_255_2_778
10
67.6049412
20
27.8584464
40
0.2897128
50
271.1146719
51
309.2387702
0
ARC
8
DEFAULT_255_2_778
10
67.6241451
20
27.887137
40
0.3186375
50
220.1530999
51
267.5595329
0
ARC
8
DEFAULT_255_2_778
10
67.9187009
20
28.1691077
40
0.726048
50
203.0584617
51
222.1719896
0
ARC
8
DEFAULT_255_2_778
10
68.4134971
20
28.389382
40
1.2676187
50
189.2035998
51
203.4597779
0
ARC
8
DEFAULT_255_2_778
10
68.7958272
20
28.4606597
40
1.6564527
50
179.8986943
51
189.5221368
0
ARC
8
DEFAULT_255_2_778
10
68.8091029
20
28.4757758
40
1.5707396
50
167.4527266
51
180.2402841
0
ARC
8
DEFAULT_255_2_778
10
68.2814547
20
28.5982023
40
1.0291081
50
153.332137
51
167.7240664
0
ARC
8
DEFAULT_255_2_778
10
67.8071862
20
28.8429044
40
0.4954983
50
131.4954805
51
154.0041356
0
ARC
8
DEFAULT_255_2_778
10
67.6256457
20
29.0502361
40
0.219928
50
91.5030006
51
131.8587926
0
ARC
8
DEFAULT_255_2_778
10
67.6067957
20
29.0255892
40
0.244849
50
37.8996291
51
86.9374374
0
ARC
8
DEFAULT_255_2_778
10
67.3122558
20
28.7618557
40
0.6398506
50
21.3757779
51
40.3341175
0
ARC
8
DEFAULT_255_2_778
10
66.7829335
20
28.5434018
40
1.2124291
50
8.443802
51
21.8718599
0
ARC
8
DEFAULT_255_2_778
10
66.3686145
20
28.4720397
40
1.632765
50
359.8999485
51
8.7859541
0
ARC
8
DEFAULT_255_2_778
10
66.4306513
20
28.4626012
40
1.5707396
50
347.4527266
51
0.2402841
0
ARC
8
DEFAULT_255_2_778
10
66.9582995
20
28.3401748
40
1.0291081
50
333.332137
51
347.7240664
0
ARC
8
DEFAULT_255_2_778
10
67.432568
20
28.0954727
40
0.4954983
50
311.4954805
51
334.0041356
0
ARC
8
DEFAULT_255_2_778
10
67.6141085
20
27.888141
40
0.219928
50
271.5030006
51
311.8587926
0
ARC
8
DEFAULT_255_2_778
10
67.6329585
20
27.9127878
40
0.244849
50
217.8996291
51
266.9374374
0
ARC
8
DEFAULT_255_2_778
10
67.9274984
20
28.1765213
40
0.6398506
50
201.3757779
51
220.3341175
0
ARC
8
DEFAULT_255_2_778
10
68.4568207
20
28.3949752
40
1.2124291
50
188.443802
51
201.8718599
0
ARC
8
DEFAULT_255_2_778
10
68.8711397
20
28.4663373
40
1.632765
50
179.8999485
51
188.7859541
0
LINE
8
DEFAULT_255_2_778
10
67.1393771
20
28.4635885
11
67.1393771
21
28.4635885
0
LINE
8
DEFAULT_255_2_778
10
67.2383771
20
28.4691885
11
67.2383771
21
28.4691885
0
ARC
8
DEFAULT_255_2_778
10
64.1043698
20
28.4701124
40
1.600006
50
166.549388
51
180.2336209
0
ARC
8
DEFAULT_255_2_778
10
63.6265854
20
28.5886719
40
1.107757
50
152.0357631
51
166.7651459
0
ARC
8
DEFAULT_255_2_778
10
63.1748741
20
28.8352201
40
0.5932056
50
130.3695565
51
152.6099518
0
ARC
8
DEFAULT_255_2_778
10
62.9820451
20
29.0650468
40
0.2932131
50
91.2639907
51
130.7504323
0
ARC
8
DEFAULT_255_2_778
10
62.9620356
20
29.0397864
40
0.3186899
50
40.1592942
51
87.5646991
0
ARC
8
DEFAULT_255_2_778
10
62.667681
20
28.7579924
40
0.7258339
50
23.0580089
51
42.1748877
0
ARC
8
DEFAULT_255_2_778
10
62.1729828
20
28.5377672
40
1.2672953
50
9.2028598
51
23.4593158
0
ARC
8
DEFAULT_255_2_778
10
61.7907233
20
28.4665096
40
1.6560564
50
359.8989369
51
9.5213493
0
ARC
8
DEFAULT_255_2_778
10
61.8490792
20
28.4568581
40
1.597712
50
346.3562166
51
0.2413629
0
ARC
8
DEFAULT_255_2_778
10
62.3371573
20
28.3337602
40
1.0943794
50
331.4757095
51
346.5914979
0
ARC
8
DEFAULT_255_2_778
10
62.7898195
20
28.0809057
40
0.5759491
50
309.1183873
51
332.0727402
0
ARC
8
DEFAULT_255_2_778
10
62.9699412
20
27.8584464
40
0.2897128
50
271.1146719
51
309.2387702
0
ARC
8
DEFAULT_255_2_778
10
62.9891451
20
27.887137
40
0.3186375
50
220.1530999
51
267.5595329
0
ARC
8
DEFAULT_255_2_778
10
63.2837009
20
28.1691077
40
0.726048
50
203.0584617
51
222.1719896
0
ARC
8
DEFAULT_255_2_778
10
63.7784971
20
28.389382
40
1.2676187
50
189.2035998
51
203.4597779
0
ARC
8
DEFAULT_255_2_778
10
64.1608272
20
28.4606597
40
1.6564527
50
179.8986943
51
189.5221368
0
ARC
8
DEFAULT_255_2_778
10
64.1741029
20
28.4757758
40
1.5707396
50
167.4527266
51
180.2402841
0
ARC
8
DEFAULT_255_2_778
10
63.6464547
20
28.5982023
40
1.0291081
50
153.332137
51
167.7240664
0
ARC
8
DEFAULT_255_2_778
10
63.1721862
20
28.8429044
40
0.4954983
50
131.4954805
51
154.0041356
0
ARC
8
DEFAULT_255_2_778
10
62.9906457
20
29.0502361
40
0.219928
50
91.5030006
51
131.8587926
0
ARC
8
DEFAULT_255_2_778
10
62.9717957
20
29.0255892
40
0.244849
50
37.8996291
51
86.9374374
0
ARC
8
DEFAULT_255_2_778
10
62.6772558
20
28.7618557
40
0.6398506
50
21.3757779
51
40.3341175
0
ARC
8
DEFAULT_255_2_778
10
62.1479335
20
28.5434018
40
1.2124291
50
8.443802
51
21.8718599
0
ARC
8
DEFAULT_255_2_778
10
61.7336145
20
28.4720397
40
1.632765
50
359.8999485
51
8.7859541
0
ARC
8
DEFAULT_255_2_778
10
61.7956513
20
28.4626012
40
1.5707396
50
347.4527266
51
0.2402841
0
ARC
8
DEFAULT_255_2_778
10
62.3232995
20
28.3401748
40
1.0291081
50
333.332137
51
347.7240664
0
ARC
8
DEFAULT_255_2_778
10
62.797568
20
28.0954727
40
0.4954983
50
311.4954805
51
334.0041356
0
ARC
8
DEFAULT_255_2_778
10
62.9791085
20
27.888141
40
0.219928
50
271.5030006
51
311.8587926
0
ARC
8
DEFAULT_255_2_778
10
62.9979585
20
27.9127878
40
0.244849
50
217.8996291
51
266.9374374
0
ARC
8
DEFAULT_255_2_778
10
63.2924984
20
28.1765213
40
0.6398506
50
201.3757779
51
220.3341175
0
ARC
8
DEFAULT_255_2_778
10
63.8218207
20
28.3949752
40
1.2124291
50
188.443802
51
201.8718599
0
ARC
8
DEFAULT_255_2_778
10
64.2361397
20
28.4663373
40
1.632765
50
179.8999485
51
188.7859541
0
LINE
8
DEFAULT_255_2_778
10
62.5043771
20
28.4635885
11
62.5043771
21
28.4635885
0
LINE
8
DEFAULT_255_2_778
10
62.6033771
20
28.4691885
11
62.6033771
21
28.4691885
0
ARC
8
DEFAULT_255_2_778
10
49.7700599
20
28.9474226
40
0.4843284
50
325.7089514
51
335.3872823
0
ARC
8
DEFAULT_255_2_778
10
49.8833016
20
28.8959292
40
0.3599295
50
335.3318453
51
348.4847259
0
ARC
8
DEFAULT_255_2_778
10
49.9422716
20
28.8830245
40
0.2995716
50
348.6516526
51
359.9130538
0
ARC
8
DEFAULT_255_2_778
10
49.9377671
20
28.8794619
40
0.3040916
50
0.5856031
51
34.85697
0
ARC
8
DEFAULT_255_2_778
10
49.8245892
20
28.8059213
40
0.4390153
50
34.2907434
51
49.949895
0
ARC
8
DEFAULT_255_2_778
10
49.7914251
20
28.7711841
40
0.4869552
50
49.5928327
51
58.6702485
0
ARC
8
DEFAULT_255_2_778
10
49.8708975
20
28.904775
40
0.3315245
50
58.3975588
51
66.5925056
0
ARC
8
DEFAULT_255_2_778
10
49.9598516
20
29.1138869
40
0.1042932
50
65.8013568
51
78.4096733
0
ARC
8
DEFAULT_255_2_778
10
49.872159
20
28.7664382
40
0.4625558
50
76.4152879
51
88.2522243
0
ARC
8
DEFAULT_255_2_778
10
49.8768173
20
28.8426302
40
0.3862644
50
88.598188
51
89.9948234
0
ARC
8
DEFAULT_255_2_778
10
49.8731195
20
28.912381
40
0.3165356
50
89.3243305
51
145.0564069
0
ARC
8
DEFAULT_255_2_778
10
50.1046269
20
28.7340834
40
0.6085803
50
143.7803307
51
160.1593517
0
ARC
8
DEFAULT_255_2_778
10
50.4151878
20
28.6081198
40
0.9435497
50
159.3650319
51
163.1798379
0
ARC
8
DEFAULT_255_2_778
10
49.9123018
20
28.8434329
40
0.521263
50
145.0505799
51
175.8502356
0
ARC
8
DEFAULT_255_2_778
10
49.8737524
20
28.8692478
40
0.4748784
50
90.2667345
51
144.9391281
0
ARC
8
DEFAULT_255_2_778
10
49.871524
20
28.8810197
40
0.4631013
50
81.4414226
51
89.9978099
0
ARC
8
DEFAULT_255_2_778
10
49.8692558
20
28.8693324
40
0.4749961
50
65.2825691
51
81.380681
0
ARC
8
DEFAULT_255_2_778
10
49.8610891
20
28.8497347
40
0.4962137
50
63.7182518
51
65.3721929
0
ARC
8
DEFAULT_255_2_778
10
49.8954969
20
28.8555937
40
0.4765635
50
46.2032784
51
67.1174551
0
ARC
8
DEFAULT_255_2_778
10
49.9209638
20
28.8872928
40
0.4360719
50
11.7304877
51
45.7359125
0
ARC
8
DEFAULT_255_2_778
10
49.8878349
20
28.877618
40
0.4704837
50
8.089263
51
12.0638531
0
ARC
8
DEFAULT_255_2_778
10
49.8787693
20
28.8763905
40
0.4796318
50
359.9922292
51
8.0820449
0
ARC
8
DEFAULT_255_2_778
10
49.9062434
20
28.8738221
40
0.4521647
50
336.9138094
51
0.317213
0
ARC
8
DEFAULT_255_2_778
10
50.0118578
20
28.8304184
40
0.3379923
50
322.5836768
51
336.6620369
0
ARC
8
DEFAULT_255_2_778
10
51.4961386
20
28.8420838
40
0.5191728
50
148.2816413
51
173.8999726
0
ARC
8
DEFAULT_255_2_778
10
51.4689682
20
28.8527891
40
0.4904596
50
90.3382341
51
147.6767037
0
ARC
8
DEFAULT_255_2_778
10
51.4692582
20
28.8646709
40
0.4785798
50
89.996438
51
90.3813516
0
ARC
8
DEFAULT_255_2_778
10
51.4722984
20
28.8899052
40
0.4533556
50
50.4939272
51
90.3804672
0
ARC
8
DEFAULT_255_2_778
10
51.4700725
20
28.8895375
40
0.4550579
50
45.0430128
51
50.3071462
0
ARC
8
DEFAULT_255_2_778
10
51.2515341
20
28.7436093
40
0.7145969
50
36.0740538
51
40.907255
0
ARC
8
DEFAULT_255_2_778
10
51.3012328
20
28.780086
40
0.652949
50
32.15348
51
36.0548874
0
ARC
8
DEFAULT_255_2_778
10
51.3665047
20
28.8193756
40
0.5767806
50
20.2278779
51
32.2998495
0
ARC
8
DEFAULT_255_2_778
10
51.4278517
20
28.8423196
40
0.5112844
50
5.2783522
51
20.1922516
0
ARC
8
DEFAULT_255_2_778
10
51.4428975
20
28.8443557
40
0.4961155
50
0.0009577
51
5.2040533
0
ARC
8
DEFAULT_255_2_778
10
51.4395286
20
28.8446423
40
0.4994844
50
337.6864348
51
359.9680764
0
ARC
8
DEFAULT_255_2_778
10
51.4819088
20
28.8245887
40
0.4526706
50
319.5953934
51
337.9979647
0
ARC
8
DEFAULT_255_2_778
10
51.590338
20
28.7327196
40
0.3105558
50
306.0692064
51
319.5354866
0
ARC
8
DEFAULT_255_2_778
10
51.6621922
20
28.6335645
40
0.1881032
50
290.8868398
51
306.1601518
0
ARC
8
DEFAULT_255_2_778
10
51.6904947
20
28.5588203
40
0.1081803
50
270.9060447
51
290.9955954
0
ARC
8
DEFAULT_255_2_778
10
51.5445122
20
28.0970238
40
0.3832326
50
41.8041464
51
67.3321793
0
ARC
8
DEFAULT_255_2_778
10
51.4872269
20
28.0657497
40
0.4470292
50
0.151242
51
39.8975154
0
ARC
8
DEFAULT_255_2_778
10
51.3436286
20
28.0480586
40
0.5909273
50
359.9963371
51
1.8300373
0
ARC
8
DEFAULT_255_2_778
10
51.3134164
20
28.0482802
40
0.6211395
50
338.0086554
51
359.9760708
0
ARC
8
DEFAULT_255_2_778
10
51.5079599
20
27.9663648
40
0.4100883
50
320.183599
51
338.4425094
0
ARC
8
DEFAULT_255_2_778
10
51.6406677
20
27.8602323
40
0.2402205
50
308.92699
51
319.3591784
0
ARC
8
DEFAULT_255_2_778
10
51.4113075
20
28.1399134
40
0.6019175
50
275.9636346
51
309.1838308
0
ARC
8
DEFAULT_255_2_778
10
51.4183422
20
28.0888429
40
0.5503951
50
270.0282572
51
275.787654
0
ARC
8
DEFAULT_255_2_778
10
51.4034421
20
27.9585666
40
0.4203925
50
211.6962302
51
272.068195
0
ARC
8
DEFAULT_255_2_778
10
51.4852974
20
27.9976216
40
0.5106524
50
190.9477463
51
210.5990357
0
ARC
8
DEFAULT_255_2_778
10
51.6715768
20
28.0395885
40
0.7015359
50
183.5742427
51
191.4235792
0
ARC
8
DEFAULT_255_2_778
10
51.6641365
20
28.7413316
40
0.6176946
50
151.6682706
51
166.9456537
0
ARC
8
DEFAULT_255_2_778
10
51.5094379
20
28.8256962
40
0.4414901
50
129.207098
51
151.777646
0
ARC
8
DEFAULT_255_2_778
10
51.4652778
20
28.8771548
40
0.3737056
50
95.2838092
51
128.9480103
0
ARC
8
DEFAULT_255_2_778
10
51.4653974
20
28.8744241
40
0.3764358
50
89.9977825
51
95.2636577
0
ARC
8
DEFAULT_255_2_778
10
51.4671679
20
28.8815789
40
0.3692852
50
45.6733136
51
90.2724399
0
ARC
8
DEFAULT_255_2_778
10
51.2890949
20
28.8344456
40
0.5358218
50
6.8828013
51
35.5203076
0
ARC
8
DEFAULT_255_2_778
10
51.252836
20
28.8250183
40
0.572971
50
0.0287638
51
7.3842083
0
ARC
8
DEFAULT_255_2_778
10
51.37212
20
28.8171057
40
0.4537611
50
333.4900327
51
1.0354896
0
ARC
8
DEFAULT_255_2_778
10
51.5705491
20
28.7111835
40
0.229001
50
270.0722645
51
335.0453649
0
ARC
8
DEFAULT_255_2_778
10
51.5709233
20
28.7481341
40
0.2659515
50
266.5902298
51
269.9816162
0
ARC
8
DEFAULT_255_2_778
10
51.6616936
20
28.1498812
40
0.6175567
50
193.0578762
51
208.3329378
0
ARC
8
DEFAULT_255_2_778
10
51.5070835
20
28.0655563
40
0.4414489
50
208.2231139
51
230.7892874
0
ARC
8
DEFAULT_255_2_778
10
51.4628091
20
28.013938
40
0.3734682
50
231.0459824
51
264.7207797
0
ARC
8
DEFAULT_255_2_778
10
51.4628897
20
28.0163994
40
0.3759265
50
264.7430601
51
270.002642
0
ARC
8
DEFAULT_255_2_778
10
51.4646474
20
28.0093622
40
0.3688935
50
269.7297005
51
314.4123387
0
ARC
8
DEFAULT_255_2_778
10
51.2819782
20
28.0609609
40
0.5418684
50
324.4424541
51
352.6702299
0
ARC
8
DEFAULT_255_2_778
10
51.2503121
20
28.0698748
40
0.5744331
50
352.1913543
51
359.9638934
0
ARC
8
DEFAULT_255_2_778
10
51.3749507
20
28.0776662
40
0.4498684
50
358.9615167
51
26.049373
0
ARC
8
DEFAULT_255_2_778
10
51.5728326
20
28.1813793
40
0.2266302
50
24.4618479
51
90.0334549
0
ARC
8
DEFAULT_255_2_778
10
51.5727803
20
28.1416898
40
0.2663195
50
90.0172046
51
93.3526794
0
LINE
8
DEFAULT_255_2_778
10
52.4645054
20
28.3696534
11
53.3244054
21
28.3696534
0
LINE
8
DEFAULT_255_2_778
10
53.3244054
20
28.3696534
11
53.3244054
21
28.2786534
0
LINE
8
DEFAULT_255_2_778
10
53.3244054
20
28.2786534
11
52.4645054
21
28.2786534
0
LINE
8
DEFAULT_255_2_778
10
52.4645054
20
28.2786534
11
52.4645054
21
28.3696534
0
LINE
8
DEFAULT_255_2_778
10
61.0645054
20
28.3683534
11
61.9244054
21
28.3683534
0
LINE
8
DEFAULT_255_2_778
10
61.9244054
20
28.3683534
11
61.9244054
21
28.2773534
0
LINE
8
DEFAULT_255_2_778
10
61.9244054
20
28.2773534
11
61.0645054
21
28.2773534
0
LINE
8
DEFAULT_255_2_778
10
61.0645054
20
28.2773534
11
61.0645054
21
28.3683534
0
LINE
8
DEFAULT_255_2_778
10
50.3100054
20
27.5420534
11
49.4022054
21
27.5420534
0
LINE
8
DEFAULT_255_2_778
10
49.4022054
20
27.5420534
11
49.4022054
21
27.6404534
0
LINE
8
DEFAULT_255_2_778
10
49.4022054
20
27.6404534
11
50.1702054
21
28.6745534
0
LINE
8
DEFAULT_255_2_778
10
49.5120054
20
28.8811534
11
49.3924054
21
28.8811534
0
LINE
8
DEFAULT_255_2_778
10
50.2803054
20
28.6250534
11
49.5519054
21
27.6402534
0
LINE
8
DEFAULT_255_2_778
10
49.5519054
20
27.6402534
11
50.3102054
21
27.6402534
0
LINE
8
DEFAULT_255_2_778
10
50.3102054
20
27.6402534
11
50.3100054
21
27.5420534
0
LINE
8
DEFAULT_255_2_778
10
51.0598054
20
28.8766534
11
50.9799054
21
28.8972534
0
LINE
8
DEFAULT_255_2_778
10
51.5572054
20
28.4075534
11
51.5554054
21
28.4829534
0
LINE
8
DEFAULT_255_2_778
10
51.0624054
20
28.0127534
11
50.9714054
21
27.9963534
0
LINE
8
DEFAULT_255_2_778
10
56.6602054
20
29.3351534
11
56.7513054
21
29.3351534
0
LINE
8
DEFAULT_255_2_778
10
56.7513054
20
29.3351534
11
56.7513054
21
28.5247534
0
LINE
8
DEFAULT_255_2_778
10
56.7513054
20
28.5247534
11
57.4209054
21
28.5247534
0
LINE
8
DEFAULT_255_2_778
10
57.4209054
20
28.5247534
11
57.4291054
21
29.3348534
0
LINE
8
DEFAULT_255_2_778
10
57.4291054
20
29.3348534
11
57.5119054
21
29.3348534
0
LINE
8
DEFAULT_255_2_778
10
57.5119054
20
29.3348534
11
57.5119054
21
27.6233534
0
LINE
8
DEFAULT_255_2_778
10
57.5119054
20
27.6233534
11
57.4294054
21
27.6233534
0
LINE
8
DEFAULT_255_2_778
10
57.4294054
20
27.6233534
11
57.4212054
21
28.4334534
0
LINE
8
DEFAULT_255_2_778
10
57.4212054
20
28.4334534
11
56.7515054
21
28.4334534
0
LINE
8
DEFAULT_255_2_778
10
56.7515054
20
28.4334534
11
56.7515054
21
27.6233534
0
LINE
8
DEFAULT_255_2_778
10
56.7515054
20
27.6233534
11
56.6605054
21
27.6233534
0
LINE
8
DEFAULT_255_2_778
10
56.6605054
20
27.6233534
11
56.6602054
21
29.3351534
0
LINE
8
DEFAULT_255_2_778
10
54.5867729
20
27.6084666
11
54.5867729
21
29.3777666
0
LINE
8
DEFAULT_255_2_778
10
54.5867729
20
29.3777666
11
54.5446729
21
29.3777666
0
LINE
8
DEFAULT_255_2_778
10
54.5446729
20
29.3777666
11
53.9416729
21
28.7493666
0
LINE
8
DEFAULT_255_2_778
10
53.9416729
20
28.7493666
11
53.9837729
21
28.6996666
0
LINE
8
DEFAULT_255_2_778
10
53.9837729
20
28.6996666
11
54.5094729
21
29.2369666
0
LINE
8
DEFAULT_255_2_778
10
54.5094729
20
29.2369666
11
54.5094729
21
27.6082666
0
LINE
8
DEFAULT_255_2_778
10
54.5094729
20
27.6082666
11
54.5867729
21
27.6084666
0
ARC
8
DEFAULT_255_2_778
10
1.1306793
20
87.842709
40
0.800141
50
90.0092561
51
135.0044694
0
ARC
8
DEFAULT_255_2_778
10
1.130591
20
87.8426207
40
0.800141
50
134.9955306
51
179.9907439
0
ENDSEC
0
EOF