0
SECTION
2
HEADER
9
$MEASUREMENT
70
1
0
ENDSEC
0
SECTION
2
TABLES
0
TABLE
2
LTYPE
0
LTYPE
72
65
70
64
2
CONTINUOUS
3
______
73
0
40
0
0
ENDTAB
0
TABLE
2
LAYER
0
LAYER
2
DEFAULT_255_2_778
70
0
62
255
6
CONTINUOUS
0
LAYER
2
DEFAULT_255_1_388
70
0
62
255
6
CONTINUOUS
0
LAYER
2
DEFAULT_255_2_778_1
70
0
62
255
6
CONTINUOUS
0
ENDTAB
0
ENDSEC
0
SECTION
2
ENTITIES
0
ARC
8
DEFAULT_255_2_778
10
3.5695693
20
107.5552026
40
0.7914215
50
129.1312896
51
180.1450914
0
ARC
8
DEFAULT_255_2_778
10
3.5698345
20
107.5556897
40
0.7912112
50
89.854026
51
129.1684493
0
ARC
8
DEFAULT_255_2_778
10
25.7988937
20
107.5553762
40
0.7915249
50
39.4792447
51
90.147911
0
ARC
8
DEFAULT_255_2_778
10
25.7994935
20
107.5552229
40
0.7911595
50
359.8533901
51
39.5154338
0
ARC
8
DEFAULT_255_2_778
10
25.7991693
20
-1.9863497
40
0.7914836
50
309.4761667
51
0.1482649
0
ARC
8
DEFAULT_255_2_778
10
25.798898
20
-1.9867808
40
0.7913235
50
269.8517415
51
309.511178
0
ARC
8
DEFAULT_255_2_778
10
3.569842
20
-1.9867226
40
0.7913815
50
219.1282118
51
270.1454017
0
ARC
8
DEFAULT_255_2_778
10
3.5695247
20
-1.9863401
40
0.7913769
50
179.8524075
51
219.1641908
0
LINE
8
DEFAULT_255_2_778
10
3.5718503
20
108.3468985
11
25.7968503
21
108.3468985
0
LINE
8
DEFAULT_255_2_778
10
26.5906503
20
107.5531985
11
26.5906503
21
-1.9843015
0
LINE
8
DEFAULT_255_2_778
10
25.7968503
20
-2.7781015
11
3.5718503
21
-2.7781015
0
LINE
8
DEFAULT_255_2_778
10
2.7781503
20
-1.9843015
11
2.7781503
21
107.5531985
0
LINE
8
DEFAULT_255_1_388
10
5.8370015
20
1.3381934
11
5.8668191
21
1.3381934
0
LINE
8
DEFAULT_255_1_388
10
5.8668191
20
1.3381934
11
5.8668191
21
1.1963338
0
LINE
8
DEFAULT_255_1_388
10
5.8668191
20
1.1963338
11
5.8360979
21
1.1963338
0
LINE
8
DEFAULT_255_1_388
10
5.2207705
20
0.5222747
11
5.2207705
21
0.5864278
0
LINE
8
DEFAULT_255_1_388
10
5.3888335
20
0.5647422
11
5.3888335
21
0.5032999
0
ARC
8
DEFAULT_255_1_388
10
5.8419871
20
0.6340826
40
0.562282
50
90.6001079
51
104.5146616
0
ARC
8
DEFAULT_255_1_388
10
5.798283
20
0.79661
40
0.3939917
50
104.2855758
51
133.8630124
0
ARC
8
DEFAULT_255_1_388
10
5.8167083
20
0.7844243
40
0.4155734
50
134.5304124
51
161.6210222
0
ARC
8
DEFAULT_255_1_388
10
6.0027015
20
0.7188421
40
0.6127682
50
161.2850533
51
174.2074364
0
ARC
8
DEFAULT_255_1_388
10
6.1616582
20
0.6969437
40
0.7731446
50
173.7817938
51
174.9251711
0
ARC
8
DEFAULT_255_1_388
10
5.6490775
20
0.541427
40
0.3412588
50
95.8332067
51
138.995412
0
ARC
8
DEFAULT_255_1_388
10
5.6742056
20
0.3975695
40
0.4870358
50
89.8755506
51
97.0540979
0
ARC
8
DEFAULT_255_1_388
10
5.6795445
20
0.4915841
40
0.3930432
50
71.6407016
51
90.6240821
0
ARC
8
DEFAULT_255_1_388
10
5.6964838
20
0.5539433
40
0.3285421
50
39.6368051
51
71.0190743
0
ARC
8
DEFAULT_255_1_388
10
5.6248746
20
0.4920586
40
0.4231706
50
10.6588054
51
39.9044509
0
ARC
8
DEFAULT_255_1_388
10
5.4507291
20
0.4542223
40
0.60133
50
359.6827842
51
11.1326896
0
ARC
8
DEFAULT_255_1_388
10
5.4462627
20
0.4462715
40
0.6058047
50
347.2485908
51
0.4371098
0
ARC
8
DEFAULT_255_1_388
10
5.6338413
20
0.4011379
40
0.4128987
50
318.1408565
51
347.6118497
0
ARC
8
DEFAULT_255_1_388
10
5.6704009
20
0.3710903
40
0.3656244
50
275.6342406
51
317.824739
0
ARC
8
DEFAULT_255_1_388
10
5.645553
20
0.5172827
40
0.513655
50
269.8872513
51
276.7916069
0
ARC
8
DEFAULT_255_1_388
10
5.6393723
20
0.4019181
40
0.398323
50
246.9139443
51
270.7436787
0
ARC
8
DEFAULT_255_1_388
10
5.6400919
20
0.3859044
40
0.3839368
50
218.1665534
51
245.8780431
0
ARC
8
DEFAULT_255_1_388
10
5.7390291
20
0.4686903
40
0.5128958
50
191.4115343
51
218.6077624
0
ARC
8
DEFAULT_255_1_388
10
5.9570607
20
0.5175777
40
0.7363054
50
179.6344971
51
191.7836758
0
ARC
8
DEFAULT_255_1_388
10
6.5850482
20
0.5939495
40
1.3642984
50
171.4523743
51
180.3158856
0
ARC
8
DEFAULT_255_1_388
10
6.0906209
20
0.6708895
40
0.8639311
50
157.9802296
51
171.6246761
0
ARC
8
DEFAULT_255_1_388
10
5.8415559
20
0.7702038
40
0.5958004
50
141.4299236
51
157.8541251
0
ARC
8
DEFAULT_255_1_388
10
5.7693643
20
0.8212746
40
0.5075416
50
102.871586
51
140.8564533
0
ARC
8
DEFAULT_255_1_388
10
5.8422195
20
0.5467943
40
0.7914163
50
90.377773
51
103.5868422
0
ARC
8
DEFAULT_255_1_388
10
5.6466717
20
0.4787543
40
0.2667015
50
89.8751238
51
126.2072139
0
ARC
8
DEFAULT_255_1_388
10
5.6518188
20
0.4613847
40
0.2838229
50
124.9742447
51
144.8960197
0
ARC
8
DEFAULT_255_1_388
10
5.6320433
20
0.4774981
40
0.2583845
50
145.2974778
51
160.2660922
0
ARC
8
DEFAULT_255_1_388
10
5.9776921
20
0.4997151
40
0.5888695
50
179.6512124
51
190.285571
0
ARC
8
DEFAULT_255_1_388
10
5.7871401
20
0.4637968
40
0.3949683
50
190.0944895
51
207.5099647
0
ARC
8
DEFAULT_255_1_388
10
5.7234982
20
0.4335177
40
0.3245464
50
207.9585471
51
216.325377
0
ARC
8
DEFAULT_255_1_388
10
5.6852619
20
0.4020712
40
0.2751259
50
215.7661336
51
232.5457193
0
ARC
8
DEFAULT_255_1_388
10
5.6421735
20
0.3473273
40
0.2054668
50
232.8005815
51
270.6605497
0
ARC
8
DEFAULT_255_1_388
10
5.647316
20
0.3882853
40
0.2464268
50
269.3550767
51
288.474612
0
ARC
8
DEFAULT_255_1_388
10
5.6577667
20
0.3489721
40
0.2058436
50
289.1831976
51
322.9685307
0
ARC
8
DEFAULT_255_1_388
10
5.5889768
20
0.4032279
40
0.2934408
50
322.6007085
51
346.5183319
0
ARC
8
DEFAULT_255_1_388
10
5.4587524
20
0.4364434
40
0.4278249
50
346.2584622
51
358.7739592
0
ARC
8
DEFAULT_255_1_388
10
5.34361
20
0.4426829
40
0.5430876
50
358.3757628
51
0.0082477
0
ARC
8
DEFAULT_255_1_388
10
5.4292918
20
0.4457856
40
0.4574157
50
359.6211417
51
11.28403
0
ARC
8
DEFAULT_255_1_388
10
5.5729524
20
0.4757535
40
0.3106708
50
11.0483152
51
31.8145585
0
ARC
8
DEFAULT_255_1_388
10
5.6077229
20
0.4946045
40
0.2711963
50
32.3028554
51
38.0820598
0
ARC
8
DEFAULT_255_1_388
10
5.6550462
20
0.5374717
40
0.2075566
50
36.8249851
51
85.741667
0
ARC
8
DEFAULT_255_1_388
10
5.6474875
20
0.4811065
40
0.2643487
50
85.0150021
51
90.050843
0
LINE
8
DEFAULT_255_1_388
10
7.0369351
20
0.7716585
11
7.0369351
21
0.6297989
0
LINE
8
DEFAULT_255_1_388
10
7.0369351
20
0.6297989
11
6.4667859
21
0.6297989
0
LINE
8
DEFAULT_255_1_388
10
6.4667859
20
0.6297989
11
6.4667859
21
0.1635596
0
LINE
8
DEFAULT_255_1_388
10
6.4667859
20
0.1635596
11
7.1290986
21
0.1635596
0
LINE
8
DEFAULT_255_1_388
10
7.1290986
20
0.1635596
11
7.1290986
21
0.0217
0
LINE
8
DEFAULT_255_1_388
10
7.1290986
20
0.0217
11
6.2933015
21
0.0217
0
LINE
8
DEFAULT_255_1_388
10
6.2933015
20
0.0217
11
6.2933015
21
1.3372898
0
LINE
8
DEFAULT_255_1_388
10
6.2933015
20
1.3372898
11
7.120063
21
1.3372898
0
LINE
8
DEFAULT_255_1_388
10
7.120063
20
1.3372898
11
7.120063
21
1.1945267
0
LINE
8
DEFAULT_255_1_388
10
7.120063
20
1.1945267
11
6.4667859
21
1.1945267
0
LINE
8
DEFAULT_255_1_388
10
6.4667859
20
1.1945267
11
6.4667859
21
0.7716585
0
LINE
8
DEFAULT_255_1_388
10
6.4667859
20
0.7716585
11
7.0369351
21
0.7716585
0
LINE
8
DEFAULT_255_1_388
10
8.2178938
20
0.9568892
11
8.0435059
21
0.9568892
0
LINE
8
DEFAULT_255_1_388
10
7.2646333
20
0.4030042
11
7.4390212
21
0.4030042
0
ARC
8
DEFAULT_255_1_388
10
8.1175786
20
1.9632821
40
1.4087688
50
248.9196578
51
254.1442424
0
ARC
8
DEFAULT_255_1_388
10
7.9285666
20
1.4766805
40
0.8867498
50
241.6337352
51
249.0064643
0
ARC
8
DEFAULT_255_1_388
10
7.7565979
20
1.1615764
40
0.5277799
50
230.4982261
51
241.8087583
0
ARC
8
DEFAULT_255_1_388
10
7.668375
20
1.0491686
40
0.3849419
50
227.4062979
51
229.9877433
0
ARC
8
DEFAULT_255_1_388
10
7.6135097
20
0.9956155
40
0.3084129
50
200.6782127
51
228.1765252
0
ARC
8
DEFAULT_255_1_388
10
7.6216466
20
0.9939277
40
0.315461
50
179.506278
51
199.8695278
0
ARC
8
DEFAULT_255_1_388
10
7.6206054
20
1.0022671
40
0.3144584
50
132.4834401
51
181.0242352
0
ARC
8
DEFAULT_255_1_388
10
7.6875259
20
0.9390788
40
0.4063094
50
129.2526113
51
133.4249077
0
ARC
8
DEFAULT_255_1_388
10
7.7040851
20
0.9142619
40
0.436014
50
101.9878945
51
128.8741833
0
ARC
8
DEFAULT_255_1_388
10
7.7489267
20
0.720636
40
0.6347415
50
89.5906376
51
102.3170567
0
ARC
8
DEFAULT_255_1_388
10
7.7568578
20
0.7564586
40
0.5989122
50
77.2359491
51
90.3248968
0
ARC
8
DEFAULT_255_1_388
10
7.7801509
20
0.8652554
40
0.4876594
50
63.8379856
51
77.0808925
0
ARC
8
DEFAULT_255_1_388
10
7.8114043
20
0.9234882
40
0.4216191
50
45.9863127
51
64.1608798
0
ARC
8
DEFAULT_255_1_388
10
7.8407436
20
0.956999
40
0.3771394
50
32.2747934
51
45.6544796
0
ARC
8
DEFAULT_255_1_388
10
7.8482243
20
0.9591426
40
0.3696765
50
359.6507495
51
32.6129943
0
ARC
8
DEFAULT_255_1_388
10
7.7421425
20
0.9596788
40
0.3013762
50
359.469654
51
14.983205
0
ARC
8
DEFAULT_255_1_388
10
7.8214678
20
0.9809288
40
0.2192542
50
14.9781954
51
48.2004799
0
ARC
8
DEFAULT_255_1_388
10
7.8029788
20
0.9576937
40
0.2489048
50
48.5926661
51
74.1242559
0
ARC
8
DEFAULT_255_1_388
10
7.7654591
20
0.8338607
40
0.3782845
50
73.7889321
51
86.6653996
0
ARC
8
DEFAULT_255_1_388
10
7.7539405
20
0.6980955
40
0.5145025
50
86.2642725
51
90.0533288
0
ARC
8
DEFAULT_255_1_388
10
7.7507498
20
0.7425376
40
0.4700681
50
89.669455
51
99.2313411
0
ARC
8
DEFAULT_255_1_388
10
7.7234658
20
0.9050401
40
0.3052945
50
99.0695987
51
113.7659242
0
ARC
8
DEFAULT_255_1_388
10
7.6926652
20
0.9776772
40
0.226407
50
114.0402885
51
127.9848946
0
ARC
8
DEFAULT_255_1_388
10
7.6656129
20
1.0109884
40
0.1835045
50
127.7287217
51
176.7106493
0
ARC
8
DEFAULT_255_1_388
10
7.7419794
20
0.999621
40
0.2604907
50
175.1780759
51
180.0581213
0
ARC
8
DEFAULT_255_1_388
10
7.6471137
20
0.9982411
40
0.1656287
50
179.6140658
51
228.124674
0
ARC
8
DEFAULT_255_1_388
10
7.6968495
20
1.044294
40
0.2332038
50
226.5785315
51
230.8792476
0
ARC
8
DEFAULT_255_1_388
10
7.7497981
20
1.1145908
40
0.3211664
50
231.4636401
51
241.9261664
0
ARC
8
DEFAULT_255_1_388
10
7.8844765
20
1.3624349
40
0.6032345
50
241.7177136
51
248.3259138
0
ARC
8
DEFAULT_255_1_388
10
8.0403359
20
1.7485771
40
1.0196417
50
248.2007377
51
252.4527713
0
ARC
8
DEFAULT_255_1_388
10
8.1756886
20
2.1670092
40
1.4594143
50
252.3388938
51
254.347037
0
ARC
8
DEFAULT_255_1_388
10
7.3272187
20
-0.8677905
40
1.6917621
50
71.0197462
51
74.4085467
0
ARC
8
DEFAULT_255_1_388
10
7.5179275
20
-0.3172856
40
1.1091618
50
66.1845203
51
71.086519
0
ARC
8
DEFAULT_255_1_388
10
7.6929823
20
0.0768439
40
0.6779073
50
59.3537334
51
66.269255
0
ARC
8
DEFAULT_255_1_388
10
7.7929549
20
0.2459777
40
0.4814366
50
49.1021732
51
59.3294421
0
ARC
8
DEFAULT_255_1_388
10
7.8850538
20
0.3509575
40
0.3417875
50
32.7924183
51
49.2503526
0
ARC
8
DEFAULT_255_1_388
10
7.9200152
20
0.3759311
40
0.2988789
50
31.121225
51
32.3977355
0
ARC
8
DEFAULT_255_1_388
10
7.911233
20
0.3726728
40
0.3080861
50
8.1116803
51
30.7958224
0
ARC
8
DEFAULT_255_1_388
10
7.8200675
20
0.3571437
40
0.4005385
50
359.8390945
51
8.4707348
0
ARC
8
DEFAULT_255_1_388
10
7.8904723
20
0.3516751
40
0.3301608
50
337.4732479
51
0.7538283
0
ARC
8
DEFAULT_255_1_388
10
7.9105748
20
0.3494554
40
0.3107929
50
307.5917028
51
336.4313755
0
ARC
8
DEFAULT_255_1_388
10
7.8594806
20
0.4062509
40
0.3870096
50
307.6560665
51
308.4561779
0
ARC
8
DEFAULT_255_1_388
10
7.8329022
20
0.4470832
40
0.435591
50
284.3733666
51
307.1426212
0
ARC
8
DEFAULT_255_1_388
10
7.7771917
20
0.6520391
40
0.6479685
50
272.4384566
51
284.6464689
0
ARC
8
DEFAULT_255_1_388
10
7.7629302
20
0.8544434
40
0.8508149
50
269.9708517
51
272.8180721
0
ARC
8
DEFAULT_255_1_388
10
7.7580984
20
0.6252283
40
0.6216151
50
248.2707343
51
270.4054609
0
ARC
8
DEFAULT_255_1_388
10
7.7519856
20
0.6037673
40
0.5994203
50
246.1380358
51
248.054058
0
ARC
8
DEFAULT_255_1_388
10
7.7048998
20
0.5048705
40
0.4899388
50
233.1671897
51
246.4951656
0
ARC
8
DEFAULT_255_1_388
10
7.6425633
20
0.4207137
40
0.3852115
50
215.3403381
51
233.084328
0
ARC
8
DEFAULT_255_1_388
10
7.6118997
20
0.3984093
40
0.3472969
50
179.2419235
51
215.2648426
0
ARC
8
DEFAULT_255_1_388
10
7.6982548
20
0.3999979
40
0.259251
50
179.3355796
51
199.1045873
0
ARC
8
DEFAULT_255_1_388
10
7.660869
20
0.3902223
40
0.2207454
50
199.8830064
51
232.7061328
0
ARC
8
DEFAULT_255_1_388
10
7.7139965
20
0.4570456
40
0.306101
50
232.3736206
51
255.5136621
0
ARC
8
DEFAULT_255_1_388
10
7.752347
20
0.5970177
40
0.4512213
50
255.2447928
51
267.5318292
0
ARC
8
DEFAULT_255_1_388
10
7.7621937
20
0.7356709
40
0.5901825
50
267.1564563
51
270.0294721
0
ARC
8
DEFAULT_255_1_388
10
7.7653263
20
0.6857623
40
0.5402814
50
269.6999944
51
278.1662446
0
ARC
8
DEFAULT_255_1_388
10
7.794129
20
0.4910974
40
0.3435003
50
278.0229022
51
290.6255326
0
ARC
8
DEFAULT_255_1_388
10
7.8332457
20
0.3867547
40
0.2320666
50
290.6616368
51
307.0374127
0
ARC
8
DEFAULT_255_1_388
10
7.8670357
20
0.345304
40
0.1786372
50
306.3942078
51
355.303191
0
ARC
8
DEFAULT_255_1_388
10
7.809465
20
0.3539186
40
0.2367516
50
354.3662092
51
0.0709489
0
ARC
8
DEFAULT_255_1_388
10
7.8254518
20
0.3564561
40
0.2207761
50
359.4175379
51
16.1975911
0
ARC
8
DEFAULT_255_1_388
10
7.8766636
20
0.3704954
40
0.1676828
50
16.4721294
51
52.6261798
0
ARC
8
DEFAULT_255_1_388
10
7.7843144
20
0.2485606
40
0.3206412
50
52.7381828
51
62.4979144
0
ARC
8
DEFAULT_255_1_388
10
7.6284896
20
-0.0446764
40
0.6527035
50
62.2517425
51
68.1219454
0
ARC
8
DEFAULT_255_1_388
10
7.4350384
20
-0.5201049
40
1.1659797
50
68.006043
51
71.8055127
0
ARC
8
DEFAULT_255_1_388
10
7.2330292
20
-1.1259277
40
1.8045908
50
71.718361
51
73.9260743
0
LINE
8
DEFAULT_255_1_388
10
9.2488608
20
1.3372898
11
9.2488608
21
1.2433191
0
LINE
8
DEFAULT_255_1_388
10
9.2488608
20
1.2433191
11
8.7040115
21
0.0217
0
LINE
8
DEFAULT_255_1_388
10
8.7040115
20
0.0217
11
8.52872
21
0.0217
0
LINE
8
DEFAULT_255_1_388
10
8.52872
20
0.0217
11
9.0717622
21
1.199948
0
LINE
8
DEFAULT_255_1_388
10
9.0717622
20
1.199948
11
8.3597534
21
1.199948
0
LINE
8
DEFAULT_255_1_388
10
8.3597534
20
1.199948
11
8.3597534
21
1.3372898
0
LINE
8
DEFAULT_255_1_388
10
8.3597534
20
1.3372898
11
9.2488608
21
1.3372898
0
LINE
8
DEFAULT_255_1_388
10
10.3006099
20
0.1581382
11
10.3006099
21
0.0217
0
LINE
8
DEFAULT_255_1_388
10
10.3006099
20
0.0217
11
9.4386094
21
0.0217
0
LINE
8
DEFAULT_255_1_388
10
9.4386094
20
0.0217
11
9.4386094
21
0.1418741
0
LINE
8
DEFAULT_255_1_388
10
9.4386094
20
0.1418741
11
9.8940059
21
0.6478702
0
LINE
8
DEFAULT_255_1_388
10
9.580469
20
0.9496607
11
9.4133096
21
0.9496607
0
LINE
8
DEFAULT_255_1_388
10
9.9924944
20
0.540346
11
9.6401042
21
0.1581382
0
LINE
8
DEFAULT_255_1_388
10
9.6401042
20
0.1581382
11
10.3006099
21
0.1581382
0
ARC
8
DEFAULT_255_1_388
10
8.3764118
20
1.9898983
40
2.0258655
50
318.5132526
51
320.7829045
0
ARC
8
DEFAULT_255_1_388
10
8.9712075
20
1.5057929
40
1.2589638
50
320.7372878
51
323.9739031
0
ARC
8
DEFAULT_255_1_388
10
9.4121007
20
1.1863554
40
0.7145141
50
323.8962701
51
328.64194
0
ARC
8
DEFAULT_255_1_388
10
9.6423264
20
1.0443545
40
0.4440242
50
328.8294576
51
331.7891185
0
ARC
8
DEFAULT_255_1_388
10
9.7545584
20
0.9864374
40
0.3177517
50
331.4254512
51
352.9365785
0
ARC
8
DEFAULT_255_1_388
10
9.7698584
20
0.983005
40
0.3021496
50
353.2257659
51
0.0166158
0
ARC
8
DEFAULT_255_1_388
10
9.7935345
20
0.9855894
40
0.2784847
50
359.486299
51
15.9343185
0
ARC
8
DEFAULT_255_1_388
10
9.8505612
20
1.0009269
40
0.2194403
50
16.1712913
51
43.5286088
0
ARC
8
DEFAULT_255_1_388
10
9.8592556
20
1.0096191
40
0.2071504
50
43.4417391
51
83.1661095
0
ARC
8
DEFAULT_255_1_388
10
9.8441717
20
0.9267316
40
0.2912888
50
82.160179
51
90.1505708
0
ARC
8
DEFAULT_255_1_388
10
9.8406199
20
0.8663279
40
0.3517025
50
89.5460741
51
102.5418361
0
ARC
8
DEFAULT_255_1_388
10
9.8132919
20
0.9822933
40
0.2325748
50
102.1738499
51
129.206123
0
ARC
8
DEFAULT_255_1_388
10
9.8044372
20
0.9962664
40
0.2161591
50
129.72865
51
135.753947
0
ARC
8
DEFAULT_255_1_388
10
9.8180855
20
0.9853728
40
0.2335433
50
136.1757367
51
166.3673339
0
ARC
8
DEFAULT_255_1_388
10
9.9313543
20
0.9550148
40
0.3507873
50
165.9090694
51
178.8684636
0
ARC
8
DEFAULT_255_1_388
10
10.0289314
20
0.9497263
40
0.4484624
50
178.4391136
51
180.0083808
0
ARC
8
DEFAULT_255_1_388
10
9.8710016
20
0.9541197
40
0.4577138
50
163.2878482
51
180.5581842
0
ARC
8
DEFAULT_255_1_388
10
9.7808057
20
0.9789393
40
0.3641968
50
133.4540601
51
162.947111
0
ARC
8
DEFAULT_255_1_388
10
9.8008939
20
0.9575789
40
0.3935189
50
100.7869829
51
133.4382499
0
ARC
8
DEFAULT_255_1_388
10
9.8400184
20
0.7833399
40
0.5720313
50
89.660664
51
101.3702276
0
ARC
8
DEFAULT_255_1_388
10
9.8474793
20
0.7902263
40
0.5651495
50
78.2172678
51
90.412935
0
ARC
8
DEFAULT_255_1_388
10
9.8874259
20
0.9729511
40
0.378122
50
55.9269121
51
78.4888449
0
ARC
8
DEFAULT_255_1_388
10
9.9094974
20
1.0110187
40
0.3342379
50
47.929771
51
55.4049217
0
ARC
8
DEFAULT_255_1_388
10
9.9209504
20
1.0226618
40
0.3179217
50
4.334829
51
48.0560205
0
ARC
8
DEFAULT_255_1_388
10
9.7977306
20
1.0035487
40
0.442341
50
359.9251713
51
5.5971671
0
ARC
8
DEFAULT_255_1_388
10
9.845946
20
1.0098728
40
0.3941854
50
337.8914027
51
358.9967534
0
ARC
8
DEFAULT_255_1_388
10
9.5407031
20
1.1276295
40
0.7213271
50
326.9132501
51
338.3508308
0
ARC
8
DEFAULT_255_1_388
10
9.0923142
20
1.4150105
40
1.2538973
50
319.6471833
51
327.0959558
0
ARC
8
DEFAULT_255_1_388
10
8.6609801
20
1.770805
40
1.8129975
50
317.2588228
51
319.9045804
0
LINE
8
DEFAULT_255_1_388
10
10.7207673
20
0.6243775
11
10.7207673
21
0.7608157
0
LINE
8
DEFAULT_255_1_388
10
10.7207673
20
0.7608157
11
10.8463628
21
0.7608157
0
LINE
8
DEFAULT_255_1_388
10
10.632218
20
0.9921282
11
10.4650586
21
0.9921282
0
LINE
8
DEFAULT_255_1_388
10
10.4533123
20
0.3686687
11
10.6213752
21
0.3686687
0
LINE
8
DEFAULT_255_1_388
10
10.8463628
20
0.6243775
11
10.7207673
21
0.6243775
0
ARC
8
DEFAULT_255_1_388
10
10.8430854
20
1.1424922
40
0.3816905
50
270.491971
51
281.8953028
0
ARC
8
DEFAULT_255_1_388
10
10.8702281
20
1.0185199
40
0.2547877
50
281.6690378
51
301.2943765
0
ARC
8
DEFAULT_255_1_388
10
10.8893733
20
0.9834926
40
0.2149197
50
301.7834992
51
311.754567
0
ARC
8
DEFAULT_255_1_388
10
10.8996774
20
0.972065
40
0.1995326
50
311.7325027
51
354.2803031
0
ARC
8
DEFAULT_255_1_388
10
10.817919
20
0.986128
40
0.2823461
50
353.0941646
51
0.1174696
0
ARC
8
DEFAULT_255_1_388
10
10.7660748
20
0.9914874
40
0.3342238
50
359.1804452
51
15.0452323
0
ARC
8
DEFAULT_255_1_388
10
10.9174806
20
1.0356546
40
0.1765747
50
13.957816
51
77.6713812
0
ARC
8
DEFAULT_255_1_388
10
10.8740042
20
0.8798464
40
0.3381982
50
76.111571
51
90.7028736
0
ARC
8
DEFAULT_255_1_388
10
10.8673454
20
0.910625
40
0.3074046
50
89.5321574
51
103.5319393
0
ARC
8
DEFAULT_255_1_388
10
10.8447838
20
1.0005443
40
0.2147041
50
103.2930114
51
133.5619756
0
ARC
8
DEFAULT_255_1_388
10
10.8397779
20
1.0072351
40
0.2064084
50
133.8349761
51
173.5343225
0
ARC
8
DEFAULT_255_1_388
10
10.9211437
20
0.9928144
40
0.2889266
50
172.5097183
51
180.1360699
0
ARC
8
DEFAULT_255_1_388
10
10.8141201
20
0.996688
40
0.3490913
50
155.3483706
51
180.7484035
0
ARC
8
DEFAULT_255_1_388
10
10.8086176
20
0.9934519
40
0.3454798
50
131.5745177
51
154.4799474
0
ARC
8
DEFAULT_255_1_388
10
10.8438459
20
0.9578422
40
0.3955058
50
96.9874487
51
131.9690874
0
ARC
8
DEFAULT_255_1_388
10
10.8685352
20
0.8177407
40
0.537622
50
89.8592909
51
97.7827481
0
ARC
8
DEFAULT_255_1_388
10
10.8739461
20
0.788236
40
0.5671399
50
78.3654493
51
90.4132586
0
ARC
8
DEFAULT_255_1_388
10
10.9142102
20
0.9748918
40
0.3762034
50
56.6229818
51
78.6387103
0
ARC
8
DEFAULT_255_1_388
10
10.9383931
20
1.0171846
40
0.3275964
50
47.0254604
51
56.085558
0
ARC
8
DEFAULT_255_1_388
10
10.9406182
20
1.0216189
40
0.3228382
50
10.9207523
51
46.777927
0
ARC
8
DEFAULT_255_1_388
10
10.7871776
20
0.9861401
40
0.4802559
50
359.6364235
51
11.6087615
0
ARC
8
DEFAULT_255_1_388
10
10.9935942
20
0.9844404
40
0.273833
50
332.3549969
51
359.7179765
0
ARC
8
DEFAULT_255_1_388
10
10.9204342
20
1.0191285
40
0.3547505
50
325.2332381
51
332.8746682
0
ARC
8
DEFAULT_255_1_388
10
10.9375925
20
1.0071763
40
0.3338396
50
292.9803892
51
325.2391113
0
ARC
8
DEFAULT_255_1_388
10
10.9065121
20
1.0676679
40
0.4016959
50
292.542178
51
293.6931461
0
ARC
8
DEFAULT_255_1_388
10
10.9508693
20
0.3411036
40
0.372079
50
57.643292
51
72.8626085
0
ARC
8
DEFAULT_255_1_388
10
10.9907527
20
0.4057273
40
0.2961455
50
36.7246661
51
57.4701329
0
ARC
8
DEFAULT_255_1_388
10
10.9894684
20
0.407147
40
0.2963321
50
8.054535
51
36.3561529
0
ARC
8
DEFAULT_255_1_388
10
10.8924357
20
0.3897073
40
0.3948682
50
359.8316595
51
8.5873361
0
ARC
8
DEFAULT_255_1_388
10
10.8501831
20
0.384297
40
0.4371398
50
343.9831631
51
0.557075
0
ARC
8
DEFAULT_255_1_388
10
10.949888
20
0.3569963
40
0.3337749
50
311.6358204
51
343.7652116
0
ARC
8
DEFAULT_255_1_388
10
10.9073134
20
0.4049955
40
0.3979351
50
279.7829743
51
311.625622
0
ARC
8
DEFAULT_255_1_388
10
10.8734269
20
0.5666642
40
0.5630417
50
269.7285092
51
280.3857694
0
ARC
8
DEFAULT_255_1_388
10
10.8664582
20
0.5620241
40
0.5584119
50
256.6827433
51
270.4412869
0
ARC
8
DEFAULT_255_1_388
10
10.8283569
20
0.4062698
40
0.3980715
50
229.4223821
51
256.8554507
0
ARC
8
DEFAULT_255_1_388
10
10.7817122
20
0.3537683
40
0.3278564
50
181.8183354
51
229.6455015
0
ARC
8
DEFAULT_255_1_388
10
10.8986732
20
0.3684825
40
0.4453611
50
179.9760419
51
183.2330638
0
ARC
8
DEFAULT_255_1_388
10
10.8793284
20
0.3661781
40
0.2579652
50
179.4467996
51
196.2871626
0
ARC
8
DEFAULT_255_1_388
10
10.8244738
20
0.3511709
40
0.2011057
50
196.5661293
51
227.7059371
0
ARC
8
DEFAULT_255_1_388
10
10.8429345
20
0.3718155
40
0.2287994
50
227.7653015
51
257.8763321
0
ARC
8
DEFAULT_255_1_388
10
10.8682428
20
0.4778961
40
0.3378385
50
257.4583525
51
270.4267406
0
ARC
8
DEFAULT_255_1_388
10
10.8733678
20
0.510523
40
0.3704652
50
269.5965319
51
280.8788143
0
ARC
8
DEFAULT_255_1_388
10
10.8991906
20
0.3815529
40
0.2389415
50
280.6347277
51
299.8594068
0
ARC
8
DEFAULT_255_1_388
10
10.9206675
20
0.3407736
40
0.19289
50
300.3575552
51
314.5515667
0
ARC
8
DEFAULT_255_1_388
10
10.9113351
20
0.3476025
40
0.204312
50
315.0730962
51
345.0429362
0
ARC
8
DEFAULT_255_1_388
10
10.8074858
20
0.3778539
40
0.31246
50
344.598526
51
357.9270698
0
ARC
8
DEFAULT_255_1_388
10
10.7065163
20
0.3847705
40
0.4136265
50
357.4755098
51
0.0224936
0
ARC
8
DEFAULT_255_1_388
10
10.8218041
20
0.3875099
40
0.2983498
50
359.5051035
51
13.4236939
0
ARC
8
DEFAULT_255_1_388
10
10.9193131
20
0.4124637
40
0.1977186
50
12.9497905
51
48.7550905
0
ARC
8
DEFAULT_255_1_388
10
10.8988053
20
0.3844373
40
0.2323321
50
49.509109
51
72.1832965
0
ARC
8
DEFAULT_255_1_388
10
10.8585521
20
0.2649632
40
0.358397
50
71.9008458
51
84.3555134
0
ARC
8
DEFAULT_255_1_388
10
10.8403916
20
0.1117712
40
0.512641
50
84.019632
51
89.3326067
0
LINE
8
DEFAULT_255_1_388
10
12.0661748
20
1.3436148
11
12.0661748
21
0.0217
0
LINE
8
DEFAULT_255_1_388
10
12.0661748
20
0.0217
11
11.8981118
21
0.0217
0
LINE
8
DEFAULT_255_1_388
10
11.8981118
20
0.0217
11
11.8981118
21
1.135795
0
LINE
8
DEFAULT_255_1_388
10
11.8981118
20
1.135795
11
11.5610823
21
1.0120066
0
LINE
8
DEFAULT_255_1_388
10
11.5610823
20
1.0120066
11
11.5610823
21
1.1638055
0
LINE
8
DEFAULT_255_1_388
10
11.5610823
20
1.1638055
11
12.0399714
21
1.3436148
0
LINE
8
DEFAULT_255_1_388
10
12.0399714
20
1.3436148
11
12.0661748
21
1.3436148
0
LINE
8
DEFAULT_255_1_388
10
12.9209468
20
0.6487737
11
12.9209468
21
0.5123355
0
LINE
8
DEFAULT_255_1_388
10
12.9209468
20
0.5123355
11
12.4800073
21
0.5123355
0
LINE
8
DEFAULT_255_1_388
10
12.4800073
20
0.5123355
11
12.4800073
21
0.6487737
0
LINE
8
DEFAULT_255_1_388
10
12.4800073
20
0.6487737
11
12.9209468
21
0.6487737
0
LINE
8
DEFAULT_255_1_388
10
13.9157712
20
1.3372898
11
13.9157712
21
1.2433191
0
LINE
8
DEFAULT_255_1_388
10
13.9157712
20
1.2433191
11
13.3709219
21
0.0217
0
LINE
8
DEFAULT_255_1_388
10
13.3709219
20
0.0217
11
13.1956304
21
0.0217
0
LINE
8
DEFAULT_255_1_388
10
13.1956304
20
0.0217
11
13.7386726
21
1.199948
0
LINE
8
DEFAULT_255_1_388
10
13.7386726
20
1.199948
11
13.0266638
21
1.199948
0
LINE
8
DEFAULT_255_1_388
10
13.0266638
20
1.199948
11
13.0266638
21
1.3372898
0
LINE
8
DEFAULT_255_1_388
10
13.0266638
20
1.3372898
11
13.9157712
21
1.3372898
0
LINE
8
DEFAULT_255_1_388
10
14.6322979
20
0.5367317
11
14.3223752
21
0.5367317
0
LINE
8
DEFAULT_255_1_388
10
14.3223752
20
0.5367317
11
14.3223752
21
0.0217
0
LINE
8
DEFAULT_255_1_388
10
14.3223752
20
0.0217
11
14.1488909
21
0.0217
0
LINE
8
DEFAULT_255_1_388
10
14.1488909
20
0.0217
11
14.1488909
21
1.3372898
0
LINE
8
DEFAULT_255_1_388
10
14.1488909
20
1.3372898
11
14.634105
21
1.3372898
0
LINE
8
DEFAULT_255_1_388
10
14.3223752
20
1.1945267
11
14.3223752
21
0.6785914
0
LINE
8
DEFAULT_255_1_388
10
14.3223752
20
0.6785914
11
14.634105
21
0.6785914
0
LINE
8
DEFAULT_255_1_388
10
14.6440442
20
1.1945267
11
14.3223752
21
1.1945267
0
ARC
8
DEFAULT_255_1_388
10
14.6388423
20
0.6556334
40
0.6816729
50
78.8380084
51
90.398184
0
ARC
8
DEFAULT_255_1_388
10
14.6856453
20
0.8829796
40
0.449571
50
58.9633273
51
79.0810717
0
ARC
8
DEFAULT_255_1_388
10
14.7195838
20
0.9459823
40
0.3781049
50
48.0194715
51
58.4475592
0
ARC
8
DEFAULT_255_1_388
10
14.7295658
20
0.9555818
40
0.3642936
50
3.3374546
51
48.1766642
0
ARC
8
DEFAULT_255_1_388
10
14.5910465
20
0.9356581
40
0.5038766
50
359.9483251
51
4.6822857
0
ARC
8
DEFAULT_255_1_388
10
14.6050388
20
0.9308779
40
0.4899031
50
346.1879032
51
0.5059221
0
ARC
8
DEFAULT_255_1_388
10
14.7579179
20
0.8911763
40
0.3319729
50
310.8832219
51
346.5426612
0
ARC
8
DEFAULT_255_1_388
10
14.7232028
20
0.9380853
40
0.3901853
50
286.6925305
51
310.228778
0
ARC
8
DEFAULT_255_1_388
10
14.6591758
20
1.1394585
40
0.6014737
50
274.6848219
51
287.0247342
0
ARC
8
DEFAULT_255_1_388
10
14.6338306
20
1.3879088
40
0.8511785
50
269.8968222
51
275.0192639
0
ARC
8
DEFAULT_255_1_388
10
14.63693
20
1.1541144
40
0.4755314
50
269.6596206
51
279.4150542
0
ARC
8
DEFAULT_255_1_388
10
14.6658758
20
0.9863945
40
0.3053379
50
279.2050006
51
294.9901776
0
ARC
8
DEFAULT_255_1_388
10
14.6985392
20
0.9135353
40
0.2255036
50
295.2886769
51
311.2912669
0
ARC
8
DEFAULT_255_1_388
10
14.7065134
20
0.9016938
40
0.2113522
50
311.7853512
51
347.2860549
0
ARC
8
DEFAULT_255_1_388
10
14.5958295
20
0.930143
40
0.3256011
50
346.6891629
51
0.1057086
0
ARC
8
DEFAULT_255_1_388
10
14.5035755
20
0.9334247
40
0.417863
50
359.63239
51
359.9961329
0
ARC
8
DEFAULT_255_1_388
10
14.620036
20
0.9361987
40
0.3014155
50
359.4673371
51
15.5931159
0
ARC
8
DEFAULT_255_1_388
10
14.6903422
20
0.9551937
40
0.2285918
50
15.7441779
51
46.620186
0
ARC
8
DEFAULT_255_1_388
10
14.6737183
20
0.9360361
40
0.2539359
50
46.8628482
51
75.6676625
0
ARC
8
DEFAULT_255_1_388
10
14.6406239
20
0.8169243
40
0.3775415
50
75.2763152
51
88.2916439
0
ARC
8
DEFAULT_255_1_388
10
14.6340238
20
0.7167097
40
0.4779221
50
87.8589087
51
88.7986197
0
LINE
8
DEFAULT_255_1_388
10
16.0418584
20
0.7445516
11
16.0418584
21
0.6026919
0
LINE
8
DEFAULT_255_1_388
10
16.0418584
20
0.6026919
11
15.4897805
21
0.6026919
0
LINE
8
DEFAULT_255_1_388
10
15.4897805
20
0.6026919
11
15.4897805
21
0.0217
0
LINE
8
DEFAULT_255_1_388
10
15.4897805
20
0.0217
11
15.3162961
21
0.0217
0
LINE
8
DEFAULT_255_1_388
10
15.3162961
20
0.0217
11
15.3162961
21
1.3372898
0
LINE
8
DEFAULT_255_1_388
10
15.3162961
20
1.3372898
11
16.1313113
21
1.3372898
0
LINE
8
DEFAULT_255_1_388
10
16.1313113
20
1.3372898
11
16.1313113
21
1.1945267
0
LINE
8
DEFAULT_255_1_388
10
16.1313113
20
1.1945267
11
15.4897805
21
1.1945267
0
LINE
8
DEFAULT_255_1_388
10
15.4897805
20
1.1945267
11
15.4897805
21
0.7445516
0
LINE
8
DEFAULT_255_1_388
10
15.4897805
20
0.7445516
11
16.0418584
21
0.7445516
0
LINE
8
DEFAULT_255_1_388
10
17.1577605
20
0.1581382
11
17.1577605
21
0.0217
0
LINE
8
DEFAULT_255_1_388
10
17.1577605
20
0.0217
11
16.29576
21
0.0217
0
LINE
8
DEFAULT_255_1_388
10
16.29576
20
0.0217
11
16.29576
21
0.1418741
0
LINE
8
DEFAULT_255_1_388
10
16.29576
20
0.1418741
11
16.7511565
21
0.6478702
0
LINE
8
DEFAULT_255_1_388
10
16.4376196
20
0.9496607
11
16.2704602
21
0.9496607
0
LINE
8
DEFAULT_255_1_388
10
16.849645
20
0.540346
11
16.4972549
21
0.1581382
0
LINE
8
DEFAULT_255_1_388
10
16.4972549
20
0.1581382
11
17.1577605
21
0.1581382
0
ARC
8
DEFAULT_255_1_388
10
15.2335624
20
1.9898983
40
2.0258655
50
318.5132526
51
320.7829045
0
ARC
8
DEFAULT_255_1_388
10
15.8283581
20
1.5057929
40
1.2589638
50
320.7372878
51
323.9739031
0
ARC
8
DEFAULT_255_1_388
10
16.2692513
20
1.1863554
40
0.7145141
50
323.8962701
51
328.64194
0
ARC
8
DEFAULT_255_1_388
10
16.4994771
20
1.0443545
40
0.4440242
50
328.8294576
51
331.7891185
0
ARC
8
DEFAULT_255_1_388
10
16.6117091
20
0.9864374
40
0.3177517
50
331.4254512
51
352.9365785
0
ARC
8
DEFAULT_255_1_388
10
16.6270091
20
0.983005
40
0.3021496
50
353.2257659
51
0.0166158
0
ARC
8
DEFAULT_255_1_388
10
16.6506851
20
0.9855894
40
0.2784847
50
359.486299
51
15.9343185
0
ARC
8
DEFAULT_255_1_388
10
16.7077118
20
1.0009269
40
0.2194403
50
16.1712913
51
43.5286088
0
ARC
8
DEFAULT_255_1_388
10
16.7164063
20
1.0096191
40
0.2071504
50
43.4417391
51
83.1661095
0
ARC
8
DEFAULT_255_1_388
10
16.7013224
20
0.9267316
40
0.2912888
50
82.160179
51
90.1505708
0
ARC
8
DEFAULT_255_1_388
10
16.6977706
20
0.8663279
40
0.3517025
50
89.5460741
51
102.5418361
0
ARC
8
DEFAULT_255_1_388
10
16.6704425
20
0.9822933
40
0.2325748
50
102.1738499
51
129.206123
0
ARC
8
DEFAULT_255_1_388
10
16.6615879
20
0.9962664
40
0.2161591
50
129.72865
51
135.753947
0
ARC
8
DEFAULT_255_1_388
10
16.6752361
20
0.9853728
40
0.2335433
50
136.1757367
51
166.3673339
0
ARC
8
DEFAULT_255_1_388
10
16.7885049
20
0.9550148
40
0.3507873
50
165.9090694
51
178.8684636
0
ARC
8
DEFAULT_255_1_388
10
16.8860821
20
0.9497263
40
0.4484624
50
178.4391136
51
180.0083808
0
ARC
8
DEFAULT_255_1_388
10
16.7281522
20
0.9541197
40
0.4577138
50
163.2878482
51
180.5581842
0
ARC
8
DEFAULT_255_1_388
10
16.6379564
20
0.9789393
40
0.3641968
50
133.4540601
51
162.947111
0
ARC
8
DEFAULT_255_1_388
10
16.6580445
20
0.9575789
40
0.3935189
50
100.7869829
51
133.4382499
0
ARC
8
DEFAULT_255_1_388
10
16.697169
20
0.7833399
40
0.5720313
50
89.660664
51
101.3702276
0
ARC
8
DEFAULT_255_1_388
10
16.7046299
20
0.7902263
40
0.5651495
50
78.2172678
51
90.412935
0
ARC
8
DEFAULT_255_1_388
10
16.7445765
20
0.9729511
40
0.378122
50
55.9269121
51
78.4888449
0
ARC
8
DEFAULT_255_1_388
10
16.766648
20
1.0110187
40
0.3342379
50
47.929771
51
55.4049217
0
ARC
8
DEFAULT_255_1_388
10
16.778101
20
1.0226618
40
0.3179217
50
4.334829
51
48.0560205
0
ARC
8
DEFAULT_255_1_388
10
16.6548812
20
1.0035487
40
0.442341
50
359.9251713
51
5.5971671
0
ARC
8
DEFAULT_255_1_388
10
16.7030967
20
1.0098728
40
0.3941854
50
337.8914027
51
358.9967534
0
ARC
8
DEFAULT_255_1_388
10
16.3978537
20
1.1276295
40
0.7213271
50
326.9132501
51
338.3508308
0
ARC
8
DEFAULT_255_1_388
10
15.9494649
20
1.4150105
40
1.2538973
50
319.6471833
51
327.0959558
0
ARC
8
DEFAULT_255_1_388
10
15.5181307
20
1.770805
40
1.8129975
50
317.2588228
51
319.9045804
0
LINE
8
DEFAULT_255_1_388
10
18.1968596
20
0.1581382
11
18.1968596
21
0.0217
0
LINE
8
DEFAULT_255_1_388
10
18.1968596
20
0.0217
11
17.3348591
21
0.0217
0
LINE
8
DEFAULT_255_1_388
10
17.3348591
20
0.0217
11
17.3348591
21
0.1418741
0
LINE
8
DEFAULT_255_1_388
10
17.3348591
20
0.1418741
11
17.7902556
21
0.6478702
0
LINE
8
DEFAULT_255_1_388
10
17.4767188
20
0.9496607
11
17.3095593
21
0.9496607
0
LINE
8
DEFAULT_255_1_388
10
17.8887441
20
0.540346
11
17.536354
21
0.1581382
0
LINE
8
DEFAULT_255_1_388
10
17.536354
20
0.1581382
11
18.1968596
21
0.1581382
0
ARC
8
DEFAULT_255_1_388
10
16.2726616
20
1.9898983
40
2.0258655
50
318.5132526
51
320.7829045
0
ARC
8
DEFAULT_255_1_388
10
16.8674573
20
1.5057929
40
1.2589638
50
320.7372878
51
323.9739031
0
ARC
8
DEFAULT_255_1_388
10
17.3083504
20
1.1863554
40
0.7145141
50
323.8962701
51
328.64194
0
ARC
8
DEFAULT_255_1_388
10
17.5385762
20
1.0443545
40
0.4440242
50
328.8294576
51
331.7891185
0
ARC
8
DEFAULT_255_1_388
10
17.6508082
20
0.9864374
40
0.3177517
50
331.4254512
51
352.9365785
0
ARC
8
DEFAULT_255_1_388
10
17.6661082
20
0.983005
40
0.3021496
50
353.2257659
51
0.0166158
0
ARC
8
DEFAULT_255_1_388
10
17.6897843
20
0.9855894
40
0.2784847
50
359.486299
51
15.9343185
0
ARC
8
DEFAULT_255_1_388
10
17.7468109
20
1.0009269
40
0.2194403
50
16.1712913
51
43.5286088
0
ARC
8
DEFAULT_255_1_388
10
17.7555054
20
1.0096191
40
0.2071504
50
43.4417391
51
83.1661095
0
ARC
8
DEFAULT_255_1_388
10
17.7404215
20
0.9267316
40
0.2912888
50
82.160179
51
90.1505708
0
ARC
8
DEFAULT_255_1_388
10
17.7368697
20
0.8663279
40
0.3517025
50
89.5460741
51
102.5418361
0
ARC
8
DEFAULT_255_1_388
10
17.7095417
20
0.9822933
40
0.2325748
50
102.1738499
51
129.206123
0
ARC
8
DEFAULT_255_1_388
10
17.700687
20
0.9962664
40
0.2161591
50
129.72865
51
135.753947
0
ARC
8
DEFAULT_255_1_388
10
17.7143352
20
0.9853728
40
0.2335433
50
136.1757367
51
166.3673339
0
ARC
8
DEFAULT_255_1_388
10
17.8276041
20
0.9550148
40
0.3507873
50
165.9090694
51
178.8684636
0
ARC
8
DEFAULT_255_1_388
10
17.9251812
20
0.9497263
40
0.4484624
50
178.4391136
51
180.0083808
0
ARC
8
DEFAULT_255_1_388
10
17.7672514
20
0.9541197
40
0.4577138
50
163.2878482
51
180.5581842
0
ARC
8
DEFAULT_255_1_388
10
17.6770555
20
0.9789393
40
0.3641968
50
133.4540601
51
162.947111
0
ARC
8
DEFAULT_255_1_388
10
17.6971437
20
0.9575789
40
0.3935189
50
100.7869829
51
133.4382499
0
ARC
8
DEFAULT_255_1_388
10
17.7362682
20
0.7833399
40
0.5720313
50
89.660664
51
101.3702276
0
ARC
8
DEFAULT_255_1_388
10
17.743729
20
0.7902263
40
0.5651495
50
78.2172678
51
90.412935
0
ARC
8
DEFAULT_255_1_388
10
17.7836756
20
0.9729511
40
0.378122
50
55.9269121
51
78.4888449
0
ARC
8
DEFAULT_255_1_388
10
17.8057471
20
1.0110187
40
0.3342379
50
47.929771
51
55.4049217
0
ARC
8
DEFAULT_255_1_388
10
17.8172002
20
1.0226618
40
0.3179217
50
4.334829
51
48.0560205
0
ARC
8
DEFAULT_255_1_388
10
17.6939803
20
1.0035487
40
0.442341
50
359.9251713
51
5.5971671
0
ARC
8
DEFAULT_255_1_388
10
17.7421958
20
1.0098728
40
0.3941854
50
337.8914027
51
358.9967534
0
ARC
8
DEFAULT_255_1_388
10
17.4369528
20
1.1276295
40
0.7213271
50
326.9132501
51
338.3508308
0
ARC
8
DEFAULT_255_1_388
10
16.988564
20
1.4150105
40
1.2538973
50
319.6471833
51
327.0959558
0
ARC
8
DEFAULT_255_1_388
10
16.5572298
20
1.770805
40
1.8129975
50
317.2588228
51
319.9045804
0
LINE
8
DEFAULT_255_1_388
10
18.7389983
20
0.6487737
11
18.7389983
21
0.5123355
0
LINE
8
DEFAULT_255_1_388
10
18.7389983
20
0.5123355
11
18.2980588
21
0.5123355
0
LINE
8
DEFAULT_255_1_388
10
18.2980588
20
0.5123355
11
18.2980588
21
0.6487737
0
LINE
8
DEFAULT_255_1_388
10
18.2980588
20
0.6487737
11
18.7389983
21
0.6487737
0
LINE
8
DEFAULT_255_1_388
10
19.7094265
20
0.799669
11
19.7094265
21
0.5828135
0
LINE
8
DEFAULT_255_1_388
10
18.8790508
20
0.5602244
11
18.8790508
21
0.7834048
0
LINE
8
DEFAULT_255_1_388
10
19.5422671
20
0.5376353
11
19.5422671
21
0.8114153
0
LINE
8
DEFAULT_255_1_388
10
19.0462102
20
0.8240652
11
19.0462102
21
0.5566102
0
ARC
8
DEFAULT_255_1_388
10
18.3316599
20
0.5773118
40
1.3777776
50
353.8440855
51
0.2287917
0
ARC
8
DEFAULT_255_1_388
10
18.8535616
20
0.5190414
40
0.852639
50
344.4934746
51
353.9763743
0
ARC
8
DEFAULT_255_1_388
10
19.1902424
20
0.4233191
40
0.5026273
50
329.2803599
51
344.7473406
0
ARC
8
DEFAULT_255_1_388
10
19.3017919
20
0.3621038
40
0.3754848
50
324.9361395
51
328.6153007
0
ARC
8
DEFAULT_255_1_388
10
19.3443569
20
0.3323586
40
0.3235566
50
280.5801797
51
324.9173226
0
ARC
8
DEFAULT_255_1_388
10
19.2992198
20
0.5203236
40
0.5167077
50
269.5979457
51
281.6732777
0
ARC
8
DEFAULT_255_1_388
10
19.2911101
20
0.5068113
40
0.5032026
50
256.6228565
51
270.5105488
0
ARC
8
DEFAULT_255_1_388
10
19.2458844
20
0.3326345
40
0.3233092
50
215.8618351
51
257.2787793
0
ARC
8
DEFAULT_255_1_388
10
19.3607551
20
0.4097106
40
0.4615831
50
197.9695203
51
215.2622745
0
ARC
8
DEFAULT_255_1_388
10
19.6403227
20
0.5040641
40
0.7566307
50
187.8816486
51
198.2346584
0
ARC
8
DEFAULT_255_1_388
10
20.0856465
20
0.5683453
40
1.2065653
50
180.8977266
51
188.0054894
0
ARC
8
DEFAULT_255_1_388
10
20.3906679
20
0.57984
40
1.5117443
50
180.7434591
51
181.152202
0
ARC
8
DEFAULT_255_1_388
10
20.2231675
20
0.7888371
40
1.3441277
50
173.7674302
51
180.2315596
0
ARC
8
DEFAULT_255_1_388
10
19.7149544
20
0.8462779
40
0.8326847
50
164.3058537
51
173.9000553
0
ARC
8
DEFAULT_255_1_388
10
19.3873544
20
0.9406652
40
0.4917711
50
148.7922028
51
164.5682288
0
ARC
8
DEFAULT_255_1_388
10
19.2804281
20
1.0003457
40
0.3694204
50
144.5883979
51
148.1161588
0
ARC
8
DEFAULT_255_1_388
10
19.2417026
20
1.0273667
40
0.322202
50
101.6440149
51
144.5142619
0
ARC
8
DEFAULT_255_1_388
10
19.2895219
20
0.8373337
40
0.5180451
50
89.528284
51
102.5820197
0
ARC
8
DEFAULT_255_1_388
10
19.298421
20
0.8329376
40
0.5224441
50
77.0437914
51
90.508231
0
ARC
8
DEFAULT_255_1_388
10
19.3436464
20
1.0177272
40
0.3322297
50
48.2777708
51
77.4996087
0
ARC
8
DEFAULT_255_1_388
10
19.3518204
20
1.0322557
40
0.315966
50
36.3141586
51
47.6307332
0
ARC
8
DEFAULT_255_1_388
10
19.2540926
20
0.9664159
40
0.4337313
50
18.2931065
51
35.6770203
0
ARC
8
DEFAULT_255_1_388
10
18.9679767
20
0.8682107
40
0.7362203
50
8.0246996
51
18.5605636
0
ARC
8
DEFAULT_255_1_388
10
18.4996123
20
0.7990432
40
1.2096583
50
1.127539
51
8.1718423
0
ARC
8
DEFAULT_255_1_388
10
18.1347256
20
0.7847374
40
1.5747719
50
0.5432713
51
1.38669
0
ARC
8
DEFAULT_255_1_388
10
18.3404635
20
0.8154163
40
1.2018103
50
359.8092569
51
4.9408001
0
ARC
8
DEFAULT_255_1_388
10
18.8141216
20
0.85769
40
0.7262727
50
4.8364937
51
12.2906017
0
ARC
8
DEFAULT_255_1_388
10
19.1240681
20
0.9267485
40
0.4087324
50
12.0806994
51
23.8171225
0
ARC
8
DEFAULT_255_1_388
10
19.2561077
20
0.9826508
40
0.2653719
50
24.2874621
51
31.3934353
0
ARC
8
DEFAULT_255_1_388
10
19.3151513
20
1.0212822
40
0.1948607
50
30.7407708
51
82.4658033
0
ARC
8
DEFAULT_255_1_388
10
19.2949174
20
0.9219017
40
0.2961198
50
81.1057101
51
90.2187368
0
ARC
8
DEFAULT_255_1_388
10
19.2908985
20
0.9509421
40
0.2670929
50
89.380395
51
105.6763916
0
ARC
8
DEFAULT_255_1_388
10
19.2702707
20
1.025932
40
0.1893189
50
105.7980655
51
149.7387869
0
ARC
8
DEFAULT_255_1_388
10
19.3899847
20
0.9539719
40
0.3289892
50
149.4208441
51
163.628295
0
ARC
8
DEFAULT_255_1_388
10
19.6252077
20
0.8822345
40
0.5749004
50
163.3764549
51
172.141138
0
ARC
8
DEFAULT_255_1_388
10
19.9964799
20
0.8290582
40
0.9499585
50
172.0258462
51
178.0705453
0
ARC
8
DEFAULT_255_1_388
10
20.3386351
20
0.8128682
40
1.2924734
50
177.8639301
51
179.5036263
0
ARC
8
DEFAULT_255_1_388
10
20.216737
20
0.5525151
40
1.170534
50
179.7995545
51
185.246089
0
ARC
8
DEFAULT_255_1_388
10
19.7618963
20
0.5094404
40
0.7136613
50
185.1411911
51
193.0082205
0
ARC
8
DEFAULT_255_1_388
10
19.4645224
20
0.4391441
40
0.4080987
50
192.7897338
51
205.2507384
0
ARC
8
DEFAULT_255_1_388
10
19.3467434
20
0.3865538
40
0.2791522
50
205.8001921
51
211.2545876
0
ARC
8
DEFAULT_255_1_388
10
19.2878973
20
0.3471132
40
0.2084074
50
210.3789935
51
238.4007996
0
ARC
8
DEFAULT_255_1_388
10
19.2857059
20
0.3523786
40
0.2117943
50
239.6521916
51
265.9793852
0
ARC
8
DEFAULT_255_1_388
10
19.2952908
20
0.4280358
40
0.2879689
50
265.1324455
51
270.0603288
0
ARC
8
DEFAULT_255_1_388
10
19.2985285
20
0.3915418
40
0.2514919
50
269.3314378
51
287.2180039
0
ARC
8
DEFAULT_255_1_388
10
19.3140367
20
0.3349291
40
0.1928357
50
287.7957942
51
329.0808983
0
ARC
8
DEFAULT_255_1_388
10
19.2063124
20
0.4021651
40
0.319808
50
328.6635261
51
343.3325043
0
ARC
8
DEFAULT_255_1_388
10
18.9618583
20
0.4783195
40
0.5758408
50
343.0498092
51
351.9392499
0
ARC
8
DEFAULT_255_1_388
10
18.5717904
20
0.5358205
40
0.9701202
50
351.8071632
51
357.7957897
0
ARC
8
DEFAULT_255_1_388
10
18.2083381
20
0.5546724
40
1.3340376
50
357.5870923
51
359.2682493
0
LINE
8
DEFAULT_255_1_388
10
20.0789844
20
1.3372898
11
20.3961355
21
0.8331009
0
LINE
8
DEFAULT_255_1_388
10
20.3961355
20
0.8331009
11
20.7114795
21
1.3372898
0
LINE
8
DEFAULT_255_1_388
10
20.7114795
20
1.3372898
11
20.9156851
21
1.3372898
0
LINE
8
DEFAULT_255_1_388
10
20.9156851
20
1.3372898
11
20.5000454
21
0.6849163
0
LINE
8
DEFAULT_255_1_388
10
20.5000454
20
0.6849163
11
20.9256243
21
0.0217
0
LINE
8
DEFAULT_255_1_388
10
20.9256243
20
0.0217
11
20.7196116
21
0.0217
0
LINE
8
DEFAULT_255_1_388
10
20.7196116
20
0.0217
11
20.3961355
21
0.5349246
0
LINE
8
DEFAULT_255_1_388
10
20.3961355
20
0.5349246
11
20.0708523
21
0.0217
0
LINE
8
DEFAULT_255_1_388
10
20.0708523
20
0.0217
11
19.8657432
21
0.0217
0
LINE
8
DEFAULT_255_1_388
10
19.8657432
20
0.0217
11
20.2922256
21
0.6849163
0
LINE
8
DEFAULT_255_1_388
10
20.2922256
20
0.6849163
11
19.8756824
21
1.3372898
0
LINE
8
DEFAULT_255_1_388
10
19.8756824
20
1.3372898
11
20.0789844
21
1.3372898
0
LINE
8
DEFAULT_255_1_388
10
21.9791804
20
0.0217
11
21.853585
21
0.3650545
0
LINE
8
DEFAULT_255_1_388
10
21.853585
20
0.3650545
11
21.3024106
21
0.3650545
0
LINE
8
DEFAULT_255_1_388
10
21.3024106
20
0.3650545
11
21.1786223
21
0.0217
0
LINE
8
DEFAULT_255_1_388
10
21.1786223
20
0.0217
11
20.9997166
21
0.0217
0
LINE
8
DEFAULT_255_1_388
10
20.9997166
20
0.0217
11
21.5020984
21
1.3372898
0
LINE
8
DEFAULT_255_1_388
10
21.5020984
20
1.3372898
11
21.6538972
21
1.3372898
0
LINE
8
DEFAULT_255_1_388
10
21.6538972
20
1.3372898
11
22.1571826
21
0.0217
0
LINE
8
DEFAULT_255_1_388
10
22.1571826
20
0.0217
11
21.9791804
21
0.0217
0
LINE
8
DEFAULT_255_1_388
10
21.5779978
20
1.1231451
11
21.3548174
21
0.5078177
0
LINE
8
DEFAULT_255_1_388
10
21.3548174
20
0.5078177
11
21.8020818
21
0.5078177
0
LINE
8
DEFAULT_255_1_388
10
21.8020818
20
0.5078177
11
21.5779978
21
1.1231451
0
LINE
8
DEFAULT_255_1_388
10
23.1158645
20
0.799669
11
23.1158645
21
0.5828135
0
LINE
8
DEFAULT_255_1_388
10
22.2854888
20
0.5602244
11
22.2854888
21
0.7834048
0
LINE
8
DEFAULT_255_1_388
10
22.9487051
20
0.5376353
11
22.9487051
21
0.8114153
0
LINE
8
DEFAULT_255_1_388
10
22.4526482
20
0.8240652
11
22.4526482
21
0.5566102
0
ARC
8
DEFAULT_255_1_388
10
21.7380979
20
0.5773118
40
1.3777776
50
353.8440855
51
0.2287917
0
ARC
8
DEFAULT_255_1_388
10
22.2599996
20
0.5190414
40
0.852639
50
344.4934746
51
353.9763743
0
ARC
8
DEFAULT_255_1_388
10
22.5966804
20
0.4233191
40
0.5026273
50
329.2803599
51
344.7473406
0
ARC
8
DEFAULT_255_1_388
10
22.7082299
20
0.3621038
40
0.3754848
50
324.9361395
51
328.6153007
0
ARC
8
DEFAULT_255_1_388
10
22.7507949
20
0.3323586
40
0.3235566
50
280.5801797
51
324.9173226
0
ARC
8
DEFAULT_255_1_388
10
22.7056578
20
0.5203236
40
0.5167077
50
269.5979457
51
281.6732777
0
ARC
8
DEFAULT_255_1_388
10
22.6975481
20
0.5068113
40
0.5032026
50
256.6228565
51
270.5105488
0
ARC
8
DEFAULT_255_1_388
10
22.6523224
20
0.3326345
40
0.3233092
50
215.8618351
51
257.2787793
0
ARC
8
DEFAULT_255_1_388
10
22.7671931
20
0.4097106
40
0.4615831
50
197.9695203
51
215.2622745
0
ARC
8
DEFAULT_255_1_388
10
23.0467607
20
0.5040641
40
0.7566307
50
187.8816486
51
198.2346584
0
ARC
8
DEFAULT_255_1_388
10
23.4920845
20
0.5683453
40
1.2065653
50
180.8977266
51
188.0054894
0
ARC
8
DEFAULT_255_1_388
10
23.7971059
20
0.57984
40
1.5117443
50
180.7434591
51
181.152202
0
ARC
8
DEFAULT_255_1_388
10
23.6296055
20
0.7888371
40
1.3441277
50
173.7674302
51
180.2315596
0
ARC
8
DEFAULT_255_1_388
10
23.1213923
20
0.8462779
40
0.8326847
50
164.3058537
51
173.9000553
0
ARC
8
DEFAULT_255_1_388
10
22.7937923
20
0.9406652
40
0.4917711
50
148.7922028
51
164.5682288
0
ARC
8
DEFAULT_255_1_388
10
22.6868661
20
1.0003457
40
0.3694204
50
144.5883979
51
148.1161588
0
ARC
8
DEFAULT_255_1_388
10
22.6481406
20
1.0273667
40
0.322202
50
101.6440149
51
144.5142619
0
ARC
8
DEFAULT_255_1_388
10
22.6959598
20
0.8373337
40
0.5180451
50
89.528284
51
102.5820197
0
ARC
8
DEFAULT_255_1_388
10
22.704859
20
0.8329376
40
0.5224441
50
77.0437914
51
90.508231
0
ARC
8
DEFAULT_255_1_388
10
22.7500844
20
1.0177272
40
0.3322297
50
48.2777708
51
77.4996087
0
ARC
8
DEFAULT_255_1_388
10
22.7582584
20
1.0322557
40
0.315966
50
36.3141586
51
47.6307332
0
ARC
8
DEFAULT_255_1_388
10
22.6605306
20
0.9664159
40
0.4337313
50
18.2931065
51
35.6770203
0
ARC
8
DEFAULT_255_1_388
10
22.3744147
20
0.8682107
40
0.7362203
50
8.0246996
51
18.5605636
0
ARC
8
DEFAULT_255_1_388
10
21.9060502
20
0.7990432
40
1.2096583
50
1.127539
51
8.1718423
0
ARC
8
DEFAULT_255_1_388
10
21.5411636
20
0.7847374
40
1.5747719
50
0.5432713
51
1.38669
0
ARC
8
DEFAULT_255_1_388
10
21.7469015
20
0.8154163
40
1.2018103
50
359.8092569
51
4.9408001
0
ARC
8
DEFAULT_255_1_388
10
22.2205596
20
0.85769
40
0.7262727
50
4.8364937
51
12.2906017
0
ARC
8
DEFAULT_255_1_388
10
22.5305061
20
0.9267485
40
0.4087324
50
12.0806994
51
23.8171225
0
ARC
8
DEFAULT_255_1_388
10
22.6625457
20
0.9826508
40
0.2653719
50
24.2874621
51
31.3934353
0
ARC
8
DEFAULT_255_1_388
10
22.7215893
20
1.0212822
40
0.1948607
50
30.7407708
51
82.4658033
0
ARC
8
DEFAULT_255_1_388
10
22.7013553
20
0.9219017
40
0.2961198
50
81.1057101
51
90.2187368
0
ARC
8
DEFAULT_255_1_388
10
22.6973365
20
0.9509421
40
0.2670929
50
89.380395
51
105.6763916
0
ARC
8
DEFAULT_255_1_388
10
22.6767087
20
1.025932
40
0.1893189
50
105.7980655
51
149.7387869
0
ARC
8
DEFAULT_255_1_388
10
22.7964227
20
0.9539719
40
0.3289892
50
149.4208441
51
163.628295
0
ARC
8
DEFAULT_255_1_388
10
23.0316457
20
0.8822345
40
0.5749004
50
163.3764549
51
172.141138
0
ARC
8
DEFAULT_255_1_388
10
23.4029178
20
0.8290582
40
0.9499585
50
172.0258462
51
178.0705453
0
ARC
8
DEFAULT_255_1_388
10
23.7450731
20
0.8128682
40
1.2924734
50
177.8639301
51
179.5036263
0
ARC
8
DEFAULT_255_1_388
10
23.623175
20
0.5525151
40
1.170534
50
179.7995545
51
185.246089
0
ARC
8
DEFAULT_255_1_388
10
23.1683343
20
0.5094404
40
0.7136613
50
185.1411911
51
193.0082205
0
ARC
8
DEFAULT_255_1_388
10
22.8709604
20
0.4391441
40
0.4080987
50
192.7897338
51
205.2507384
0
ARC
8
DEFAULT_255_1_388
10
22.7531814
20
0.3865538
40
0.2791522
50
205.8001921
51
211.2545876
0
ARC
8
DEFAULT_255_1_388
10
22.6943353
20
0.3471132
40
0.2084074
50
210.3789935
51
238.4007996
0
ARC
8
DEFAULT_255_1_388
10
22.6921439
20
0.3523786
40
0.2117943
50
239.6521916
51
265.9793852
0
ARC
8
DEFAULT_255_1_388
10
22.7017288
20
0.4280358
40
0.2879689
50
265.1324455
51
270.0603288
0
ARC
8
DEFAULT_255_1_388
10
22.7049665
20
0.3915418
40
0.2514919
50
269.3314378
51
287.2180039
0
ARC
8
DEFAULT_255_1_388
10
22.7204747
20
0.3349291
40
0.1928357
50
287.7957942
51
329.0808983
0
ARC
8
DEFAULT_255_1_388
10
22.6127504
20
0.4021651
40
0.319808
50
328.6635261
51
343.3325043
0
ARC
8
DEFAULT_255_1_388
10
22.3682963
20
0.4783195
40
0.5758408
50
343.0498092
51
351.9392499
0
ARC
8
DEFAULT_255_1_388
10
21.9782284
20
0.5358205
40
0.9701202
50
351.8071632
51
357.7957897
0
ARC
8
DEFAULT_255_1_388
10
21.6147761
20
0.5546724
40
1.3340376
50
357.5870923
51
359.2682493
0
LINE
8
DEFAULT_255_2_778
10
10.7156335
20
46.1697488
11
10.7156335
21
5.1593488
0
LINE
8
DEFAULT_255_2_778
10
10.7156335
20
5.1593488
11
9.3927335
21
5.1593488
0
LINE
8
DEFAULT_255_2_778
10
9.3927335
20
92.4718488
11
10.7156335
21
92.4718488
0
LINE
8
DEFAULT_255_2_778
10
10.7156335
20
92.4718488
11
10.7156335
21
51.4614488
0
LINE
8
DEFAULT_255_2_778
10
19.9760335
20
92.4718488
11
18.6531335
21
92.4718488
0
LINE
8
DEFAULT_255_2_778
10
18.6531335
20
92.4718488
11
18.6531335
21
83.2114488
0
LINE
8
DEFAULT_255_2_778
10
18.6531335
20
77.9197488
11
18.6531335
21
68.6593488
0
LINE
8
DEFAULT_255_2_778
10
18.6531335
20
68.6593488
11
19.9760335
21
68.6593488
0
LINE
8
DEFAULT_255_2_778
10
9.3926834
20
51.4614333
11
12.0384834
21
51.4614333
0
LINE
8
DEFAULT_255_2_778
10
12.0384834
20
51.4614333
11
12.0384834
21
46.1697333
0
LINE
8
DEFAULT_255_2_778
10
12.0384834
20
46.1697333
11
9.3926834
21
46.1697333
0
LINE
8
DEFAULT_255_2_778
10
9.3926834
20
46.1697333
11
9.3926834
21
51.4614333
0
ARC
8
DEFAULT_255_2_778_1
10
13.1922591
20
46.272177
40
4.816461
50
120.9442904
51
122.351755
0
ARC
8
DEFAULT_255_2_778_1
10
12.7456523
20
46.9758039
40
3.9830657
50
122.3407904
51
124.1946752
0
ARC
8
DEFAULT_255_2_778_1
10
12.3057464
20
47.6223306
40
3.2010724
50
124.1855758
51
126.4338849
0
ARC
8
DEFAULT_255_2_778_1
10
11.9198129
20
48.1450611
40
2.5513094
50
126.4326926
51
128.8877368
0
ARC
8
DEFAULT_255_2_778_1
10
11.5849968
20
48.5594658
40
2.0185498
50
128.8749205
51
131.8726567
0
ARC
8
DEFAULT_255_2_778_1
10
11.2878677
20
48.8904854
40
1.5737356
50
131.8616166
51
135.4168838
0
ARC
8
DEFAULT_255_2_778_1
10
11.025068
20
49.1486765
40
1.2053256
50
135.3893975
51
139.9687014
0
ARC
8
DEFAULT_255_2_778_1
10
10.7921889
20
49.3435102
40
0.9016937
50
139.9301659
51
145.9260426
0
ARC
8
DEFAULT_255_2_778_1
10
10.596054
20
49.4755104
40
0.6652776
50
145.8787362
51
153.8146208
0
ARC
8
DEFAULT_255_2_778_1
10
10.4439553
20
49.5498797
40
0.4959714
50
153.770634
51
164.3484794
0
ARC
8
DEFAULT_255_2_778_1
10
10.3426387
20
49.5780786
40
0.3908039
50
164.3220276
51
179.8083066
0
ARC
8
DEFAULT_255_2_778_1
10
10.3636789
20
49.586215
40
0.4118985
50
180.9499449
51
213.8111542
0
ARC
8
DEFAULT_255_2_778_1
10
10.6395828
20
49.7557896
40
0.73561
50
212.8271214
51
224.258472
0
ARC
8
DEFAULT_255_2_778_1
10
11.0224335
20
50.1251236
40
1.267567
50
224.1376218
51
231.4508261
0
ARC
8
DEFAULT_255_2_778_1
10
11.6651195
20
50.9281168
40
2.2960809
50
231.3955893
51
236.1256478
0
ARC
8
DEFAULT_255_2_778_1
10
13.4974223
20
53.6746293
40
5.5976905
50
236.2233172
51
239.1314682
0
ARC
8
DEFAULT_255_2_778_1
10
25.447327
20
73.4023568
40
28.6623793
50
238.8606853
51
239.0711101
0
ARC
8
DEFAULT_255_2_778_1
10
6.2751281
20
41.3052653
40
8.7248518
50
57.2420924
51
59.4062964
0
ARC
8
DEFAULT_255_2_778_1
10
9.5028241
20
46.3362102
40
2.747542
50
52.8289294
51
57.079028
0
ARC
8
DEFAULT_255_2_778_1
10
10.2774783
20
47.3565488
40
1.466457
50
46.3041868
51
52.8596521
0
ARC
8
DEFAULT_255_2_778_1
10
10.7097073
20
47.8066842
40
0.8424061
50
36.2174211
51
46.4090895
0
ARC
8
DEFAULT_255_2_778_1
10
10.9942088
20
48.0115128
40
0.4918609
50
17.400375
51
36.5489745
0
ARC
8
DEFAULT_255_2_778_1
10
11.1082994
20
48.0513754
40
0.3710912
50
0.0676858
51
16.7951297
0
ARC
8
DEFAULT_255_2_778_1
10
11.0872613
20
48.0532428
40
0.3921317
50
343.8035191
51
359.7912046
0
ARC
8
DEFAULT_255_2_778_1
10
10.9809912
20
48.0837167
40
0.5026844
50
333.2506233
51
343.8465691
0
ARC
8
DEFAULT_255_2_778_1
10
10.8271757
20
48.1604313
40
0.6745679
50
325.6600948
51
333.3122657
0
ARC
8
DEFAULT_255_2_778_1
10
10.6317344
20
48.2932296
40
0.9108568
50
319.7560915
51
325.6976089
0
ARC
8
DEFAULT_255_2_778_1
10
10.403599
20
48.4850002
40
1.2088854
50
315.4577584
51
319.8037947
0
ARC
8
DEFAULT_255_2_778_1
10
10.1402127
20
48.7438507
40
1.5781764
50
311.7298824
51
315.4670864
0
ARC
8
DEFAULT_255_2_778_1
10
9.8311879
20
49.0894074
40
2.0417554
50
308.723055
51
311.7470879
0
ARC
8
DEFAULT_255_2_778_1
10
9.476989
20
49.5306492
40
2.6075745
50
306.1165163
51
308.7300151
0
ARC
8
DEFAULT_255_2_778_1
10
9.0740091
20
50.0819523
40
3.2904564
50
303.9559446
51
306.1266333
0
ARC
8
DEFAULT_255_2_778_1
10
8.6624432
20
50.691215
40
4.0257023
50
302.3733397
51
303.9712246
0
ARC
8
DEFAULT_255_2_778_1
10
8.2428347
20
51.3527058
40
4.8090549
50
300.9434827
51
302.3758078
0
LINE
8
DEFAULT_255_2_778
10
17.3301834
20
83.2114333
11
19.9759834
21
83.2114333
0
LINE
8
DEFAULT_255_2_778
10
19.9759834
20
83.2114333
11
19.9759834
21
77.9197333
0
LINE
8
DEFAULT_255_2_778
10
19.9759834
20
77.9197333
11
17.3301834
21
77.9197333
0
LINE
8
DEFAULT_255_2_778
10
17.3301834
20
77.9197333
11
17.3301834
21
83.2114333
0
ARC
8
DEFAULT_255_2_778_1
10
21.1297591
20
78.022177
40
4.816461
50
120.9442904
51
122.351755
0
ARC
8
DEFAULT_255_2_778_1
10
20.6831523
20
78.7258039
40
3.9830657
50
122.3407904
51
124.1946752
0
ARC
8
DEFAULT_255_2_778_1
10
20.2432464
20
79.3723306
40
3.2010724
50
124.1855758
51
126.4338849
0
ARC
8
DEFAULT_255_2_778_1
10
19.8573129
20
79.8950611
40
2.5513094
50
126.4326926
51
128.8877368
0
ARC
8
DEFAULT_255_2_778_1
10
19.5224968
20
80.3094658
40
2.0185498
50
128.8749205
51
131.8726567
0
ARC
8
DEFAULT_255_2_778_1
10
19.2253677
20
80.6404854
40
1.5737356
50
131.8616166
51
135.4168838
0
ARC
8
DEFAULT_255_2_778_1
10
18.962568
20
80.8986765
40
1.2053256
50
135.3893975
51
139.9687014
0
ARC
8
DEFAULT_255_2_778_1
10
18.7296889
20
81.0935102
40
0.9016937
50
139.9301659
51
145.9260426
0
ARC
8
DEFAULT_255_2_778_1
10
18.533554
20
81.2255104
40
0.6652776
50
145.8787362
51
153.8146208
0
ARC
8
DEFAULT_255_2_778_1
10
18.3814553
20
81.2998797
40
0.4959714
50
153.770634
51
164.3484794
0
ARC
8
DEFAULT_255_2_778_1
10
18.2801387
20
81.3280786
40
0.3908039
50
164.3220276
51
179.8083066
0
ARC
8
DEFAULT_255_2_778_1
10
18.3011789
20
81.336215
40
0.4118985
50
180.9499449
51
213.8111542
0
ARC
8
DEFAULT_255_2_778_1
10
18.5770828
20
81.5057896
40
0.73561
50
212.8271214
51
224.258472
0
ARC
8
DEFAULT_255_2_778_1
10
18.9599335
20
81.8751236
40
1.267567
50
224.1376218
51
231.4508261
0
ARC
8
DEFAULT_255_2_778_1
10
19.6026195
20
82.6781168
40
2.2960809
50
231.3955893
51
236.1256478
0
ARC
8
DEFAULT_255_2_778_1
10
21.4349223
20
85.4246293
40
5.5976905
50
236.2233172
51
239.1314682
0
ARC
8
DEFAULT_255_2_778_1
10
33.384827
20
105.1523568
40
28.6623793
50
238.8606853
51
239.0711101
0
ARC
8
DEFAULT_255_2_778_1
10
14.2126281
20
73.0552653
40
8.7248518
50
57.2420924
51
59.4062964
0
ARC
8
DEFAULT_255_2_778_1
10
17.4403241
20
78.0862102
40
2.747542
50
52.8289294
51
57.079028
0
ARC
8
DEFAULT_255_2_778_1
10
18.2149783
20
79.1065488
40
1.466457
50
46.3041868
51
52.8596521
0
ARC
8
DEFAULT_255_2_778_1
10
18.6472073
20
79.5566842
40
0.8424061
50
36.2174211
51
46.4090895
0
ARC
8
DEFAULT_255_2_778_1
10
18.9317088
20
79.7615128
40
0.4918609
50
17.400375
51
36.5489745
0
ARC
8
DEFAULT_255_2_778_1
10
19.0457994
20
79.8013754
40
0.3710912
50
0.0676858
51
16.7951297
0
ARC
8
DEFAULT_255_2_778_1
10
19.0247613
20
79.8032428
40
0.3921317
50
343.8035191
51
359.7912046
0
ARC
8
DEFAULT_255_2_778_1
10
18.9184912
20
79.8337167
40
0.5026844
50
333.2506233
51
343.8465691
0
ARC
8
DEFAULT_255_2_778_1
10
18.7646757
20
79.9104313
40
0.6745679
50
325.6600948
51
333.3122657
0
ARC
8
DEFAULT_255_2_778_1
10
18.5692344
20
80.0432296
40
0.9108568
50
319.7560915
51
325.6976089
0
ARC
8
DEFAULT_255_2_778_1
10
18.341099
20
80.2350002
40
1.2088854
50
315.4577584
51
319.8037947
0
ARC
8
DEFAULT_255_2_778_1
10
18.0777127
20
80.4938507
40
1.5781764
50
311.7298824
51
315.4670864
0
ARC
8
DEFAULT_255_2_778_1
10
17.7686879
20
80.8394074
40
2.0417554
50
308.723055
51
311.7470879
0
ARC
8
DEFAULT_255_2_778_1
10
17.414489
20
81.2806492
40
2.6075745
50
306.1165163
51
308.7300151
0
ARC
8
DEFAULT_255_2_778_1
10
17.0115091
20
81.8319523
40
3.2904564
50
303.9559446
51
306.1266333
0
ARC
8
DEFAULT_255_2_778_1
10
16.5999432
20
82.441215
40
4.0257023
50
302.3733397
51
303.9712246
0
ARC
8
DEFAULT_255_2_778_1
10
16.1803347
20
83.1027058
40
4.8090549
50
300.9434827
51
302.3758078
0
ARC
8
DEFAULT_255_2_778
10
7.7537439
20
107.8573128
40
3.0466403
50
251.6724781
51
258.5987661
0
ARC
8
DEFAULT_255_2_778
10
7.5394558
20
106.7761316
40
1.9444375
50
258.4907215
51
268.3974115
0
ARC
8
DEFAULT_255_2_778
10
7.5171542
20
106.3454995
40
1.5133848
50
268.7854544
51
269.9953942
0
ARC
8
DEFAULT_255_2_778
10
7.5274263
20
105.8961726
40
1.0641086
50
269.4403512
51
279.6841037
0
ARC
8
DEFAULT_255_2_778
10
7.6415978
20
105.2666567
40
0.4244099
50
278.7863046
51
300.3428271
0
ARC
8
DEFAULT_255_2_778
10
7.7606279
20
105.06403
40
0.1894089
50
300.2328316
51
1.9014863
0
ARC
8
DEFAULT_255_2_778
10
7.745908
20
105.0731715
40
0.2040445
50
359.1977832
51
359.9996968
0
ARC
8
DEFAULT_255_2_778
10
7.752475
20
105.0740013
40
0.1974794
50
359.7589479
51
47.2071953
0
ARC
8
DEFAULT_255_2_778
10
7.618413
20
104.9250429
40
0.3978723
50
47.6130098
51
60.824453
0
ARC
8
DEFAULT_255_2_778
10
7.0178997
20
103.9080677
40
1.5788249
50
59.7878046
51
64.8721208
0
ARC
8
DEFAULT_255_2_778
10
6.0919837
20
101.9768461
40
3.7205057
50
64.5916011
51
66.820345
0
ARC
8
DEFAULT_255_2_778
10
9.6372482
20
110.3349609
40
5.3584611
50
244.3087082
51
247.1497851
0
ARC
8
DEFAULT_255_2_778
10
8.548378
20
108.079372
40
2.8538059
50
240.2312866
51
244.3765687
0
ARC
8
DEFAULT_255_2_778
10
7.7790999
20
106.7449805
40
1.3135689
50
233.2094737
51
240.4596791
0
ARC
8
DEFAULT_255_2_778
10
7.3558445
20
106.1749409
40
0.603585
50
225.678902
51
232.9782433
0
ARC
8
DEFAULT_255_2_778
10
7.396101
20
106.1997518
40
0.6495632
50
178.2741582
51
224.667467
0
ARC
8
DEFAULT_255_2_778
10
7.506051
20
106.2331559
40
0.7593447
50
157.036112
51
181.044431
0
ARC
8
DEFAULT_255_2_778
10
7.3786854
20
106.2739246
40
0.6262846
50
124.9253006
51
155.9241303
0
ARC
8
DEFAULT_255_2_778
10
7.5959789
20
105.9655358
40
1.0035357
50
100.4079723
51
125.0168617
0
ARC
8
DEFAULT_255_2_778
10
7.6990521
20
105.4714723
40
1.5081396
50
89.6483922
51
100.8684975
0
ARC
8
DEFAULT_255_2_778
10
7.7082565
20
105.1192665
40
1.8603169
50
89.5079487
51
89.9984402
0
ARC
8
DEFAULT_255_2_778
10
7.7098896
20
105.0540371
40
1.9255311
50
83.9170631
51
89.5732113
0
ARC
8
DEFAULT_255_2_778
10
7.507084
20
103.0464635
40
3.9433074
50
80.7325723
51
84.0779772
0
ARC
8
DEFAULT_255_2_778
10
7.020778
20
100.0235497
40
7.0050837
50
78.5086351
51
80.7886813
0
ARC
8
DEFAULT_255_2_778
10
7.66195
20
104.6230221
40
1.9415426
50
67.135818
51
78.0934208
0
ARC
8
DEFAULT_255_2_778
10
7.7851137
20
105.1934486
40
1.3579807
50
78.2126325
51
89.7333975
0
ARC
8
DEFAULT_255_2_778
10
7.7793169
20
105.6078048
40
0.9436877
50
89.2643807
51
100.5577599
0
ARC
8
DEFAULT_255_2_778
10
7.6665349
20
106.1765957
40
0.3639224
50
99.5099416
51
124.0285213
0
ARC
8
DEFAULT_255_2_778
10
7.57032
20
106.3266933
40
0.1857341
50
125.3416971
51
182.2767689
0
ARC
8
DEFAULT_255_2_778
10
7.5498732
20
106.3200853
40
0.1651425
50
180.2673353
51
239.6912529
0
ARC
8
DEFAULT_255_2_778
10
7.9317524
20
106.918404
40
0.8748407
50
237.8744287
51
242.8176978
0
ARC
8
DEFAULT_255_2_778
10
9.4128979
20
109.7290997
40
4.0518771
50
242.3429481
51
244.0446069
0
ARC
8
DEFAULT_255_2_778
10
12.366878
20
115.7629499
40
10.7700062
50
243.963828
51
244.8175572
0
ARC
8
DEFAULT_255_2_778
10
15.3890528
20
122.1546513
40
17.8401724
50
244.7685545
51
244.971514
0
ARC
8
DEFAULT_255_2_778
10
5.8608283
20
101.6598652
40
4.7613433
50
62.2451122
51
65.4192096
0
ARC
8
DEFAULT_255_2_778
10
6.9253351
20
103.671774
40
2.4851839
50
57.2979848
51
62.3628589
0
ARC
8
DEFAULT_255_2_778
10
7.6799627
20
104.837458
40
1.0965802
50
48.7493094
51
57.571194
0
ARC
8
DEFAULT_255_2_778
10
8.0114821
20
105.2257759
40
0.586081
50
44.3424824
51
48.0852666
0
ARC
8
DEFAULT_255_2_778
10
7.9782325
20
105.2062146
40
0.6236013
50
1.3523843
51
43.4925744
0
ARC
8
DEFAULT_255_2_778
10
7.7102854
20
105.1732828
40
0.8926473
50
359.9763756
51
3.0599076
0
ARC
8
DEFAULT_255_2_778
10
7.8642098
20
105.1581968
40
0.7388693
50
333.0409438
51
1.1413791
0
ARC
8
DEFAULT_255_2_778
10
7.8947469
20
105.1650035
40
0.7150136
50
300.8436672
51
331.44521
0
ARC
8
DEFAULT_255_2_778
10
7.6945587
20
105.4790479
40
1.0873327
50
281.4188469
51
301.4162372
0
ARC
8
DEFAULT_255_2_778
10
7.5631994
20
106.0878698
40
1.7101299
50
270.2272327
51
281.6944092
0
ARC
8
DEFAULT_255_2_778
10
7.5453128
20
106.5635692
40
2.185955
50
269.9983113
51
270.6466065
0
LINE
8
DEFAULT_255_2_778
10
7.5452484
20
104.3776142
11
7.5437325
21
104.3776147
0
ARC
8
DEFAULT_255_2_778
10
7.5508484
20
107.5605647
40
3.1829579
50
256.2431122
51
269.871909
0
ARC
8
DEFAULT_255_2_778
10
21.7540021
20
107.7793817
40
2.9666503
50
251.5318157
51
258.7258279
0
ARC
8
DEFAULT_255_2_778
10
21.5537563
20
106.757451
40
1.9252941
50
258.62435
51
268.8252909
0
ARC
8
DEFAULT_255_2_778
10
21.5354665
20
106.3625972
40
1.5301823
50
269.2068806
51
269.9987259
0
ARC
8
DEFAULT_255_2_778
10
21.5473171
20
105.8983861
40
1.0660376
50
269.3612297
51
279.5899087
0
ARC
8
DEFAULT_255_2_778
10
21.6607762
20
105.2669001
40
0.424527
50
278.6895227
51
300.2363944
0
ARC
8
DEFAULT_255_2_778
10
21.7798406
20
105.063447
40
0.188796
50
300.1108484
51
1.9024905
0
ARC
8
DEFAULT_255_2_778
10
21.74389
20
105.0740898
40
0.2246851
50
358.8842611
51
0.0019649
0
ARC
8
DEFAULT_255_2_778
10
21.7769114
20
105.0780062
40
0.1917038
50
358.831716
51
47.0900458
0
ARC
8
DEFAULT_255_2_778
10
21.6376597
20
104.9195519
40
0.402612
50
47.9285592
51
61.0836101
0
ARC
8
DEFAULT_255_2_778
10
21.0429796
20
103.9012787
40
1.5817315
50
60.0631222
51
65.1602386
0
ARC
8
DEFAULT_255_2_778
10
20.1314272
20
101.975206
40
3.7125866
50
64.8807046
51
67.1209578
0
ARC
8
DEFAULT_255_2_778
10
23.627479
20
110.2646565
40
5.2839333
50
244.2656926
51
247.1407051
0
ARC
8
DEFAULT_255_2_778
10
22.559432
20
108.0564327
40
2.8309849
50
240.1545061
51
244.3326325
0
ARC
8
DEFAULT_255_2_778
10
21.7855871
20
106.7204023
40
1.2870531
50
232.697515
51
240.4357497
0
ARC
8
DEFAULT_255_2_778
10
21.3704829
20
106.1693895
40
0.5972006
50
225.5850892
51
232.3393736
0
ARC
8
DEFAULT_255_2_778
10
21.4133264
20
106.198961
40
0.6483829
50
178.7795739
51
224.7095916
0
ARC
8
DEFAULT_255_2_778
10
21.6668642
20
106.2229812
40
0.9018316
50
179.997867
51
180.6487041
0
ARC
8
DEFAULT_255_2_778
10
21.5167061
20
106.2367926
40
0.7517998
50
156.9195758
51
181.050088
0
ARC
8
DEFAULT_255_2_778
10
21.3927805
20
106.2762389
40
0.6224513
50
124.7111133
51
155.7879672
0
ARC
8
DEFAULT_255_2_778
10
21.6049077
20
105.9859843
40
0.9818859
50
101.7943006
51
125.2417472
0
ARC
8
DEFAULT_255_2_778
10
21.7294568
20
105.4325359
40
1.5491324
50
89.5237779
51
102.119608
0
ARC
8
DEFAULT_255_2_778
10
21.727965
20
104.8777684
40
2.1038954
50
83.2897778
51
89.6087235
0
ARC
8
DEFAULT_255_2_778
10
21.5234013
20
103.0654907
40
3.9276711
50
79.3121016
51
83.4152109
0
ARC
8
DEFAULT_255_2_778
10
21.2067148
20
101.3008502
40
5.7204535
50
78.2244786
51
79.4731175
0
ARC
8
DEFAULT_255_2_778
10
21.6833903
20
104.6345601
40
1.9313541
50
67.1320052
51
78.3124693
0
ARC
8
DEFAULT_255_2_778
10
21.8010805
20
105.186809
40
1.3667182
50
78.4541134
51
89.7546716
0
ARC
8
DEFAULT_255_2_778
10
21.7948662
20
105.6154688
40
0.9381236
50
89.263032
51
100.5789495
0
ARC
8
DEFAULT_255_2_778
10
21.6820638
20
106.1821991
40
0.3603816
50
99.4915893
51
124.3627674
0
ARC
8
DEFAULT_255_2_778
10
21.5871509
20
106.3292673
40
0.1854666
50
125.8028369
51
182.2896157
0
ARC
8
DEFAULT_255_2_778
10
21.5489799
20
106.321772
40
0.1471476
50
179.9666171
51
180.1001736
0
ARC
8
DEFAULT_255_2_778
10
21.5661858
20
106.3217311
40
0.1643535
50
180.0754351
51
239.8483251
0
ARC
8
DEFAULT_255_2_778
10
21.9354551
20
106.903813
40
0.8535847
50
238.0402264
51
243.0370307
0
ARC
8
DEFAULT_255_2_778
10
23.4787463
20
109.8559461
40
4.1847343
50
242.5305029
51
244.1852103
0
ARC
8
DEFAULT_255_2_778
10
26.6265515
20
116.3261116
40
11.3799845
50
244.1038809
51
244.9214171
0
ARC
8
DEFAULT_255_2_778
10
29.8771528
20
123.234826
40
19.0152051
50
244.8737354
51
245.0669821
0
ARC
8
DEFAULT_255_2_778
10
19.8876742
20
101.701571
40
4.7223648
50
62.036831
51
65.2981624
0
ARC
8
DEFAULT_255_2_778
10
20.9516164
20
103.6961714
40
2.4617531
50
57.1110762
51
62.1404081
0
ARC
8
DEFAULT_255_2_778
10
21.7042272
20
104.849297
40
1.0847836
50
48.3568195
51
57.4187314
0
ARC
8
DEFAULT_255_2_778
10
22.028946
20
105.2256639
40
0.5878002
50
44.453022
51
47.6325253
0
ARC
8
DEFAULT_255_2_778
10
21.9973779
20
105.2074098
40
0.6231843
50
1.0876759
51
43.6183889
0
ARC
8
DEFAULT_255_2_778
10
21.7304111
20
105.1753301
40
0.8911213
50
359.9797211
51
2.8243422
0
ARC
8
DEFAULT_255_2_778
10
21.8798151
20
105.1602736
40
0.7418639
50
333.2156265
51
1.138567
0
ARC
8
DEFAULT_255_2_778
10
21.9146495
20
105.1647363
40
0.7130495
50
300.9658303
51
331.6339563
0
ARC
8
DEFAULT_255_2_778
10
21.7181382
20
105.47397
40
1.0793606
50
281.9136331
51
301.4645182
0
ARC
8
DEFAULT_255_2_778
10
21.5849532
20
106.0711054
40
1.6911426
50
270.5804277
51
282.1523279
0
ARC
8
DEFAULT_255_2_778
10
21.5638102
20
106.5650177
40
2.1853034
50
269.9959061
51
271.0035609
0
LINE
8
DEFAULT_255_2_778
10
21.5636541
20
104.3797142
11
21.5621325
21
104.3797147
0
ARC
8
DEFAULT_255_2_778
10
21.5690949
20
107.5638913
40
3.1841842
50
256.2458002
51
269.8747201
0
LINE
8
DEFAULT_255_2_778
10
6.7957325
20
104.4704147
11
6.7957325
21
104.9652147
0
LINE
8
DEFAULT_255_2_778
10
8.4163325
20
106.8882147
11
8.4163325
21
106.4120147
0
LINE
8
DEFAULT_255_2_778
10
6.7939325
20
104.4689147
11
6.7957325
21
104.4704147
0
LINE
8
DEFAULT_255_2_778
10
8.9865325
20
106.9377147
11
9.6628325
21
106.9377147
0
LINE
8
DEFAULT_255_2_778
10
9.6628325
20
106.9377147
11
9.6628325
21
104.4302147
0
LINE
8
DEFAULT_255_2_778
10
9.6628325
20
104.4302147
11
8.9865325
21
104.4302147
0
LINE
8
DEFAULT_255_2_778
10
8.9865325
20
104.4302147
11
8.9865325
21
106.9377147
0
LINE
8
DEFAULT_255_2_778
10
10.2808325
20
104.4302147
11
10.2808325
21
106.9377147
0
LINE
8
DEFAULT_255_2_778
10
10.2808325
20
106.9377147
11
12.0131325
21
106.9377147
0
LINE
8
DEFAULT_255_2_778
10
12.0131325
20
106.9377147
11
12.0131325
21
106.4839147
0
LINE
8
DEFAULT_255_2_778
10
12.0131325
20
106.4839147
11
10.9320325
21
106.4839147
0
LINE
8
DEFAULT_255_2_778
10
10.9320325
20
106.4839147
11
10.9320325
21
105.9177147
0
LINE
8
DEFAULT_255_2_778
10
10.9320325
20
105.9177147
11
11.8734325
21
105.9177147
0
LINE
8
DEFAULT_255_2_778
10
11.8734325
20
105.9177147
11
11.8734325
21
105.5042147
0
LINE
8
DEFAULT_255_2_778
10
11.8734325
20
105.5042147
11
10.9320325
21
105.5042147
0
LINE
8
DEFAULT_255_2_778
10
10.9320325
20
105.5042147
11
10.9320325
21
104.9089147
0
LINE
8
DEFAULT_255_2_778
10
10.9320325
20
104.9089147
11
12.0411325
21
104.9089147
0
LINE
8
DEFAULT_255_2_778
10
12.0411325
20
104.9089147
11
12.0411325
21
104.4286147
0
LINE
8
DEFAULT_255_2_778
10
12.0411325
20
104.4286147
11
10.2808325
21
104.4302147
0
LINE
8
DEFAULT_255_2_778
10
12.4816325
20
104.4302147
11
12.4816325
21
106.9377147
0
LINE
8
DEFAULT_255_2_778
10
12.4816325
20
106.9377147
11
13.3574325
21
106.9377147
0
LINE
8
DEFAULT_255_2_778
10
13.3574325
20
106.9377147
11
13.9670325
21
105.3354147
0
LINE
8
DEFAULT_255_2_778
10
13.9670325
20
105.3354147
11
14.5896325
21
106.9377147
0
LINE
8
DEFAULT_255_2_778
10
14.5896325
20
106.9377147
11
15.4214325
21
106.9377147
0
LINE
8
DEFAULT_255_2_778
10
15.4214325
20
106.9377147
11
15.4214325
21
104.4302147
0
LINE
8
DEFAULT_255_2_778
10
15.4214325
20
104.4302147
11
14.7811325
21
104.4302147
0
LINE
8
DEFAULT_255_2_778
10
14.7811325
20
104.4302147
11
14.7811325
21
106.2061147
0
LINE
8
DEFAULT_255_2_778
10
14.7811325
20
106.2061147
11
14.0723325
21
104.4059147
0
LINE
8
DEFAULT_255_2_778
10
14.0723325
20
104.4059147
11
13.6514325
21
104.4059147
0
LINE
8
DEFAULT_255_2_778
10
13.6514325
20
104.4059147
11
12.9558325
21
106.2061147
0
LINE
8
DEFAULT_255_2_778
10
12.9558325
20
106.2061147
11
12.9558325
21
104.4300147
0
LINE
8
DEFAULT_255_2_778
10
12.9558325
20
104.4300147
11
12.4816325
21
104.4302147
0
LINE
8
DEFAULT_255_2_778
10
16.0408325
20
104.4302147
11
16.0408325
21
106.9377147
0
LINE
8
DEFAULT_255_2_778
10
16.0408325
20
106.9377147
11
17.7730325
21
106.9377147
0
LINE
8
DEFAULT_255_2_778
10
17.7730325
20
106.9377147
11
17.7730325
21
106.4839147
0
LINE
8
DEFAULT_255_2_778
10
17.7730325
20
106.4839147
11
16.6920325
21
106.4839147
0
LINE
8
DEFAULT_255_2_778
10
16.6920325
20
106.4839147
11
16.6920325
21
105.9177147
0
LINE
8
DEFAULT_255_2_778
10
16.6920325
20
105.9177147
11
17.6333325
21
105.9177147
0
LINE
8
DEFAULT_255_2_778
10
17.6333325
20
105.9177147
11
17.6333325
21
105.5042147
0
LINE
8
DEFAULT_255_2_778
10
17.6333325
20
105.5042147
11
16.6920325
21
105.5042147
0
LINE
8
DEFAULT_255_2_778
10
16.6920325
20
105.5042147
11
16.6920325
21
104.9089147
0
LINE
8
DEFAULT_255_2_778
10
16.6920325
20
104.9089147
11
17.8029325
21
104.9089147
0
LINE
8
DEFAULT_255_2_778
10
17.8029325
20
104.9089147
11
17.8029325
21
104.4286147
0
LINE
8
DEFAULT_255_2_778
10
17.8029325
20
104.4286147
11
16.0408325
21
104.4302147
0
LINE
8
DEFAULT_255_2_778
10
18.2453325
20
104.4302147
11
18.2453325
21
106.9377147
0
LINE
8
DEFAULT_255_2_778
10
18.2453325
20
106.9377147
11
19.0282325
21
106.9377147
0
LINE
8
DEFAULT_255_2_778
10
19.0282325
20
106.9377147
11
19.8585325
21
105.2589147
0
LINE
8
DEFAULT_255_2_778
10
19.8585325
20
105.2589147
11
19.8585325
21
106.9377147
0
LINE
8
DEFAULT_255_2_778
10
19.8585325
20
106.9377147
11
20.3342325
21
106.9377147
0
LINE
8
DEFAULT_255_2_778
10
20.3342325
20
106.9377147
11
20.3342325
21
104.4302147
0
LINE
8
DEFAULT_255_2_778
10
20.3342325
20
104.4302147
11
19.5738325
21
104.4302147
0
LINE
8
DEFAULT_255_2_778
10
19.5738325
20
104.4302147
11
18.7213325
21
106.1315147
0
LINE
8
DEFAULT_255_2_778
10
18.7213325
20
106.1315147
11
18.7213325
21
104.4302147
0
LINE
8
DEFAULT_255_2_778
10
18.7213325
20
104.4302147
11
18.2453325
21
104.4302147
0
LINE
8
DEFAULT_255_2_778
10
20.8142325
20
104.4707147
11
20.8142325
21
104.9655147
0
LINE
8
DEFAULT_255_2_778
10
22.3741325
20
106.9009147
11
22.4339325
21
106.8903147
0
LINE
8
DEFAULT_255_2_778
10
22.4339325
20
106.8903147
11
22.4339325
21
106.4141147
0
LINE
8
DEFAULT_255_2_778
10
20.8120325
20
104.4710147
11
20.8142325
21
104.4707147
0
LINE
8
DEFAULT_255_1_388
10
8.5067457
20
102.8214892
11
8.3323577
21
102.8214892
0
LINE
8
DEFAULT_255_1_388
10
7.5534852
20
102.2676042
11
7.7278731
21
102.2676042
0
ARC
8
DEFAULT_255_1_388
10
8.4064304
20
103.8278821
40
1.4087688
50
248.9196578
51
254.1442424
0
ARC
8
DEFAULT_255_1_388
10
8.2174184
20
103.3412805
40
0.8867498
50
241.6337352
51
249.0064643
0
ARC
8
DEFAULT_255_1_388
10
8.0454498
20
103.0261764
40
0.5277799
50
230.4982261
51
241.8087583
0
ARC
8
DEFAULT_255_1_388
10
7.9572269
20
102.9137686
40
0.3849419
50
227.4062979
51
229.9877433
0
ARC
8
DEFAULT_255_1_388
10
7.9023615
20
102.8602155
40
0.3084129
50
200.6782127
51
228.1765252
0
ARC
8
DEFAULT_255_1_388
10
7.9104984
20
102.8585277
40
0.315461
50
179.506278
51
199.8695278
0
ARC
8
DEFAULT_255_1_388
10
7.9094573
20
102.8668671
40
0.3144584
50
132.4834401
51
181.0242352
0
ARC
8
DEFAULT_255_1_388
10
7.9763777
20
102.8036788
40
0.4063094
50
129.2526113
51
133.4249077
0
ARC
8
DEFAULT_255_1_388
10
7.992937
20
102.7788619
40
0.436014
50
101.9878945
51
128.8741833
0
ARC
8
DEFAULT_255_1_388
10
8.0377785
20
102.585236
40
0.6347415
50
89.5906376
51
102.3170567
0
ARC
8
DEFAULT_255_1_388
10
8.0457097
20
102.6210586
40
0.5989122
50
77.2359491
51
90.3248968
0
ARC
8
DEFAULT_255_1_388
10
8.0690028
20
102.7298554
40
0.4876594
50
63.8379856
51
77.0808925
0
ARC
8
DEFAULT_255_1_388
10
8.1002561
20
102.7880882
40
0.4216191
50
45.9863127
51
64.1608798
0
ARC
8
DEFAULT_255_1_388
10
8.1295955
20
102.821599
40
0.3771394
50
32.2747934
51
45.6544796
0
ARC
8
DEFAULT_255_1_388
10
8.1370761
20
102.8237426
40
0.3696765
50
359.6507495
51
32.6129943
0
ARC
8
DEFAULT_255_1_388
10
8.0309944
20
102.8242788
40
0.3013762
50
359.469654
51
14.983205
0
ARC
8
DEFAULT_255_1_388
10
8.1103196
20
102.8455288
40
0.2192542
50
14.9781954
51
48.2004799
0
ARC
8
DEFAULT_255_1_388
10
8.0918307
20
102.8222937
40
0.2489048
50
48.5926661
51
74.1242559
0
ARC
8
DEFAULT_255_1_388
10
8.0543109
20
102.6984607
40
0.3782845
50
73.7889321
51
86.6653996
0
ARC
8
DEFAULT_255_1_388
10
8.0427924
20
102.5626955
40
0.5145025
50
86.2642725
51
90.0533288
0
ARC
8
DEFAULT_255_1_388
10
8.0396017
20
102.6071376
40
0.4700681
50
89.669455
51
99.2313411
0
ARC
8
DEFAULT_255_1_388
10
8.0123176
20
102.7696401
40
0.3052945
50
99.0695987
51
113.7659242
0
ARC
8
DEFAULT_255_1_388
10
7.9815171
20
102.8422772
40
0.226407
50
114.0402885
51
127.9848946
0
ARC
8
DEFAULT_255_1_388
10
7.9544647
20
102.8755884
40
0.1835045
50
127.7287217
51
176.7106493
0
ARC
8
DEFAULT_255_1_388
10
8.0308312
20
102.864221
40
0.2604907
50
175.1780759
51
180.0581213
0
ARC
8
DEFAULT_255_1_388
10
7.9359656
20
102.8628411
40
0.1656287
50
179.6140658
51
228.124674
0
ARC
8
DEFAULT_255_1_388
10
7.9857013
20
102.908894
40
0.2332038
50
226.5785315
51
230.8792476
0
ARC
8
DEFAULT_255_1_388
10
8.03865
20
102.9791908
40
0.3211664
50
231.4636401
51
241.9261664
0
ARC
8
DEFAULT_255_1_388
10
8.1733283
20
103.2270349
40
0.6032345
50
241.7177136
51
248.3259138
0
ARC
8
DEFAULT_255_1_388
10
8.3291878
20
103.6131771
40
1.0196417
50
248.2007377
51
252.4527713
0
ARC
8
DEFAULT_255_1_388
10
8.4645405
20
104.0316092
40
1.4594143
50
252.3388938
51
254.347037
0
ARC
8
DEFAULT_255_1_388
10
7.6160705
20
100.9968095
40
1.6917621
50
71.0197462
51
74.4085467
0
ARC
8
DEFAULT_255_1_388
10
7.8067793
20
101.5473144
40
1.1091618
50
66.1845203
51
71.086519
0
ARC
8
DEFAULT_255_1_388
10
7.9818342
20
101.9414439
40
0.6779073
50
59.3537334
51
66.269255
0
ARC
8
DEFAULT_255_1_388
10
8.0818068
20
102.1105777
40
0.4814366
50
49.1021732
51
59.3294421
0
ARC
8
DEFAULT_255_1_388
10
8.1739056
20
102.2155575
40
0.3417875
50
32.7924183
51
49.2503526
0
ARC
8
DEFAULT_255_1_388
10
8.208867
20
102.2405311
40
0.2988789
50
31.121225
51
32.3977355
0
ARC
8
DEFAULT_255_1_388
10
8.2000848
20
102.2372728
40
0.3080861
50
8.1116803
51
30.7958224
0
ARC
8
DEFAULT_255_1_388
10
8.1089194
20
102.2217437
40
0.4005385
50
359.8390945
51
8.4707348
0
ARC
8
DEFAULT_255_1_388
10
8.1793242
20
102.2162751
40
0.3301608
50
337.4732479
51
0.7538283
0
ARC
8
DEFAULT_255_1_388
10
8.1994267
20
102.2140554
40
0.3107929
50
307.5917028
51
336.4313755
0
ARC
8
DEFAULT_255_1_388
10
8.1483324
20
102.2708509
40
0.3870096
50
307.6560665
51
308.4561779
0
ARC
8
DEFAULT_255_1_388
10
8.1217541
20
102.3116832
40
0.435591
50
284.3733666
51
307.1426212
0
ARC
8
DEFAULT_255_1_388
10
8.0660435
20
102.5166391
40
0.6479685
50
272.4384566
51
284.6464689
0
ARC
8
DEFAULT_255_1_388
10
8.051782
20
102.7190434
40
0.8508149
50
269.9708517
51
272.8180721
0
ARC
8
DEFAULT_255_1_388
10
8.0469503
20
102.4898283
40
0.6216151
50
248.2707343
51
270.4054609
0
ARC
8
DEFAULT_255_1_388
10
8.0408374
20
102.4683673
40
0.5994203
50
246.1380358
51
248.054058
0
ARC
8
DEFAULT_255_1_388
10
7.9937517
20
102.3694705
40
0.4899388
50
233.1671897
51
246.4951656
0
ARC
8
DEFAULT_255_1_388
10
7.9314152
20
102.2853137
40
0.3852115
50
215.3403381
51
233.084328
0
ARC
8
DEFAULT_255_1_388
10
7.9007516
20
102.2630093
40
0.3472969
50
179.2419235
51
215.2648426
0
ARC
8
DEFAULT_255_1_388
10
7.9871067
20
102.2645979
40
0.259251
50
179.3355796
51
199.1045873
0
ARC
8
DEFAULT_255_1_388
10
7.9497209
20
102.2548223
40
0.2207454
50
199.8830064
51
232.7061328
0
ARC
8
DEFAULT_255_1_388
10
8.0028483
20
102.3216456
40
0.306101
50
232.3736206
51
255.5136621
0
ARC
8
DEFAULT_255_1_388
10
8.0411989
20
102.4616177
40
0.4512213
50
255.2447928
51
267.5318292
0
ARC
8
DEFAULT_255_1_388
10
8.0510456
20
102.6002709
40
0.5901825
50
267.1564563
51
270.0294721
0
ARC
8
DEFAULT_255_1_388
10
8.0541781
20
102.5503623
40
0.5402814
50
269.6999944
51
278.1662446
0
ARC
8
DEFAULT_255_1_388
10
8.0829809
20
102.3556974
40
0.3435003
50
278.0229022
51
290.6255326
0
ARC
8
DEFAULT_255_1_388
10
8.1220975
20
102.2513547
40
0.2320666
50
290.6616368
51
307.0374127
0
ARC
8
DEFAULT_255_1_388
10
8.1558875
20
102.209904
40
0.1786372
50
306.3942078
51
355.303191
0
ARC
8
DEFAULT_255_1_388
10
8.0983168
20
102.2185186
40
0.2367516
50
354.3662092
51
0.0709489
0
ARC
8
DEFAULT_255_1_388
10
8.1143037
20
102.2210561
40
0.2207761
50
359.4175379
51
16.1975911
0
ARC
8
DEFAULT_255_1_388
10
8.1655155
20
102.2350954
40
0.1676828
50
16.4721294
51
52.6261798
0
ARC
8
DEFAULT_255_1_388
10
8.0731662
20
102.1131606
40
0.3206412
50
52.7381828
51
62.4979144
0
ARC
8
DEFAULT_255_1_388
10
7.9173415
20
101.8199236
40
0.6527035
50
62.2517425
51
68.1219454
0
ARC
8
DEFAULT_255_1_388
10
7.7238903
20
101.3444951
40
1.1659797
50
68.006043
51
71.8055127
0
ARC
8
DEFAULT_255_1_388
10
7.5218811
20
100.7386723
40
1.8045908
50
71.718361
51
73.9260743
0
LINE
8
DEFAULT_255_1_388
10
8.9178675
20
103.2018898
11
8.9178675
21
101.8863
0
LINE
8
DEFAULT_255_1_388
10
8.9178675
20
101.8863
11
8.7443831
21
101.8863
0
LINE
8
DEFAULT_255_1_388
10
8.7443831
20
101.8863
11
8.7443831
21
103.2018898
0
LINE
8
DEFAULT_255_1_388
10
8.7443831
20
103.2018898
11
8.9178675
21
103.2018898
0
LINE
8
DEFAULT_255_1_388
10
9.2350186
20
103.2018898
11
9.4591026
21
103.2018898
0
LINE
8
DEFAULT_255_1_388
10
9.4591026
20
103.2018898
11
9.8891993
21
102.1284553
0
LINE
8
DEFAULT_255_1_388
10
9.8891993
20
102.1284553
11
10.3192959
21
103.2018898
0
LINE
8
DEFAULT_255_1_388
10
10.3192959
20
103.2018898
11
10.5442835
21
103.2018898
0
LINE
8
DEFAULT_255_1_388
10
10.5442835
20
103.2018898
11
10.5442835
21
101.8863
0
LINE
8
DEFAULT_255_1_388
10
10.5442835
20
101.8863
11
10.3707991
21
101.8863
0
LINE
8
DEFAULT_255_1_388
10
10.3707991
20
101.8863
11
10.3707991
21
102.398621
0
LINE
8
DEFAULT_255_1_388
10
10.3707991
20
102.398621
11
10.3870633
21
102.9516025
0
LINE
8
DEFAULT_255_1_388
10
10.3870633
20
102.9516025
11
9.9551595
21
101.8863
0
LINE
8
DEFAULT_255_1_388
10
9.9551595
20
101.8863
11
9.8223355
21
101.8863
0
LINE
8
DEFAULT_255_1_388
10
9.8223355
20
101.8863
11
9.3913353
21
102.9488918
0
LINE
8
DEFAULT_255_1_388
10
9.3913353
20
102.9488918
11
9.408503
21
102.398621
0
LINE
8
DEFAULT_255_1_388
10
9.408503
20
102.398621
11
9.408503
21
101.8863
0
LINE
8
DEFAULT_255_1_388
10
9.408503
20
101.8863
11
9.2350186
21
101.8863
0
LINE
8
DEFAULT_255_1_388
10
9.2350186
20
101.8863
11
9.2350186
21
103.2018898
0
LINE
8
DEFAULT_255_1_388
10
11.7189173
20
101.8863
11
11.5933218
21
102.2296545
0
LINE
8
DEFAULT_255_1_388
10
11.5933218
20
102.2296545
11
11.0421475
21
102.2296545
0
LINE
8
DEFAULT_255_1_388
10
11.0421475
20
102.2296545
11
10.9183592
21
101.8863
0
LINE
8
DEFAULT_255_1_388
10
10.9183592
20
101.8863
11
10.7394534
21
101.8863
0
LINE
8
DEFAULT_255_1_388
10
10.7394534
20
101.8863
11
11.2418353
21
103.2018898
0
LINE
8
DEFAULT_255_1_388
10
11.2418353
20
103.2018898
11
11.3936341
21
103.2018898
0
LINE
8
DEFAULT_255_1_388
10
11.3936341
20
103.2018898
11
11.8969195
21
101.8863
0
LINE
8
DEFAULT_255_1_388
10
11.8969195
20
101.8863
11
11.7189173
21
101.8863
0
LINE
8
DEFAULT_255_1_388
10
11.3177347
20
102.9877451
11
11.0945542
21
102.3724177
0
LINE
8
DEFAULT_255_1_388
10
11.0945542
20
102.3724177
11
11.5418187
21
102.3724177
0
LINE
8
DEFAULT_255_1_388
10
11.5418187
20
102.3724177
11
11.3177347
21
102.9877451
0
LINE
8
DEFAULT_255_1_388
10
12.8664441
20
103.2018898
11
12.8664441
21
103.0591267
0
LINE
8
DEFAULT_255_1_388
10
12.8664441
20
103.0591267
11
12.443576
21
103.0591267
0
LINE
8
DEFAULT_255_1_388
10
12.443576
20
103.0591267
11
12.443576
21
101.8863
0
LINE
8
DEFAULT_255_1_388
10
12.443576
20
101.8863
11
12.2709952
21
101.8863
0
LINE
8
DEFAULT_255_1_388
10
12.2709952
20
101.8863
11
12.2709952
21
103.0591267
0
LINE
8
DEFAULT_255_1_388
10
12.2709952
20
103.0591267
11
11.8490306
21
103.0591267
0
LINE
8
DEFAULT_255_1_388
10
11.8490306
20
103.0591267
11
11.8490306
21
103.2018898
0
LINE
8
DEFAULT_255_1_388
10
11.8490306
20
103.2018898
11
12.8664441
21
103.2018898
0
LINE
8
DEFAULT_255_1_388
10
13.2477483
20
103.2018898
11
13.2477483
21
101.8863
0
LINE
8
DEFAULT_255_1_388
10
13.2477483
20
101.8863
11
13.074264
21
101.8863
0
LINE
8
DEFAULT_255_1_388
10
13.074264
20
101.8863
11
13.074264
21
103.2018898
0
LINE
8
DEFAULT_255_1_388
10
13.074264
20
103.2018898
11
13.2477483
21
103.2018898
0
LINE
8
DEFAULT_255_1_388
10
14.3582291
20
102.3037468
11
14.532617
21
102.3037468
0
LINE
8
DEFAULT_255_1_388
10
13.5197212
20
102.4826525
11
13.5197212
21
102.6091516
0
LINE
8
DEFAULT_255_1_388
10
14.532617
20
102.7790217
11
14.3582291
21
102.7790217
0
LINE
8
DEFAULT_255_1_388
10
13.6941092
20
102.6046337
11
13.6941092
21
102.4772312
0
ARC
8
DEFAULT_255_1_388
10
13.9160404
20
102.3709329
40
0.6202263
50
340.1774904
51
353.7812217
0
ARC
8
DEFAULT_255_1_388
10
14.0928257
20
102.3050893
40
0.4315926
50
311.4560052
51
340.4420756
0
ARC
8
DEFAULT_255_1_388
10
14.0890796
20
102.3175665
40
0.4434573
50
282.4332229
51
310.7514507
0
ARC
8
DEFAULT_255_1_388
10
14.0396614
20
102.5217703
40
0.6535262
50
269.9358869
51
282.8096729
0
ARC
8
DEFAULT_255_1_388
10
14.0338554
20
102.6730329
40
0.8048043
50
269.9995752
51
270.3612856
0
ARC
8
DEFAULT_255_1_388
10
14.0279044
20
102.3931781
40
0.5249831
50
250.7885263
51
270.6488451
0
ARC
8
DEFAULT_255_1_388
10
14.0089868
20
102.3214853
40
0.4510942
50
219.3628377
51
250.0611024
0
ARC
8
DEFAULT_255_1_388
10
14.1022743
20
102.4007653
40
0.5735046
50
193.5480293
51
219.5755675
0
ARC
8
DEFAULT_255_1_388
10
14.3690952
20
102.470052
40
0.849146
50
181.1220183
51
193.8754971
0
ARC
8
DEFAULT_255_1_388
10
14.6014185
20
102.4824914
40
1.0816971
50
179.9914644
51
181.5398227
0
ARC
8
DEFAULT_255_1_388
10
14.3937495
20
102.6133586
40
0.8740384
50
169.5837606
51
180.275782
0
ARC
8
DEFAULT_255_1_388
10
14.1870844
20
102.6515439
40
0.6638751
50
155.0367033
51
169.6002779
0
ARC
8
DEFAULT_255_1_388
10
14.0593302
20
102.7131336
40
0.5220662
50
136.7831557
51
155.2472983
0
ARC
8
DEFAULT_255_1_388
10
14.0155092
20
102.7503577
40
0.4646502
50
121.7633063
51
136.4281161
0
ARC
8
DEFAULT_255_1_388
10
14.0306932
20
102.7223049
40
0.4964979
50
95.6460018
51
121.5489589
0
ARC
8
DEFAULT_255_1_388
10
14.0483907
20
102.5975704
40
0.6223912
50
89.9245727
51
96.1375919
0
ARC
8
DEFAULT_255_1_388
10
14.0540612
20
102.6109721
40
0.6090084
50
76.6779212
51
90.456405
0
ARC
8
DEFAULT_255_1_388
10
14.0983425
20
102.789906
40
0.42469
50
47.4858803
51
76.9287069
0
ARC
8
DEFAULT_255_1_388
10
14.0818038
20
102.7786623
40
0.4441778
50
16.5424081
51
46.8934505
0
ARC
8
DEFAULT_255_1_388
10
13.9009088
20
102.7192265
40
0.6345318
50
5.4072971
51
17.0363711
0
ARC
8
DEFAULT_255_1_388
10
13.7390813
20
102.6932304
40
0.6250632
50
7.8888693
51
15.9242022
0
ARC
8
DEFAULT_255_1_388
10
13.9625799
20
102.7581309
40
0.3923364
50
15.7650676
51
27.9410069
0
ARC
8
DEFAULT_255_1_388
10
14.0867968
20
102.8246317
40
0.2514401
50
27.8167196
51
46.4007942
0
ARC
8
DEFAULT_255_1_388
10
14.0923809
20
102.8239882
40
0.2480958
50
47.4372362
51
75.0695672
0
ARC
8
DEFAULT_255_1_388
10
14.0576646
20
102.7031277
40
0.3738281
50
74.7009379
51
87.8124314
0
ARC
8
DEFAULT_255_1_388
10
14.0494262
20
102.5847659
40
0.4924321
50
87.3802571
51
90.0251599
0
ARC
8
DEFAULT_255_1_388
10
14.045091
20
102.7167997
40
0.3604218
50
89.3451886
51
108.5744412
0
ARC
8
DEFAULT_255_1_388
10
14.0296902
20
102.7745836
40
0.3007661
50
109.2998307
51
143.3037387
0
ARC
8
DEFAULT_255_1_388
10
14.1154192
20
102.7086584
40
0.4089031
50
143.075267
51
163.1918576
0
ARC
8
DEFAULT_255_1_388
10
14.3350026
20
102.6393652
40
0.6391492
50
162.9375929
51
174.6208776
0
ARC
8
DEFAULT_255_1_388
10
14.6304408
20
102.6069711
40
0.9363344
50
174.342123
51
180.1430283
0
ARC
8
DEFAULT_255_1_388
10
14.5256949
20
102.4726117
40
0.8315986
50
179.6817261
51
189.150555
0
ARC
8
DEFAULT_255_1_388
10
14.2443698
20
102.4257559
40
0.5464044
50
188.9911061
51
203.5772363
0
ARC
8
DEFAULT_255_1_388
10
14.122899
20
102.3753539
40
0.4149206
50
203.9075402
51
215.1312435
0
ARC
8
DEFAULT_255_1_388
10
14.0190788
20
102.2948907
40
0.2837747
50
213.9071511
51
263.8848919
0
ARC
8
DEFAULT_255_1_388
10
14.0331781
20
102.3831519
40
0.3730641
50
263.1757928
51
270.1031044
0
ARC
8
DEFAULT_255_1_388
10
14.036786
20
102.5234511
40
0.5133712
50
269.6722503
51
279.0606936
0
ARC
8
DEFAULT_255_1_388
10
14.0668016
20
102.342015
40
0.3294739
50
278.8749101
51
293.6349581
0
ARC
8
DEFAULT_255_1_388
10
14.1028219
20
102.2574251
40
0.2375405
50
293.8553806
51
310.0518171
0
ARC
8
DEFAULT_255_1_388
10
14.1033728
20
102.2504021
40
0.2318463
50
311.0644687
51
332.0111037
0
ARC
8
DEFAULT_255_1_388
10
13.9692402
20
102.3243702
40
0.3850112
50
331.6586806
51
343.2877423
0
ARC
8
DEFAULT_255_1_388
10
13.7371867
20
102.3956806
40
0.6277712
50
343.1446576
51
351.0103568
0
ARC
8
DEFAULT_255_1_388
10
13.573919
20
102.4256873
40
0.7937327
50
350.71248
51
351.1626997
0
LINE
8
DEFAULT_255_1_388
10
16.1003013
20
102.8214892
11
15.9259134
21
102.8214892
0
LINE
8
DEFAULT_255_1_388
10
15.1470408
20
102.2676042
11
15.3214288
21
102.2676042
0
ARC
8
DEFAULT_255_1_388
10
15.9999861
20
103.8278821
40
1.4087688
50
248.9196578
51
254.1442424
0
ARC
8
DEFAULT_255_1_388
10
15.8109741
20
103.3412805
40
0.8867498
50
241.6337352
51
249.0064643
0
ARC
8
DEFAULT_255_1_388
10
15.6390054
20
103.0261764
40
0.5277799
50
230.4982261
51
241.8087583
0
ARC
8
DEFAULT_255_1_388
10
15.5507825
20
102.9137686
40
0.3849419
50
227.4062979
51
229.9877433
0
ARC
8
DEFAULT_255_1_388
10
15.4959172
20
102.8602155
40
0.3084129
50
200.6782127
51
228.1765252
0
ARC
8
DEFAULT_255_1_388
10
15.5040541
20
102.8585277
40
0.315461
50
179.506278
51
199.8695278
0
ARC
8
DEFAULT_255_1_388
10
15.503013
20
102.8668671
40
0.3144584
50
132.4834401
51
181.0242352
0
ARC
8
DEFAULT_255_1_388
10
15.5699334
20
102.8036788
40
0.4063094
50
129.2526113
51
133.4249077
0
ARC
8
DEFAULT_255_1_388
10
15.5864926
20
102.7788619
40
0.436014
50
101.9878945
51
128.8741833
0
ARC
8
DEFAULT_255_1_388
10
15.6313342
20
102.585236
40
0.6347415
50
89.5906376
51
102.3170567
0
ARC
8
DEFAULT_255_1_388
10
15.6392653
20
102.6210586
40
0.5989122
50
77.2359491
51
90.3248968
0
ARC
8
DEFAULT_255_1_388
10
15.6625584
20
102.7298554
40
0.4876594
50
63.8379856
51
77.0808925
0
ARC
8
DEFAULT_255_1_388
10
15.6938118
20
102.7880882
40
0.4216191
50
45.9863127
51
64.1608798
0
ARC
8
DEFAULT_255_1_388
10
15.7231511
20
102.821599
40
0.3771394
50
32.2747934
51
45.6544796
0
ARC
8
DEFAULT_255_1_388
10
15.7306318
20
102.8237426
40
0.3696765
50
359.6507495
51
32.6129943
0
ARC
8
DEFAULT_255_1_388
10
15.6245501
20
102.8242788
40
0.3013762
50
359.469654
51
14.983205
0
ARC
8
DEFAULT_255_1_388
10
15.7038753
20
102.8455288
40
0.2192542
50
14.9781954
51
48.2004799
0
ARC
8
DEFAULT_255_1_388
10
15.6853864
20
102.8222937
40
0.2489048
50
48.5926661
51
74.1242559
0
ARC
8
DEFAULT_255_1_388
10
15.6478666
20
102.6984607
40
0.3782845
50
73.7889321
51
86.6653996
0
ARC
8
DEFAULT_255_1_388
10
15.6363481
20
102.5626955
40
0.5145025
50
86.2642725
51
90.0533288
0
ARC
8
DEFAULT_255_1_388
10
15.6331573
20
102.6071376
40
0.4700681
50
89.669455
51
99.2313411
0
ARC
8
DEFAULT_255_1_388
10
15.6058733
20
102.7696401
40
0.3052945
50
99.0695987
51
113.7659242
0
ARC
8
DEFAULT_255_1_388
10
15.5750728
20
102.8422772
40
0.226407
50
114.0402885
51
127.9848946
0
ARC
8
DEFAULT_255_1_388
10
15.5480204
20
102.8755884
40
0.1835045
50
127.7287217
51
176.7106493
0
ARC
8
DEFAULT_255_1_388
10
15.6243869
20
102.864221
40
0.2604907
50
175.1780759
51
180.0581213
0
ARC
8
DEFAULT_255_1_388
10
15.5295212
20
102.8628411
40
0.1656287
50
179.6140658
51
228.124674
0
ARC
8
DEFAULT_255_1_388
10
15.579257
20
102.908894
40
0.2332038
50
226.5785315
51
230.8792476
0
ARC
8
DEFAULT_255_1_388
10
15.6322056
20
102.9791908
40
0.3211664
50
231.4636401
51
241.9261664
0
ARC
8
DEFAULT_255_1_388
10
15.766884
20
103.2270349
40
0.6032345
50
241.7177136
51
248.3259138
0
ARC
8
DEFAULT_255_1_388
10
15.9227435
20
103.6131771
40
1.0196417
50
248.2007377
51
252.4527713
0
ARC
8
DEFAULT_255_1_388
10
16.0580961
20
104.0316092
40
1.4594143
50
252.3388938
51
254.347037
0
ARC
8
DEFAULT_255_1_388
10
15.2096262
20
100.9968095
40
1.6917621
50
71.0197462
51
74.4085467
0
ARC
8
DEFAULT_255_1_388
10
15.400335
20
101.5473144
40
1.1091618
50
66.1845203
51
71.086519
0
ARC
8
DEFAULT_255_1_388
10
15.5753899
20
101.9414439
40
0.6779073
50
59.3537334
51
66.269255
0
ARC
8
DEFAULT_255_1_388
10
15.6753625
20
102.1105777
40
0.4814366
50
49.1021732
51
59.3294421
0
ARC
8
DEFAULT_255_1_388
10
15.7674613
20
102.2155575
40
0.3417875
50
32.7924183
51
49.2503526
0
ARC
8
DEFAULT_255_1_388
10
15.8024227
20
102.2405311
40
0.2988789
50
31.121225
51
32.3977355
0
ARC
8
DEFAULT_255_1_388
10
15.7936405
20
102.2372728
40
0.3080861
50
8.1116803
51
30.7958224
0
ARC
8
DEFAULT_255_1_388
10
15.7024751
20
102.2217437
40
0.4005385
50
359.8390945
51
8.4707348
0
ARC
8
DEFAULT_255_1_388
10
15.7728798
20
102.2162751
40
0.3301608
50
337.4732479
51
0.7538283
0
ARC
8
DEFAULT_255_1_388
10
15.7929823
20
102.2140554
40
0.3107929
50
307.5917028
51
336.4313755
0
ARC
8
DEFAULT_255_1_388
10
15.7418881
20
102.2708509
40
0.3870096
50
307.6560665
51
308.4561779
0
ARC
8
DEFAULT_255_1_388
10
15.7153098
20
102.3116832
40
0.435591
50
284.3733666
51
307.1426212
0
ARC
8
DEFAULT_255_1_388
10
15.6595992
20
102.5166391
40
0.6479685
50
272.4384566
51
284.6464689
0
ARC
8
DEFAULT_255_1_388
10
15.6453377
20
102.7190434
40
0.8508149
50
269.9708517
51
272.8180721
0
ARC
8
DEFAULT_255_1_388
10
15.6405059
20
102.4898283
40
0.6216151
50
248.2707343
51
270.4054609
0
ARC
8
DEFAULT_255_1_388
10
15.6343931
20
102.4683673
40
0.5994203
50
246.1380358
51
248.054058
0
ARC
8
DEFAULT_255_1_388
10
15.5873073
20
102.3694705
40
0.4899388
50
233.1671897
51
246.4951656
0
ARC
8
DEFAULT_255_1_388
10
15.5249709
20
102.2853137
40
0.3852115
50
215.3403381
51
233.084328
0
ARC
8
DEFAULT_255_1_388
10
15.4943073
20
102.2630093
40
0.3472969
50
179.2419235
51
215.2648426
0
ARC
8
DEFAULT_255_1_388
10
15.5806624
20
102.2645979
40
0.259251
50
179.3355796
51
199.1045873
0
ARC
8
DEFAULT_255_1_388
10
15.5432765
20
102.2548223
40
0.2207454
50
199.8830064
51
232.7061328
0
ARC
8
DEFAULT_255_1_388
10
15.596404
20
102.3216456
40
0.306101
50
232.3736206
51
255.5136621
0
ARC
8
DEFAULT_255_1_388
10
15.6347546
20
102.4616177
40
0.4512213
50
255.2447928
51
267.5318292
0
ARC
8
DEFAULT_255_1_388
10
15.6446013
20
102.6002709
40
0.5901825
50
267.1564563
51
270.0294721
0
ARC
8
DEFAULT_255_1_388
10
15.6477338
20
102.5503623
40
0.5402814
50
269.6999944
51
278.1662446
0
ARC
8
DEFAULT_255_1_388
10
15.6765365
20
102.3556974
40
0.3435003
50
278.0229022
51
290.6255326
0
ARC
8
DEFAULT_255_1_388
10
15.7156532
20
102.2513547
40
0.2320666
50
290.6616368
51
307.0374127
0
ARC
8
DEFAULT_255_1_388
10
15.7494432
20
102.209904
40
0.1786372
50
306.3942078
51
355.303191
0
ARC
8
DEFAULT_255_1_388
10
15.6918725
20
102.2185186
40
0.2367516
50
354.3662092
51
0.0709489
0
ARC
8
DEFAULT_255_1_388
10
15.7078594
20
102.2210561
40
0.2207761
50
359.4175379
51
16.1975911
0
ARC
8
DEFAULT_255_1_388
10
15.7590711
20
102.2350954
40
0.1676828
50
16.4721294
51
52.6261798
0
ARC
8
DEFAULT_255_1_388
10
15.6667219
20
102.1131606
40
0.3206412
50
52.7381828
51
62.4979144
0
ARC
8
DEFAULT_255_1_388
10
15.5108972
20
101.8199236
40
0.6527035
50
62.2517425
51
68.1219454
0
ARC
8
DEFAULT_255_1_388
10
15.317446
20
101.3444951
40
1.1659797
50
68.006043
51
71.8055127
0
ARC
8
DEFAULT_255_1_388
10
15.1154368
20
100.7386723
40
1.8045908
50
71.718361
51
73.9260743
0
LINE
8
DEFAULT_255_1_388
10
17.1312684
20
103.2018898
11
17.1312684
21
103.1079191
0
LINE
8
DEFAULT_255_1_388
10
17.1312684
20
103.1079191
11
16.586419
21
101.8863
0
LINE
8
DEFAULT_255_1_388
10
16.586419
20
101.8863
11
16.4111275
21
101.8863
0
LINE
8
DEFAULT_255_1_388
10
16.4111275
20
101.8863
11
16.9541697
21
103.064548
0
LINE
8
DEFAULT_255_1_388
10
16.9541697
20
103.064548
11
16.2421609
21
103.064548
0
LINE
8
DEFAULT_255_1_388
10
16.2421609
20
103.064548
11
16.2421609
21
103.2018898
0
LINE
8
DEFAULT_255_1_388
10
16.2421609
20
103.2018898
11
17.1312684
21
103.2018898
0
LINE
8
DEFAULT_255_1_388
10
17.6860569
20
102.5133737
11
17.6860569
21
102.3769355
0
LINE
8
DEFAULT_255_1_388
10
17.6860569
20
102.3769355
11
17.2451175
21
102.3769355
0
LINE
8
DEFAULT_255_1_388
10
17.2451175
20
102.3769355
11
17.2451175
21
102.5133737
0
LINE
8
DEFAULT_255_1_388
10
17.2451175
20
102.5133737
11
17.6860569
21
102.5133737
0
LINE
8
DEFAULT_255_1_388
10
18.6935313
20
102.0227382
11
18.6935313
21
101.8863
0
LINE
8
DEFAULT_255_1_388
10
18.6935313
20
101.8863
11
17.8315308
21
101.8863
0
LINE
8
DEFAULT_255_1_388
10
17.8315308
20
101.8863
11
17.8315308
21
102.0064741
0
LINE
8
DEFAULT_255_1_388
10
17.8315308
20
102.0064741
11
18.2869273
21
102.5124702
0
LINE
8
DEFAULT_255_1_388
10
17.9733904
20
102.8142607
11
17.806231
21
102.8142607
0
LINE
8
DEFAULT_255_1_388
10
18.3854158
20
102.404946
11
18.0330257
21
102.0227382
0
LINE
8
DEFAULT_255_1_388
10
18.0330257
20
102.0227382
11
18.6935313
21
102.0227382
0
ARC
8
DEFAULT_255_1_388
10
16.7693332
20
103.8544983
40
2.0258655
50
318.5132526
51
320.7829045
0
ARC
8
DEFAULT_255_1_388
10
17.3641289
20
103.3703929
40
1.2589638
50
320.7372878
51
323.9739031
0
ARC
8
DEFAULT_255_1_388
10
17.8050221
20
103.0509554
40
0.7145141
50
323.8962701
51
328.64194
0
ARC
8
DEFAULT_255_1_388
10
18.0352479
20
102.9089545
40
0.4440242
50
328.8294576
51
331.7891185
0
ARC
8
DEFAULT_255_1_388
10
18.1474799
20
102.8510374
40
0.3177517
50
331.4254512
51
352.9365785
0
ARC
8
DEFAULT_255_1_388
10
18.1627799
20
102.847605
40
0.3021496
50
353.2257659
51
0.0166158
0
ARC
8
DEFAULT_255_1_388
10
18.1864559
20
102.8501894
40
0.2784847
50
359.486299
51
15.9343185
0
ARC
8
DEFAULT_255_1_388
10
18.2434826
20
102.8655269
40
0.2194403
50
16.1712913
51
43.5286088
0
ARC
8
DEFAULT_255_1_388
10
18.2521771
20
102.8742191
40
0.2071504
50
43.4417391
51
83.1661095
0
ARC
8
DEFAULT_255_1_388
10
18.2370932
20
102.7913316
40
0.2912888
50
82.160179
51
90.1505708
0
ARC
8
DEFAULT_255_1_388
10
18.2335414
20
102.7309279
40
0.3517025
50
89.5460741
51
102.5418361
0
ARC
8
DEFAULT_255_1_388
10
18.2062133
20
102.8468933
40
0.2325748
50
102.1738499
51
129.206123
0
ARC
8
DEFAULT_255_1_388
10
18.1973587
20
102.8608664
40
0.2161591
50
129.72865
51
135.753947
0
ARC
8
DEFAULT_255_1_388
10
18.2110069
20
102.8499728
40
0.2335433
50
136.1757367
51
166.3673339
0
ARC
8
DEFAULT_255_1_388
10
18.3242757
20
102.8196148
40
0.3507873
50
165.9090694
51
178.8684636
0
ARC
8
DEFAULT_255_1_388
10
18.4218529
20
102.8143263
40
0.4484624
50
178.4391136
51
180.0083808
0
ARC
8
DEFAULT_255_1_388
10
18.263923
20
102.8187197
40
0.4577138
50
163.2878482
51
180.5581842
0
ARC
8
DEFAULT_255_1_388
10
18.1737272
20
102.8435393
40
0.3641968
50
133.4540601
51
162.947111
0
ARC
8
DEFAULT_255_1_388
10
18.1938153
20
102.8221789
40
0.3935189
50
100.7869829
51
133.4382499
0
ARC
8
DEFAULT_255_1_388
10
18.2329398
20
102.6479399
40
0.5720313
50
89.660664
51
101.3702276
0
ARC
8
DEFAULT_255_1_388
10
18.2404007
20
102.6548263
40
0.5651495
50
78.2172678
51
90.412935
0
ARC
8
DEFAULT_255_1_388
10
18.2803473
20
102.8375511
40
0.378122
50
55.9269121
51
78.4888449
0
ARC
8
DEFAULT_255_1_388
10
18.3024188
20
102.8756187
40
0.3342379
50
47.929771
51
55.4049217
0
ARC
8
DEFAULT_255_1_388
10
18.3138718
20
102.8872618
40
0.3179217
50
4.334829
51
48.0560205
0
ARC
8
DEFAULT_255_1_388
10
18.190652
20
102.8681487
40
0.442341
50
359.9251713
51
5.5971671
0
ARC
8
DEFAULT_255_1_388
10
18.2388675
20
102.8744728
40
0.3941854
50
337.8914027
51
358.9967534
0
ARC
8
DEFAULT_255_1_388
10
17.9336245
20
102.9922295
40
0.7213271
50
326.9132501
51
338.3508308
0
ARC
8
DEFAULT_255_1_388
10
17.4852357
20
103.2796105
40
1.2538973
50
319.6471833
51
327.0959558
0
ARC
8
DEFAULT_255_1_388
10
17.0539015
20
103.635405
40
1.8129975
50
317.2588228
51
319.9045804
0
LINE
8
DEFAULT_255_1_388
10
19.6955843
20
102.664269
11
19.6955843
21
102.4474135
0
LINE
8
DEFAULT_255_1_388
10
18.8652085
20
102.4248244
11
18.8652085
21
102.6480048
0
LINE
8
DEFAULT_255_1_388
10
19.5284249
20
102.4022353
11
19.5284249
21
102.6760153
0
LINE
8
DEFAULT_255_1_388
10
19.032368
20
102.6886652
11
19.032368
21
102.4212102
0
ARC
8
DEFAULT_255_1_388
10
18.3178177
20
102.4419118
40
1.3777776
50
353.8440855
51
0.2287917
0
ARC
8
DEFAULT_255_1_388
10
18.8397194
20
102.3836414
40
0.852639
50
344.4934746
51
353.9763743
0
ARC
8
DEFAULT_255_1_388
10
19.1764001
20
102.2879191
40
0.5026273
50
329.2803599
51
344.7473406
0
ARC
8
DEFAULT_255_1_388
10
19.2879497
20
102.2267038
40
0.3754848
50
324.9361395
51
328.6153007
0
ARC
8
DEFAULT_255_1_388
10
19.3305147
20
102.1969586
40
0.3235566
50
280.5801797
51
324.9173226
0
ARC
8
DEFAULT_255_1_388
10
19.2853776
20
102.3849236
40
0.5167077
50
269.5979457
51
281.6732777
0
ARC
8
DEFAULT_255_1_388
10
19.2772679
20
102.3714113
40
0.5032026
50
256.6228565
51
270.5105488
0
ARC
8
DEFAULT_255_1_388
10
19.2320422
20
102.1972345
40
0.3233092
50
215.8618351
51
257.2787793
0
ARC
8
DEFAULT_255_1_388
10
19.3469129
20
102.2743106
40
0.4615831
50
197.9695203
51
215.2622745
0
ARC
8
DEFAULT_255_1_388
10
19.6264804
20
102.3686641
40
0.7566307
50
187.8816486
51
198.2346584
0
ARC
8
DEFAULT_255_1_388
10
20.0718043
20
102.4329453
40
1.2065653
50
180.8977266
51
188.0054894
0
ARC
8
DEFAULT_255_1_388
10
20.3768256
20
102.44444
40
1.5117443
50
180.7434591
51
181.152202
0
ARC
8
DEFAULT_255_1_388
10
20.2093252
20
102.6534371
40
1.3441277
50
173.7674302
51
180.2315596
0
ARC
8
DEFAULT_255_1_388
10
19.7011121
20
102.7108779
40
0.8326847
50
164.3058537
51
173.9000553
0
ARC
8
DEFAULT_255_1_388
10
19.3735121
20
102.8052652
40
0.4917711
50
148.7922028
51
164.5682288
0
ARC
8
DEFAULT_255_1_388
10
19.2665859
20
102.8649457
40
0.3694204
50
144.5883979
51
148.1161588
0
ARC
8
DEFAULT_255_1_388
10
19.2278604
20
102.8919667
40
0.322202
50
101.6440149
51
144.5142619
0
ARC
8
DEFAULT_255_1_388
10
19.2756796
20
102.7019337
40
0.5180451
50
89.528284
51
102.5820197
0
ARC
8
DEFAULT_255_1_388
10
19.2845788
20
102.6975376
40
0.5224441
50
77.0437914
51
90.508231
0
ARC
8
DEFAULT_255_1_388
10
19.3298042
20
102.8823272
40
0.3322297
50
48.2777708
51
77.4996087
0
ARC
8
DEFAULT_255_1_388
10
19.3379782
20
102.8968557
40
0.315966
50
36.3141586
51
47.6307332
0
ARC
8
DEFAULT_255_1_388
10
19.2402504
20
102.8310159
40
0.4337313
50
18.2931065
51
35.6770203
0
ARC
8
DEFAULT_255_1_388
10
18.9541345
20
102.7328107
40
0.7362203
50
8.0246996
51
18.5605636
0
ARC
8
DEFAULT_255_1_388
10
18.48577
20
102.6636432
40
1.2096583
50
1.127539
51
8.1718423
0
ARC
8
DEFAULT_255_1_388
10
18.1208834
20
102.6493374
40
1.5747719
50
0.5432713
51
1.38669
0
ARC
8
DEFAULT_255_1_388
10
18.3266212
20
102.6800163
40
1.2018103
50
359.8092569
51
4.9408001
0
ARC
8
DEFAULT_255_1_388
10
18.8002794
20
102.72229
40
0.7262727
50
4.8364937
51
12.2906017
0
ARC
8
DEFAULT_255_1_388
10
19.1102258
20
102.7913485
40
0.4087324
50
12.0806994
51
23.8171225
0
ARC
8
DEFAULT_255_1_388
10
19.2422654
20
102.8472508
40
0.2653719
50
24.2874621
51
31.3934353
0
ARC
8
DEFAULT_255_1_388
10
19.301309
20
102.8858822
40
0.1948607
50
30.7407708
51
82.4658033
0
ARC
8
DEFAULT_255_1_388
10
19.2810751
20
102.7865017
40
0.2961198
50
81.1057101
51
90.2187368
0
ARC
8
DEFAULT_255_1_388
10
19.2770563
20
102.8155421
40
0.2670929
50
89.380395
51
105.6763916
0
ARC
8
DEFAULT_255_1_388
10
19.2564285
20
102.890532
40
0.1893189
50
105.7980655
51
149.7387869
0
ARC
8
DEFAULT_255_1_388
10
19.3761425
20
102.8185719
40
0.3289892
50
149.4208441
51
163.628295
0
ARC
8
DEFAULT_255_1_388
10
19.6113655
20
102.7468345
40
0.5749004
50
163.3764549
51
172.141138
0
ARC
8
DEFAULT_255_1_388
10
19.9826376
20
102.6936582
40
0.9499585
50
172.0258462
51
178.0705453
0
ARC
8
DEFAULT_255_1_388
10
20.3247929
20
102.6774682
40
1.2924734
50
177.8639301
51
179.5036263
0
ARC
8
DEFAULT_255_1_388
10
20.2028948
20
102.4171151
40
1.170534
50
179.7995545
51
185.246089
0
ARC
8
DEFAULT_255_1_388
10
19.7480541
20
102.3740404
40
0.7136613
50
185.1411911
51
193.0082205
0
ARC
8
DEFAULT_255_1_388
10
19.4506801
20
102.3037441
40
0.4080987
50
192.7897338
51
205.2507384
0
ARC
8
DEFAULT_255_1_388
10
19.3329011
20
102.2511538
40
0.2791522
50
205.8001921
51
211.2545876
0
ARC
8
DEFAULT_255_1_388
10
19.2740551
20
102.2117132
40
0.2084074
50
210.3789935
51
238.4007996
0
ARC
8
DEFAULT_255_1_388
10
19.2718637
20
102.2169786
40
0.2117943
50
239.6521916
51
265.9793852
0
ARC
8
DEFAULT_255_1_388
10
19.2814485
20
102.2926358
40
0.2879689
50
265.1324455
51
270.0603288
0
ARC
8
DEFAULT_255_1_388
10
19.2846863
20
102.2561418
40
0.2514919
50
269.3314378
51
287.2180039
0
ARC
8
DEFAULT_255_1_388
10
19.3001945
20
102.1995291
40
0.1928357
50
287.7957942
51
329.0808983
0
ARC
8
DEFAULT_255_1_388
10
19.1924702
20
102.2667651
40
0.319808
50
328.6635261
51
343.3325043
0
ARC
8
DEFAULT_255_1_388
10
18.948016
20
102.3429195
40
0.5758408
50
343.0498092
51
351.9392499
0
ARC
8
DEFAULT_255_1_388
10
18.5579482
20
102.4004205
40
0.9701202
50
351.8071632
51
357.7957897
0
ARC
8
DEFAULT_255_1_388
10
18.1944959
20
102.4192724
40
1.3340376
50
357.5870923
51
359.2682493
0
LINE
8
DEFAULT_255_1_388
10
20.7346834
20
102.664269
11
20.7346834
21
102.4474135
0
LINE
8
DEFAULT_255_1_388
10
19.9043077
20
102.4248244
11
19.9043077
21
102.6480048
0
LINE
8
DEFAULT_255_1_388
10
20.567524
20
102.4022353
11
20.567524
21
102.6760153
0
LINE
8
DEFAULT_255_1_388
10
20.0714671
20
102.6886652
11
20.0714671
21
102.4212102
0
ARC
8
DEFAULT_255_1_388
10
19.3569168
20
102.4419118
40
1.3777776
50
353.8440855
51
0.2287917
0
ARC
8
DEFAULT_255_1_388
10
19.8788185
20
102.3836414
40
0.852639
50
344.4934746
51
353.9763743
0
ARC
8
DEFAULT_255_1_388
10
20.2154993
20
102.2879191
40
0.5026273
50
329.2803599
51
344.7473406
0
ARC
8
DEFAULT_255_1_388
10
20.3270488
20
102.2267038
40
0.3754848
50
324.9361395
51
328.6153007
0
ARC
8
DEFAULT_255_1_388
10
20.3696138
20
102.1969586
40
0.3235566
50
280.5801797
51
324.9173226
0
ARC
8
DEFAULT_255_1_388
10
20.3244767
20
102.3849236
40
0.5167077
50
269.5979457
51
281.6732777
0
ARC
8
DEFAULT_255_1_388
10
20.316367
20
102.3714113
40
0.5032026
50
256.6228565
51
270.5105488
0
ARC
8
DEFAULT_255_1_388
10
20.2711413
20
102.1972345
40
0.3233092
50
215.8618351
51
257.2787793
0
ARC
8
DEFAULT_255_1_388
10
20.386012
20
102.2743106
40
0.4615831
50
197.9695203
51
215.2622745
0
ARC
8
DEFAULT_255_1_388
10
20.6655796
20
102.3686641
40
0.7566307
50
187.8816486
51
198.2346584
0
ARC
8
DEFAULT_255_1_388
10
21.1109034
20
102.4329453
40
1.2065653
50
180.8977266
51
188.0054894
0
ARC
8
DEFAULT_255_1_388
10
21.4159248
20
102.44444
40
1.5117443
50
180.7434591
51
181.152202
0
ARC
8
DEFAULT_255_1_388
10
21.2484243
20
102.6534371
40
1.3441277
50
173.7674302
51
180.2315596
0
ARC
8
DEFAULT_255_1_388
10
20.7402112
20
102.7108779
40
0.8326847
50
164.3058537
51
173.9000553
0
ARC
8
DEFAULT_255_1_388
10
20.4126112
20
102.8052652
40
0.4917711
50
148.7922028
51
164.5682288
0
ARC
8
DEFAULT_255_1_388
10
20.305685
20
102.8649457
40
0.3694204
50
144.5883979
51
148.1161588
0
ARC
8
DEFAULT_255_1_388
10
20.2669595
20
102.8919667
40
0.322202
50
101.6440149
51
144.5142619
0
ARC
8
DEFAULT_255_1_388
10
20.3147787
20
102.7019337
40
0.5180451
50
89.528284
51
102.5820197
0
ARC
8
DEFAULT_255_1_388
10
20.3236779
20
102.6975376
40
0.5224441
50
77.0437914
51
90.508231
0
ARC
8
DEFAULT_255_1_388
10
20.3689033
20
102.8823272
40
0.3322297
50
48.2777708
51
77.4996087
0
ARC
8
DEFAULT_255_1_388
10
20.3770773
20
102.8968557
40
0.315966
50
36.3141586
51
47.6307332
0
ARC
8
DEFAULT_255_1_388
10
20.2793495
20
102.8310159
40
0.4337313
50
18.2931065
51
35.6770203
0
ARC
8
DEFAULT_255_1_388
10
19.9932336
20
102.7328107
40
0.7362203
50
8.0246996
51
18.5605636
0
ARC
8
DEFAULT_255_1_388
10
19.5248691
20
102.6636432
40
1.2096583
50
1.127539
51
8.1718423
0
ARC
8
DEFAULT_255_1_388
10
19.1599825
20
102.6493374
40
1.5747719
50
0.5432713
51
1.38669
0
ARC
8
DEFAULT_255_1_388
10
19.3657204
20
102.6800163
40
1.2018103
50
359.8092569
51
4.9408001
0
ARC
8
DEFAULT_255_1_388
10
19.8393785
20
102.72229
40
0.7262727
50
4.8364937
51
12.2906017
0
ARC
8
DEFAULT_255_1_388
10
20.149325
20
102.7913485
40
0.4087324
50
12.0806994
51
23.8171225
0
ARC
8
DEFAULT_255_1_388
10
20.2813646
20
102.8472508
40
0.2653719
50
24.2874621
51
31.3934353
0
ARC
8
DEFAULT_255_1_388
10
20.3404082
20
102.8858822
40
0.1948607
50
30.7407708
51
82.4658033
0
ARC
8
DEFAULT_255_1_388
10
20.3201742
20
102.7865017
40
0.2961198
50
81.1057101
51
90.2187368
0
ARC
8
DEFAULT_255_1_388
10
20.3161554
20
102.8155421
40
0.2670929
50
89.380395
51
105.6763916
0
ARC
8
DEFAULT_255_1_388
10
20.2955276
20
102.890532
40
0.1893189
50
105.7980655
51
149.7387869
0
ARC
8
DEFAULT_255_1_388
10
20.4152416
20
102.8185719
40
0.3289892
50
149.4208441
51
163.628295
0
ARC
8
DEFAULT_255_1_388
10
20.6504646
20
102.7468345
40
0.5749004
50
163.3764549
51
172.141138
0
ARC
8
DEFAULT_255_1_388
10
21.0217367
20
102.6936582
40
0.9499585
50
172.0258462
51
178.0705453
0
ARC
8
DEFAULT_255_1_388
10
21.363892
20
102.6774682
40
1.2924734
50
177.8639301
51
179.5036263
0
ARC
8
DEFAULT_255_1_388
10
21.2419939
20
102.4171151
40
1.170534
50
179.7995545
51
185.246089
0
ARC
8
DEFAULT_255_1_388
10
20.7871532
20
102.3740404
40
0.7136613
50
185.1411911
51
193.0082205
0
ARC
8
DEFAULT_255_1_388
10
20.4897793
20
102.3037441
40
0.4080987
50
192.7897338
51
205.2507384
0
ARC
8
DEFAULT_255_1_388
10
20.3720003
20
102.2511538
40
0.2791522
50
205.8001921
51
211.2545876
0
ARC
8
DEFAULT_255_1_388
10
20.3131542
20
102.2117132
40
0.2084074
50
210.3789935
51
238.4007996
0
ARC
8
DEFAULT_255_1_388
10
20.3109628
20
102.2169786
40
0.2117943
50
239.6521916
51
265.9793852
0
ARC
8
DEFAULT_255_1_388
10
20.3205477
20
102.2926358
40
0.2879689
50
265.1324455
51
270.0603288
0
ARC
8
DEFAULT_255_1_388
10
20.3237854
20
102.2561418
40
0.2514919
50
269.3314378
51
287.2180039
0
ARC
8
DEFAULT_255_1_388
10
20.3392936
20
102.1995291
40
0.1928357
50
287.7957942
51
329.0808983
0
ARC
8
DEFAULT_255_1_388
10
20.2315693
20
102.2667651
40
0.319808
50
328.6635261
51
343.3325043
0
ARC
8
DEFAULT_255_1_388
10
19.9871152
20
102.3429195
40
0.5758408
50
343.0498092
51
351.9392499
0
ARC
8
DEFAULT_255_1_388
10
19.5970473
20
102.4004205
40
0.9701202
50
351.8071632
51
357.7957897
0
ARC
8
DEFAULT_255_1_388
10
19.233595
20
102.4192724
40
1.3340376
50
357.5870923
51
359.2682493
0
LINE
8
DEFAULT_255_1_388
10
4.1680903
20
101.2174898
11
4.1680903
21
100.0437596
0
LINE
8
DEFAULT_255_1_388
10
4.1680903
20
100.0437596
11
4.7915498
21
100.0437596
0
LINE
8
DEFAULT_255_1_388
10
4.7915498
20
100.0437596
11
4.7915498
21
99.9019
0
LINE
8
DEFAULT_255_1_388
10
4.7915498
20
99.9019
11
3.9937024
21
99.9019
0
LINE
8
DEFAULT_255_1_388
10
3.9937024
20
99.9019
11
3.9937024
21
101.2174898
0
LINE
8
DEFAULT_255_1_388
10
3.9937024
20
101.2174898
11
4.1680903
21
101.2174898
0
LINE
8
DEFAULT_255_1_388
10
5.4421162
20
100.9915987
11
5.4421162
21
100.6075838
0
LINE
8
DEFAULT_255_1_388
10
5.4421162
20
100.6075838
11
5.8089634
21
100.6075838
0
LINE
8
DEFAULT_255_1_388
10
5.8089634
20
100.6075838
11
5.8089634
21
100.4494601
0
LINE
8
DEFAULT_255_1_388
10
5.8089634
20
100.4494601
11
5.4421162
21
100.4494601
0
LINE
8
DEFAULT_255_1_388
10
5.4421162
20
100.4494601
11
5.4421162
21
100.0338204
0
LINE
8
DEFAULT_255_1_388
10
5.4421162
20
100.0338204
11
5.2740532
21
100.0338204
0
LINE
8
DEFAULT_255_1_388
10
5.2740532
20
100.0338204
11
5.2740532
21
100.4494601
0
LINE
8
DEFAULT_255_1_388
10
5.2740532
20
100.4494601
11
4.9072061
21
100.4494601
0
LINE
8
DEFAULT_255_1_388
10
4.9072061
20
100.4494601
11
4.9072061
21
100.6075838
0
LINE
8
DEFAULT_255_1_388
10
4.9072061
20
100.6075838
11
5.2740532
21
100.6075838
0
LINE
8
DEFAULT_255_1_388
10
5.2740532
20
100.6075838
11
5.2740532
21
100.9915987
0
LINE
8
DEFAULT_255_1_388
10
5.2740532
20
100.9915987
11
5.4421162
21
100.9915987
0
LINE
8
DEFAULT_255_1_388
10
4.8563646
20
5.3747516
11
4.8563646
21
5.2328919
0
LINE
8
DEFAULT_255_1_388
10
4.8563646
20
5.2328919
11
4.3042868
21
5.2328919
0
LINE
8
DEFAULT_255_1_388
10
4.3042868
20
5.2328919
11
4.3042868
21
4.6519
0
LINE
8
DEFAULT_255_1_388
10
4.3042868
20
4.6519
11
4.1308024
21
4.6519
0
LINE
8
DEFAULT_255_1_388
10
4.1308024
20
4.6519
11
4.1308024
21
5.9674898
0
LINE
8
DEFAULT_255_1_388
10
4.1308024
20
5.9674898
11
4.9458175
21
5.9674898
0
LINE
8
DEFAULT_255_1_388
10
4.9458175
20
5.9674898
11
4.9458175
21
5.8247267
0
LINE
8
DEFAULT_255_1_388
10
4.9458175
20
5.8247267
11
4.3042868
21
5.8247267
0
LINE
8
DEFAULT_255_1_388
10
4.3042868
20
5.8247267
11
4.3042868
21
5.3747516
0
LINE
8
DEFAULT_255_1_388
10
4.3042868
20
5.3747516
11
4.8563646
21
5.3747516
0
LINE
8
DEFAULT_255_1_388
10
5.4753063
20
5.2789737
11
5.4753063
21
5.1425355
0
LINE
8
DEFAULT_255_1_388
10
5.4753063
20
5.1425355
11
5.0343668
21
5.1425355
0
LINE
8
DEFAULT_255_1_388
10
5.0343668
20
5.1425355
11
5.0343668
21
5.2789737
0
LINE
8
DEFAULT_255_1_388
10
5.0343668
20
5.2789737
11
5.4753063
21
5.2789737
0
LINE
8
DEFAULT_255_1_388
10
4.7198646
20
13.3122516
11
4.7198646
21
13.1703919
0
LINE
8
DEFAULT_255_1_388
10
4.7198646
20
13.1703919
11
4.1677868
21
13.1703919
0
LINE
8
DEFAULT_255_1_388
10
4.1677868
20
13.1703919
11
4.1677868
21
12.5894
0
LINE
8
DEFAULT_255_1_388
10
4.1677868
20
12.5894
11
3.9943024
21
12.5894
0
LINE
8
DEFAULT_255_1_388
10
3.9943024
20
12.5894
11
3.9943024
21
13.9049898
0
LINE
8
DEFAULT_255_1_388
10
3.9943024
20
13.9049898
11
4.8093175
21
13.9049898
0
LINE
8
DEFAULT_255_1_388
10
4.8093175
20
13.9049898
11
4.8093175
21
13.7622267
0
LINE
8
DEFAULT_255_1_388
10
4.8093175
20
13.7622267
11
4.1677868
21
13.7622267
0
LINE
8
DEFAULT_255_1_388
10
4.1677868
20
13.7622267
11
4.1677868
21
13.3122516
0
LINE
8
DEFAULT_255_1_388
10
4.1677868
20
13.3122516
11
4.7198646
21
13.3122516
0
LINE
8
DEFAULT_255_1_388
10
5.4698231
20
13.6790987
11
5.4698231
21
13.2950838
0
LINE
8
DEFAULT_255_1_388
10
5.4698231
20
13.2950838
11
5.8366703
21
13.2950838
0
LINE
8
DEFAULT_255_1_388
10
5.8366703
20
13.2950838
11
5.8366703
21
13.1369601
0
LINE
8
DEFAULT_255_1_388
10
5.8366703
20
13.1369601
11
5.4698231
21
13.1369601
0
LINE
8
DEFAULT_255_1_388
10
5.4698231
20
13.1369601
11
5.4698231
21
12.7213204
0
LINE
8
DEFAULT_255_1_388
10
5.4698231
20
12.7213204
11
5.3017602
21
12.7213204
0
LINE
8
DEFAULT_255_1_388
10
5.3017602
20
12.7213204
11
5.3017602
21
13.1369601
0
LINE
8
DEFAULT_255_1_388
10
5.3017602
20
13.1369601
11
4.934913
21
13.1369601
0
LINE
8
DEFAULT_255_1_388
10
4.934913
20
13.1369601
11
4.934913
21
13.2950838
0
LINE
8
DEFAULT_255_1_388
10
4.934913
20
13.2950838
11
5.3017602
21
13.2950838
0
LINE
8
DEFAULT_255_1_388
10
5.3017602
20
13.2950838
11
5.3017602
21
13.6790987
0
LINE
8
DEFAULT_255_1_388
10
5.3017602
20
13.6790987
11
5.4698231
21
13.6790987
0
LINE
8
DEFAULT_255_1_388
10
4.8733359
20
21.2768585
11
4.8733359
21
21.1349989
0
LINE
8
DEFAULT_255_1_388
10
4.8733359
20
21.1349989
11
4.3031868
21
21.1349989
0
LINE
8
DEFAULT_255_1_388
10
4.3031868
20
21.1349989
11
4.3031868
21
20.6687596
0
LINE
8
DEFAULT_255_1_388
10
4.3031868
20
20.6687596
11
4.9654995
21
20.6687596
0
LINE
8
DEFAULT_255_1_388
10
4.9654995
20
20.6687596
11
4.9654995
21
20.5269
0
LINE
8
DEFAULT_255_1_388
10
4.9654995
20
20.5269
11
4.1297024
21
20.5269
0
LINE
8
DEFAULT_255_1_388
10
4.1297024
20
20.5269
11
4.1297024
21
21.8424898
0
LINE
8
DEFAULT_255_1_388
10
4.1297024
20
21.8424898
11
4.9564639
21
21.8424898
0
LINE
8
DEFAULT_255_1_388
10
4.9564639
20
21.8424898
11
4.9564639
21
21.6997267
0
LINE
8
DEFAULT_255_1_388
10
4.9564639
20
21.6997267
11
4.3031868
21
21.6997267
0
LINE
8
DEFAULT_255_1_388
10
4.3031868
20
21.6997267
11
4.3031868
21
21.2768585
0
LINE
8
DEFAULT_255_1_388
10
4.3031868
20
21.2768585
11
4.8733359
21
21.2768585
0
LINE
8
DEFAULT_255_1_388
10
5.5031204
20
21.1539737
11
5.5031204
21
21.0175355
0
LINE
8
DEFAULT_255_1_388
10
5.5031204
20
21.0175355
11
5.0621809
21
21.0175355
0
LINE
8
DEFAULT_255_1_388
10
5.0621809
20
21.0175355
11
5.0621809
21
21.1539737
0
LINE
8
DEFAULT_255_1_388
10
5.0621809
20
21.1539737
11
5.5031204
21
21.1539737
0
LINE
8
DEFAULT_255_1_388
10
4.7369359
20
29.2143585
11
4.7369359
21
29.0724989
0
LINE
8
DEFAULT_255_1_388
10
4.7369359
20
29.0724989
11
4.1667868
21
29.0724989
0
LINE
8
DEFAULT_255_1_388
10
4.1667868
20
29.0724989
11
4.1667868
21
28.6062596
0
LINE
8
DEFAULT_255_1_388
10
4.1667868
20
28.6062596
11
4.8290995
21
28.6062596
0
LINE
8
DEFAULT_255_1_388
10
4.8290995
20
28.6062596
11
4.8290995
21
28.4644
0
LINE
8
DEFAULT_255_1_388
10
4.8290995
20
28.4644
11
3.9933024
21
28.4644
0
LINE
8
DEFAULT_255_1_388
10
3.9933024
20
28.4644
11
3.9933024
21
29.7799898
0
LINE
8
DEFAULT_255_1_388
10
3.9933024
20
29.7799898
11
4.8200639
21
29.7799898
0
LINE
8
DEFAULT_255_1_388
10
4.8200639
20
29.7799898
11
4.8200639
21
29.6372267
0
LINE
8
DEFAULT_255_1_388
10
4.8200639
20
29.6372267
11
4.1667868
21
29.6372267
0
LINE
8
DEFAULT_255_1_388
10
4.1667868
20
29.6372267
11
4.1667868
21
29.2143585
0
LINE
8
DEFAULT_255_1_388
10
4.1667868
20
29.2143585
11
4.7369359
21
29.2143585
0
LINE
8
DEFAULT_255_1_388
10
5.4977372
20
29.5540987
11
5.4977372
21
29.1700838
0
LINE
8
DEFAULT_255_1_388
10
5.4977372
20
29.1700838
11
5.8645844
21
29.1700838
0
LINE
8
DEFAULT_255_1_388
10
5.8645844
20
29.1700838
11
5.8645844
21
29.0119601
0
LINE
8
DEFAULT_255_1_388
10
5.8645844
20
29.0119601
11
5.4977372
21
29.0119601
0
LINE
8
DEFAULT_255_1_388
10
5.4977372
20
29.0119601
11
5.4977372
21
28.5963204
0
LINE
8
DEFAULT_255_1_388
10
5.4977372
20
28.5963204
11
5.3296742
21
28.5963204
0
LINE
8
DEFAULT_255_1_388
10
5.3296742
20
28.5963204
11
5.3296742
21
29.0119601
0
LINE
8
DEFAULT_255_1_388
10
5.3296742
20
29.0119601
11
4.9628271
21
29.0119601
0
LINE
8
DEFAULT_255_1_388
10
4.9628271
20
29.0119601
11
4.9628271
21
29.1700838
0
LINE
8
DEFAULT_255_1_388
10
4.9628271
20
29.1700838
11
5.3296742
21
29.1700838
0
LINE
8
DEFAULT_255_1_388
10
5.3296742
20
29.1700838
11
5.3296742
21
29.5540987
0
LINE
8
DEFAULT_255_1_388
10
5.3296742
20
29.5540987
11
5.4977372
21
29.5540987
0
LINE
8
DEFAULT_255_1_388
10
4.4947389
20
36.4019
11
4.1306024
21
36.4019
0
LINE
8
DEFAULT_255_1_388
10
4.1306024
20
36.4019
11
4.1306024
21
37.7174898
0
LINE
8
DEFAULT_255_1_388
10
4.1306024
20
37.7174898
11
4.5019674
21
37.7174898
0
LINE
8
DEFAULT_255_1_388
10
5.0820558
20
37.1039696
11
5.0820558
21
37.0199381
0
LINE
8
DEFAULT_255_1_388
10
4.5064852
20
37.5747267
11
4.3040868
21
37.5747267
0
LINE
8
DEFAULT_255_1_388
10
4.3040868
20
37.5747267
11
4.3040868
21
36.5437596
0
LINE
8
DEFAULT_255_1_388
10
4.3040868
20
36.5437596
11
4.4866068
21
36.5437596
0
LINE
8
DEFAULT_255_1_388
10
4.9103785
20
37.0235523
11
4.9103785
21
37.1003553
0
ARC
8
DEFAULT_255_1_388
10
4.5063469
20
37.0576436
40
0.6598608
50
75.4100343
51
90.3802731
0
ARC
8
DEFAULT_255_1_388
10
4.5321714
20
37.1652691
40
0.5492049
50
60.1455157
51
75.1889627
0
ARC
8
DEFAULT_255_1_388
10
4.5500306
20
37.1963914
40
0.5133226
50
26.525419
51
60.1451222
0
ARC
8
DEFAULT_255_1_388
10
4.4240092
20
37.1295642
40
0.6559324
50
7.4029944
51
26.832209
0
ARC
8
DEFAULT_255_1_388
10
4.2446489
20
37.1016229
40
0.8374103
50
0.1605597
51
7.7176135
0
ARC
8
DEFAULT_255_1_388
10
4.2630889
20
37.0156321
40
0.8189782
50
348.7289744
51
0.30125
0
ARC
8
DEFAULT_255_1_388
10
4.4494353
20
36.9786156
40
0.628991
50
333.0706936
51
348.7181455
0
ARC
8
DEFAULT_255_1_388
10
4.5581981
20
36.9195449
40
0.5052808
50
299.2531435
51
333.4571133
0
ARC
8
DEFAULT_255_1_388
10
4.5176012
20
36.9966629
40
0.5924066
50
278.1072193
51
299.0340218
0
ARC
8
DEFAULT_255_1_388
10
4.4888061
20
37.1662979
40
0.7644209
50
270.4446841
51
278.4508355
0
ARC
8
DEFAULT_255_1_388
10
4.4911545
20
37.06173
40
0.5179903
50
269.4969684
51
284.0204874
0
ARC
8
DEFAULT_255_1_388
10
4.5311263
20
36.9081415
40
0.3592968
50
283.7699076
51
318.1557121
0
ARC
8
DEFAULT_255_1_388
10
4.4931808
20
36.9365399
40
0.4065308
50
318.7417595
51
343.687252
0
ARC
8
DEFAULT_255_1_388
10
4.2902387
20
36.9999275
40
0.6191194
50
343.3324891
51
355.8548594
0
ARC
8
DEFAULT_255_1_388
10
4.0541424
20
37.0223719
40
0.856237
50
355.4988754
51
0.0789913
0
ARC
8
DEFAULT_255_1_388
10
4.1422224
20
37.105108
40
0.7681709
50
359.6455047
51
9.8607559
0
ARC
8
DEFAULT_255_1_388
10
4.4077947
20
37.1530664
40
0.498312
50
9.6573037
51
26.1931522
0
ARC
8
DEFAULT_255_1_388
10
4.5122022
20
37.2015587
40
0.3832303
50
26.5777895
51
40.1533752
0
ARC
8
DEFAULT_255_1_388
10
4.5409687
20
37.224002
40
0.3467742
50
40.3839958
51
80.1430923
0
ARC
8
DEFAULT_255_1_388
10
4.5041942
20
37.0609486
40
0.5137832
50
79.2153636
51
89.7445174
0
LINE
8
DEFAULT_255_1_388
10
5.6657584
20
37.0289737
11
5.6657584
21
36.8925355
0
LINE
8
DEFAULT_255_1_388
10
5.6657584
20
36.8925355
11
5.2248189
21
36.8925355
0
LINE
8
DEFAULT_255_1_388
10
5.2248189
20
36.8925355
11
5.2248189
21
37.0289737
0
LINE
8
DEFAULT_255_1_388
10
5.2248189
20
37.0289737
11
5.6657584
21
37.0289737
0
LINE
8
DEFAULT_255_1_388
10
4.3582389
20
44.3394
11
3.9941024
21
44.3394
0
LINE
8
DEFAULT_255_1_388
10
3.9941024
20
44.3394
11
3.9941024
21
45.6549898
0
LINE
8
DEFAULT_255_1_388
10
3.9941024
20
45.6549898
11
4.3654674
21
45.6549898
0
LINE
8
DEFAULT_255_1_388
10
4.9455558
20
45.0414696
11
4.9455558
21
44.9574381
0
LINE
8
DEFAULT_255_1_388
10
4.3699852
20
45.5122267
11
4.1675868
21
45.5122267
0
LINE
8
DEFAULT_255_1_388
10
4.1675868
20
45.5122267
11
4.1675868
21
44.4812596
0
LINE
8
DEFAULT_255_1_388
10
4.1675868
20
44.4812596
11
4.3501068
21
44.4812596
0
LINE
8
DEFAULT_255_1_388
10
4.7738785
20
44.9610523
11
4.7738785
21
45.0378553
0
ARC
8
DEFAULT_255_1_388
10
4.3698469
20
44.9951436
40
0.6598608
50
75.4100343
51
90.3802731
0
ARC
8
DEFAULT_255_1_388
10
4.3956714
20
45.1027691
40
0.5492049
50
60.1455157
51
75.1889627
0
ARC
8
DEFAULT_255_1_388
10
4.4135306
20
45.1338914
40
0.5133226
50
26.525419
51
60.1451222
0
ARC
8
DEFAULT_255_1_388
10
4.2875092
20
45.0670642
40
0.6559324
50
7.4029944
51
26.832209
0
ARC
8
DEFAULT_255_1_388
10
4.1081489
20
45.0391229
40
0.8374103
50
0.1605597
51
7.7176135
0
ARC
8
DEFAULT_255_1_388
10
4.1265889
20
44.9531321
40
0.8189782
50
348.7289744
51
0.30125
0
ARC
8
DEFAULT_255_1_388
10
4.3129353
20
44.9161156
40
0.628991
50
333.0706936
51
348.7181455
0
ARC
8
DEFAULT_255_1_388
10
4.4216981
20
44.8570449
40
0.5052808
50
299.2531435
51
333.4571133
0
ARC
8
DEFAULT_255_1_388
10
4.3811012
20
44.9341629
40
0.5924066
50
278.1072193
51
299.0340218
0
ARC
8
DEFAULT_255_1_388
10
4.3523061
20
45.1037979
40
0.7644209
50
270.4446841
51
278.4508355
0
ARC
8
DEFAULT_255_1_388
10
4.3546545
20
44.99923
40
0.5179903
50
269.4969684
51
284.0204874
0
ARC
8
DEFAULT_255_1_388
10
4.3946263
20
44.8456415
40
0.3592968
50
283.7699076
51
318.1557121
0
ARC
8
DEFAULT_255_1_388
10
4.3566808
20
44.8740399
40
0.4065308
50
318.7417595
51
343.687252
0
ARC
8
DEFAULT_255_1_388
10
4.1537387
20
44.9374275
40
0.6191194
50
343.3324891
51
355.8548594
0
ARC
8
DEFAULT_255_1_388
10
3.9176424
20
44.9598719
40
0.856237
50
355.4988754
51
0.0789913
0
ARC
8
DEFAULT_255_1_388
10
4.0057224
20
45.042608
40
0.7681709
50
359.6455047
51
9.8607559
0
ARC
8
DEFAULT_255_1_388
10
4.2712947
20
45.0905664
40
0.498312
50
9.6573037
51
26.1931522
0
ARC
8
DEFAULT_255_1_388
10
4.3757022
20
45.1390587
40
0.3832303
50
26.5777895
51
40.1533752
0
ARC
8
DEFAULT_255_1_388
10
4.4044687
20
45.161502
40
0.3467742
50
40.3839958
51
80.1430923
0
ARC
8
DEFAULT_255_1_388
10
4.3676942
20
44.9984486
40
0.5137832
50
79.2153636
51
89.7445174
0
LINE
8
DEFAULT_255_1_388
10
5.6602752
20
45.4290987
11
5.6602752
21
45.0450838
0
LINE
8
DEFAULT_255_1_388
10
5.6602752
20
45.0450838
11
6.0271224
21
45.0450838
0
LINE
8
DEFAULT_255_1_388
10
6.0271224
20
45.0450838
11
6.0271224
21
44.8869601
0
LINE
8
DEFAULT_255_1_388
10
6.0271224
20
44.8869601
11
5.6602752
21
44.8869601
0
LINE
8
DEFAULT_255_1_388
10
5.6602752
20
44.8869601
11
5.6602752
21
44.4713204
0
LINE
8
DEFAULT_255_1_388
10
5.6602752
20
44.4713204
11
5.4922123
21
44.4713204
0
LINE
8
DEFAULT_255_1_388
10
5.4922123
20
44.4713204
11
5.4922123
21
44.8869601
0
LINE
8
DEFAULT_255_1_388
10
5.4922123
20
44.8869601
11
5.1253651
21
44.8869601
0
LINE
8
DEFAULT_255_1_388
10
5.1253651
20
44.8869601
11
5.1253651
21
45.0450838
0
LINE
8
DEFAULT_255_1_388
10
5.1253651
20
45.0450838
11
5.4922123
21
45.0450838
0
LINE
8
DEFAULT_255_1_388
10
5.4922123
20
45.0450838
11
5.4922123
21
45.4290987
0
LINE
8
DEFAULT_255_1_388
10
5.4922123
20
45.4290987
11
5.6602752
21
45.4290987
0
LINE
8
DEFAULT_255_1_388
10
4.924532
20
52.6943468
11
5.0989199
21
52.6943468
0
LINE
8
DEFAULT_255_1_388
10
4.0860242
20
52.8732525
11
4.0860242
21
52.9997516
0
LINE
8
DEFAULT_255_1_388
10
5.0989199
20
53.1696217
11
4.924532
21
53.1696217
0
LINE
8
DEFAULT_255_1_388
10
4.2604121
20
52.9952337
11
4.2604121
21
52.8678312
0
ARC
8
DEFAULT_255_1_388
10
4.4823433
20
52.7615329
40
0.6202263
50
340.1774904
51
353.7812217
0
ARC
8
DEFAULT_255_1_388
10
4.6591286
20
52.6956893
40
0.4315926
50
311.4560052
51
340.4420756
0
ARC
8
DEFAULT_255_1_388
10
4.6553826
20
52.7081665
40
0.4434573
50
282.4332229
51
310.7514507
0
ARC
8
DEFAULT_255_1_388
10
4.6059644
20
52.9123703
40
0.6535262
50
269.9358869
51
282.8096729
0
ARC
8
DEFAULT_255_1_388
10
4.6001583
20
53.0636329
40
0.8048043
50
269.9995752
51
270.3612856
0
ARC
8
DEFAULT_255_1_388
10
4.5942073
20
52.7837781
40
0.5249831
50
250.7885263
51
270.6488451
0
ARC
8
DEFAULT_255_1_388
10
4.5752898
20
52.7120853
40
0.4510942
50
219.3628377
51
250.0611024
0
ARC
8
DEFAULT_255_1_388
10
4.6685772
20
52.7913653
40
0.5735046
50
193.5480293
51
219.5755675
0
ARC
8
DEFAULT_255_1_388
10
4.9353981
20
52.860652
40
0.849146
50
181.1220183
51
193.8754971
0
ARC
8
DEFAULT_255_1_388
10
5.1677214
20
52.8730914
40
1.0816971
50
179.9914644
51
181.5398227
0
ARC
8
DEFAULT_255_1_388
10
4.9600525
20
53.0039586
40
0.8740384
50
169.5837606
51
180.275782
0
ARC
8
DEFAULT_255_1_388
10
4.7533873
20
53.0421439
40
0.6638751
50
155.0367033
51
169.6002779
0
ARC
8
DEFAULT_255_1_388
10
4.6256331
20
53.1037336
40
0.5220662
50
136.7831557
51
155.2472983
0
ARC
8
DEFAULT_255_1_388
10
4.5818122
20
53.1409577
40
0.4646502
50
121.7633063
51
136.4281161
0
ARC
8
DEFAULT_255_1_388
10
4.5969962
20
53.1129049
40
0.4964979
50
95.6460018
51
121.5489589
0
ARC
8
DEFAULT_255_1_388
10
4.6146936
20
52.9881704
40
0.6223912
50
89.9245727
51
96.1375919
0
ARC
8
DEFAULT_255_1_388
10
4.6203641
20
53.0015721
40
0.6090084
50
76.6779212
51
90.456405
0
ARC
8
DEFAULT_255_1_388
10
4.6646454
20
53.180506
40
0.42469
50
47.4858803
51
76.9287069
0
ARC
8
DEFAULT_255_1_388
10
4.6481068
20
53.1692623
40
0.4441778
50
16.5424081
51
46.8934505
0
ARC
8
DEFAULT_255_1_388
10
4.4672118
20
53.1098265
40
0.6345318
50
5.4072971
51
17.0363711
0
ARC
8
DEFAULT_255_1_388
10
4.3053843
20
53.0838304
40
0.6250632
50
7.8888693
51
15.9242022
0
ARC
8
DEFAULT_255_1_388
10
4.5288828
20
53.1487309
40
0.3923364
50
15.7650676
51
27.9410069
0
ARC
8
DEFAULT_255_1_388
10
4.6530997
20
53.2152317
40
0.2514401
50
27.8167196
51
46.4007942
0
ARC
8
DEFAULT_255_1_388
10
4.6586839
20
53.2145882
40
0.2480958
50
47.4372362
51
75.0695672
0
ARC
8
DEFAULT_255_1_388
10
4.6239675
20
53.0937277
40
0.3738281
50
74.7009379
51
87.8124314
0
ARC
8
DEFAULT_255_1_388
10
4.6157292
20
52.9753659
40
0.4924321
50
87.3802571
51
90.0251599
0
ARC
8
DEFAULT_255_1_388
10
4.6113939
20
53.1073997
40
0.3604218
50
89.3451886
51
108.5744412
0
ARC
8
DEFAULT_255_1_388
10
4.5959931
20
53.1651836
40
0.3007661
50
109.2998307
51
143.3037387
0
ARC
8
DEFAULT_255_1_388
10
4.6817221
20
53.0992584
40
0.4089031
50
143.075267
51
163.1918576
0
ARC
8
DEFAULT_255_1_388
10
4.9013055
20
53.0299652
40
0.6391492
50
162.9375929
51
174.6208776
0
ARC
8
DEFAULT_255_1_388
10
5.1967437
20
52.9975711
40
0.9363344
50
174.342123
51
180.1430283
0
ARC
8
DEFAULT_255_1_388
10
5.0919978
20
52.8632117
40
0.8315986
50
179.6817261
51
189.150555
0
ARC
8
DEFAULT_255_1_388
10
4.8106727
20
52.8163559
40
0.5464044
50
188.9911061
51
203.5772363
0
ARC
8
DEFAULT_255_1_388
10
4.6892019
20
52.7659539
40
0.4149206
50
203.9075402
51
215.1312435
0
ARC
8
DEFAULT_255_1_388
10
4.5853817
20
52.6854907
40
0.2837747
50
213.9071511
51
263.8848919
0
ARC
8
DEFAULT_255_1_388
10
4.599481
20
52.7737519
40
0.3730641
50
263.1757928
51
270.1031044
0
ARC
8
DEFAULT_255_1_388
10
4.603089
20
52.9140511
40
0.5133712
50
269.6722503
51
279.0606936
0
ARC
8
DEFAULT_255_1_388
10
4.6331045
20
52.732615
40
0.3294739
50
278.8749101
51
293.6349581
0
ARC
8
DEFAULT_255_1_388
10
4.6691249
20
52.6480251
40
0.2375405
50
293.8553806
51
310.0518171
0
ARC
8
DEFAULT_255_1_388
10
4.6696758
20
52.6410021
40
0.2318463
50
311.0644687
51
332.0111037
0
ARC
8
DEFAULT_255_1_388
10
4.5355431
20
52.7149702
40
0.3850112
50
331.6586806
51
343.2877423
0
ARC
8
DEFAULT_255_1_388
10
4.3034896
20
52.7862806
40
0.6277712
50
343.1446576
51
351.0103568
0
ARC
8
DEFAULT_255_1_388
10
4.140222
20
52.8162873
40
0.7937327
50
350.71248
51
351.1626997
0
LINE
8
DEFAULT_255_1_388
10
5.6573228
20
52.9039737
11
5.6573228
21
52.7675355
0
LINE
8
DEFAULT_255_1_388
10
5.6573228
20
52.7675355
11
5.2163833
21
52.7675355
0
LINE
8
DEFAULT_255_1_388
10
5.2163833
20
52.7675355
11
5.2163833
21
52.9039737
0
LINE
8
DEFAULT_255_1_388
10
5.2163833
20
52.9039737
11
5.6573228
21
52.9039737
0
LINE
8
DEFAULT_255_1_388
10
4.788132
20
60.6318468
11
4.9625199
21
60.6318468
0
LINE
8
DEFAULT_255_1_388
10
3.9496242
20
60.8107525
11
3.9496242
21
60.9372516
0
LINE
8
DEFAULT_255_1_388
10
4.9625199
20
61.1071217
11
4.788132
21
61.1071217
0
LINE
8
DEFAULT_255_1_388
10
4.1240121
20
60.9327337
11
4.1240121
21
60.8053312
0
ARC
8
DEFAULT_255_1_388
10
4.3459433
20
60.6990329
40
0.6202263
50
340.1774904
51
353.7812217
0
ARC
8
DEFAULT_255_1_388
10
4.5227286
20
60.6331893
40
0.4315926
50
311.4560052
51
340.4420756
0
ARC
8
DEFAULT_255_1_388
10
4.5189826
20
60.6456665
40
0.4434573
50
282.4332229
51
310.7514507
0
ARC
8
DEFAULT_255_1_388
10
4.4695644
20
60.8498703
40
0.6535262
50
269.9358869
51
282.8096729
0
ARC
8
DEFAULT_255_1_388
10
4.4637583
20
61.0011329
40
0.8048043
50
269.9995752
51
270.3612856
0
ARC
8
DEFAULT_255_1_388
10
4.4578073
20
60.7212781
40
0.5249831
50
250.7885263
51
270.6488451
0
ARC
8
DEFAULT_255_1_388
10
4.4388898
20
60.6495853
40
0.4510942
50
219.3628377
51
250.0611024
0
ARC
8
DEFAULT_255_1_388
10
4.5321772
20
60.7288653
40
0.5735046
50
193.5480293
51
219.5755675
0
ARC
8
DEFAULT_255_1_388
10
4.7989981
20
60.798152
40
0.849146
50
181.1220183
51
193.8754971
0
ARC
8
DEFAULT_255_1_388
10
5.0313214
20
60.8105914
40
1.0816971
50
179.9914644
51
181.5398227
0
ARC
8
DEFAULT_255_1_388
10
4.8236525
20
60.9414586
40
0.8740384
50
169.5837606
51
180.275782
0
ARC
8
DEFAULT_255_1_388
10
4.6169873
20
60.9796439
40
0.6638751
50
155.0367033
51
169.6002779
0
ARC
8
DEFAULT_255_1_388
10
4.4892331
20
61.0412336
40
0.5220662
50
136.7831557
51
155.2472983
0
ARC
8
DEFAULT_255_1_388
10
4.4454122
20
61.0784577
40
0.4646502
50
121.7633063
51
136.4281161
0
ARC
8
DEFAULT_255_1_388
10
4.4605962
20
61.0504049
40
0.4964979
50
95.6460018
51
121.5489589
0
ARC
8
DEFAULT_255_1_388
10
4.4782936
20
60.9256704
40
0.6223912
50
89.9245727
51
96.1375919
0
ARC
8
DEFAULT_255_1_388
10
4.4839641
20
60.9390721
40
0.6090084
50
76.6779212
51
90.456405
0
ARC
8
DEFAULT_255_1_388
10
4.5282454
20
61.118006
40
0.42469
50
47.4858803
51
76.9287069
0
ARC
8
DEFAULT_255_1_388
10
4.5117068
20
61.1067623
40
0.4441778
50
16.5424081
51
46.8934505
0
ARC
8
DEFAULT_255_1_388
10
4.3308118
20
61.0473265
40
0.6345318
50
5.4072971
51
17.0363711
0
ARC
8
DEFAULT_255_1_388
10
4.1689843
20
61.0213304
40
0.6250632
50
7.8888693
51
15.9242022
0
ARC
8
DEFAULT_255_1_388
10
4.3924828
20
61.0862309
40
0.3923364
50
15.7650676
51
27.9410069
0
ARC
8
DEFAULT_255_1_388
10
4.5166997
20
61.1527317
40
0.2514401
50
27.8167196
51
46.4007942
0
ARC
8
DEFAULT_255_1_388
10
4.5222839
20
61.1520882
40
0.2480958
50
47.4372362
51
75.0695672
0
ARC
8
DEFAULT_255_1_388
10
4.4875675
20
61.0312277
40
0.3738281
50
74.7009379
51
87.8124314
0
ARC
8
DEFAULT_255_1_388
10
4.4793292
20
60.9128659
40
0.4924321
50
87.3802571
51
90.0251599
0
ARC
8
DEFAULT_255_1_388
10
4.4749939
20
61.0448997
40
0.3604218
50
89.3451886
51
108.5744412
0
ARC
8
DEFAULT_255_1_388
10
4.4595931
20
61.1026836
40
0.3007661
50
109.2998307
51
143.3037387
0
ARC
8
DEFAULT_255_1_388
10
4.5453221
20
61.0367584
40
0.4089031
50
143.075267
51
163.1918576
0
ARC
8
DEFAULT_255_1_388
10
4.7649055
20
60.9674652
40
0.6391492
50
162.9375929
51
174.6208776
0
ARC
8
DEFAULT_255_1_388
10
5.0603437
20
60.9350711
40
0.9363344
50
174.342123
51
180.1430283
0
ARC
8
DEFAULT_255_1_388
10
4.9555978
20
60.8007117
40
0.8315986
50
179.6817261
51
189.150555
0
ARC
8
DEFAULT_255_1_388
10
4.6742727
20
60.7538559
40
0.5464044
50
188.9911061
51
203.5772363
0
ARC
8
DEFAULT_255_1_388
10
4.5528019
20
60.7034539
40
0.4149206
50
203.9075402
51
215.1312435
0
ARC
8
DEFAULT_255_1_388
10
4.4489817
20
60.6229907
40
0.2837747
50
213.9071511
51
263.8848919
0
ARC
8
DEFAULT_255_1_388
10
4.463081
20
60.7112519
40
0.3730641
50
263.1757928
51
270.1031044
0
ARC
8
DEFAULT_255_1_388
10
4.466689
20
60.8515511
40
0.5133712
50
269.6722503
51
279.0606936
0
ARC
8
DEFAULT_255_1_388
10
4.4967045
20
60.670115
40
0.3294739
50
278.8749101
51
293.6349581
0
ARC
8
DEFAULT_255_1_388
10
4.5327249
20
60.5855251
40
0.2375405
50
293.8553806
51
310.0518171
0
ARC
8
DEFAULT_255_1_388
10
4.5332758
20
60.5785021
40
0.2318463
50
311.0644687
51
332.0111037
0
ARC
8
DEFAULT_255_1_388
10
4.3991431
20
60.6524702
40
0.3850112
50
331.6586806
51
343.2877423
0
ARC
8
DEFAULT_255_1_388
10
4.1670896
20
60.7237806
40
0.6277712
50
343.1446576
51
351.0103568
0
ARC
8
DEFAULT_255_1_388
10
4.003822
20
60.7537873
40
0.7937327
50
350.71248
51
351.1626997
0
LINE
8
DEFAULT_255_1_388
10
5.6519396
20
61.3040987
11
5.6519396
21
60.9200838
0
LINE
8
DEFAULT_255_1_388
10
5.6519396
20
60.9200838
11
6.0187868
21
60.9200838
0
LINE
8
DEFAULT_255_1_388
10
6.0187868
20
60.9200838
11
6.0187868
21
60.7619601
0
LINE
8
DEFAULT_255_1_388
10
6.0187868
20
60.7619601
11
5.6519396
21
60.7619601
0
LINE
8
DEFAULT_255_1_388
10
5.6519396
20
60.7619601
11
5.6519396
21
60.3463204
0
LINE
8
DEFAULT_255_1_388
10
5.6519396
20
60.3463204
11
5.4838766
21
60.3463204
0
LINE
8
DEFAULT_255_1_388
10
5.4838766
20
60.3463204
11
5.4838766
21
60.7619601
0
LINE
8
DEFAULT_255_1_388
10
5.4838766
20
60.7619601
11
5.1170294
21
60.7619601
0
LINE
8
DEFAULT_255_1_388
10
5.1170294
20
60.7619601
11
5.1170294
21
60.9200838
0
LINE
8
DEFAULT_255_1_388
10
5.1170294
20
60.9200838
11
5.4838766
21
60.9200838
0
LINE
8
DEFAULT_255_1_388
10
5.4838766
20
60.9200838
11
5.4838766
21
61.3040987
0
LINE
8
DEFAULT_255_1_388
10
5.4838766
20
61.3040987
11
5.6519396
21
61.3040987
0
LINE
8
DEFAULT_255_1_388
10
4.5871024
20
68.1519
11
4.1308024
21
68.1519
0
LINE
8
DEFAULT_255_1_388
10
4.1308024
20
68.1519
11
4.1308024
21
69.4674898
0
LINE
8
DEFAULT_255_1_388
10
4.1308024
20
69.4674898
11
4.5608991
21
69.4674898
0
LINE
8
DEFAULT_255_1_388
10
4.5934274
20
68.7672274
11
4.3042868
21
68.7672274
0
LINE
8
DEFAULT_255_1_388
10
4.3042868
20
68.7672274
11
4.3042868
21
68.2937596
0
LINE
8
DEFAULT_255_1_388
10
4.3042868
20
68.2937596
11
4.5907167
21
68.2937596
0
LINE
8
DEFAULT_255_1_388
10
4.3042868
20
69.3247267
11
4.3042868
21
68.9063763
0
LINE
8
DEFAULT_255_1_388
10
4.3042868
20
68.9063763
11
4.5663205
21
68.9063763
0
LINE
8
DEFAULT_255_1_388
10
4.5608991
20
69.3247267
11
4.3042868
21
69.3247267
0
ARC
8
DEFAULT_255_1_388
10
4.5651411
20
68.6386824
40
0.8288183
50
82.1256322
51
90.2932506
0
ARC
8
DEFAULT_255_1_388
10
4.6088986
20
68.944459
40
0.5199321
50
69.9044202
51
82.2857574
0
ARC
8
DEFAULT_255_1_388
10
4.6730979
20
69.1179993
40
0.3348993
50
51.1840204
51
70.018125
0
ARC
8
DEFAULT_255_1_388
10
4.7017811
20
69.1596945
40
0.2844579
50
12.1018086
51
50.421322
0
ARC
8
DEFAULT_255_1_388
10
4.5460682
20
69.1205937
40
0.4449429
50
359.5252354
51
12.8212369
0
ARC
8
DEFAULT_255_1_388
10
4.7238112
20
69.1127943
40
0.2672162
50
323.4907456
51
0.8818258
0
ARC
8
DEFAULT_255_1_388
10
4.6767525
20
69.1491523
40
0.3266736
50
298.6824053
51
323.2758285
0
ARC
8
DEFAULT_255_1_388
10
4.6360816
20
69.2167509
40
0.4055105
50
293.1994739
51
299.139634
0
ARC
8
DEFAULT_255_1_388
10
4.7117766
20
68.5321651
40
0.3229926
50
54.0009997
51
74.9168635
0
ARC
8
DEFAULT_255_1_388
10
4.7248693
20
68.5543511
40
0.2973581
50
36.3578854
51
53.5293172
0
ARC
8
DEFAULT_255_1_388
10
4.7106061
20
68.544185
40
0.3148715
50
4.8189348
51
36.3090187
0
ARC
8
DEFAULT_255_1_388
10
4.6229085
20
68.5318383
40
0.4033265
50
359.9373213
51
5.5201284
0
ARC
8
DEFAULT_255_1_388
10
4.5864415
20
68.5272733
40
0.4398126
50
344.7479357
51
0.5372278
0
ARC
8
DEFAULT_255_1_388
10
4.6979314
20
68.4972205
40
0.3243441
50
311.1785587
51
344.6887681
0
ARC
8
DEFAULT_255_1_388
10
4.6650857
20
68.5381084
40
0.3767511
50
286.0417804
51
310.8440924
0
ARC
8
DEFAULT_255_1_388
10
4.6080266
20
68.7233885
40
0.5705957
50
274.1044074
51
286.4070149
0
ARC
8
DEFAULT_255_1_388
10
4.5881482
20
68.9351901
40
0.7832907
50
269.9235077
51
274.4458593
0
ARC
8
DEFAULT_255_1_388
10
4.59332
20
68.6720462
40
0.3782955
50
269.6057074
51
281.3740795
0
ARC
8
DEFAULT_255_1_388
10
4.6192698
20
68.5490569
40
0.2526069
50
281.105298
51
302.5134029
0
ARC
8
DEFAULT_255_1_388
10
4.6358086
20
68.5193944
40
0.2187131
50
303.0365425
51
311.8818034
0
ARC
8
DEFAULT_255_1_388
10
4.6438263
20
68.5098602
40
0.2062624
50
311.9916937
51
351.7143773
0
ARC
8
DEFAULT_255_1_388
10
4.5519288
20
68.5284271
40
0.2999202
50
350.7343295
51
0.2221526
0
ARC
8
DEFAULT_255_1_388
10
4.5398376
20
68.534787
40
0.3120525
50
359.045729
51
17.2295312
0
ARC
8
DEFAULT_255_1_388
10
4.6567406
20
68.5695155
40
0.1901144
50
17.6685208
51
78.9940245
0
ARC
8
DEFAULT_255_1_388
10
4.5985767
20
68.3607011
40
0.4065575
50
76.565218
51
90.7103392
0
LINE
8
DEFAULT_255_1_388
10
4.5935364
20
68.7672274
11
4.5934274
21
68.7672274
0
ARC
8
DEFAULT_255_1_388
10
4.5688593
20
69.2759949
40
0.3696273
50
269.6064514
51
281.4533785
0
ARC
8
DEFAULT_255_1_388
10
4.5939234
20
69.1577283
40
0.2487412
50
281.2044438
51
302.5143998
0
ARC
8
DEFAULT_255_1_388
10
4.6093488
20
69.1299576
40
0.2170405
50
303.0211308
51
309.8378766
0
ARC
8
DEFAULT_255_1_388
10
4.6299605
20
69.1068486
40
0.1860946
50
309.5229446
51
356.9509628
0
ARC
8
DEFAULT_255_1_388
10
4.5553731
20
69.1175831
40
0.2612347
50
355.4699226
51
0.0498632
0
ARC
8
DEFAULT_255_1_388
10
4.5239404
20
69.1200789
40
0.2926762
50
359.5558955
51
11.2092924
0
ARC
8
DEFAULT_255_1_388
10
4.6316372
20
69.1423667
40
0.1827036
50
10.9185717
51
31.322519
0
ARC
8
DEFAULT_255_1_388
10
4.663792
20
69.1602571
40
0.1459418
50
31.8850633
51
52.1415586
0
ARC
8
DEFAULT_255_1_388
10
4.6329349
20
69.1166674
40
0.1993088
50
52.8283418
51
71.9850132
0
ARC
8
DEFAULT_255_1_388
10
4.590651
20
68.9922158
40
0.3307407
50
71.686634
51
82.8453416
0
ARC
8
DEFAULT_255_1_388
10
4.5637157
20
68.7886892
40
0.536039
50
82.6981895
51
90.1730083
0
ARC
8
DEFAULT_255_1_388
10
4.5611989
20
68.8765836
40
0.4481429
50
89.8851568
51
90.0383283
0
LINE
8
DEFAULT_255_1_388
10
5.604516
20
68.7789737
11
5.604516
21
68.6425355
0
LINE
8
DEFAULT_255_1_388
10
5.604516
20
68.6425355
11
5.1635766
21
68.6425355
0
LINE
8
DEFAULT_255_1_388
10
5.1635766
20
68.6425355
11
5.1635766
21
68.7789737
0
LINE
8
DEFAULT_255_1_388
10
5.1635766
20
68.7789737
11
5.604516
21
68.7789737
0
LINE
8
DEFAULT_255_1_388
10
4.4507024
20
76.0894
11
3.9944024
21
76.0894
0
LINE
8
DEFAULT_255_1_388
10
3.9944024
20
76.0894
11
3.9944024
21
77.4049898
0
LINE
8
DEFAULT_255_1_388
10
3.9944024
20
77.4049898
11
4.4244991
21
77.4049898
0
LINE
8
DEFAULT_255_1_388
10
4.4570274
20
76.7047274
11
4.1678868
21
76.7047274
0
LINE
8
DEFAULT_255_1_388
10
4.1678868
20
76.7047274
11
4.1678868
21
76.2312596
0
LINE
8
DEFAULT_255_1_388
10
4.1678868
20
76.2312596
11
4.4543167
21
76.2312596
0
LINE
8
DEFAULT_255_1_388
10
4.1678868
20
77.2622267
11
4.1678868
21
76.8438763
0
LINE
8
DEFAULT_255_1_388
10
4.1678868
20
76.8438763
11
4.4299205
21
76.8438763
0
LINE
8
DEFAULT_255_1_388
10
4.4244991
20
77.2622267
11
4.1678868
21
77.2622267
0
ARC
8
DEFAULT_255_1_388
10
4.4287411
20
76.5761824
40
0.8288183
50
82.1256322
51
90.2932506
0
ARC
8
DEFAULT_255_1_388
10
4.4724986
20
76.881959
40
0.5199321
50
69.9044202
51
82.2857574
0
ARC
8
DEFAULT_255_1_388
10
4.5366979
20
77.0554993
40
0.3348993
50
51.1840204
51
70.018125
0
ARC
8
DEFAULT_255_1_388
10
4.5653811
20
77.0971945
40
0.2844579
50
12.1018086
51
50.421322
0
ARC
8
DEFAULT_255_1_388
10
4.4096682
20
77.0580937
40
0.4449429
50
359.5252354
51
12.8212369
0
ARC
8
DEFAULT_255_1_388
10
4.5874112
20
77.0502943
40
0.2672162
50
323.4907456
51
0.8818258
0
ARC
8
DEFAULT_255_1_388
10
4.5403525
20
77.0866523
40
0.3266736
50
298.6824053
51
323.2758285
0
ARC
8
DEFAULT_255_1_388
10
4.4996816
20
77.1542509
40
0.4055105
50
293.1994739
51
299.139634
0
ARC
8
DEFAULT_255_1_388
10
4.5753766
20
76.4696651
40
0.3229926
50
54.0009997
51
74.9168635
0
ARC
8
DEFAULT_255_1_388
10
4.5884693
20
76.4918511
40
0.2973581
50
36.3578854
51
53.5293172
0
ARC
8
DEFAULT_255_1_388
10
4.5742061
20
76.481685
40
0.3148715
50
4.8189348
51
36.3090187
0
ARC
8
DEFAULT_255_1_388
10
4.4865085
20
76.4693383
40
0.4033265
50
359.9373213
51
5.5201284
0
ARC
8
DEFAULT_255_1_388
10
4.4500415
20
76.4647733
40
0.4398126
50
344.7479357
51
0.5372278
0
ARC
8
DEFAULT_255_1_388
10
4.5615314
20
76.4347205
40
0.3243441
50
311.1785587
51
344.6887681
0
ARC
8
DEFAULT_255_1_388
10
4.5286857
20
76.4756084
40
0.3767511
50
286.0417804
51
310.8440924
0
ARC
8
DEFAULT_255_1_388
10
4.4716266
20
76.6608885
40
0.5705957
50
274.1044074
51
286.4070149
0
ARC
8
DEFAULT_255_1_388
10
4.4517482
20
76.8726901
40
0.7832907
50
269.9235077
51
274.4458593
0
ARC
8
DEFAULT_255_1_388
10
4.45692
20
76.6095462
40
0.3782955
50
269.6057074
51
281.3740795
0
ARC
8
DEFAULT_255_1_388
10
4.4828698
20
76.4865569
40
0.2526069
50
281.105298
51
302.5134029
0
ARC
8
DEFAULT_255_1_388
10
4.4994086
20
76.4568944
40
0.2187131
50
303.0365425
51
311.8818034
0
ARC
8
DEFAULT_255_1_388
10
4.5074263
20
76.4473602
40
0.2062624
50
311.9916937
51
351.7143773
0
ARC
8
DEFAULT_255_1_388
10
4.4155288
20
76.4659271
40
0.2999202
50
350.7343295
51
0.2221526
0
ARC
8
DEFAULT_255_1_388
10
4.4034376
20
76.472287
40
0.3120525
50
359.045729
51
17.2295312
0
ARC
8
DEFAULT_255_1_388
10
4.5203406
20
76.5070155
40
0.1901144
50
17.6685208
51
78.9940245
0
ARC
8
DEFAULT_255_1_388
10
4.4621767
20
76.2982011
40
0.4065575
50
76.565218
51
90.7103392
0
LINE
8
DEFAULT_255_1_388
10
4.4571364
20
76.7047274
11
4.4570274
21
76.7047274
0
ARC
8
DEFAULT_255_1_388
10
4.4324593
20
77.2134949
40
0.3696273
50
269.6064514
51
281.4533785
0
ARC
8
DEFAULT_255_1_388
10
4.4575234
20
77.0952283
40
0.2487412
50
281.2044438
51
302.5143998
0
ARC
8
DEFAULT_255_1_388
10
4.4729488
20
77.0674576
40
0.2170405
50
303.0211308
51
309.8378766
0
ARC
8
DEFAULT_255_1_388
10
4.4935605
20
77.0443486
40
0.1860946
50
309.5229446
51
356.9509628
0
ARC
8
DEFAULT_255_1_388
10
4.4189731
20
77.0550831
40
0.2612347
50
355.4699226
51
0.0498632
0
ARC
8
DEFAULT_255_1_388
10
4.3875404
20
77.0575789
40
0.2926762
50
359.5558955
51
11.2092924
0
ARC
8
DEFAULT_255_1_388
10
4.4952372
20
77.0798667
40
0.1827036
50
10.9185717
51
31.322519
0
ARC
8
DEFAULT_255_1_388
10
4.527392
20
77.0977571
40
0.1459418
50
31.8850633
51
52.1415586
0
ARC
8
DEFAULT_255_1_388
10
4.4965349
20
77.0541674
40
0.1993088
50
52.8283418
51
71.9850132
0
ARC
8
DEFAULT_255_1_388
10
4.454251
20
76.9297158
40
0.3307407
50
71.686634
51
82.8453416
0
ARC
8
DEFAULT_255_1_388
10
4.4273157
20
76.7261892
40
0.536039
50
82.6981895
51
90.1730083
0
ARC
8
DEFAULT_255_1_388
10
4.4247989
20
76.8140836
40
0.4481429
50
89.8851568
51
90.0383283
0
LINE
8
DEFAULT_255_1_388
10
5.5991329
20
77.1790987
11
5.5991329
21
76.7950838
0
LINE
8
DEFAULT_255_1_388
10
5.5991329
20
76.7950838
11
5.96598
21
76.7950838
0
LINE
8
DEFAULT_255_1_388
10
5.96598
20
76.7950838
11
5.96598
21
76.6369601
0
LINE
8
DEFAULT_255_1_388
10
5.96598
20
76.6369601
11
5.5991329
21
76.6369601
0
LINE
8
DEFAULT_255_1_388
10
5.5991329
20
76.6369601
11
5.5991329
21
76.2213204
0
LINE
8
DEFAULT_255_1_388
10
5.5991329
20
76.2213204
11
5.4310699
21
76.2213204
0
LINE
8
DEFAULT_255_1_388
10
5.4310699
20
76.2213204
11
5.4310699
21
76.6369601
0
LINE
8
DEFAULT_255_1_388
10
5.4310699
20
76.6369601
11
5.0642227
21
76.6369601
0
LINE
8
DEFAULT_255_1_388
10
5.0642227
20
76.6369601
11
5.0642227
21
76.7950838
0
LINE
8
DEFAULT_255_1_388
10
5.0642227
20
76.7950838
11
5.4310699
21
76.7950838
0
LINE
8
DEFAULT_255_1_388
10
5.4310699
20
76.7950838
11
5.4310699
21
77.1790987
0
LINE
8
DEFAULT_255_1_388
10
5.4310699
20
77.1790987
11
5.5991329
21
77.1790987
0
LINE
8
DEFAULT_255_1_388
10
5.1143637
20
84.0269
11
4.9887682
21
84.3702545
0
LINE
8
DEFAULT_255_1_388
10
4.9887682
20
84.3702545
11
4.4375939
21
84.3702545
0
LINE
8
DEFAULT_255_1_388
10
4.4375939
20
84.3702545
11
4.3138056
21
84.0269
0
LINE
8
DEFAULT_255_1_388
10
4.3138056
20
84.0269
11
4.1348998
21
84.0269
0
LINE
8
DEFAULT_255_1_388
10
4.1348998
20
84.0269
11
4.6372816
21
85.3424898
0
LINE
8
DEFAULT_255_1_388
10
4.6372816
20
85.3424898
11
4.7890805
21
85.3424898
0
LINE
8
DEFAULT_255_1_388
10
4.7890805
20
85.3424898
11
5.2923659
21
84.0269
0
LINE
8
DEFAULT_255_1_388
10
5.2923659
20
84.0269
11
5.1143637
21
84.0269
0
LINE
8
DEFAULT_255_1_388
10
4.7131811
20
85.1283451
11
4.4900006
21
84.5130177
0
LINE
8
DEFAULT_255_1_388
10
4.4900006
20
84.5130177
11
4.937265
21
84.5130177
0
LINE
8
DEFAULT_255_1_388
10
4.937265
20
84.5130177
11
4.7131811
21
85.1283451
0
LINE
8
DEFAULT_255_1_388
10
5.7911334
20
84.6539737
11
5.7911334
21
84.5175355
0
LINE
8
DEFAULT_255_1_388
10
5.7911334
20
84.5175355
11
5.350194
21
84.5175355
0
LINE
8
DEFAULT_255_1_388
10
5.350194
20
84.5175355
11
5.350194
21
84.6539737
0
LINE
8
DEFAULT_255_1_388
10
5.350194
20
84.6539737
11
5.7911334
21
84.6539737
0
LINE
8
DEFAULT_255_1_388
10
4.9778637
20
91.9644
11
4.8522682
21
92.3077545
0
LINE
8
DEFAULT_255_1_388
10
4.8522682
20
92.3077545
11
4.3010939
21
92.3077545
0
LINE
8
DEFAULT_255_1_388
10
4.3010939
20
92.3077545
11
4.1773056
21
91.9644
0
LINE
8
DEFAULT_255_1_388
10
4.1773056
20
91.9644
11
3.9983998
21
91.9644
0
LINE
8
DEFAULT_255_1_388
10
3.9983998
20
91.9644
11
4.5007816
21
93.2799898
0
LINE
8
DEFAULT_255_1_388
10
4.5007816
20
93.2799898
11
4.6525805
21
93.2799898
0
LINE
8
DEFAULT_255_1_388
10
4.6525805
20
93.2799898
11
5.1558659
21
91.9644
0
LINE
8
DEFAULT_255_1_388
10
5.1558659
20
91.9644
11
4.9778637
21
91.9644
0
LINE
8
DEFAULT_255_1_388
10
4.5766811
20
93.0658451
11
4.3535006
21
92.4505177
0
LINE
8
DEFAULT_255_1_388
10
4.3535006
20
92.4505177
11
4.800765
21
92.4505177
0
LINE
8
DEFAULT_255_1_388
10
4.800765
20
92.4505177
11
4.5766811
21
93.0658451
0
LINE
8
DEFAULT_255_1_388
10
5.7856503
20
93.0540987
11
5.7856503
21
92.6700838
0
LINE
8
DEFAULT_255_1_388
10
5.7856503
20
92.6700838
11
6.1524975
21
92.6700838
0
LINE
8
DEFAULT_255_1_388
10
6.1524975
20
92.6700838
11
6.1524975
21
92.5119601
0
LINE
8
DEFAULT_255_1_388
10
6.1524975
20
92.5119601
11
5.7856503
21
92.5119601
0
LINE
8
DEFAULT_255_1_388
10
5.7856503
20
92.5119601
11
5.7856503
21
92.0963204
0
LINE
8
DEFAULT_255_1_388
10
5.7856503
20
92.0963204
11
5.6175873
21
92.0963204
0
LINE
8
DEFAULT_255_1_388
10
5.6175873
20
92.0963204
11
5.6175873
21
92.5119601
0
LINE
8
DEFAULT_255_1_388
10
5.6175873
20
92.5119601
11
5.2507401
21
92.5119601
0
LINE
8
DEFAULT_255_1_388
10
5.2507401
20
92.5119601
11
5.2507401
21
92.6700838
0
LINE
8
DEFAULT_255_1_388
10
5.2507401
20
92.6700838
11
5.6175873
21
92.6700838
0
LINE
8
DEFAULT_255_1_388
10
5.6175873
20
92.6700838
11
5.6175873
21
93.0540987
0
LINE
8
DEFAULT_255_1_388
10
5.6175873
20
93.0540987
11
5.7856503
21
93.0540987
0
LINE
8
DEFAULT_255_1_388
10
23.0074024
20
101.2174898
11
23.2314864
21
101.2174898
0
LINE
8
DEFAULT_255_1_388
10
23.2314864
20
101.2174898
11
23.6615831
21
100.1440553
0
LINE
8
DEFAULT_255_1_388
10
23.6615831
20
100.1440553
11
24.0916797
21
101.2174898
0
LINE
8
DEFAULT_255_1_388
10
24.0916797
20
101.2174898
11
24.3166673
21
101.2174898
0
LINE
8
DEFAULT_255_1_388
10
24.3166673
20
101.2174898
11
24.3166673
21
99.9019
0
LINE
8
DEFAULT_255_1_388
10
24.3166673
20
99.9019
11
24.1431829
21
99.9019
0
LINE
8
DEFAULT_255_1_388
10
24.1431829
20
99.9019
11
24.1431829
21
100.414221
0
LINE
8
DEFAULT_255_1_388
10
24.1431829
20
100.414221
11
24.1594471
21
100.9672025
0
LINE
8
DEFAULT_255_1_388
10
24.1594471
20
100.9672025
11
23.7275433
21
99.9019
0
LINE
8
DEFAULT_255_1_388
10
23.7275433
20
99.9019
11
23.5947193
21
99.9019
0
LINE
8
DEFAULT_255_1_388
10
23.5947193
20
99.9019
11
23.163719
21
100.9644918
0
LINE
8
DEFAULT_255_1_388
10
23.163719
20
100.9644918
11
23.1808868
21
100.414221
0
LINE
8
DEFAULT_255_1_388
10
23.1808868
20
100.414221
11
23.1808868
21
99.9019
0
LINE
8
DEFAULT_255_1_388
10
23.1808868
20
99.9019
11
23.0074024
21
99.9019
0
LINE
8
DEFAULT_255_1_388
10
23.0074024
20
99.9019
11
23.0074024
21
101.2174898
0
LINE
8
DEFAULT_255_1_388
10
21.7488342
20
60.8694842
11
21.7488342
21
60.3869808
0
LINE
8
DEFAULT_255_1_388
10
20.7350349
20
60.8089454
11
20.7350349
21
60.9236981
0
LINE
8
DEFAULT_255_1_388
10
21.7488342
20
61.1441678
11
21.5753498
21
61.1441678
0
LINE
8
DEFAULT_255_1_388
10
20.9094228
20
60.9282159
11
20.9094228
21
60.8206917
0
LINE
8
DEFAULT_255_1_388
10
21.5762534
20
60.4330626
11
21.5762534
21
60.7285282
0
LINE
8
DEFAULT_255_1_388
10
21.5762534
20
60.7285282
11
21.2717521
21
60.7285282
0
LINE
8
DEFAULT_255_1_388
10
21.2717521
20
60.7285282
11
21.2717521
21
60.8694842
0
LINE
8
DEFAULT_255_1_388
10
21.2717521
20
60.8694842
11
21.7488342
21
60.8694842
0
ARC
8
DEFAULT_255_1_388
10
21.4302942
20
60.6112284
40
0.3895571
50
295.8437277
51
324.8549962
0
ARC
8
DEFAULT_255_1_388
10
21.3835325
20
60.6958619
40
0.4861381
50
291.5691164
51
296.4556269
0
ARC
8
DEFAULT_255_1_388
10
21.3260327
20
60.8494801
40
0.6501442
50
278.6622213
51
291.3047061
0
ARC
8
DEFAULT_255_1_388
10
21.2878359
20
61.0911557
40
0.8948168
50
270.0200506
51
278.7494673
0
ARC
8
DEFAULT_255_1_388
10
21.2834563
20
61.2757453
40
1.0794166
50
270.0022372
51
270.2490917
0
ARC
8
DEFAULT_255_1_388
10
21.2792456
20
60.7798827
40
0.5835695
50
253.5785313
51
270.4175629
0
ARC
8
DEFAULT_255_1_388
10
21.2597452
20
60.7043625
40
0.5056241
50
238.8203954
51
253.2788387
0
ARC
8
DEFAULT_255_1_388
10
21.2575367
20
60.6986224
40
0.4995712
50
206.7883476
51
238.696262
0
ARC
8
DEFAULT_255_1_388
10
21.3450763
20
60.7510847
40
0.6014056
50
206.1137778
51
207.4912776
0
ARC
8
DEFAULT_255_1_388
10
21.4117599
20
60.7794284
40
0.6737692
50
188.6922336
51
205.782076
0
ARC
8
DEFAULT_255_1_388
10
21.6205958
20
60.8149455
40
0.8855812
50
180.3881972
51
188.9218085
0
ARC
8
DEFAULT_255_1_388
10
21.7587116
20
60.9300622
40
1.0236965
50
170.2024645
51
180.3561986
0
ARC
8
DEFAULT_255_1_388
10
21.4028266
20
60.9937101
40
0.6621746
50
154.2856519
51
170.3893388
0
ARC
8
DEFAULT_255_1_388
10
21.258623
20
61.0597192
40
0.5036209
50
139.8400879
51
153.9334639
0
ARC
8
DEFAULT_255_1_388
10
21.2182133
20
61.0920716
40
0.4518751
50
98.4190017
51
139.6707015
0
ARC
8
DEFAULT_255_1_388
10
21.2609101
20
60.8844755
40
0.6635912
50
89.7660128
51
99.4415389
0
ARC
8
DEFAULT_255_1_388
10
21.2682497
20
60.8918517
40
0.6562258
50
78.0552044
51
90.4042252
0
ARC
8
DEFAULT_255_1_388
10
21.3137561
20
61.0964661
40
0.4466287
50
54.6380186
51
78.3338577
0
ARC
8
DEFAULT_255_1_388
10
21.3351859
20
61.1325444
40
0.4048184
50
50.0313964
51
54.1562739
0
ARC
8
DEFAULT_255_1_388
10
21.3230753
20
61.1216798
40
0.4209308
50
18.1092229
51
49.7179911
0
ARC
8
DEFAULT_255_1_388
10
21.1591833
20
61.0616399
40
0.5953982
50
7.967396
51
18.698492
0
ARC
8
DEFAULT_255_1_388
10
21.1761094
20
61.0755236
40
0.4050986
50
9.7558763
51
27.3214087
0
ARC
8
DEFAULT_255_1_388
10
21.3029559
20
61.1389087
40
0.2633168
50
27.736147
51
84.5257861
0
ARC
8
DEFAULT_255_1_388
10
21.2660968
20
60.9539988
40
0.4513019
50
82.1064239
51
90.1997295
0
ARC
8
DEFAULT_255_1_388
10
21.2604985
20
61.0111501
40
0.3941684
50
89.4148952
51
105.5824837
0
ARC
8
DEFAULT_255_1_388
10
21.2315865
20
61.1164043
40
0.2850167
50
105.6678541
51
144.2649156
0
ARC
8
DEFAULT_255_1_388
10
21.3320758
20
61.0449024
40
0.4083468
50
144.3560675
51
162.8564185
0
ARC
8
DEFAULT_255_1_388
10
21.56652
20
60.9696083
40
0.6545749
50
162.6076338
51
173.6779811
0
ARC
8
DEFAULT_255_1_388
10
21.9109315
20
60.9277422
40
1.0015089
50
173.4670996
51
179.9729015
0
ARC
8
DEFAULT_255_1_388
10
21.6962186
20
60.8159636
40
0.78681
50
179.6556955
51
190.007958
0
ARC
8
DEFAULT_255_1_388
10
21.4356468
20
60.768166
40
0.5218997
50
189.8117884
51
206.6795375
0
ARC
8
DEFAULT_255_1_388
10
21.3405914
20
60.7238514
40
0.4170788
50
207.1031171
51
217.7074698
0
ARC
8
DEFAULT_255_1_388
10
21.2692344
20
60.6617596
40
0.3226945
50
216.7345117
51
265.6812141
0
ARC
8
DEFAULT_255_1_388
10
21.2839486
20
60.763503
40
0.4253149
50
264.7367524
51
270.0610826
0
ARC
8
DEFAULT_255_1_388
10
21.2865672
20
61.0830173
40
0.7448321
50
269.8334494
51
276.0538364
0
ARC
8
DEFAULT_255_1_388
10
21.3098534
20
60.8690924
40
0.5296446
50
275.9894423
51
284.4615914
0
ARC
8
DEFAULT_255_1_388
10
21.3320047
20
60.775857
40
0.4338353
50
284.7038488
51
286.4938196
0
ARC
8
DEFAULT_255_1_388
10
21.3779196
20
60.6279371
40
0.2789738
50
286.0770429
51
304.2629628
0
ARC
8
DEFAULT_255_1_388
10
21.3929354
20
60.603368
40
0.2502188
50
304.5886247
51
317.1074126
0
LINE
8
DEFAULT_255_1_388
10
23.0490634
20
61.5299898
11
23.0490634
21
60.2144
0
LINE
8
DEFAULT_255_1_388
10
23.0490634
20
60.2144
11
22.8746755
21
60.2144
0
LINE
8
DEFAULT_255_1_388
10
22.8746755
20
60.2144
11
22.2123627
21
61.2281993
0
LINE
8
DEFAULT_255_1_388
10
22.2123627
20
61.2281993
11
22.2123627
21
60.2144
0
LINE
8
DEFAULT_255_1_388
10
22.2123627
20
60.2144
11
22.0379748
21
60.2144
0
LINE
8
DEFAULT_255_1_388
10
22.0379748
20
60.2144
11
22.0379748
21
61.5299898
0
LINE
8
DEFAULT_255_1_388
10
22.0379748
20
61.5299898
11
22.2123627
21
61.5299898
0
LINE
8
DEFAULT_255_1_388
10
22.2123627
20
61.5299898
11
22.8764826
21
60.5116727
0
LINE
8
DEFAULT_255_1_388
10
22.8764826
20
60.5116727
11
22.8764826
21
61.5299898
0
LINE
8
DEFAULT_255_1_388
10
22.8764826
20
61.5299898
11
23.0490634
21
61.5299898
0
LINE
8
DEFAULT_255_1_388
10
23.7213154
20
60.2144
11
23.3571789
21
60.2144
0
LINE
8
DEFAULT_255_1_388
10
23.3571789
20
60.2144
11
23.3571789
21
61.5299898
0
LINE
8
DEFAULT_255_1_388
10
23.3571789
20
61.5299898
11
23.7285439
21
61.5299898
0
LINE
8
DEFAULT_255_1_388
10
24.3086323
20
60.9164696
11
24.3086323
21
60.8324381
0
LINE
8
DEFAULT_255_1_388
10
23.7330617
20
61.3872267
11
23.5306633
21
61.3872267
0
LINE
8
DEFAULT_255_1_388
10
23.5306633
20
61.3872267
11
23.5306633
21
60.3562596
0
LINE
8
DEFAULT_255_1_388
10
23.5306633
20
60.3562596
11
23.7131833
21
60.3562596
0
LINE
8
DEFAULT_255_1_388
10
24.136955
20
60.8360523
11
24.136955
21
60.9128553
0
ARC
8
DEFAULT_255_1_388
10
23.7329234
20
60.8701436
40
0.6598608
50
75.4100343
51
90.3802731
0
ARC
8
DEFAULT_255_1_388
10
23.7587479
20
60.9777691
40
0.5492049
50
60.1455157
51
75.1889627
0
ARC
8
DEFAULT_255_1_388
10
23.7766071
20
61.0088914
40
0.5133226
50
26.525419
51
60.1451222
0
ARC
8
DEFAULT_255_1_388
10
23.6505857
20
60.9420642
40
0.6559324
50
7.4029944
51
26.832209
0
ARC
8
DEFAULT_255_1_388
10
23.4712254
20
60.9141229
40
0.8374103
50
0.1605597
51
7.7176135
0
ARC
8
DEFAULT_255_1_388
10
23.4896654
20
60.8281321
40
0.8189782
50
348.7289744
51
0.30125
0
ARC
8
DEFAULT_255_1_388
10
23.6760118
20
60.7911156
40
0.628991
50
333.0706936
51
348.7181455
0
ARC
8
DEFAULT_255_1_388
10
23.7847747
20
60.7320449
40
0.5052808
50
299.2531435
51
333.4571133
0
ARC
8
DEFAULT_255_1_388
10
23.7441777
20
60.8091629
40
0.5924066
50
278.1072193
51
299.0340218
0
ARC
8
DEFAULT_255_1_388
10
23.7153826
20
60.9787979
40
0.7644209
50
270.4446841
51
278.4508355
0
ARC
8
DEFAULT_255_1_388
10
23.717731
20
60.87423
40
0.5179903
50
269.4969684
51
284.0204874
0
ARC
8
DEFAULT_255_1_388
10
23.7577028
20
60.7206415
40
0.3592968
50
283.7699076
51
318.1557121
0
ARC
8
DEFAULT_255_1_388
10
23.7197573
20
60.7490399
40
0.4065308
50
318.7417595
51
343.687252
0
ARC
8
DEFAULT_255_1_388
10
23.5168152
20
60.8124275
40
0.6191194
50
343.3324891
51
355.8548594
0
ARC
8
DEFAULT_255_1_388
10
23.280719
20
60.8348719
40
0.856237
50
355.4988754
51
0.0789913
0
ARC
8
DEFAULT_255_1_388
10
23.3687989
20
60.917608
40
0.7681709
50
359.6455047
51
9.8607559
0
ARC
8
DEFAULT_255_1_388
10
23.6343712
20
60.9655664
40
0.498312
50
9.6573037
51
26.1931522
0
ARC
8
DEFAULT_255_1_388
10
23.7387787
20
61.0140587
40
0.3832303
50
26.5777895
51
40.1533752
0
ARC
8
DEFAULT_255_1_388
10
23.7675452
20
61.036502
40
0.3467742
50
40.3839958
51
80.1430923
0
ARC
8
DEFAULT_255_1_388
10
23.7307708
20
60.8734486
40
0.5137832
50
79.2153636
51
89.7445174
0
LINE
8
DEFAULT_255_1_388
10
23.665791
20
69.4674898
11
23.665791
21
68.1519
0
LINE
8
DEFAULT_255_1_388
10
23.665791
20
68.1519
11
23.4914031
21
68.1519
0
LINE
8
DEFAULT_255_1_388
10
23.4914031
20
68.1519
11
23.4914031
21
68.7599989
0
LINE
8
DEFAULT_255_1_388
10
23.4914031
20
68.7599989
11
22.8281868
21
68.7599989
0
LINE
8
DEFAULT_255_1_388
10
22.8281868
20
68.7599989
11
22.8281868
21
68.1519
0
LINE
8
DEFAULT_255_1_388
10
22.8281868
20
68.1519
11
22.6547024
21
68.1519
0
LINE
8
DEFAULT_255_1_388
10
22.6547024
20
68.1519
11
22.6547024
21
69.4674898
0
LINE
8
DEFAULT_255_1_388
10
22.6547024
20
69.4674898
11
22.8281868
21
69.4674898
0
LINE
8
DEFAULT_255_1_388
10
22.8281868
20
69.4674898
11
22.8281868
21
68.9018585
0
LINE
8
DEFAULT_255_1_388
10
22.8281868
20
68.9018585
11
23.4914031
21
68.9018585
0
LINE
8
DEFAULT_255_1_388
10
23.4914031
20
68.9018585
11
23.4914031
21
69.4674898
0
LINE
8
DEFAULT_255_1_388
10
23.4914031
20
69.4674898
11
23.665791
21
69.4674898
0
LINE
8
DEFAULT_255_1_388
10
24.2955754
20
68.7789737
11
24.2955754
21
68.6425355
0
LINE
8
DEFAULT_255_1_388
10
24.2955754
20
68.6425355
11
23.854636
21
68.6425355
0
LINE
8
DEFAULT_255_1_388
10
23.854636
20
68.6425355
11
23.854636
21
68.7789737
0
LINE
8
DEFAULT_255_1_388
10
23.854636
20
68.7789737
11
24.2955754
21
68.7789737
0
LINE
8
DEFAULT_255_1_388
10
23.264791
20
77.4049898
11
23.264791
21
76.0894
0
LINE
8
DEFAULT_255_1_388
10
23.264791
20
76.0894
11
23.0904031
21
76.0894
0
LINE
8
DEFAULT_255_1_388
10
23.0904031
20
76.0894
11
23.0904031
21
76.6974989
0
LINE
8
DEFAULT_255_1_388
10
23.0904031
20
76.6974989
11
22.4271868
21
76.6974989
0
LINE
8
DEFAULT_255_1_388
10
22.4271868
20
76.6974989
11
22.4271868
21
76.0894
0
LINE
8
DEFAULT_255_1_388
10
22.4271868
20
76.0894
11
22.2537024
21
76.0894
0
LINE
8
DEFAULT_255_1_388
10
22.2537024
20
76.0894
11
22.2537024
21
77.4049898
0
LINE
8
DEFAULT_255_1_388
10
22.2537024
20
77.4049898
11
22.4271868
21
77.4049898
0
LINE
8
DEFAULT_255_1_388
10
22.4271868
20
77.4049898
11
22.4271868
21
76.8393585
0
LINE
8
DEFAULT_255_1_388
10
22.4271868
20
76.8393585
11
23.0904031
21
76.8393585
0
LINE
8
DEFAULT_255_1_388
10
23.0904031
20
76.8393585
11
23.0904031
21
77.4049898
0
LINE
8
DEFAULT_255_1_388
10
23.0904031
20
77.4049898
11
23.264791
21
77.4049898
0
LINE
8
DEFAULT_255_1_388
10
24.0255923
20
77.1790987
11
24.0255923
21
76.7950838
0
LINE
8
DEFAULT_255_1_388
10
24.0255923
20
76.7950838
11
24.3924395
21
76.7950838
0
LINE
8
DEFAULT_255_1_388
10
24.3924395
20
76.7950838
11
24.3924395
21
76.6369601
0
LINE
8
DEFAULT_255_1_388
10
24.3924395
20
76.6369601
11
24.0255923
21
76.6369601
0
LINE
8
DEFAULT_255_1_388
10
24.0255923
20
76.6369601
11
24.0255923
21
76.2213204
0
LINE
8
DEFAULT_255_1_388
10
24.0255923
20
76.2213204
11
23.8575293
21
76.2213204
0
LINE
8
DEFAULT_255_1_388
10
23.8575293
20
76.2213204
11
23.8575293
21
76.6369601
0
LINE
8
DEFAULT_255_1_388
10
23.8575293
20
76.6369601
11
23.4906821
21
76.6369601
0
LINE
8
DEFAULT_255_1_388
10
23.4906821
20
76.6369601
11
23.4906821
21
76.7950838
0
LINE
8
DEFAULT_255_1_388
10
23.4906821
20
76.7950838
11
23.8575293
21
76.7950838
0
LINE
8
DEFAULT_255_1_388
10
23.8575293
20
76.7950838
11
23.8575293
21
77.1790987
0
LINE
8
DEFAULT_255_1_388
10
23.8575293
20
77.1790987
11
24.0255923
21
77.1790987
0
LINE
8
DEFAULT_255_1_388
10
23.6838342
20
84.6819842
11
23.6838342
21
84.1994808
0
LINE
8
DEFAULT_255_1_388
10
22.6700349
20
84.6214454
11
22.6700349
21
84.7361981
0
LINE
8
DEFAULT_255_1_388
10
23.6838342
20
84.9566678
11
23.5103498
21
84.9566678
0
LINE
8
DEFAULT_255_1_388
10
22.8444228
20
84.7407159
11
22.8444228
21
84.6331917
0
LINE
8
DEFAULT_255_1_388
10
23.5112534
20
84.2455626
11
23.5112534
21
84.5410282
0
LINE
8
DEFAULT_255_1_388
10
23.5112534
20
84.5410282
11
23.2067521
21
84.5410282
0
LINE
8
DEFAULT_255_1_388
10
23.2067521
20
84.5410282
11
23.2067521
21
84.6819842
0
LINE
8
DEFAULT_255_1_388
10
23.2067521
20
84.6819842
11
23.6838342
21
84.6819842
0
ARC
8
DEFAULT_255_1_388
10
23.3652942
20
84.4237284
40
0.3895571
50
295.8437277
51
324.8549962
0
ARC
8
DEFAULT_255_1_388
10
23.3185325
20
84.5083619
40
0.4861381
50
291.5691164
51
296.4556269
0
ARC
8
DEFAULT_255_1_388
10
23.2610327
20
84.6619801
40
0.6501442
50
278.6622213
51
291.3047061
0
ARC
8
DEFAULT_255_1_388
10
23.2228359
20
84.9036557
40
0.8948168
50
270.0200506
51
278.7494673
0
ARC
8
DEFAULT_255_1_388
10
23.2184563
20
85.0882453
40
1.0794166
50
270.0022372
51
270.2490917
0
ARC
8
DEFAULT_255_1_388
10
23.2142456
20
84.5923827
40
0.5835695
50
253.5785313
51
270.4175629
0
ARC
8
DEFAULT_255_1_388
10
23.1947452
20
84.5168625
40
0.5056241
50
238.8203954
51
253.2788387
0
ARC
8
DEFAULT_255_1_388
10
23.1925367
20
84.5111224
40
0.4995712
50
206.7883476
51
238.696262
0
ARC
8
DEFAULT_255_1_388
10
23.2800763
20
84.5635847
40
0.6014056
50
206.1137778
51
207.4912776
0
ARC
8
DEFAULT_255_1_388
10
23.3467599
20
84.5919284
40
0.6737692
50
188.6922336
51
205.782076
0
ARC
8
DEFAULT_255_1_388
10
23.5555958
20
84.6274455
40
0.8855812
50
180.3881972
51
188.9218085
0
ARC
8
DEFAULT_255_1_388
10
23.6937116
20
84.7425622
40
1.0236965
50
170.2024645
51
180.3561986
0
ARC
8
DEFAULT_255_1_388
10
23.3378266
20
84.8062101
40
0.6621746
50
154.2856519
51
170.3893388
0
ARC
8
DEFAULT_255_1_388
10
23.193623
20
84.8722192
40
0.5036209
50
139.8400879
51
153.9334639
0
ARC
8
DEFAULT_255_1_388
10
23.1532133
20
84.9045716
40
0.4518751
50
98.4190017
51
139.6707015
0
ARC
8
DEFAULT_255_1_388
10
23.1959101
20
84.6969755
40
0.6635912
50
89.7660128
51
99.4415389
0
ARC
8
DEFAULT_255_1_388
10
23.2032497
20
84.7043517
40
0.6562258
50
78.0552044
51
90.4042252
0
ARC
8
DEFAULT_255_1_388
10
23.2487561
20
84.9089661
40
0.4466287
50
54.6380186
51
78.3338577
0
ARC
8
DEFAULT_255_1_388
10
23.2701859
20
84.9450444
40
0.4048184
50
50.0313964
51
54.1562739
0
ARC
8
DEFAULT_255_1_388
10
23.2580753
20
84.9341798
40
0.4209308
50
18.1092229
51
49.7179911
0
ARC
8
DEFAULT_255_1_388
10
23.0941833
20
84.8741399
40
0.5953982
50
7.967396
51
18.698492
0
ARC
8
DEFAULT_255_1_388
10
23.1111094
20
84.8880236
40
0.4050986
50
9.7558763
51
27.3214087
0
ARC
8
DEFAULT_255_1_388
10
23.2379559
20
84.9514087
40
0.2633168
50
27.736147
51
84.5257861
0
ARC
8
DEFAULT_255_1_388
10
23.2010968
20
84.7664988
40
0.4513019
50
82.1064239
51
90.1997295
0
ARC
8
DEFAULT_255_1_388
10
23.1954985
20
84.8236501
40
0.3941684
50
89.4148952
51
105.5824837
0
ARC
8
DEFAULT_255_1_388
10
23.1665865
20
84.9289043
40
0.2850167
50
105.6678541
51
144.2649156
0
ARC
8
DEFAULT_255_1_388
10
23.2670758
20
84.8574024
40
0.4083468
50
144.3560675
51
162.8564185
0
ARC
8
DEFAULT_255_1_388
10
23.50152
20
84.7821083
40
0.6545749
50
162.6076338
51
173.6779811
0
ARC
8
DEFAULT_255_1_388
10
23.8459315
20
84.7402422
40
1.0015089
50
173.4670996
51
179.9729015
0
ARC
8
DEFAULT_255_1_388
10
23.6312186
20
84.6284636
40
0.78681
50
179.6556955
51
190.007958
0
ARC
8
DEFAULT_255_1_388
10
23.3706468
20
84.580666
40
0.5218997
50
189.8117884
51
206.6795375
0
ARC
8
DEFAULT_255_1_388
10
23.2755914
20
84.5363514
40
0.4170788
50
207.1031171
51
217.7074698
0
ARC
8
DEFAULT_255_1_388
10
23.2042344
20
84.4742596
40
0.3226945
50
216.7345117
51
265.6812141
0
ARC
8
DEFAULT_255_1_388
10
23.2189486
20
84.576003
40
0.4253149
50
264.7367524
51
270.0610826
0
ARC
8
DEFAULT_255_1_388
10
23.2215672
20
84.8955173
40
0.7448321
50
269.8334494
51
276.0538364
0
ARC
8
DEFAULT_255_1_388
10
23.2448534
20
84.6815924
40
0.5296446
50
275.9894423
51
284.4615914
0
ARC
8
DEFAULT_255_1_388
10
23.2670047
20
84.588357
40
0.4338353
50
284.7038488
51
286.4938196
0
ARC
8
DEFAULT_255_1_388
10
23.3129196
20
84.4404371
40
0.2789738
50
286.0770429
51
304.2629628
0
ARC
8
DEFAULT_255_1_388
10
23.3279354
20
84.415868
40
0.2502188
50
304.5886247
51
317.1074126
0
LINE
8
DEFAULT_255_1_388
10
24.2946438
20
84.6539737
11
24.2946438
21
84.5175355
0
LINE
8
DEFAULT_255_1_388
10
24.2946438
20
84.5175355
11
23.8537043
21
84.5175355
0
LINE
8
DEFAULT_255_1_388
10
23.8537043
20
84.5175355
11
23.8537043
21
84.6539737
0
LINE
8
DEFAULT_255_1_388
10
23.8537043
20
84.6539737
11
24.2946438
21
84.6539737
0
LINE
8
DEFAULT_255_1_388
10
23.2828342
20
92.6194842
11
23.2828342
21
92.1369808
0
LINE
8
DEFAULT_255_1_388
10
22.2690349
20
92.5589454
11
22.2690349
21
92.6736981
0
LINE
8
DEFAULT_255_1_388
10
23.2828342
20
92.8941678
11
23.1093498
21
92.8941678
0
LINE
8
DEFAULT_255_1_388
10
22.4434228
20
92.6782159
11
22.4434228
21
92.5706917
0
LINE
8
DEFAULT_255_1_388
10
23.1102534
20
92.1830626
11
23.1102534
21
92.4785282
0
LINE
8
DEFAULT_255_1_388
10
23.1102534
20
92.4785282
11
22.8057521
21
92.4785282
0
LINE
8
DEFAULT_255_1_388
10
22.8057521
20
92.4785282
11
22.8057521
21
92.6194842
0
LINE
8
DEFAULT_255_1_388
10
22.8057521
20
92.6194842
11
23.2828342
21
92.6194842
0
ARC
8
DEFAULT_255_1_388
10
22.9642942
20
92.3612284
40
0.3895571
50
295.8437277
51
324.8549962
0
ARC
8
DEFAULT_255_1_388
10
22.9175325
20
92.4458619
40
0.4861381
50
291.5691164
51
296.4556269
0
ARC
8
DEFAULT_255_1_388
10
22.8600327
20
92.5994801
40
0.6501442
50
278.6622213
51
291.3047061
0
ARC
8
DEFAULT_255_1_388
10
22.8218359
20
92.8411557
40
0.8948168
50
270.0200506
51
278.7494673
0
ARC
8
DEFAULT_255_1_388
10
22.8174563
20
93.0257453
40
1.0794166
50
270.0022372
51
270.2490917
0
ARC
8
DEFAULT_255_1_388
10
22.8132456
20
92.5298827
40
0.5835695
50
253.5785313
51
270.4175629
0
ARC
8
DEFAULT_255_1_388
10
22.7937452
20
92.4543625
40
0.5056241
50
238.8203954
51
253.2788387
0
ARC
8
DEFAULT_255_1_388
10
22.7915367
20
92.4486224
40
0.4995712
50
206.7883476
51
238.696262
0
ARC
8
DEFAULT_255_1_388
10
22.8790763
20
92.5010847
40
0.6014056
50
206.1137778
51
207.4912776
0
ARC
8
DEFAULT_255_1_388
10
22.9457599
20
92.5294284
40
0.6737692
50
188.6922336
51
205.782076
0
ARC
8
DEFAULT_255_1_388
10
23.1545958
20
92.5649455
40
0.8855812
50
180.3881972
51
188.9218085
0
ARC
8
DEFAULT_255_1_388
10
23.2927116
20
92.6800622
40
1.0236965
50
170.2024645
51
180.3561986
0
ARC
8
DEFAULT_255_1_388
10
22.9368266
20
92.7437101
40
0.6621746
50
154.2856519
51
170.3893388
0
ARC
8
DEFAULT_255_1_388
10
22.792623
20
92.8097192
40
0.5036209
50
139.8400879
51
153.9334639
0
ARC
8
DEFAULT_255_1_388
10
22.7522133
20
92.8420716
40
0.4518751
50
98.4190017
51
139.6707015
0
ARC
8
DEFAULT_255_1_388
10
22.7949101
20
92.6344755
40
0.6635912
50
89.7660128
51
99.4415389
0
ARC
8
DEFAULT_255_1_388
10
22.8022497
20
92.6418517
40
0.6562258
50
78.0552044
51
90.4042252
0
ARC
8
DEFAULT_255_1_388
10
22.8477561
20
92.8464661
40
0.4466287
50
54.6380186
51
78.3338577
0
ARC
8
DEFAULT_255_1_388
10
22.8691859
20
92.8825444
40
0.4048184
50
50.0313964
51
54.1562739
0
ARC
8
DEFAULT_255_1_388
10
22.8570753
20
92.8716798
40
0.4209308
50
18.1092229
51
49.7179911
0
ARC
8
DEFAULT_255_1_388
10
22.6931833
20
92.8116399
40
0.5953982
50
7.967396
51
18.698492
0
ARC
8
DEFAULT_255_1_388
10
22.7101094
20
92.8255236
40
0.4050986
50
9.7558763
51
27.3214087
0
ARC
8
DEFAULT_255_1_388
10
22.8369559
20
92.8889087
40
0.2633168
50
27.736147
51
84.5257861
0
ARC
8
DEFAULT_255_1_388
10
22.8000968
20
92.7039988
40
0.4513019
50
82.1064239
51
90.1997295
0
ARC
8
DEFAULT_255_1_388
10
22.7944985
20
92.7611501
40
0.3941684
50
89.4148952
51
105.5824837
0
ARC
8
DEFAULT_255_1_388
10
22.7655865
20
92.8664043
40
0.2850167
50
105.6678541
51
144.2649156
0
ARC
8
DEFAULT_255_1_388
10
22.8660758
20
92.7949024
40
0.4083468
50
144.3560675
51
162.8564185
0
ARC
8
DEFAULT_255_1_388
10
23.10052
20
92.7196083
40
0.6545749
50
162.6076338
51
173.6779811
0
ARC
8
DEFAULT_255_1_388
10
23.4449315
20
92.6777422
40
1.0015089
50
173.4670996
51
179.9729015
0
ARC
8
DEFAULT_255_1_388
10
23.2302186
20
92.5659636
40
0.78681
50
179.6556955
51
190.007958
0
ARC
8
DEFAULT_255_1_388
10
22.9696468
20
92.518166
40
0.5218997
50
189.8117884
51
206.6795375
0
ARC
8
DEFAULT_255_1_388
10
22.8745914
20
92.4738514
40
0.4170788
50
207.1031171
51
217.7074698
0
ARC
8
DEFAULT_255_1_388
10
22.8032344
20
92.4117596
40
0.3226945
50
216.7345117
51
265.6812141
0
ARC
8
DEFAULT_255_1_388
10
22.8179486
20
92.513503
40
0.4253149
50
264.7367524
51
270.0610826
0
ARC
8
DEFAULT_255_1_388
10
22.8205672
20
92.8330173
40
0.7448321
50
269.8334494
51
276.0538364
0
ARC
8
DEFAULT_255_1_388
10
22.8438534
20
92.6190924
40
0.5296446
50
275.9894423
51
284.4615914
0
ARC
8
DEFAULT_255_1_388
10
22.8660047
20
92.525857
40
0.4338353
50
284.7038488
51
286.4938196
0
ARC
8
DEFAULT_255_1_388
10
22.9119196
20
92.3779371
40
0.2789738
50
286.0770429
51
304.2629628
0
ARC
8
DEFAULT_255_1_388
10
22.9269354
20
92.353368
40
0.2502188
50
304.5886247
51
317.1074126
0
LINE
8
DEFAULT_255_1_388
10
24.0246606
20
93.0540987
11
24.0246606
21
92.6700838
0
LINE
8
DEFAULT_255_1_388
10
24.0246606
20
92.6700838
11
24.3915078
21
92.6700838
0
LINE
8
DEFAULT_255_1_388
10
24.3915078
20
92.6700838
11
24.3915078
21
92.5119601
0
LINE
8
DEFAULT_255_1_388
10
24.3915078
20
92.5119601
11
24.0246606
21
92.5119601
0
LINE
8
DEFAULT_255_1_388
10
24.0246606
20
92.5119601
11
24.0246606
21
92.0963204
0
LINE
8
DEFAULT_255_1_388
10
24.0246606
20
92.0963204
11
23.8565976
21
92.0963204
0
LINE
8
DEFAULT_255_1_388
10
23.8565976
20
92.0963204
11
23.8565976
21
92.5119601
0
LINE
8
DEFAULT_255_1_388
10
23.8565976
20
92.5119601
11
23.4897504
21
92.5119601
0
LINE
8
DEFAULT_255_1_388
10
23.4897504
20
92.5119601
11
23.4897504
21
92.6700838
0
LINE
8
DEFAULT_255_1_388
10
23.4897504
20
92.6700838
11
23.8565976
21
92.6700838
0
LINE
8
DEFAULT_255_1_388
10
23.8565976
20
92.6700838
11
23.8565976
21
93.0540987
0
LINE
8
DEFAULT_255_1_388
10
23.8565976
20
93.0540987
11
24.0246606
21
93.0540987
0
ENDSEC
0
EOF