0
SECTION
2
HEADER
9
$MEASUREMENT
70
1
0
ENDSEC
0
SECTION
2
TABLES
0
TABLE
2
LTYPE
0
LTYPE
72
65
70
64
2
CONTINUOUS
3
______
73
0
40
0
0
ENDTAB
0
TABLE
2
LAYER
0
LAYER
2
DEFAULT_255_2_778
70
0
62
255
6
CONTINUOUS
0
ENDTAB
0
ENDSEC
0
SECTION
2
ENTITIES
0
ARC
8
DEFAULT_255_2_778
10
7.4507756
20
95.0461486
40
0.800141
50
0.0092561
51
45.0044694
0
ARC
8
DEFAULT_255_2_778
10
7.4506874
20
95.0462368
40
0.800141
50
44.9955306
51
89.9907439
0
ARC
8
DEFAULT_255_2_778
10
1.0509459
20
95.0462368
40
0.800141
50
90.0092561
51
135.0044694
0
ARC
8
DEFAULT_255_2_778
10
1.0508576
20
95.0461486
40
0.800141
50
134.9955306
51
179.9907439
0
ARC
8
DEFAULT_255_2_778
10
1.0508576
20
8.6465071
40
0.800141
50
180.0092561
51
225.0044694
0
ARC
8
DEFAULT_255_2_778
10
1.0509459
20
8.6464188
40
0.800141
50
224.9955306
51
269.9907439
0
ARC
8
DEFAULT_255_2_778
10
64.2506254
20
0.6462109
40
0.7999088
50
180.00953
51
225.0113601
0
ARC
8
DEFAULT_255_2_778
10
64.250912
20
0.6457958
40
0.799818
50
224.9758167
51
269.993168
0
ARC
8
DEFAULT_255_2_778
10
70.6507174
20
0.6455637
40
0.7995859
50
270.0071064
51
315.0310757
0
ARC
8
DEFAULT_255_2_778
10
70.6513316
20
0.6461766
40
0.799585
50
314.9688997
51
359.9929203
0
ARC
8
DEFAULT_255_2_778
10
70.651332
20
87.0462792
40
0.7995846
50
0.0070665
51
45.0311126
0
ARC
8
DEFAULT_255_2_778
10
70.6507184
20
87.0468941
40
0.7995837
50
44.9688628
51
89.9929601
0
LINE
8
DEFAULT_255_2_778
10
1.0511166
20
88.6462778
11
8.2446166
21
88.6462778
0
LINE
8
DEFAULT_255_2_778
10
8.2446166
20
88.6462778
11
8.2446166
21
87.8524778
0
LINE
8
DEFAULT_255_2_778
10
8.2446166
20
87.8524778
11
1.0511166
21
87.8524778
0
LINE
8
DEFAULT_255_2_778
10
1.0511166
20
87.8524778
11
1.0511166
21
88.6462778
0
LINE
8
DEFAULT_255_2_778
10
8.2506166
20
88.6462778
11
1.0508166
21
88.6462778
0
LINE
8
DEFAULT_255_2_778
10
1.0508166
20
88.6462778
11
1.0508166
21
87.8461778
0
LINE
8
DEFAULT_255_2_778
10
1.0508166
20
87.8461778
11
8.2509166
21
87.8461778
0
LINE
8
DEFAULT_255_2_778
10
8.2509166
20
87.8461778
11
8.2509166
21
88.6462778
0
LINE
8
DEFAULT_255_2_778
10
8.2509166
20
88.6462778
11
8.2509166
21
95.0462778
0
LINE
8
DEFAULT_255_2_778
10
7.4508166
20
95.8463778
11
1.0508166
21
95.8463778
0
LINE
8
DEFAULT_255_2_778
10
0.2507166
20
95.0462778
11
0.2507166
21
8.6463778
0
LINE
8
DEFAULT_255_2_778
10
1.0508166
20
7.8462778
11
2.3507166
21
7.8462778
0
LINE
8
DEFAULT_255_2_778
10
2.3507166
20
7.8462778
11
63.4507166
21
7.8462778
0
LINE
8
DEFAULT_255_2_778
10
63.4507166
20
7.8462778
11
63.4507166
21
0.6460778
0
LINE
8
DEFAULT_255_2_778
10
64.2508166
20
-0.1540222
11
70.6508166
21
-0.1540222
0
LINE
8
DEFAULT_255_2_778
10
71.4509166
20
0.6460778
11
71.4509166
21
33.6462778
0
LINE
8
DEFAULT_255_2_778
10
71.4509166
20
33.6462778
11
71.4509166
21
87.0463778
0
LINE
8
DEFAULT_255_2_778
10
70.6508166
20
87.8464778
11
8.2509166
21
87.8461778
0
LINE
8
DEFAULT_255_2_778
10
60.3838867
20
67.2465096
11
59.4837867
21
67.2465096
0
LINE
8
DEFAULT_255_2_778
10
59.4837867
20
67.2465096
11
59.4837867
21
69.0465096
0
LINE
8
DEFAULT_255_2_778
10
59.4837867
20
69.0465096
11
60.3838867
21
69.0465096
0
LINE
8
DEFAULT_255_2_778
10
60.3838867
20
69.0465096
11
60.3838867
21
68.9515096
0
LINE
8
DEFAULT_255_2_778
10
60.3838867
20
68.9515096
11
59.5736867
21
68.9515096
0
LINE
8
DEFAULT_255_2_778
10
59.5736867
20
68.9515096
11
59.5736867
21
68.1908096
0
LINE
8
DEFAULT_255_2_778
10
59.5736867
20
68.1908096
11
60.2102867
21
68.1908096
0
LINE
8
DEFAULT_255_2_778
10
60.2102867
20
68.1908096
11
60.2102867
21
68.0998096
0
LINE
8
DEFAULT_255_2_778
10
60.2102867
20
68.0998096
11
59.5736867
21
68.0998096
0
LINE
8
DEFAULT_255_2_778
10
59.5736867
20
68.0998096
11
59.5736867
21
67.3391096
0
LINE
8
DEFAULT_255_2_778
10
59.5736867
20
67.3391096
11
60.3840867
21
67.3391096
0
LINE
8
DEFAULT_255_2_778
10
60.3840867
20
67.3391096
11
60.3840867
21
67.2481096
0
LINE
8
DEFAULT_255_2_778
10
63.3032867
20
63.9681096
11
63.3032867
21
65.7374096
0
LINE
8
DEFAULT_255_2_778
10
63.3032867
20
65.7374096
11
63.2537867
21
65.7374096
0
LINE
8
DEFAULT_255_2_778
10
63.2537867
20
65.7374096
11
62.5428867
21
65.1090096
0
LINE
8
DEFAULT_255_2_778
10
62.5428867
20
65.1090096
11
62.5925867
21
65.0592096
0
LINE
8
DEFAULT_255_2_778
10
62.5925867
20
65.0592096
11
63.2127867
21
65.5966096
0
LINE
8
DEFAULT_255_2_778
10
63.2127867
20
65.5966096
11
63.2127867
21
63.9678096
0
LINE
8
DEFAULT_255_2_778
10
63.2127867
20
63.9678096
11
63.3032867
21
63.9681096
0
LINE
8
DEFAULT_255_2_778
10
1.0507867
20
64.9465096
11
1.0507867
21
30.7465096
0
LINE
8
DEFAULT_255_2_778
10
71.4156867
20
9.3946096
11
71.4156867
21
7.8944096
0
LINE
8
DEFAULT_255_2_778
10
71.4156867
20
7.8944096
11
69.3026867
21
7.8944096
0
LINE
8
DEFAULT_255_2_778
10
71.4423867
20
9.6809096
11
71.4423867
21
7.8746096
0
LINE
8
DEFAULT_255_2_778
10
69.3330867
20
7.8521096
11
71.4423867
21
7.8521096
0
ARC
8
DEFAULT_255_2_778
10
4.257359
20
91.8500004
40
2.4066969
50
159.2976576
51
180.084873
0
ARC
8
DEFAULT_255_2_778
10
4.2452294
20
91.8514615
40
2.3948358
50
100.6121045
51
159.2277679
0
ARC
8
DEFAULT_255_2_778
10
4.2493609
20
91.8149835
40
2.4314521
50
89.9692772
51
100.5494958
0
ARC
8
DEFAULT_255_2_778
10
4.2542238
20
91.8396362
40
2.4068017
50
69.2981156
51
90.0847272
0
ARC
8
DEFAULT_255_2_778
10
4.2557215
20
91.8517763
40
2.3949178
50
10.6140344
51
69.2289625
0
ARC
8
DEFAULT_255_2_778
10
4.2195228
20
91.8477381
40
2.4312423
50
359.9692987
51
10.5504412
0
ARC
8
DEFAULT_255_2_778
10
4.2441411
20
91.8428786
40
2.4066262
50
339.2964768
51
0.0846785
0
ARC
8
DEFAULT_255_2_778
10
4.2559964
20
91.8415179
40
2.3950571
50
280.6137206
51
339.2266602
0
ARC
8
DEFAULT_255_2_778
10
4.2519656
20
91.8776372
40
2.4313023
50
269.9693418
51
280.5503085
0
ARC
8
DEFAULT_255_2_778
10
4.2471019
20
91.8528541
40
2.4065214
50
249.2960188
51
270.0848243
0
ARC
8
DEFAULT_255_2_778
10
4.2457779
20
91.8410092
40
2.3949751
50
190.6117907
51
249.2254656
0
ARC
8
DEFAULT_255_2_778
10
4.2821765
20
91.8451334
40
2.4315121
50
179.9693203
51
190.5493631
0
LINE
8
DEFAULT_255_2_778
10
1.8506647
20
91.8464353
11
1.8506647
21
91.8464353
0
ARC
8
DEFAULT_255_2_778
10
70.6510438
20
8.6461172
40
1.599661
50
269.9894767
51
299.9989971
0
LINE
8
DEFAULT_255_2_778
10
54.3095219
20
65.6473323
11
54.6257219
21
64.5237323
0
LINE
8
DEFAULT_255_2_778
10
54.6257219
20
64.5237323
11
53.9934219
21
64.5237323
0
LINE
8
DEFAULT_255_2_778
10
53.9934219
20
64.5237323
11
54.3095219
21
65.6473323
0
LINE
8
DEFAULT_255_2_778
10
54.8054219
20
63.9844323
11
54.8967219
21
63.9844323
0
LINE
8
DEFAULT_255_2_778
10
54.8967219
20
63.9844323
11
54.3548219
21
65.7373323
0
LINE
8
DEFAULT_255_2_778
10
54.3548219
20
65.7373323
11
54.2646219
21
65.7373323
0
LINE
8
DEFAULT_255_2_778
10
54.2646219
20
65.7373323
11
53.7227219
21
63.9844323
0
LINE
8
DEFAULT_255_2_778
10
53.7227219
20
63.9844323
11
53.8097219
21
63.9844323
0
LINE
8
DEFAULT_255_2_778
10
53.8097219
20
63.9844323
11
53.9484219
21
64.4340323
0
LINE
8
DEFAULT_255_2_778
10
53.9484219
20
64.4340323
11
54.6710219
21
64.4340323
0
LINE
8
DEFAULT_255_2_778
10
54.6710219
20
64.4340323
11
54.8054219
21
63.9844323
0
ARC
8
DEFAULT_255_2_778
10
64.2253536
20
65.3410607
40
0.4844738
50
325.7294005
51
335.4025455
0
ARC
8
DEFAULT_255_2_778
10
64.3385882
20
65.2896083
40
0.3600984
50
335.3469441
51
348.4913775
0
ARC
8
DEFAULT_255_2_778
10
64.3975981
20
65.2767029
40
0.2997012
50
348.6581795
51
359.9130269
0
ARC
8
DEFAULT_255_2_778
10
64.3931982
20
65.2731532
40
0.3041165
50
0.5830719
51
34.8317083
0
ARC
8
DEFAULT_255_2_778
10
64.2799697
20
65.1996106
40
0.4390845
50
34.269773
51
49.948421
0
ARC
8
DEFAULT_255_2_778
10
64.2464603
20
65.1644751
40
0.4875515
50
49.5910046
51
58.6597143
0
ARC
8
DEFAULT_255_2_778
10
64.3257653
20
65.2977264
40
0.3324982
50
58.3886821
51
66.5624824
0
ARC
8
DEFAULT_255_2_778
10
64.4150174
20
65.5072205
40
0.1047985
50
65.7764466
51
78.3293692
0
ARC
8
DEFAULT_255_2_778
10
64.3277173
20
65.1599154
40
0.4628342
50
76.4423409
51
88.2563353
0
ARC
8
DEFAULT_255_2_778
10
64.332379
20
65.2373423
40
0.3853083
50
88.5988914
51
89.9972624
0
ARC
8
DEFAULT_255_2_778
10
64.3286915
20
65.3058088
40
0.3168635
50
89.3298664
51
145.2176291
0
ARC
8
DEFAULT_255_2_778
10
64.561539
20
65.1270378
40
0.6102493
50
143.9031914
51
160.170306
0
ARC
8
DEFAULT_255_2_778
10
64.8711958
20
65.0016227
40
0.9441777
50
159.3853334
51
163.1789215
0
ARC
8
DEFAULT_255_2_778
10
64.367713
20
65.237132
40
0.521263
50
145.0505799
51
175.8502356
0
ARC
8
DEFAULT_255_2_778
10
64.3291636
20
65.2629469
40
0.4748784
50
90.2667345
51
144.9391281
0
ARC
8
DEFAULT_255_2_778
10
64.3269352
20
65.2747188
40
0.4631013
50
81.4414226
51
89.9978099
0
ARC
8
DEFAULT_255_2_778
10
64.3246671
20
65.2630315
40
0.4749961
50
65.2825691
51
81.380681
0
ARC
8
DEFAULT_255_2_778
10
64.3165004
20
65.2434337
40
0.4962137
50
63.7182518
51
65.3721929
0
ARC
8
DEFAULT_255_2_778
10
64.3508901
20
65.2492376
40
0.4766213
50
46.2017944
51
67.1180386
0
ARC
8
DEFAULT_255_2_778
10
64.3764459
20
65.2810265
40
0.4360036
50
11.7189718
51
45.7344856
0
ARC
8
DEFAULT_255_2_778
10
64.3431237
20
65.2713257
40
0.4706094
50
8.0772875
51
12.0514025
0
ARC
8
DEFAULT_255_2_778
10
64.3342052
20
65.2701317
40
0.4796071
50
359.992443
51
8.0688071
0
ARC
8
DEFAULT_255_2_778
10
64.3615227
20
65.2675767
40
0.4522965
50
336.9172504
51
0.3156524
0
ARC
8
DEFAULT_255_2_778
10
64.4669249
20
65.2242646
40
0.3383551
50
322.5992801
51
336.6667063
0
LINE
8
DEFAULT_255_2_778
10
64.7654166
20
63.9355525
11
63.8576166
21
63.9355525
0
LINE
8
DEFAULT_255_2_778
10
63.8576166
20
63.9355525
11
63.8576166
21
64.0339525
0
LINE
8
DEFAULT_255_2_778
10
63.8576166
20
64.0339525
11
64.6257166
21
65.0682525
0
LINE
8
DEFAULT_255_2_778
10
63.9674166
20
65.2748525
11
63.8478166
21
65.2748525
0
LINE
8
DEFAULT_255_2_778
10
64.7357166
20
65.0187525
11
64.0073166
21
64.0339525
0
LINE
8
DEFAULT_255_2_778
10
64.0073166
20
64.0339525
11
64.7656166
21
64.0339525
0
LINE
8
DEFAULT_255_2_778
10
64.7656166
20
64.0339525
11
64.7654166
21
63.9355525
0
LINE
8
DEFAULT_255_2_778
10
60.5175166
20
64.9724525
11
60.1574166
21
64.4773525
0
LINE
8
DEFAULT_255_2_778
10
60.1574166
20
64.4773525
11
60.5175166
21
63.9823525
0
LINE
8
DEFAULT_255_2_778
10
59.7076166
20
63.9823525
11
60.0677166
21
64.4773525
0
LINE
8
DEFAULT_255_2_778
10
60.0677166
20
64.4773525
11
59.7076166
21
64.9724525
0
LINE
8
DEFAULT_255_2_778
10
2.5507166
20
69.9778525
11
3.0508166
21
69.9698525
0
LINE
8
DEFAULT_255_2_778
10
3.0508166
20
69.9698525
11
2.7703166
21
69.9624525
0
LINE
8
DEFAULT_255_2_778
10
2.7703166
20
69.9624525
11
2.5507166
21
69.9619525
0
LINE
8
DEFAULT_255_2_778
10
2.5507166
20
69.9619525
11
2.5507166
21
70.0373525
0
LINE
8
DEFAULT_255_2_778
10
2.5507166
20
70.0373525
11
69.1508166
21
70.0373525
0
LINE
8
DEFAULT_255_2_778
10
69.1508166
20
70.0373525
11
69.1508166
21
69.9619525
0
LINE
8
DEFAULT_255_2_778
10
69.1508166
20
69.9619525
11
68.6508166
21
69.9701525
0
LINE
8
DEFAULT_255_2_778
10
68.6508166
20
69.9701525
11
68.9312166
21
69.9775525
0
LINE
8
DEFAULT_255_2_778
10
68.9312166
20
69.9775525
11
69.1508166
21
69.9780525
0
LINE
8
DEFAULT_255_2_778
10
71.4506166
20
64.9462525
11
69.1506166
21
64.9462525
0
LINE
8
DEFAULT_255_2_778
10
69.1506166
20
64.9462525
11
69.1506166
21
69.9463525
0
LINE
8
DEFAULT_255_2_778
10
69.1506166
20
69.9463525
11
2.5507166
21
69.9463525
0
LINE
8
DEFAULT_255_2_778
10
2.5507166
20
69.9463525
11
2.5507166
21
64.9462525
0
LINE
8
DEFAULT_255_2_778
10
2.5507166
20
64.9462525
11
0.2507166
21
64.9462525
0
LINE
8
DEFAULT_255_2_778
10
71.4509166
20
26.8200525
11
69.1508166
21
26.8200525
0
LINE
8
DEFAULT_255_2_778
10
2.5507166
20
28.7128525
11
0.2507166
21
28.7128525
0
LINE
8
DEFAULT_255_2_778
10
2.5507166
20
26.8200525
11
0.2507166
21
26.8200525
0
LINE
8
DEFAULT_255_2_778
10
0.2507166
20
68.8729525
11
2.5507166
21
68.8729525
0
LINE
8
DEFAULT_255_2_778
10
0.2507166
20
66.9798525
11
2.5507166
21
66.9798525
0
LINE
8
DEFAULT_255_2_778
10
69.1508166
20
68.8729525
11
71.4509166
21
68.8729525
0
LINE
8
DEFAULT_255_2_778
10
69.1508166
20
66.9798525
11
71.4509166
21
66.9798525
0
LINE
8
DEFAULT_255_2_778
10
69.1508166
20
25.7149525
11
68.6508166
21
25.7231525
0
LINE
8
DEFAULT_255_2_778
10
68.6508166
20
25.7231525
11
68.9312166
21
25.7305525
0
LINE
8
DEFAULT_255_2_778
10
68.9312166
20
25.7305525
11
69.1508166
21
25.7310525
0
LINE
8
DEFAULT_255_2_778
10
69.1508166
20
25.7310525
11
69.1508166
21
25.6556525
0
LINE
8
DEFAULT_255_2_778
10
69.1508166
20
25.6556525
11
2.5507166
21
25.6556525
0
LINE
8
DEFAULT_255_2_778
10
2.5507166
20
25.6556525
11
2.5507166
21
25.7310525
0
LINE
8
DEFAULT_255_2_778
10
2.5507166
20
25.7310525
11
3.0508166
21
25.7228525
0
LINE
8
DEFAULT_255_2_778
10
3.0508166
20
25.7228525
11
2.7703166
21
25.7154525
0
LINE
8
DEFAULT_255_2_778
10
2.7703166
20
25.7154525
11
2.5507166
21
25.7149525
0
LINE
8
DEFAULT_255_2_778
10
71.4506166
20
30.7464525
11
69.1506166
21
30.7464525
0
LINE
8
DEFAULT_255_2_778
10
69.1506166
20
30.7464525
11
69.1506166
21
25.7463525
0
LINE
8
DEFAULT_255_2_778
10
69.1506166
20
25.7463525
11
2.5507166
21
25.7463525
0
LINE
8
DEFAULT_255_2_778
10
2.5507166
20
25.7463525
11
2.5507166
21
30.7464525
0
LINE
8
DEFAULT_255_2_778
10
2.5507166
20
30.7464525
11
0.2507166
21
30.7464525
0
ARC
8
DEFAULT_255_2_778
10
67.457259
20
3.8499004
40
2.4066969
50
159.2976576
51
180.084873
0
ARC
8
DEFAULT_255_2_778
10
67.4451294
20
3.8513615
40
2.3948358
50
100.6121045
51
159.2277679
0
ARC
8
DEFAULT_255_2_778
10
67.4492609
20
3.8148835
40
2.4314521
50
89.9692772
51
100.5494958
0
ARC
8
DEFAULT_255_2_778
10
67.4541363
20
3.8393835
40
2.4069545
50
69.2987756
51
90.0850211
0
ARC
8
DEFAULT_255_2_778
10
67.4557114
20
3.8517661
40
2.3948164
50
10.6123017
51
69.2293012
0
ARC
8
DEFAULT_255_2_778
10
67.4192361
20
3.8476402
40
2.4314289
50
359.9692516
51
10.5495722
0
ARC
8
DEFAULT_255_2_778
10
67.4438943
20
3.8427736
40
2.406773
50
339.2979222
51
0.0847906
0
ARC
8
DEFAULT_255_2_778
10
67.4559939
20
3.841311
40
2.3949392
50
280.612534
51
339.228324
0
ARC
8
DEFAULT_255_2_778
10
67.4518691
20
3.8777908
40
2.4315559
50
269.9692631
51
280.5497591
0
ARC
8
DEFAULT_255_2_778
10
67.4470019
20
3.8527541
40
2.4065214
50
249.2960188
51
270.0848243
0
ARC
8
DEFAULT_255_2_778
10
67.4456779
20
3.8409092
40
2.3949751
50
190.6117907
51
249.2254656
0
ARC
8
DEFAULT_255_2_778
10
67.4820765
20
3.8450334
40
2.4315121
50
179.9693203
51
190.5493631
0
LINE
8
DEFAULT_255_2_778
10
65.0505647
20
3.8463353
11
65.0505647
21
3.8463353
0
LINE
8
DEFAULT_255_2_778
10
71.4506128
20
8.6463357
11
71.4506129
21
8.645959
0
ARC
8
DEFAULT_255_2_778
10
70.6513111
20
8.6461171
40
0.7993017
50
314.9706146
51
359.9886663
0
ARC
8
DEFAULT_255_2_778
10
70.6501669
20
8.6468993
40
0.8006637
50
270.0247492
51
314.9889824
0
LINE
8
DEFAULT_255_2_778
10
70.6505128
20
7.8462357
11
70.6505128
21
7.0461357
0
LINE
8
DEFAULT_255_2_778
10
70.6505128
20
7.0461357
11
63.4504128
21
7.0461357
0
LINE
8
DEFAULT_255_2_778
10
70.6507128
20
34.4464357
11
71.4509128
21
33.6463357
0
LINE
8
DEFAULT_255_2_778
10
53.3824128
20
33.6463357
11
53.5976128
21
33.6704357
0
LINE
8
DEFAULT_255_2_778
10
53.5976128
20
33.6704357
11
53.8542128
21
33.7421357
0
LINE
8
DEFAULT_255_2_778
10
53.8542128
20
33.7421357
11
54.1519128
21
33.8590357
0
LINE
8
DEFAULT_255_2_778
10
54.1519128
20
33.8590357
11
54.4918128
21
34.0183357
0
LINE
8
DEFAULT_255_2_778
10
54.4918128
20
34.0183357
11
54.8803128
21
34.2188357
0
LINE
8
DEFAULT_255_2_778
10
54.8803128
20
34.2188357
11
55.3009128
21
34.4461357
0
LINE
8
DEFAULT_255_2_778
10
53.3827128
20
62.1461357
11
53.5978128
21
62.1221357
0
LINE
8
DEFAULT_255_2_778
10
53.5978128
20
62.1221357
11
53.8545128
21
62.0504357
0
LINE
8
DEFAULT_255_2_778
10
53.8545128
20
62.0504357
11
54.1521128
21
61.9334357
0
LINE
8
DEFAULT_255_2_778
10
54.1521128
20
61.9334357
11
54.4921128
21
61.7741357
0
LINE
8
DEFAULT_255_2_778
10
54.4921128
20
61.7741357
11
54.8805128
21
61.5736357
0
LINE
8
DEFAULT_255_2_778
10
54.8805128
20
61.5736357
11
55.3012128
21
61.3463357
0
LINE
8
DEFAULT_255_2_778
10
54.3013128
20
62.1464357
11
54.2014128
21
62.1464357
0
LINE
8
DEFAULT_255_2_778
10
54.2014128
20
62.1464357
11
53.3830128
21
62.1464357
0
LINE
8
DEFAULT_255_2_778
10
71.4514128
20
33.6463357
11
52.6014128
21
33.6463357
0
LINE
8
DEFAULT_255_2_778
10
52.6014128
20
33.6463357
11
52.6014128
21
62.1464357
0
LINE
8
DEFAULT_255_2_778
10
52.6014128
20
62.1464357
11
53.3830128
21
62.1464357
0
LINE
8
DEFAULT_255_2_778
10
56.3013128
20
62.1464357
11
54.3013128
21
62.1464357
0
LINE
8
DEFAULT_255_2_778
10
56.4014128
20
62.1464357
11
64.8514128
21
62.1464357
0
LINE
8
DEFAULT_255_2_778
10
64.8514128
20
62.1464357
11
66.3513128
21
62.1464357
0
LINE
8
DEFAULT_255_2_778
10
66.3513128
20
62.1464357
11
71.4511128
21
62.1464357
0
LINE
8
DEFAULT_255_2_778
10
71.4511128
20
62.1464357
11
70.6510128
21
61.3463357
0
ARC
8
DEFAULT_255_2_778
10
84.6389542
20
47.8949497
40
14.4881447
50
182.357044
51
195.0957465
0
ARC
8
DEFAULT_255_2_778
10
84.652059
20
47.895954
40
14.5012797
50
180.0094962
51
182.3588795
0
ARC
8
DEFAULT_255_2_778
10
77.3914419
20
47.8953556
40
7.2406625
50
179.9952388
51
180.0142835
0
ARC
8
DEFAULT_255_2_778
10
84.6495925
20
47.8961709
40
14.4988131
50
165.8574303
51
180.0008442
0
ARC
8
DEFAULT_255_2_778
10
84.6445119
20
47.8971195
40
14.4936546
50
164.9078646
51
165.8561592
0
LINE
8
DEFAULT_255_2_778
10
70.6507669
20
51.6708611
11
70.6507669
21
61.3463611
0
LINE
8
DEFAULT_255_2_778
10
70.6507669
20
61.3463611
11
55.3006669
21
61.3463611
0
LINE
8
DEFAULT_255_2_778
10
55.3006669
20
61.3463611
11
55.3006669
21
34.4464611
0
LINE
8
DEFAULT_255_2_778
10
55.3006669
20
34.4464611
11
70.6507669
21
34.4464611
0
LINE
8
DEFAULT_255_2_778
10
70.6507669
20
34.4464611
11
70.6507669
21
44.1217611
0
LINE
8
DEFAULT_255_2_778
10
64.1507032
20
46.6463141
11
63.5507032
21
46.6463141
0
LINE
8
DEFAULT_255_2_778
10
63.5507032
20
46.6463141
11
63.5507032
21
49.1464141
0
LINE
8
DEFAULT_255_2_778
10
63.5507032
20
49.1464141
11
64.1507032
21
49.1464141
0
LINE
8
DEFAULT_255_2_778
10
64.1507032
20
49.1464141
11
64.1507032
21
46.6463141
0
LINE
8
DEFAULT_255_2_778
10
65.3507032
20
46.6463141
11
64.7506032
21
46.6463141
0
LINE
8
DEFAULT_255_2_778
10
64.7506032
20
46.6463141
11
64.7506032
21
49.1464141
0
LINE
8
DEFAULT_255_2_778
10
64.7506032
20
49.1464141
11
65.3507032
21
49.1464141
0
LINE
8
DEFAULT_255_2_778
10
65.3507032
20
49.1464141
11
65.3507032
21
46.6463141
0
LINE
8
DEFAULT_255_2_778
10
65.9507032
20
46.6463141
11
68.4508032
21
47.8962141
0
LINE
8
DEFAULT_255_2_778
10
68.4508032
20
47.8962141
11
65.9507032
21
49.1461141
0
LINE
8
DEFAULT_255_2_778
10
65.9507032
20
49.1461141
11
65.9507032
21
46.6463141
0
LINE
8
DEFAULT_255_2_778
10
71.4509032
20
28.7129141
11
69.1509032
21
28.7129141
0
LINE
8
DEFAULT_255_2_778
10
70.6508032
20
64.9465141
11
70.6508032
21
62.2464141
0
LINE
8
DEFAULT_255_2_778
10
70.6508032
20
62.2464141
11
70.8971032
21
62.2853141
0
LINE
8
DEFAULT_255_2_778
10
70.8971032
20
62.2853141
11
71.1223032
21
62.4002141
0
LINE
8
DEFAULT_255_2_778
10
71.1223032
20
62.4002141
11
71.2972032
21
62.5748141
0
LINE
8
DEFAULT_255_2_778
10
71.2972032
20
62.5748141
11
71.4120032
21
62.7999141
0
LINE
8
DEFAULT_255_2_778
10
71.4120032
20
62.7999141
11
71.4509032
21
63.0465141
0
ARC
8
DEFAULT_255_2_778
10
84.6512837
20
47.8988163
40
14.5010342
50
195.0971762
51
204.3915543
0
ARC
8
DEFAULT_255_2_778
10
84.6649034
20
47.8890259
40
14.5156687
50
155.6112311
51
164.8951
0
LINE
8
DEFAULT_255_2_778
10
71.4508459
20
41.6589215
11
71.4500459
21
41.7404215
0
LINE
8
DEFAULT_255_2_778
10
71.4500459
20
41.7404215
11
71.4479459
21
41.8243215
0
LINE
8
DEFAULT_255_2_778
10
71.4479459
20
41.8243215
11
71.4445459
21
41.9103215
0
LINE
8
DEFAULT_255_2_778
10
71.4508459
20
54.1343215
11
71.4500459
21
54.0528215
0
LINE
8
DEFAULT_255_2_778
10
71.4500459
20
54.0528215
11
71.4479459
21
53.9689215
0
LINE
8
DEFAULT_255_2_778
10
71.4479459
20
53.9689215
11
71.4445459
21
53.8829215
0
LINE
8
DEFAULT_255_2_778
10
70.6507459
20
30.7465215
11
70.6507459
21
33.4465215
0
LINE
8
DEFAULT_255_2_778
10
70.6507459
20
33.4465215
11
66.3507459
21
33.4465215
0
ARC
8
DEFAULT_255_2_778
10
65.5991909
20
34.1512154
40
0.9052864
50
302.8585221
51
326.1203437
0
LINE
8
DEFAULT_255_2_778
10
66.090369
20
33.3907631
11
66.174469
21
33.3909631
0
LINE
8
DEFAULT_255_2_778
10
66.174469
20
33.3909631
11
66.350769
21
33.3994631
0
LINE
8
DEFAULT_255_2_778
10
66.350769
20
33.3994631
11
66.350769
21
33.6465631
0
LINE
8
DEFAULT_255_2_778
10
66.090369
20
33.3907631
11
66.090369
21
33.3907631
0
LINE
8
DEFAULT_255_2_778
10
54.200769
20
62.2464631
11
52.100769
21
62.2464631
0
LINE
8
DEFAULT_255_2_778
10
52.100769
20
33.4465631
11
52.100769
21
62.2464631
0
LINE
8
DEFAULT_255_2_778
10
52.020069
20
62.3271631
11
52.100769
21
62.2464631
0
LINE
8
DEFAULT_255_2_778
10
52.020069
20
33.3658631
11
52.100769
21
33.4465631
0
LINE
8
DEFAULT_255_2_778
10
54.200769
20
33.4465631
11
52.100769
21
33.4465631
0
LINE
8
DEFAULT_255_2_778
10
52.020069
20
33.3658631
11
51.220269
21
32.5660631
0
LINE
8
DEFAULT_255_2_778
10
51.2202472
20
63.1270131
11
51.2202472
21
32.5660131
0
LINE
8
DEFAULT_255_2_778
10
52.0200472
20
33.3659131
11
70.6507472
21
33.3659131
0
LINE
8
DEFAULT_255_2_778
10
70.6507472
20
33.3659131
11
70.8938472
21
33.3280131
0
LINE
8
DEFAULT_255_2_778
10
70.8938472
20
33.3280131
11
71.1171472
21
33.2156131
0
LINE
8
DEFAULT_255_2_778
10
71.1171472
20
33.2156131
11
71.2965472
21
33.0378131
0
LINE
8
DEFAULT_255_2_778
10
71.2965472
20
33.0378131
11
71.4111472
21
32.8142131
0
LINE
8
DEFAULT_255_2_778
10
71.4111472
20
32.8142131
11
71.4505472
21
32.5658131
0
LINE
8
DEFAULT_255_2_778
10
71.4505472
20
32.5658131
11
51.2202472
21
32.5658131
0
LINE
8
DEFAULT_255_2_778
10
52.0200472
20
62.3272131
11
52.0200472
21
33.3661131
0
LINE
8
DEFAULT_255_2_778
10
52.0200472
20
62.327134
11
51.2202472
21
63.126934
0
LINE
8
DEFAULT_255_2_778
10
52.0200472
20
62.327134
11
70.6507472
21
62.327134
0
LINE
8
DEFAULT_255_2_778
10
70.6507472
20
62.327134
11
70.8978472
21
62.366234
0
LINE
8
DEFAULT_255_2_778
10
70.8978472
20
62.366234
11
71.1208472
21
62.479734
0
LINE
8
DEFAULT_255_2_778
10
71.1208472
20
62.479734
11
71.2978472
21
62.656734
0
LINE
8
DEFAULT_255_2_778
10
71.2978472
20
62.656734
11
71.4113472
21
62.879834
0
LINE
8
DEFAULT_255_2_778
10
71.4113472
20
62.879834
11
71.4505472
21
63.126934
0
LINE
8
DEFAULT_255_2_778
10
71.4505472
20
63.126934
11
51.2202472
21
63.126934
0
LINE
8
DEFAULT_255_2_778
10
56.4007472
20
33.646534
11
56.4007472
21
33.446534
0
LINE
8
DEFAULT_255_2_778
10
64.8507472
20
33.446534
11
56.4007472
21
33.446534
0
LINE
8
DEFAULT_255_2_778
10
56.3007472
20
33.392234
11
56.3473472
21
33.393334
0
LINE
8
DEFAULT_255_2_778
10
56.3473472
20
33.393334
11
56.4007472
21
33.399134
0
LINE
8
DEFAULT_255_2_778
10
56.4007472
20
33.399134
11
56.4007472
21
33.446234
0
LINE
8
DEFAULT_255_2_778
10
56.3008
20
33.3922646
11
56.3008
21
33.3917646
0
LINE
8
DEFAULT_255_2_778
10
56.300775
20
33.6466208
11
56.300775
21
33.3923208
0
LINE
8
DEFAULT_255_2_778
10
54.300575
20
33.3926208
11
54.961775
21
33.3810208
0
LINE
8
DEFAULT_255_2_778
10
54.961775
20
33.3810208
11
55.948975
21
33.3836208
0
LINE
8
DEFAULT_255_2_778
10
55.948975
20
33.3836208
11
56.300575
21
33.3921208
0
LINE
8
DEFAULT_255_2_778
10
54.3008
20
33.3925969
11
54.3008
21
33.3917969
0
LINE
8
DEFAULT_255_2_778
10
54.3008615
20
33.6465677
11
54.3008615
21
33.3928677
0
LINE
8
DEFAULT_255_2_778
10
54.2005615
20
33.4465677
11
54.2005615
21
33.3994677
0
LINE
8
DEFAULT_255_2_778
10
54.2005615
20
33.3994677
11
54.2539615
21
33.3936677
0
LINE
8
DEFAULT_255_2_778
10
54.2539615
20
33.3936677
11
54.3005615
21
33.3928677
0
LINE
8
DEFAULT_255_2_778
10
54.2005625
20
33.6465558
11
54.2005625
21
33.4465558
0
LINE
8
DEFAULT_255_2_778
10
54.3005625
20
62.3006558
11
54.2539625
21
62.2996558
0
LINE
8
DEFAULT_255_2_778
10
54.2539625
20
62.2996558
11
54.2005625
21
62.2937558
0
LINE
8
DEFAULT_255_2_778
10
54.2005625
20
62.2937558
11
54.2005625
21
62.1466558
0
LINE
8
DEFAULT_255_2_778
10
54.3005625
20
62.1464558
11
54.3005625
21
62.3009558
0
LINE
8
DEFAULT_255_2_778
10
56.3005625
20
62.3004558
11
55.6393625
21
62.3120558
0
LINE
8
DEFAULT_255_2_778
10
55.6393625
20
62.3120558
11
54.6521625
21
62.3094558
0
LINE
8
DEFAULT_255_2_778
10
54.6521625
20
62.3094558
11
54.3005625
21
62.3009558
0
LINE
8
DEFAULT_255_2_778
10
56.3008625
20
62.1464558
11
56.3008625
21
62.3009558
0
LINE
8
DEFAULT_255_2_778
10
56.4008625
20
62.2464558
11
56.4008625
21
62.2935558
0
LINE
8
DEFAULT_255_2_778
10
56.4008625
20
62.2935558
11
56.3473625
21
62.2993558
0
LINE
8
DEFAULT_255_2_778
10
56.3473625
20
62.2993558
11
56.3008625
21
62.3001558
0
LINE
8
DEFAULT_255_2_778
10
56.4008625
20
62.2464558
11
56.4008625
21
62.1464558
0
LINE
8
DEFAULT_255_2_778
10
56.3007949
20
62.1464062
11
56.4007949
21
62.1464062
0
LINE
8
DEFAULT_255_2_778
10
64.8507949
20
62.2464062
11
56.4007949
21
62.2464062
0
ARC
8
DEFAULT_255_2_778
10
65.6002645
20
61.6451819
40
0.9015711
50
133.4287999
51
146.2223851
0
ARC
8
DEFAULT_255_2_778
10
65.6010787
20
61.6437546
40
0.9025991
50
33.8440234
51
46.6353473
0
LINE
8
DEFAULT_255_2_778
10
64.8508386
20
62.2464427
11
64.8508386
21
62.1464427
0
LINE
8
DEFAULT_255_2_778
10
64.8508386
20
62.2464427
11
64.8508386
21
62.2935427
0
LINE
8
DEFAULT_255_2_778
10
64.8508386
20
62.2935427
11
64.9804386
21
62.2996427
0
LINE
8
DEFAULT_255_2_778
10
66.2208386
20
62.2999427
11
65.9766386
21
62.3049427
0
LINE
8
DEFAULT_255_2_778
10
65.9766386
20
62.3049427
11
65.0267386
21
62.3020427
0
LINE
8
DEFAULT_255_2_778
10
65.0267386
20
62.3020427
11
64.9802386
21
62.2999427
0
ARC
8
DEFAULT_255_2_778
10
65.5980664
20
34.1469083
40
0.8992484
50
213.8033826
51
237.260493
0
LINE
8
DEFAULT_255_2_778
10
66.3507345
20
62.2465163
11
66.3507345
21
62.2936163
0
LINE
8
DEFAULT_255_2_778
10
66.3507345
20
62.2936163
11
66.3057345
21
62.2980163
0
LINE
8
DEFAULT_255_2_778
10
66.3057345
20
62.2980163
11
66.2211345
21
62.2999163
0
LINE
8
DEFAULT_255_2_778
10
66.3507345
20
62.2465163
11
66.3507345
21
62.1464163
0
LINE
8
DEFAULT_255_2_778
10
70.6507345
20
62.2465163
11
66.3507345
21
62.2465163
0
LINE
8
DEFAULT_255_2_778
10
64.8508345
20
33.6466163
11
64.8508345
21
33.4466163
0
LINE
8
DEFAULT_255_2_778
10
65.1117459
20
33.390424
11
64.8958459
21
33.394924
0
LINE
8
DEFAULT_255_2_778
10
64.8958459
20
33.394924
11
64.8508459
21
33.399424
0
LINE
8
DEFAULT_255_2_778
10
64.8508459
20
33.399424
11
64.8508459
21
33.446524
0
LINE
8
DEFAULT_255_2_778
10
66.0901459
20
33.390724
11
66.0811459
21
33.384924
0
ARC
8
DEFAULT_255_2_778
10
65.5988025
20
34.1512843
40
0.9056322
50
302.871971
51
326.129312
0
LINE
8
DEFAULT_255_2_778
10
66.3507468
20
33.6465569
11
66.3507468
21
33.3994569
0
LINE
8
DEFAULT_255_2_778
10
66.3507468
20
33.3994569
11
66.1744468
21
33.3909569
0
LINE
8
DEFAULT_255_2_778
10
66.1744468
20
33.3909569
11
66.0903468
21
33.3906569
0
LINE
8
DEFAULT_255_2_778
10
65.1116468
20
33.3904569
11
65.2249468
21
33.3880569
0
LINE
8
DEFAULT_255_2_778
10
65.2249468
20
33.3880569
11
66.0903468
21
33.3906569
0
LINE
8
DEFAULT_255_2_778
10
65.1203468
20
33.3848569
11
65.1116468
21
33.3904569
0
LINE
8
DEFAULT_255_2_778
10
2.3506468
20
7.8462569
11
2.3506468
21
21.3463569
0
LINE
8
DEFAULT_255_2_778
10
2.3506468
20
21.3463569
11
69.3505468
21
21.3463569
0
LINE
8
DEFAULT_255_2_778
10
69.3505468
20
21.3463569
11
69.3505468
21
7.8462569
0
LINE
8
DEFAULT_255_2_778
10
69.3505468
20
7.8462569
11
2.3506468
21
7.8462569
0
LINE
8
DEFAULT_255_2_778
10
48.3207219
20
65.6452323
11
48.6369219
21
64.5216323
0
LINE
8
DEFAULT_255_2_778
10
48.6369219
20
64.5216323
11
48.0046219
21
64.5216323
0
LINE
8
DEFAULT_255_2_778
10
48.0046219
20
64.5216323
11
48.3207219
21
65.6452323
0
LINE
8
DEFAULT_255_2_778
10
48.8166219
20
63.9823323
11
48.9079219
21
63.9823323
0
LINE
8
DEFAULT_255_2_778
10
48.9079219
20
63.9823323
11
48.3660219
21
65.7352323
0
LINE
8
DEFAULT_255_2_778
10
48.3660219
20
65.7352323
11
48.2758219
21
65.7352323
0
LINE
8
DEFAULT_255_2_778
10
48.2758219
20
65.7352323
11
47.7339219
21
63.9823323
0
LINE
8
DEFAULT_255_2_778
10
47.7339219
20
63.9823323
11
47.8209219
21
63.9823323
0
LINE
8
DEFAULT_255_2_778
10
47.8209219
20
63.9823323
11
47.9596219
21
64.4319323
0
LINE
8
DEFAULT_255_2_778
10
47.9596219
20
64.4319323
11
48.6822219
21
64.4319323
0
LINE
8
DEFAULT_255_2_778
10
48.6822219
20
64.4319323
11
48.8166219
21
63.9823323
0
LINE
8
DEFAULT_255_2_778
10
49.5992086
20
20.9068811
11
66.3992086
21
20.9068811
0
LINE
8
DEFAULT_255_2_778
10
66.3992086
20
20.9068811
11
66.3992086
21
10.1070811
0
LINE
8
DEFAULT_255_2_778
10
66.3992086
20
10.1070811
11
49.5992086
21
10.1070811
0
LINE
8
DEFAULT_255_2_778
10
49.5992086
20
10.1070811
11
49.5992086
21
20.9068811
0
LINE
8
DEFAULT_255_2_778
10
51.9032086
20
12.344529
11
64.1116086
21
12.344529
0
LINE
8
DEFAULT_255_2_778
10
64.1116086
20
12.344529
11
64.1116086
21
10.107129
0
LINE
8
DEFAULT_255_2_778
10
51.8871086
20
12.344529
11
51.8871086
21
10.107129
0
LINE
8
DEFAULT_255_2_778
10
49.5992086
20
19.049029
11
66.3992086
21
19.049029
0
LINE
8
DEFAULT_255_2_778
10
62.6733086
20
12.344529
11
62.6733086
21
10.107129
0
LINE
8
DEFAULT_255_2_778
10
61.9544648
20
12.3592884
11
61.9544648
21
10.1070884
0
LINE
8
DEFAULT_255_2_778
10
59.7970648
20
12.3592884
11
59.7970648
21
10.1070884
0
LINE
8
DEFAULT_255_2_778
10
57.6398648
20
12.3592884
11
57.6398648
21
10.1070884
0
LINE
8
DEFAULT_255_2_778
10
55.4824648
20
12.3592884
11
55.4824648
21
10.1070884
0
LINE
8
DEFAULT_255_2_778
10
53.3252648
20
12.3592884
11
53.3252648
21
10.1070884
0
LINE
8
DEFAULT_255_2_778
10
58.3587648
20
12.3443884
11
58.3587648
21
10.1070884
0
LINE
8
DEFAULT_255_2_778
10
56.2015648
20
12.3443884
11
56.2015648
21
10.1070884
0
LINE
8
DEFAULT_255_2_778
10
54.0444648
20
12.3443884
11
54.0444648
21
10.1070884
0
LINE
8
DEFAULT_255_2_778
10
60.5161648
20
12.3443884
11
60.5161648
21
10.1070884
0
LINE
8
DEFAULT_255_2_778
10
43.4129648
20
20.9761884
11
48.3659648
21
20.9761884
0
LINE
8
DEFAULT_255_2_778
10
48.3659648
20
20.9761884
11
48.3659648
21
9.5347884
0
LINE
8
DEFAULT_255_2_778
10
48.3659648
20
9.5347884
11
43.4129648
21
9.5347884
0
LINE
8
DEFAULT_255_2_778
10
43.4129648
20
9.5347884
11
43.4129648
21
20.9761884
0
LINE
8
DEFAULT_255_2_778
10
43.4130001
20
11.4517
11
48.3660001
21
11.4517
0
LINE
8
DEFAULT_255_2_778
10
47.0737533
20
11.4517884
11
47.0737533
21
10.4084884
0
LINE
8
DEFAULT_255_2_778
10
47.0737533
20
10.4084884
11
44.8210533
21
10.4084884
0
LINE
8
DEFAULT_255_2_778
10
44.8210533
20
10.4084884
11
44.8210533
21
11.4517884
0
LINE
8
DEFAULT_255_2_778
10
37.1288533
20
20.9923884
11
42.0818533
21
20.9923884
0
LINE
8
DEFAULT_255_2_778
10
42.0818533
20
20.9923884
11
42.0818533
21
9.5509884
0
LINE
8
DEFAULT_255_2_778
10
42.0818533
20
9.5509884
11
37.1288533
21
9.5509884
0
LINE
8
DEFAULT_255_2_778
10
37.1288533
20
9.5509884
11
37.1288533
21
20.9923884
0
LINE
8
DEFAULT_255_2_778
10
37.1288001
20
11.4679
11
42.0818001
21
11.4679
0
LINE
8
DEFAULT_255_2_778
10
40.7896395
20
11.4679345
11
40.7896395
21
10.4246345
0
LINE
8
DEFAULT_255_2_778
10
40.7896395
20
10.4246345
11
38.5369395
21
10.4246345
0
LINE
8
DEFAULT_255_2_778
10
38.5369395
20
10.4246345
11
38.5369395
21
11.4679345
0
LINE
8
DEFAULT_255_2_778
10
2.5507395
20
73.7463345
11
69.1508395
21
73.7463345
0
LINE
8
DEFAULT_255_2_778
10
69.1508395
20
73.7463345
11
69.1508395
21
70.6464345
0
LINE
8
DEFAULT_255_2_778
10
69.1508395
20
70.6464345
11
2.5507395
21
70.6464345
0
LINE
8
DEFAULT_255_2_778
10
2.5507395
20
70.6464345
11
2.5507395
21
73.7463345
0
LINE
8
DEFAULT_255_2_778
10
2.650752
20
73.6462489
11
69.050852
21
73.6462489
0
LINE
8
DEFAULT_255_2_778
10
69.050852
20
73.6462489
11
69.050852
21
70.7461489
0
LINE
8
DEFAULT_255_2_778
10
69.050852
20
70.7461489
11
2.650752
21
70.7461489
0
LINE
8
DEFAULT_255_2_778
10
2.650752
20
70.7461489
11
2.650752
21
73.6462489
0
ARC
8
DEFAULT_255_2_778
10
27.7186964
20
72.0220012
40
0.5907464
50
283.4157614
51
297.1069473
0
ARC
8
DEFAULT_255_2_778
10
27.7929701
20
71.8785434
40
0.4292041
50
297.0070443
51
317.1692544
0
ARC
8
DEFAULT_255_2_778
10
27.8360742
20
71.835993
40
0.3686706
50
317.4647382
51
353.0071112
0
ARC
8
DEFAULT_255_2_778
10
27.815723
20
71.8398449
40
0.3893417
50
352.8090922
51
356.2949768
0
ARC
8
DEFAULT_255_2_778
10
27.8094392
20
71.8402472
40
0.3956385
50
356.2956515
51
0.0043968
0
ARC
8
DEFAULT_255_2_778
10
27.8137916
20
71.8435818
40
0.3913
50
359.5161631
51
49.1517807
0
ARC
8
DEFAULT_255_2_778
10
27.8840961
20
71.9160793
40
0.2905337
50
50.2885667
51
77.5445246
0
ARC
8
DEFAULT_255_2_778
10
27.729597
20
72.7247564
40
0.5681238
50
292.4727262
51
304.8288365
0
ARC
8
DEFAULT_255_2_778
10
27.8246256
20
72.5895628
40
0.4028758
50
304.7161077
51
322.7509995
0
ARC
8
DEFAULT_255_2_778
10
27.8838681
20
72.5433881
40
0.3277707
50
322.9078586
51
356.1985548
0
ARC
8
DEFAULT_255_2_778
10
27.8652991
20
72.5453986
40
0.346433
50
356.0703872
51
358.9154401
0
ARC
8
DEFAULT_255_2_778
10
27.8599094
20
72.5455201
40
0.3518239
50
358.9122617
51
0.0016441
0
ARC
8
DEFAULT_255_2_778
10
27.7884832
20
72.5366772
40
0.4233428
50
1.1982672
51
77.8950202
0
ARC
8
DEFAULT_255_2_778
10
27.8320875
20
72.6480936
40
0.3058674
50
81.5071657
51
83.9812828
0
ARC
8
DEFAULT_255_2_778
10
27.8343704
20
72.4159513
40
0.1749687
50
266.1619953
51
270.0122503
0
ARC
8
DEFAULT_255_2_778
10
27.8342331
20
72.4268954
40
0.185913
50
270.0538206
51
277.4592311
0
ARC
8
DEFAULT_255_2_778
10
27.8106265
20
72.5193096
40
0.2808416
50
279.7876035
51
315.7347736
0
ARC
8
DEFAULT_255_2_778
10
27.7551696
20
72.5948726
40
0.3736144
50
313.3717949
51
356.8869817
0
ARC
8
DEFAULT_255_2_778
10
27.8455592
20
72.5806081
40
0.2827377
50
358.7789773
51
0.0018057
0
ARC
8
DEFAULT_255_2_778
10
27.8743229
20
72.5827263
40
0.2539829
50
359.5241604
51
39.9706688
0
ARC
8
DEFAULT_255_2_778
10
27.8186192
20
72.5340605
40
0.3279389
50
40.2349142
51
59.2067804
0
ARC
8
DEFAULT_255_2_778
10
27.7289195
20
72.3864051
40
0.5007009
50
59.0393698
51
71.6089215
0
ARC
8
DEFAULT_255_2_778
10
27.6629329
20
72.202012
40
0.6965091
50
71.2436705
51
76.0487479
0
ARC
8
DEFAULT_255_2_778
10
27.8346656
20
71.7046078
40
0.1748252
50
266.1604144
51
270.0123072
0
ARC
8
DEFAULT_255_2_778
10
27.8345235
20
71.7156417
40
0.1858593
50
270.0553855
51
277.4873181
0
ARC
8
DEFAULT_255_2_778
10
27.8108578
20
71.8080971
40
0.2808423
50
279.8170433
51
315.7504317
0
ARC
8
DEFAULT_255_2_778
10
27.7553342
20
71.8836873
40
0.3736775
50
313.3881417
51
356.8852505
0
ARC
8
DEFAULT_255_2_778
10
27.8442163
20
71.8694436
40
0.284308
50
358.7785804
51
359.9980126
0
ARC
8
DEFAULT_255_2_778
10
27.8745353
20
71.871547
40
0.2539978
50
359.5232938
51
39.9640595
0
ARC
8
DEFAULT_255_2_778
10
27.8188941
20
71.8229379
40
0.3278692
50
40.2292682
51
59.201972
0
ARC
8
DEFAULT_255_2_778
10
27.7292276
20
71.6753609
40
0.500547
50
59.034832
51
71.6056359
0
ARC
8
DEFAULT_255_2_778
10
27.6632725
20
71.4910944
40
0.6962255
50
71.24033
51
76.0463024
0
LINE
8
DEFAULT_255_2_778
10
27.4588587
20
72.952275
11
27.4588587
21
71.447375
0
LINE
8
DEFAULT_255_2_778
10
27.4588587
20
71.447375
11
27.8557587
21
71.447375
0
LINE
8
DEFAULT_255_2_778
10
27.8641587
20
72.952275
11
27.4588587
21
72.952275
0
LINE
8
DEFAULT_255_2_778
10
27.5331587
20
72.877975
11
27.5331587
21
72.241375
0
LINE
8
DEFAULT_255_2_778
10
27.5331587
20
72.241375
11
27.8226587
21
72.241375
0
LINE
8
DEFAULT_255_2_778
10
27.8308587
20
72.877975
11
27.5331587
21
72.877975
0
LINE
8
DEFAULT_255_2_778
10
27.5334587
20
72.166775
11
27.5334587
21
71.530175
0
LINE
8
DEFAULT_255_2_778
10
27.5334587
20
71.530175
11
27.8229587
21
71.530175
0
LINE
8
DEFAULT_255_2_778
10
27.8311587
20
72.166775
11
27.5334587
21
72.166775
0
LINE
8
DEFAULT_255_2_778
10
29.3699438
20
72.1677635
11
29.0707438
21
72.1640635
0
LINE
8
DEFAULT_255_2_778
10
29.0707438
20
72.1640635
11
29.0728438
21
72.4646635
0
LINE
8
DEFAULT_255_2_778
10
29.0728438
20
72.4646635
11
28.9992438
21
72.4638635
0
LINE
8
DEFAULT_255_2_778
10
28.9992438
20
72.4638635
11
28.9992438
21
72.1638635
0
LINE
8
DEFAULT_255_2_778
10
28.9992438
20
72.1638635
11
28.6992438
21
72.1638635
0
LINE
8
DEFAULT_255_2_778
10
28.6992438
20
72.1638635
11
28.7008438
21
72.0841635
0
LINE
8
DEFAULT_255_2_778
10
28.7008438
20
72.0841635
11
28.9958438
21
72.0889635
0
LINE
8
DEFAULT_255_2_778
10
28.9958438
20
72.0889635
11
28.9984438
21
71.7865635
0
LINE
8
DEFAULT_255_2_778
10
28.9984438
20
71.7865635
11
29.0728438
21
71.7865635
0
LINE
8
DEFAULT_255_2_778
10
29.0728438
20
71.7865635
11
29.0707438
21
72.0889635
0
LINE
8
DEFAULT_255_2_778
10
29.0707438
20
72.0889635
11
29.3707438
21
72.0889635
0
LINE
8
DEFAULT_255_2_778
10
29.3707438
20
72.0889635
11
29.3704438
21
72.1669635
0
ARC
8
DEFAULT_255_2_778
10
32.7735964
20
72.0220012
40
0.5907464
50
283.4157614
51
297.1069473
0
ARC
8
DEFAULT_255_2_778
10
32.8478701
20
71.8785434
40
0.4292041
50
297.0070443
51
317.1692544
0
ARC
8
DEFAULT_255_2_778
10
32.8909742
20
71.835993
40
0.3686706
50
317.4647382
51
353.0071112
0
ARC
8
DEFAULT_255_2_778
10
32.870623
20
71.8398449
40
0.3893417
50
352.8090922
51
356.2949768
0
ARC
8
DEFAULT_255_2_778
10
32.8643392
20
71.8402472
40
0.3956385
50
356.2956515
51
0.0043968
0
ARC
8
DEFAULT_255_2_778
10
32.8686916
20
71.8435818
40
0.3913
50
359.5161631
51
49.1517807
0
ARC
8
DEFAULT_255_2_778
10
32.9389961
20
71.9160793
40
0.2905337
50
50.2885667
51
77.5445246
0
ARC
8
DEFAULT_255_2_778
10
32.784497
20
72.7247564
40
0.5681238
50
292.4727262
51
304.8288365
0
ARC
8
DEFAULT_255_2_778
10
32.8795256
20
72.5895628
40
0.4028758
50
304.7161077
51
322.7509995
0
ARC
8
DEFAULT_255_2_778
10
32.9387681
20
72.5433881
40
0.3277707
50
322.9078586
51
356.1985548
0
ARC
8
DEFAULT_255_2_778
10
32.9201991
20
72.5453986
40
0.346433
50
356.0703872
51
358.9154401
0
ARC
8
DEFAULT_255_2_778
10
32.9148094
20
72.5455201
40
0.3518239
50
358.9122617
51
0.0016441
0
ARC
8
DEFAULT_255_2_778
10
32.8433832
20
72.5366772
40
0.4233428
50
1.1982672
51
77.8950202
0
ARC
8
DEFAULT_255_2_778
10
32.8869875
20
72.6480936
40
0.3058674
50
81.5071657
51
83.9812828
0
ARC
8
DEFAULT_255_2_778
10
32.8892704
20
72.4159513
40
0.1749687
50
266.1619953
51
270.0122503
0
ARC
8
DEFAULT_255_2_778
10
32.8891331
20
72.4268954
40
0.185913
50
270.0538206
51
277.4592311
0
ARC
8
DEFAULT_255_2_778
10
32.8655265
20
72.5193096
40
0.2808416
50
279.7876035
51
315.7347736
0
ARC
8
DEFAULT_255_2_778
10
32.8100696
20
72.5948726
40
0.3736144
50
313.3717949
51
356.8869817
0
ARC
8
DEFAULT_255_2_778
10
32.9004592
20
72.5806081
40
0.2827377
50
358.7789773
51
0.0018057
0
ARC
8
DEFAULT_255_2_778
10
32.9292229
20
72.5827263
40
0.2539829
50
359.5241604
51
39.9706688
0
ARC
8
DEFAULT_255_2_778
10
32.8735192
20
72.5340605
40
0.3279389
50
40.2349142
51
59.2067804
0
ARC
8
DEFAULT_255_2_778
10
32.7838195
20
72.3864051
40
0.5007009
50
59.0393698
51
71.6089215
0
ARC
8
DEFAULT_255_2_778
10
32.7178329
20
72.202012
40
0.6965091
50
71.2436705
51
76.0487479
0
ARC
8
DEFAULT_255_2_778
10
32.8895656
20
71.7046078
40
0.1748252
50
266.1604144
51
270.0123072
0
ARC
8
DEFAULT_255_2_778
10
32.8894235
20
71.7156417
40
0.1858593
50
270.0553855
51
277.4873181
0
ARC
8
DEFAULT_255_2_778
10
32.8657578
20
71.8080971
40
0.2808423
50
279.8170433
51
315.7504317
0
ARC
8
DEFAULT_255_2_778
10
32.8102342
20
71.8836873
40
0.3736775
50
313.3881417
51
356.8852505
0
ARC
8
DEFAULT_255_2_778
10
32.8991163
20
71.8694436
40
0.284308
50
358.7785804
51
359.9980126
0
ARC
8
DEFAULT_255_2_778
10
32.9294353
20
71.871547
40
0.2539978
50
359.5232938
51
39.9640595
0
ARC
8
DEFAULT_255_2_778
10
32.8737941
20
71.8229379
40
0.3278692
50
40.2292682
51
59.201972
0
ARC
8
DEFAULT_255_2_778
10
32.7841276
20
71.6753609
40
0.500547
50
59.034832
51
71.6056359
0
ARC
8
DEFAULT_255_2_778
10
32.7181725
20
71.4910944
40
0.6962255
50
71.24033
51
76.0463024
0
LINE
8
DEFAULT_255_2_778
10
32.5137587
20
72.952275
11
32.5137587
21
71.447375
0
LINE
8
DEFAULT_255_2_778
10
32.5137587
20
71.447375
11
32.9106587
21
71.447375
0
LINE
8
DEFAULT_255_2_778
10
32.9190587
20
72.952275
11
32.5137587
21
72.952275
0
LINE
8
DEFAULT_255_2_778
10
32.5880587
20
72.877975
11
32.5880587
21
72.241375
0
LINE
8
DEFAULT_255_2_778
10
32.5880587
20
72.241375
11
32.8775587
21
72.241375
0
LINE
8
DEFAULT_255_2_778
10
32.8857587
20
72.877975
11
32.5880587
21
72.877975
0
LINE
8
DEFAULT_255_2_778
10
32.5883587
20
72.166775
11
32.5883587
21
71.530175
0
LINE
8
DEFAULT_255_2_778
10
32.5883587
20
71.530175
11
32.8778587
21
71.530175
0
LINE
8
DEFAULT_255_2_778
10
32.8860587
20
72.166775
11
32.5883587
21
72.166775
0
ARC
8
DEFAULT_255_2_778
10
37.947545
20
72.5552838
40
0.3144749
50
273.3224062
51
322.7507767
0
ARC
8
DEFAULT_255_2_778
10
37.9472512
20
72.5557237
40
0.314975
50
322.7194408
51
0.0035693
0
ARC
8
DEFAULT_255_2_778
10
37.9476848
20
72.5557485
40
0.3145412
50
359.9990437
51
4.0343159
0
ARC
8
DEFAULT_255_2_778
10
37.9475613
20
72.5557386
40
0.3146652
50
4.0345378
51
12.0700528
0
ARC
8
DEFAULT_255_2_778
10
37.942057
20
72.5584313
40
0.3195073
50
11.3914331
51
90.1590215
0
ARC
8
DEFAULT_255_2_778
10
37.9338083
20
72.5705015
40
0.4106877
50
280.3042568
51
336.8012538
0
ARC
8
DEFAULT_255_2_778
10
37.9372194
20
72.5800223
40
0.4114268
50
335.3953207
51
359.7639153
0
ARC
8
DEFAULT_255_2_778
10
37.960016
20
72.5783617
40
0.3886268
50
359.9948803
51
6.3341271
0
ARC
8
DEFAULT_255_2_778
10
37.9527723
20
72.5531758
40
0.3993407
50
9.8131139
51
86.9140748
0
LINE
8
DEFAULT_255_2_778
10
37.6680702
20
72.8779375
11
37.6680702
21
72.2413375
0
LINE
8
DEFAULT_255_2_778
10
37.6680702
20
72.2413375
11
37.9657702
21
72.2413375
0
LINE
8
DEFAULT_255_2_778
10
37.9411702
20
72.8779375
11
37.6680702
21
72.8779375
0
LINE
8
DEFAULT_255_2_778
10
37.5937702
20
72.9522375
11
37.5937702
21
71.4888375
0
LINE
8
DEFAULT_255_2_778
10
37.5937702
20
71.4888375
11
37.6680702
21
71.4888375
0
LINE
8
DEFAULT_255_2_778
10
37.6680702
20
71.4888375
11
37.6680702
21
72.1667375
0
LINE
8
DEFAULT_255_2_778
10
37.6680702
20
72.1667375
11
37.9162702
21
72.1667375
0
LINE
8
DEFAULT_255_2_778
10
37.9162702
20
72.1667375
11
37.9493702
21
72.1336375
0
LINE
8
DEFAULT_255_2_778
10
37.9493702
20
72.1336375
11
38.2718702
21
71.4885375
0
LINE
8
DEFAULT_255_2_778
10
38.2718702
20
71.4885375
11
38.3462702
21
71.4885375
0
LINE
8
DEFAULT_255_2_778
10
38.3462702
20
71.4885375
11
38.0072702
21
72.1664375
0
LINE
8
DEFAULT_255_2_778
10
37.9742702
20
72.9519375
11
37.5937702
21
72.9522375
0
LINE
8
DEFAULT_255_2_778
10
44.6237146
20
72.1637635
11
44.3237146
21
72.1637635
0
LINE
8
DEFAULT_255_2_778
10
44.3237146
20
72.1637635
11
44.3258146
21
72.4643635
0
LINE
8
DEFAULT_255_2_778
10
44.3258146
20
72.4643635
11
44.2522146
21
72.4635635
0
LINE
8
DEFAULT_255_2_778
10
44.2522146
20
72.4635635
11
44.2522146
21
72.1635635
0
LINE
8
DEFAULT_255_2_778
10
44.2522146
20
72.1635635
11
43.9522146
21
72.1635635
0
LINE
8
DEFAULT_255_2_778
10
43.9522146
20
72.1635635
11
43.9538146
21
72.0838635
0
LINE
8
DEFAULT_255_2_778
10
43.9538146
20
72.0838635
11
44.2488146
21
72.0886635
0
LINE
8
DEFAULT_255_2_778
10
44.2488146
20
72.0886635
11
44.2514146
21
71.7862635
0
LINE
8
DEFAULT_255_2_778
10
44.2514146
20
71.7862635
11
44.3258146
21
71.7862635
0
LINE
8
DEFAULT_255_2_778
10
44.3258146
20
71.7862635
11
44.3237146
21
72.0886635
0
LINE
8
DEFAULT_255_2_778
10
44.3237146
20
72.0886635
11
44.6237146
21
72.0886635
0
LINE
8
DEFAULT_255_2_778
10
44.6237146
20
72.0886635
11
44.6248146
21
72.1590635
0
LINE
8
DEFAULT_255_2_778
10
59.8507438
20
72.1637635
11
59.5507438
21
72.1637635
0
LINE
8
DEFAULT_255_2_778
10
59.5507438
20
72.1637635
11
59.5528438
21
72.4643635
0
LINE
8
DEFAULT_255_2_778
10
59.5528438
20
72.4643635
11
59.4792438
21
72.4635635
0
LINE
8
DEFAULT_255_2_778
10
59.4792438
20
72.4635635
11
59.4792438
21
72.1635635
0
LINE
8
DEFAULT_255_2_778
10
59.4792438
20
72.1635635
11
59.1792438
21
72.1635635
0
LINE
8
DEFAULT_255_2_778
10
59.1792438
20
72.1635635
11
59.1808438
21
72.0838635
0
LINE
8
DEFAULT_255_2_778
10
59.1808438
20
72.0838635
11
59.4758438
21
72.0886635
0
LINE
8
DEFAULT_255_2_778
10
59.4758438
20
72.0886635
11
59.4784438
21
71.7862635
0
LINE
8
DEFAULT_255_2_778
10
59.4784438
20
71.7862635
11
59.5528438
21
71.7862635
0
LINE
8
DEFAULT_255_2_778
10
59.5528438
20
71.7862635
11
59.5507438
21
72.0886635
0
LINE
8
DEFAULT_255_2_778
10
59.5507438
20
72.0886635
11
59.8507438
21
72.0886635
0
LINE
8
DEFAULT_255_2_778
10
59.8507438
20
72.0886635
11
59.8504438
21
72.1666635
0
ARC
8
DEFAULT_255_2_778
10
63.284989
20
71.998763
40
0.4822798
50
278.654749
51
295.2346676
0
ARC
8
DEFAULT_255_2_778
10
63.3605025
20
71.8391653
40
0.3057193
50
295.1847459
51
323.3097105
0
ARC
8
DEFAULT_255_2_778
10
63.3460986
20
71.8452209
40
0.3209096
50
323.979311
51
340.6018379
0
ARC
8
DEFAULT_255_2_778
10
63.1819554
20
71.9006912
40
0.4941631
50
340.8564039
51
352.4748543
0
ARC
8
DEFAULT_255_2_778
10
63.3313706
20
72.5352864
40
0.3434121
50
7.4771628
51
85.575614
0
ARC
8
DEFAULT_255_2_778
10
63.3712317
20
71.814505
40
0.3676438
50
273.0296222
51
296.8326353
0
ARC
8
DEFAULT_255_2_778
10
63.3642726
20
71.8127223
40
0.3692609
50
297.9210942
51
329.3921793
0
ARC
8
DEFAULT_255_2_778
10
63.2918352
20
71.8636892
40
0.4576095
50
328.5177424
51
331.1329721
0
ARC
8
DEFAULT_255_2_778
10
63.2516327
20
71.8846316
40
0.5029283
50
331.25473
51
342.7485136
0
ARC
8
DEFAULT_255_2_778
10
63.2973391
20
71.8722593
40
0.4556123
50
342.5297825
51
350.170033
0
ARC
8
DEFAULT_255_2_778
10
63.3252132
20
72.5299868
40
0.4292273
50
11.202375
51
64.4743092
0
ARC
8
DEFAULT_255_2_778
10
63.354405
20
72.6151838
40
0.3399252
50
62.7260878
51
78.6880903
0
ARC
8
DEFAULT_255_2_778
10
63.3812353
20
72.7399855
40
0.2122931
50
79.1817738
51
89.6687768
0
LINE
8
DEFAULT_255_2_778
10
63.0680625
20
72.877975
11
63.0680625
21
71.521975
0
LINE
8
DEFAULT_255_2_778
10
63.0680625
20
71.521975
11
63.3575625
21
71.521975
0
LINE
8
DEFAULT_255_2_778
10
63.6718625
20
71.835975
11
63.6718625
21
72.579975
0
LINE
8
DEFAULT_255_2_778
10
63.3578625
20
72.877675
11
63.0680625
21
72.877975
0
LINE
8
DEFAULT_255_2_778
10
62.9937625
20
72.952275
11
62.9937625
21
71.447375
0
LINE
8
DEFAULT_255_2_778
10
62.9937625
20
71.447375
11
63.3906625
21
71.447375
0
LINE
8
DEFAULT_255_2_778
10
63.7462625
20
71.794475
11
63.7462625
21
72.613375
0
LINE
8
DEFAULT_255_2_778
10
63.3824625
20
72.952275
11
62.9937625
21
72.952275
0
ARC
8
DEFAULT_255_2_778
10
58.229789
20
71.998763
40
0.4822798
50
278.654749
51
295.2346676
0
ARC
8
DEFAULT_255_2_778
10
58.3053025
20
71.8391653
40
0.3057193
50
295.1847459
51
323.3097105
0
ARC
8
DEFAULT_255_2_778
10
58.2908986
20
71.8452209
40
0.3209096
50
323.979311
51
340.6018379
0
ARC
8
DEFAULT_255_2_778
10
58.1267554
20
71.9006912
40
0.4941631
50
340.8564039
51
352.4748543
0
ARC
8
DEFAULT_255_2_778
10
58.2761706
20
72.5352864
40
0.3434121
50
7.4771628
51
85.575614
0
ARC
8
DEFAULT_255_2_778
10
58.3160317
20
71.814505
40
0.3676438
50
273.0296222
51
296.8326353
0
ARC
8
DEFAULT_255_2_778
10
58.3090726
20
71.8127223
40
0.3692609
50
297.9210942
51
329.3921793
0
ARC
8
DEFAULT_255_2_778
10
58.2366352
20
71.8636892
40
0.4576095
50
328.5177424
51
331.1329721
0
ARC
8
DEFAULT_255_2_778
10
58.1964327
20
71.8846316
40
0.5029283
50
331.25473
51
342.7485136
0
ARC
8
DEFAULT_255_2_778
10
58.2421391
20
71.8722593
40
0.4556123
50
342.5297825
51
350.170033
0
ARC
8
DEFAULT_255_2_778
10
58.2700132
20
72.5299868
40
0.4292273
50
11.202375
51
64.4743092
0
ARC
8
DEFAULT_255_2_778
10
58.299205
20
72.6151838
40
0.3399252
50
62.7260878
51
78.6880903
0
ARC
8
DEFAULT_255_2_778
10
58.3260353
20
72.7399855
40
0.2122931
50
79.1817738
51
89.6687768
0
LINE
8
DEFAULT_255_2_778
10
58.0128625
20
72.877975
11
58.0128625
21
71.521975
0
LINE
8
DEFAULT_255_2_778
10
58.0128625
20
71.521975
11
58.3023625
21
71.521975
0
LINE
8
DEFAULT_255_2_778
10
58.6166625
20
71.835975
11
58.6166625
21
72.579975
0
LINE
8
DEFAULT_255_2_778
10
58.3026625
20
72.877675
11
58.0128625
21
72.877975
0
LINE
8
DEFAULT_255_2_778
10
57.9385625
20
72.952275
11
57.9385625
21
71.447375
0
LINE
8
DEFAULT_255_2_778
10
57.9385625
20
71.447375
11
58.3354625
21
71.447375
0
LINE
8
DEFAULT_255_2_778
10
58.6910625
20
71.794475
11
58.6910625
21
72.613375
0
LINE
8
DEFAULT_255_2_778
10
58.3272625
20
72.952275
11
57.9385625
21
72.952275
0
LINE
8
DEFAULT_255_2_778
10
12.5564729
20
72.8772083
11
12.8189729
21
71.9397083
0
LINE
8
DEFAULT_255_2_778
10
12.8189729
20
71.9397083
11
12.2939729
21
71.9397083
0
LINE
8
DEFAULT_255_2_778
10
12.2939729
20
71.9397083
11
12.5564729
21
72.8772083
0
LINE
8
DEFAULT_255_2_778
10
12.9681729
20
71.4897083
11
13.0438729
21
71.4897083
0
LINE
8
DEFAULT_255_2_778
10
13.0438729
20
71.4897083
11
12.5937729
21
72.9523083
0
LINE
8
DEFAULT_255_2_778
10
12.5937729
20
72.9523083
11
12.5186729
21
72.9523083
0
LINE
8
DEFAULT_255_2_778
10
12.5186729
20
72.9523083
11
12.0685729
21
71.4897083
0
LINE
8
DEFAULT_255_2_778
10
12.0685729
20
71.4897083
11
12.1410729
21
71.4897083
0
LINE
8
DEFAULT_255_2_778
10
12.1410729
20
71.4897083
11
12.2561729
21
71.8646083
0
LINE
8
DEFAULT_255_2_778
10
12.2561729
20
71.8646083
11
12.8562729
21
71.8646083
0
LINE
8
DEFAULT_255_2_778
10
12.8562729
20
71.8646083
11
12.9681729
21
71.4897083
0
LINE
8
DEFAULT_255_2_778
10
17.6110729
20
72.8772083
11
17.8735729
21
71.9397083
0
LINE
8
DEFAULT_255_2_778
10
17.8735729
20
71.9397083
11
17.3485729
21
71.9397083
0
LINE
8
DEFAULT_255_2_778
10
17.3485729
20
71.9397083
11
17.6110729
21
72.8772083
0
LINE
8
DEFAULT_255_2_778
10
18.0227729
20
71.4897083
11
18.0984729
21
71.4897083
0
LINE
8
DEFAULT_255_2_778
10
18.0984729
20
71.4897083
11
17.6483729
21
72.9523083
0
LINE
8
DEFAULT_255_2_778
10
17.6483729
20
72.9523083
11
17.5732729
21
72.9523083
0
LINE
8
DEFAULT_255_2_778
10
17.5732729
20
72.9523083
11
17.1231729
21
71.4897083
0
LINE
8
DEFAULT_255_2_778
10
17.1231729
20
71.4897083
11
17.1956729
21
71.4897083
0
LINE
8
DEFAULT_255_2_778
10
17.1956729
20
71.4897083
11
17.3107729
21
71.8646083
0
LINE
8
DEFAULT_255_2_778
10
17.3107729
20
71.8646083
11
17.9108729
21
71.8646083
0
LINE
8
DEFAULT_255_2_778
10
17.9108729
20
71.8646083
11
18.0227729
21
71.4897083
0
ARC
8
DEFAULT_255_2_778
10
43.0402123
20
72.5365513
40
0.4201049
50
4.1302711
51
35.3675274
0
ARC
8
DEFAULT_255_2_778
10
43.0487784
20
72.5431222
40
0.4093163
50
35.311528
51
89.2302877
0
ARC
8
DEFAULT_255_2_778
10
43.0542772
20
72.5800215
40
0.37238
50
90.0000293
51
90.5570529
0
ARC
8
DEFAULT_255_2_778
10
43.0528783
20
72.6000124
40
0.3523784
50
90.3612124
51
129.4299644
0
ARC
8
DEFAULT_255_2_778
10
43.0977891
20
72.547841
40
0.4212028
50
129.6412618
51
149.6793466
0
ARC
8
DEFAULT_255_2_778
10
43.2337878
20
72.4667792
40
0.5795235
50
149.5492167
51
162.9283248
0
ARC
8
DEFAULT_255_2_778
10
43.3558628
20
72.4245394
40
0.7086345
50
162.5611381
51
164.2821209
0
ARC
8
DEFAULT_255_2_778
10
43.0465905
20
71.8296525
40
0.3749979
50
186.1145365
51
214.8738032
0
ARC
8
DEFAULT_255_2_778
10
43.0658459
20
71.854983
40
0.4053962
50
216.2550164
51
270.1640038
0
ARC
8
DEFAULT_255_2_778
10
43.0705705
20
71.8730276
40
0.4234542
50
269.5177391
51
269.9967591
0
ARC
8
DEFAULT_255_2_778
10
43.0770231
20
71.8250083
40
0.3754906
50
269.0116903
51
322.1220283
0
ARC
8
DEFAULT_255_2_778
10
43.0410475
20
71.8445962
40
0.4159663
50
323.034912
51
344.801361
0
ARC
8
DEFAULT_255_2_778
10
42.9203861
20
71.881065
40
0.5419798
50
344.4250182
51
353.8295165
0
ARC
8
DEFAULT_255_2_778
10
42.928264
20
71.930382
40
0.4691611
50
326.5294623
51
346.7448627
0
ARC
8
DEFAULT_255_2_778
10
43.0260916
20
71.8638976
40
0.3508929
50
297.3781584
51
326.7754617
0
ARC
8
DEFAULT_255_2_778
10
43.0599831
20
71.8020984
40
0.2804352
50
270.2969065
51
297.0356794
0
ARC
8
DEFAULT_255_2_778
10
43.0612732
20
71.6992522
40
0.1775853
50
269.8420316
51
270.052613
0
ARC
8
DEFAULT_255_2_778
10
43.0631379
20
71.7938331
40
0.2721756
50
229.1369714
51
269.504388
0
ARC
8
DEFAULT_255_2_778
10
43.1299515
20
71.8733117
40
0.3759991
50
208.7418868
51
229.3609071
0
ARC
8
DEFAULT_255_2_778
10
43.2853899
20
71.9610582
40
0.5544852
50
195.4305699
51
208.9682768
0
ARC
8
DEFAULT_255_2_778
10
43.4070989
20
71.9998964
40
0.6821596
50
195.0462088
51
195.8551509
0
ARC
8
DEFAULT_255_2_778
10
43.1800984
20
72.5004965
40
0.4368349
50
152.4771488
51
171.2686064
0
ARC
8
DEFAULT_255_2_778
10
43.0793967
20
72.5538205
40
0.3228897
50
122.5999079
51
152.611047
0
ARC
8
DEFAULT_255_2_778
10
43.0604105
20
72.5796588
40
0.2909003
50
89.9870976
51
122.1914045
0
ARC
8
DEFAULT_255_2_778
10
43.0604818
20
72.5778583
40
0.2927009
50
88.3634093
51
90.001127
0
ARC
8
DEFAULT_255_2_778
10
43.0581341
20
72.5641517
40
0.306475
50
44.9159542
51
87.9978676
0
ARC
8
DEFAULT_255_2_778
10
43.0079634
20
72.5132926
40
0.3779134
50
21.3442906
51
45.0056504
0
ARC
8
DEFAULT_255_2_778
10
42.910316
20
72.4715053
40
0.4840843
50
11.3542512
51
21.7443788
0
LINE
8
DEFAULT_255_2_778
10
42.6737261
20
72.6165091
11
42.6737261
21
71.7897091
0
LINE
8
DEFAULT_255_2_778
10
43.4592261
20
71.8228091
11
43.3849261
21
71.8228091
0
LINE
8
DEFAULT_255_2_778
10
42.7483261
20
71.8228091
11
42.7483261
21
72.5668091
0
LINE
8
DEFAULT_255_2_778
10
43.3849261
20
72.5668091
11
43.4592261
21
72.5668091
0
LINE
8
DEFAULT_255_2_778
10
43.4592261
20
72.5668091
11
43.4592261
21
72.5668091
0
ARC
8
DEFAULT_255_2_778
10
43.0402123
20
72.5365513
40
0.4201049
50
4.1302711
51
35.3675274
0
ARC
8
DEFAULT_255_2_778
10
43.0487784
20
72.5431222
40
0.4093163
50
35.311528
51
89.2302877
0
ARC
8
DEFAULT_255_2_778
10
43.0542772
20
72.5800215
40
0.37238
50
90.0000293
51
90.5570529
0
ARC
8
DEFAULT_255_2_778
10
43.0528783
20
72.6000124
40
0.3523784
50
90.3612124
51
129.4299644
0
ARC
8
DEFAULT_255_2_778
10
43.0977891
20
72.547841
40
0.4212028
50
129.6412618
51
149.6793466
0
ARC
8
DEFAULT_255_2_778
10
43.2337878
20
72.4667792
40
0.5795235
50
149.5492167
51
162.9283248
0
ARC
8
DEFAULT_255_2_778
10
43.3558628
20
72.4245394
40
0.7086345
50
162.5611381
51
164.2821209
0
ARC
8
DEFAULT_255_2_778
10
43.0465905
20
71.8296525
40
0.3749979
50
186.1145365
51
214.8738032
0
ARC
8
DEFAULT_255_2_778
10
43.0658459
20
71.854983
40
0.4053962
50
216.2550164
51
270.1640038
0
ARC
8
DEFAULT_255_2_778
10
43.0705705
20
71.8730276
40
0.4234542
50
269.5177391
51
269.9967591
0
ARC
8
DEFAULT_255_2_778
10
43.0770231
20
71.8250083
40
0.3754906
50
269.0116903
51
322.1220283
0
ARC
8
DEFAULT_255_2_778
10
43.0410475
20
71.8445962
40
0.4159663
50
323.034912
51
344.801361
0
ARC
8
DEFAULT_255_2_778
10
42.9203861
20
71.881065
40
0.5419798
50
344.4250182
51
353.8295165
0
ARC
8
DEFAULT_255_2_778
10
42.928264
20
71.930382
40
0.4691611
50
326.5294623
51
346.7448627
0
ARC
8
DEFAULT_255_2_778
10
43.0260916
20
71.8638976
40
0.3508929
50
297.3781584
51
326.7754617
0
ARC
8
DEFAULT_255_2_778
10
43.0599831
20
71.8020984
40
0.2804352
50
270.2969065
51
297.0356794
0
ARC
8
DEFAULT_255_2_778
10
43.0612732
20
71.6992522
40
0.1775853
50
269.8420316
51
270.052613
0
ARC
8
DEFAULT_255_2_778
10
43.0631379
20
71.7938331
40
0.2721756
50
229.1369714
51
269.504388
0
ARC
8
DEFAULT_255_2_778
10
43.1299515
20
71.8733117
40
0.3759991
50
208.7418868
51
229.3609071
0
ARC
8
DEFAULT_255_2_778
10
43.2853899
20
71.9610582
40
0.5544852
50
195.4305699
51
208.9682768
0
ARC
8
DEFAULT_255_2_778
10
43.4070989
20
71.9998964
40
0.6821596
50
195.0462088
51
195.8551509
0
ARC
8
DEFAULT_255_2_778
10
43.1800984
20
72.5004965
40
0.4368349
50
152.4771488
51
171.2686064
0
ARC
8
DEFAULT_255_2_778
10
43.0793967
20
72.5538205
40
0.3228897
50
122.5999079
51
152.611047
0
ARC
8
DEFAULT_255_2_778
10
43.0604105
20
72.5796588
40
0.2909003
50
89.9870976
51
122.1914045
0
ARC
8
DEFAULT_255_2_778
10
43.0604818
20
72.5778583
40
0.2927009
50
88.3634093
51
90.001127
0
ARC
8
DEFAULT_255_2_778
10
43.0581341
20
72.5641517
40
0.306475
50
44.9159542
51
87.9978676
0
ARC
8
DEFAULT_255_2_778
10
43.0079634
20
72.5132926
40
0.3779134
50
21.3442906
51
45.0056504
0
ARC
8
DEFAULT_255_2_778
10
42.910316
20
72.4715053
40
0.4840843
50
11.3542512
51
21.7443788
0
LINE
8
DEFAULT_255_2_778
10
42.6737261
20
72.6165091
11
42.6737261
21
71.7897091
0
LINE
8
DEFAULT_255_2_778
10
43.4592261
20
71.8228091
11
43.3849261
21
71.8228091
0
LINE
8
DEFAULT_255_2_778
10
42.7483261
20
71.8228091
11
42.7483261
21
72.5668091
0
LINE
8
DEFAULT_255_2_778
10
43.3849261
20
72.5668091
11
43.4592261
21
72.5668091
0
LINE
8
DEFAULT_255_2_778
10
43.4592261
20
72.5668091
11
43.4592261
21
72.5668091
0
ARC
8
DEFAULT_255_2_778
10
53.212345
20
72.5552838
40
0.3144749
50
273.3224062
51
322.7507767
0
ARC
8
DEFAULT_255_2_778
10
53.2120512
20
72.5557237
40
0.314975
50
322.7194408
51
0.0035693
0
ARC
8
DEFAULT_255_2_778
10
53.2124848
20
72.5557485
40
0.3145412
50
359.9990437
51
4.0343159
0
ARC
8
DEFAULT_255_2_778
10
53.2123613
20
72.5557386
40
0.3146652
50
4.0345378
51
12.0700528
0
ARC
8
DEFAULT_255_2_778
10
53.206857
20
72.5584313
40
0.3195073
50
11.3914331
51
90.1590215
0
ARC
8
DEFAULT_255_2_778
10
53.1986083
20
72.5705015
40
0.4106877
50
280.3042568
51
336.8012538
0
ARC
8
DEFAULT_255_2_778
10
53.2020194
20
72.5800223
40
0.4114268
50
335.3953207
51
359.7639153
0
ARC
8
DEFAULT_255_2_778
10
53.224816
20
72.5783617
40
0.3886268
50
359.9948803
51
6.3341271
0
ARC
8
DEFAULT_255_2_778
10
53.2175723
20
72.5531758
40
0.3993407
50
9.8131139
51
86.9140748
0
LINE
8
DEFAULT_255_2_778
10
52.9328702
20
72.8779375
11
52.9328702
21
72.2413375
0
LINE
8
DEFAULT_255_2_778
10
52.9328702
20
72.2413375
11
53.2305702
21
72.2413375
0
LINE
8
DEFAULT_255_2_778
10
53.2059702
20
72.8779375
11
52.9328702
21
72.8779375
0
LINE
8
DEFAULT_255_2_778
10
52.8585702
20
72.9522375
11
52.8585702
21
71.4888375
0
LINE
8
DEFAULT_255_2_778
10
52.8585702
20
71.4888375
11
52.9328702
21
71.4888375
0
LINE
8
DEFAULT_255_2_778
10
52.9328702
20
71.4888375
11
52.9328702
21
72.1667375
0
LINE
8
DEFAULT_255_2_778
10
52.9328702
20
72.1667375
11
53.1810702
21
72.1667375
0
LINE
8
DEFAULT_255_2_778
10
53.1810702
20
72.1667375
11
53.2141702
21
72.1336375
0
LINE
8
DEFAULT_255_2_778
10
53.2141702
20
72.1336375
11
53.5366702
21
71.4885375
0
LINE
8
DEFAULT_255_2_778
10
53.5366702
20
71.4885375
11
53.6110702
21
71.4885375
0
LINE
8
DEFAULT_255_2_778
10
53.6110702
20
71.4885375
11
53.2720702
21
72.1664375
0
LINE
8
DEFAULT_255_2_778
10
53.2390702
20
72.9519375
11
52.8585702
21
72.9522375
0
ARC
8
DEFAULT_255_2_778
10
48.0951123
20
72.5365513
40
0.4201049
50
4.1302711
51
35.3675274
0
ARC
8
DEFAULT_255_2_778
10
48.1036784
20
72.5431222
40
0.4093163
50
35.311528
51
89.2302877
0
ARC
8
DEFAULT_255_2_778
10
48.1091772
20
72.5800215
40
0.37238
50
90.0000293
51
90.5570529
0
ARC
8
DEFAULT_255_2_778
10
48.1077783
20
72.6000124
40
0.3523784
50
90.3612124
51
129.4299644
0
ARC
8
DEFAULT_255_2_778
10
48.1526891
20
72.547841
40
0.4212028
50
129.6412618
51
149.6793466
0
ARC
8
DEFAULT_255_2_778
10
48.2886878
20
72.4667792
40
0.5795235
50
149.5492167
51
162.9283248
0
ARC
8
DEFAULT_255_2_778
10
48.4107628
20
72.4245394
40
0.7086345
50
162.5611381
51
164.2821209
0
ARC
8
DEFAULT_255_2_778
10
48.1014905
20
71.8296525
40
0.3749979
50
186.1145365
51
214.8738032
0
ARC
8
DEFAULT_255_2_778
10
48.1207459
20
71.854983
40
0.4053962
50
216.2550164
51
270.1640038
0
ARC
8
DEFAULT_255_2_778
10
48.1254705
20
71.8730276
40
0.4234542
50
269.5177391
51
269.9967591
0
ARC
8
DEFAULT_255_2_778
10
48.1319231
20
71.8250083
40
0.3754906
50
269.0116903
51
322.1220283
0
ARC
8
DEFAULT_255_2_778
10
48.0959475
20
71.8445962
40
0.4159663
50
323.034912
51
344.801361
0
ARC
8
DEFAULT_255_2_778
10
47.9752861
20
71.881065
40
0.5419798
50
344.4250182
51
353.8295165
0
ARC
8
DEFAULT_255_2_778
10
47.983164
20
71.930382
40
0.4691611
50
326.5294623
51
346.7448627
0
ARC
8
DEFAULT_255_2_778
10
48.0809916
20
71.8638976
40
0.3508929
50
297.3781584
51
326.7754617
0
ARC
8
DEFAULT_255_2_778
10
48.1148831
20
71.8020984
40
0.2804352
50
270.2969065
51
297.0356794
0
ARC
8
DEFAULT_255_2_778
10
48.1161732
20
71.6992522
40
0.1775853
50
269.8420316
51
270.052613
0
ARC
8
DEFAULT_255_2_778
10
48.1180379
20
71.7938331
40
0.2721756
50
229.1369714
51
269.504388
0
ARC
8
DEFAULT_255_2_778
10
48.1848515
20
71.8733117
40
0.3759991
50
208.7418868
51
229.3609071
0
ARC
8
DEFAULT_255_2_778
10
48.3402899
20
71.9610582
40
0.5544852
50
195.4305699
51
208.9682768
0
ARC
8
DEFAULT_255_2_778
10
48.4619989
20
71.9998964
40
0.6821596
50
195.0462088
51
195.8551509
0
ARC
8
DEFAULT_255_2_778
10
48.2349984
20
72.5004965
40
0.4368349
50
152.4771488
51
171.2686064
0
ARC
8
DEFAULT_255_2_778
10
48.1342967
20
72.5538205
40
0.3228897
50
122.5999079
51
152.611047
0
ARC
8
DEFAULT_255_2_778
10
48.1153105
20
72.5796588
40
0.2909003
50
89.9870976
51
122.1914045
0
ARC
8
DEFAULT_255_2_778
10
48.1153818
20
72.5778583
40
0.2927009
50
88.3634093
51
90.001127
0
ARC
8
DEFAULT_255_2_778
10
48.1130341
20
72.5641517
40
0.306475
50
44.9159542
51
87.9978676
0
ARC
8
DEFAULT_255_2_778
10
48.0628634
20
72.5132926
40
0.3779134
50
21.3442906
51
45.0056504
0
ARC
8
DEFAULT_255_2_778
10
47.965216
20
72.4715053
40
0.4840843
50
11.3542512
51
21.7443788
0
LINE
8
DEFAULT_255_2_778
10
47.7286261
20
72.6165091
11
47.7286261
21
71.7897091
0
LINE
8
DEFAULT_255_2_778
10
48.5141261
20
71.8228091
11
48.4398261
21
71.8228091
0
LINE
8
DEFAULT_255_2_778
10
47.8032261
20
71.8228091
11
47.8032261
21
72.5668091
0
LINE
8
DEFAULT_255_2_778
10
48.4398261
20
72.5668091
11
48.5141261
21
72.5668091
0
LINE
8
DEFAULT_255_2_778
10
48.5141261
20
72.5668091
11
48.5141261
21
72.5668091
0
LINE
8
DEFAULT_255_2_778
10
49.7147533
20
72.2093812
11
49.0038533
21
72.2093812
0
LINE
8
DEFAULT_255_2_778
10
49.0038533
20
72.2093812
11
49.0038533
21
72.1350812
0
LINE
8
DEFAULT_255_2_778
10
49.0038533
20
72.1350812
11
49.7155533
21
72.1352812
0
LINE
8
DEFAULT_255_2_778
10
49.7155533
20
72.1352812
11
49.7147533
21
72.2093812
0
LINE
8
DEFAULT_255_2_778
10
64.9423533
20
72.1519812
11
64.2314533
21
72.1519812
0
LINE
8
DEFAULT_255_2_778
10
64.2314533
20
72.1519812
11
64.2314533
21
72.0775812
0
LINE
8
DEFAULT_255_2_778
10
64.2314533
20
72.0775812
11
64.9431533
21
72.0778812
0
LINE
8
DEFAULT_255_2_778
10
64.9431533
20
72.0778812
11
64.9423533
21
72.1519812
0
LINE
8
DEFAULT_255_2_778
10
8.6763729
20
72.8772083
11
8.9388729
21
71.9397083
0
LINE
8
DEFAULT_255_2_778
10
8.9388729
20
71.9397083
11
8.4138729
21
71.9397083
0
LINE
8
DEFAULT_255_2_778
10
8.4138729
20
71.9397083
11
8.6763729
21
72.8772083
0
LINE
8
DEFAULT_255_2_778
10
9.0880729
20
71.4897083
11
9.1637729
21
71.4897083
0
LINE
8
DEFAULT_255_2_778
10
9.1637729
20
71.4897083
11
8.7136729
21
72.9523083
0
LINE
8
DEFAULT_255_2_778
10
8.7136729
20
72.9523083
11
8.6385729
21
72.9523083
0
LINE
8
DEFAULT_255_2_778
10
8.6385729
20
72.9523083
11
8.1884729
21
71.4897083
0
LINE
8
DEFAULT_255_2_778
10
8.1884729
20
71.4897083
11
8.2609729
21
71.4897083
0
LINE
8
DEFAULT_255_2_778
10
8.2609729
20
71.4897083
11
8.3760729
21
71.8646083
0
LINE
8
DEFAULT_255_2_778
10
8.3760729
20
71.8646083
11
8.9761729
21
71.8646083
0
LINE
8
DEFAULT_255_2_778
10
8.9761729
20
71.8646083
11
9.0880729
21
71.4897083
0
LINE
8
DEFAULT_255_2_778
10
14.2060938
20
72.1645635
11
13.9060938
21
72.1645635
0
LINE
8
DEFAULT_255_2_778
10
13.9060938
20
72.1645635
11
13.9081938
21
72.4651635
0
LINE
8
DEFAULT_255_2_778
10
13.9081938
20
72.4651635
11
13.8345938
21
72.4643635
0
LINE
8
DEFAULT_255_2_778
10
13.8345938
20
72.4643635
11
13.8345938
21
72.1643635
0
LINE
8
DEFAULT_255_2_778
10
13.8345938
20
72.1643635
11
13.5345938
21
72.1643635
0
LINE
8
DEFAULT_255_2_778
10
13.5345938
20
72.1643635
11
13.5361938
21
72.0846635
0
LINE
8
DEFAULT_255_2_778
10
13.5361938
20
72.0846635
11
13.8311938
21
72.0894635
0
LINE
8
DEFAULT_255_2_778
10
13.8311938
20
72.0894635
11
13.8337938
21
71.7870635
0
LINE
8
DEFAULT_255_2_778
10
13.8337938
20
71.7870635
11
13.9081938
21
71.7870635
0
LINE
8
DEFAULT_255_2_778
10
13.9081938
20
71.7870635
11
13.9060938
21
72.0894635
0
LINE
8
DEFAULT_255_2_778
10
13.9060938
20
72.0894635
11
14.2060938
21
72.0894635
0
LINE
8
DEFAULT_255_2_778
10
14.2060938
20
72.0894635
11
14.2057938
21
72.1592635
0
LINE
8
DEFAULT_255_2_778
10
19.2987938
20
72.1270635
11
18.5880938
21
72.1262635
0
LINE
8
DEFAULT_255_2_778
10
18.5880938
20
72.1262635
11
18.5880938
21
72.0518635
0
LINE
8
DEFAULT_255_2_778
10
18.5880938
20
72.0518635
11
19.2987938
21
72.0521635
0
LINE
8
DEFAULT_255_2_778
10
19.2987938
20
72.0521635
11
19.2987938
21
72.1270635
0
ARC
8
DEFAULT_255_2_778
10
7.341545
20
72.5560838
40
0.3144749
50
273.3224062
51
322.7507767
0
ARC
8
DEFAULT_255_2_778
10
7.3412512
20
72.5565237
40
0.314975
50
322.7194408
51
0.0035693
0
ARC
8
DEFAULT_255_2_778
10
7.3416848
20
72.5565485
40
0.3145412
50
359.9990437
51
4.0343159
0
ARC
8
DEFAULT_255_2_778
10
7.3415613
20
72.5565386
40
0.3146652
50
4.0345378
51
12.0700528
0
ARC
8
DEFAULT_255_2_778
10
7.336057
20
72.5592313
40
0.3195073
50
11.3914331
51
90.1590215
0
ARC
8
DEFAULT_255_2_778
10
7.3278083
20
72.5713015
40
0.4106877
50
280.3042568
51
336.8012538
0
ARC
8
DEFAULT_255_2_778
10
7.3312194
20
72.5808223
40
0.4114268
50
335.3953207
51
359.7639153
0
ARC
8
DEFAULT_255_2_778
10
7.354016
20
72.5791617
40
0.3886268
50
359.9948803
51
6.3341271
0
ARC
8
DEFAULT_255_2_778
10
7.3467723
20
72.5539758
40
0.3993407
50
9.8131139
51
86.9140748
0
LINE
8
DEFAULT_255_2_778
10
7.0620702
20
72.8787375
11
7.0620702
21
72.2421375
0
LINE
8
DEFAULT_255_2_778
10
7.0620702
20
72.2421375
11
7.3597702
21
72.2421375
0
LINE
8
DEFAULT_255_2_778
10
7.3351702
20
72.8787375
11
7.0620702
21
72.8787375
0
LINE
8
DEFAULT_255_2_778
10
6.9877702
20
72.9530375
11
6.9877702
21
71.4896375
0
LINE
8
DEFAULT_255_2_778
10
6.9877702
20
71.4896375
11
7.0620702
21
71.4896375
0
LINE
8
DEFAULT_255_2_778
10
7.0620702
20
71.4896375
11
7.0620702
21
72.1675375
0
LINE
8
DEFAULT_255_2_778
10
7.0620702
20
72.1675375
11
7.3102702
21
72.1675375
0
LINE
8
DEFAULT_255_2_778
10
7.3102702
20
72.1675375
11
7.3433702
21
72.1344375
0
LINE
8
DEFAULT_255_2_778
10
7.3433702
20
72.1344375
11
7.6658702
21
71.4893375
0
LINE
8
DEFAULT_255_2_778
10
7.6658702
20
71.4893375
11
7.7402702
21
71.4893375
0
LINE
8
DEFAULT_255_2_778
10
7.7402702
20
71.4893375
11
7.4012702
21
72.1672375
0
LINE
8
DEFAULT_255_2_778
10
7.3682702
20
72.9527375
11
6.9877702
21
72.9530375
0
ARC
8
DEFAULT_255_2_778
10
22.732645
20
72.5552838
40
0.3144749
50
273.3224062
51
322.7507767
0
ARC
8
DEFAULT_255_2_778
10
22.7323512
20
72.5557237
40
0.314975
50
322.7194408
51
0.0035693
0
ARC
8
DEFAULT_255_2_778
10
22.7327848
20
72.5557485
40
0.3145412
50
359.9990437
51
4.0343159
0
ARC
8
DEFAULT_255_2_778
10
22.7326613
20
72.5557386
40
0.3146652
50
4.0345378
51
12.0700528
0
ARC
8
DEFAULT_255_2_778
10
22.727157
20
72.5584313
40
0.3195073
50
11.3914331
51
90.1590215
0
ARC
8
DEFAULT_255_2_778
10
22.7189083
20
72.5705015
40
0.4106877
50
280.3042568
51
336.8012538
0
ARC
8
DEFAULT_255_2_778
10
22.7223194
20
72.5800223
40
0.4114268
50
335.3953207
51
359.7639153
0
ARC
8
DEFAULT_255_2_778
10
22.745116
20
72.5783617
40
0.3886268
50
359.9948803
51
6.3341271
0
ARC
8
DEFAULT_255_2_778
10
22.7378723
20
72.5531758
40
0.3993407
50
9.8131139
51
86.9140748
0
LINE
8
DEFAULT_255_2_778
10
22.4531702
20
72.8779375
11
22.4531702
21
72.2413375
0
LINE
8
DEFAULT_255_2_778
10
22.4531702
20
72.2413375
11
22.7508702
21
72.2413375
0
LINE
8
DEFAULT_255_2_778
10
22.7262702
20
72.8779375
11
22.4531702
21
72.8779375
0
LINE
8
DEFAULT_255_2_778
10
22.3788702
20
72.9522375
11
22.3788702
21
71.4888375
0
LINE
8
DEFAULT_255_2_778
10
22.3788702
20
71.4888375
11
22.4531702
21
71.4888375
0
LINE
8
DEFAULT_255_2_778
10
22.4531702
20
71.4888375
11
22.4531702
21
72.1667375
0
LINE
8
DEFAULT_255_2_778
10
22.4531702
20
72.1667375
11
22.7013702
21
72.1667375
0
LINE
8
DEFAULT_255_2_778
10
22.7013702
20
72.1667375
11
22.7344702
21
72.1336375
0
LINE
8
DEFAULT_255_2_778
10
22.7344702
20
72.1336375
11
23.0569702
21
71.4885375
0
LINE
8
DEFAULT_255_2_778
10
23.0569702
20
71.4885375
11
23.1313702
21
71.4885375
0
LINE
8
DEFAULT_255_2_778
10
23.1313702
20
71.4885375
11
22.7923702
21
72.1664375
0
LINE
8
DEFAULT_255_2_778
10
22.7593702
20
72.9519375
11
22.3788702
21
72.9522375
0
ARC
8
DEFAULT_255_2_778
10
23.8419964
20
72.0228012
40
0.5907464
50
283.4157614
51
297.1069473
0
ARC
8
DEFAULT_255_2_778
10
23.9162701
20
71.8793434
40
0.4292041
50
297.0070443
51
317.1692544
0
ARC
8
DEFAULT_255_2_778
10
23.9593742
20
71.836793
40
0.3686706
50
317.4647382
51
353.0071112
0
ARC
8
DEFAULT_255_2_778
10
23.939023
20
71.8406449
40
0.3893417
50
352.8090922
51
356.2949768
0
ARC
8
DEFAULT_255_2_778
10
23.9327392
20
71.8410472
40
0.3956385
50
356.2956515
51
0.0043968
0
ARC
8
DEFAULT_255_2_778
10
23.9370916
20
71.8443818
40
0.3913
50
359.5161631
51
49.1517807
0
ARC
8
DEFAULT_255_2_778
10
24.0073961
20
71.9168793
40
0.2905337
50
50.2885667
51
77.5445246
0
ARC
8
DEFAULT_255_2_778
10
23.852897
20
72.7255564
40
0.5681238
50
292.4727262
51
304.8288365
0
ARC
8
DEFAULT_255_2_778
10
23.9479256
20
72.5903628
40
0.4028758
50
304.7161077
51
322.7509995
0
ARC
8
DEFAULT_255_2_778
10
24.0071681
20
72.5441881
40
0.3277707
50
322.9078586
51
356.1985548
0
ARC
8
DEFAULT_255_2_778
10
23.9885991
20
72.5461986
40
0.346433
50
356.0703872
51
358.9154401
0
ARC
8
DEFAULT_255_2_778
10
23.9832094
20
72.5463201
40
0.3518239
50
358.9122617
51
0.0016441
0
ARC
8
DEFAULT_255_2_778
10
23.9117832
20
72.5374772
40
0.4233428
50
1.1982672
51
77.8950202
0
ARC
8
DEFAULT_255_2_778
10
23.9553875
20
72.6488936
40
0.3058674
50
81.5071657
51
83.9812828
0
ARC
8
DEFAULT_255_2_778
10
23.9576704
20
72.4167513
40
0.1749687
50
266.1619953
51
270.0122503
0
ARC
8
DEFAULT_255_2_778
10
23.9575331
20
72.4276954
40
0.185913
50
270.0538206
51
277.4592311
0
ARC
8
DEFAULT_255_2_778
10
23.9339265
20
72.5201096
40
0.2808416
50
279.7876035
51
315.7347736
0
ARC
8
DEFAULT_255_2_778
10
23.8784696
20
72.5956726
40
0.3736144
50
313.3717949
51
356.8869817
0
ARC
8
DEFAULT_255_2_778
10
23.9688592
20
72.5814081
40
0.2827377
50
358.7789773
51
0.0018057
0
ARC
8
DEFAULT_255_2_778
10
23.9976229
20
72.5835263
40
0.2539829
50
359.5241604
51
39.9706688
0
ARC
8
DEFAULT_255_2_778
10
23.9419192
20
72.5348605
40
0.3279389
50
40.2349142
51
59.2067804
0
ARC
8
DEFAULT_255_2_778
10
23.8522195
20
72.3872051
40
0.5007009
50
59.0393698
51
71.6089215
0
ARC
8
DEFAULT_255_2_778
10
23.7862329
20
72.202812
40
0.6965091
50
71.2436705
51
76.0487479
0
ARC
8
DEFAULT_255_2_778
10
23.9579656
20
71.7054078
40
0.1748252
50
266.1604144
51
270.0123072
0
ARC
8
DEFAULT_255_2_778
10
23.9578235
20
71.7164417
40
0.1858593
50
270.0553855
51
277.4873181
0
ARC
8
DEFAULT_255_2_778
10
23.9341578
20
71.8088971
40
0.2808423
50
279.8170433
51
315.7504317
0
ARC
8
DEFAULT_255_2_778
10
23.8786342
20
71.8844873
40
0.3736775
50
313.3881417
51
356.8852505
0
ARC
8
DEFAULT_255_2_778
10
23.9675163
20
71.8702436
40
0.284308
50
358.7785804
51
359.9980126
0
ARC
8
DEFAULT_255_2_778
10
23.9978353
20
71.872347
40
0.2539978
50
359.5232938
51
39.9640595
0
ARC
8
DEFAULT_255_2_778
10
23.9421941
20
71.8237379
40
0.3278692
50
40.2292682
51
59.201972
0
ARC
8
DEFAULT_255_2_778
10
23.8525276
20
71.6761609
40
0.500547
50
59.034832
51
71.6056359
0
ARC
8
DEFAULT_255_2_778
10
23.7865725
20
71.4918944
40
0.6962255
50
71.24033
51
76.0463024
0
LINE
8
DEFAULT_255_2_778
10
23.5821587
20
72.953075
11
23.5821587
21
71.448175
0
LINE
8
DEFAULT_255_2_778
10
23.5821587
20
71.448175
11
23.9790587
21
71.448175
0
LINE
8
DEFAULT_255_2_778
10
23.9874587
20
72.953075
11
23.5821587
21
72.953075
0
LINE
8
DEFAULT_255_2_778
10
23.6564587
20
72.878775
11
23.6564587
21
72.242175
0
LINE
8
DEFAULT_255_2_778
10
23.6564587
20
72.242175
11
23.9459587
21
72.242175
0
LINE
8
DEFAULT_255_2_778
10
23.9541587
20
72.878775
11
23.6564587
21
72.878775
0
LINE
8
DEFAULT_255_2_778
10
23.6567587
20
72.167575
11
23.6567587
21
71.530975
0
LINE
8
DEFAULT_255_2_778
10
23.6567587
20
71.530975
11
23.9462587
21
71.530975
0
LINE
8
DEFAULT_255_2_778
10
23.9544587
20
72.167575
11
23.6567587
21
72.167575
0
LINE
8
DEFAULT_255_2_778
10
34.4631354
20
72.126274
11
33.7522354
21
72.126274
0
LINE
8
DEFAULT_255_2_778
10
33.7522354
20
72.126274
11
33.7522354
21
72.051974
0
LINE
8
DEFAULT_255_2_778
10
33.7522354
20
72.051974
11
34.4639354
21
72.052174
0
LINE
8
DEFAULT_255_2_778
10
34.4639354
20
72.052174
11
34.4631354
21
72.126274
0
ARC
8
DEFAULT_255_2_778
10
39.1622123
20
72.5426501
40
0.4201049
50
4.1302711
51
35.3675274
0
ARC
8
DEFAULT_255_2_778
10
39.1707784
20
72.5492211
40
0.4093163
50
35.311528
51
89.2302877
0
ARC
8
DEFAULT_255_2_778
10
39.1762772
20
72.5861203
40
0.37238
50
90.0000293
51
90.5570529
0
ARC
8
DEFAULT_255_2_778
10
39.1748783
20
72.6061112
40
0.3523784
50
90.3612124
51
129.4299644
0
ARC
8
DEFAULT_255_2_778
10
39.2197891
20
72.5539398
40
0.4212028
50
129.6412618
51
149.6793466
0
ARC
8
DEFAULT_255_2_778
10
39.3557878
20
72.472878
40
0.5795235
50
149.5492167
51
162.9283248
0
ARC
8
DEFAULT_255_2_778
10
39.4778628
20
72.4306383
40
0.7086345
50
162.5611381
51
164.2821209
0
ARC
8
DEFAULT_255_2_778
10
39.1685905
20
71.8357514
40
0.3749979
50
186.1145365
51
214.8738032
0
ARC
8
DEFAULT_255_2_778
10
39.1878459
20
71.8610818
40
0.4053962
50
216.2550164
51
270.1640038
0
ARC
8
DEFAULT_255_2_778
10
39.1925705
20
71.8791264
40
0.4234542
50
269.5177391
51
269.9967591
0
ARC
8
DEFAULT_255_2_778
10
39.1990231
20
71.8311071
40
0.3754906
50
269.0116903
51
322.1220283
0
ARC
8
DEFAULT_255_2_778
10
39.1630475
20
71.850695
40
0.4159663
50
323.034912
51
344.801361
0
ARC
8
DEFAULT_255_2_778
10
39.0423861
20
71.8871638
40
0.5419798
50
344.4250182
51
353.8295165
0
ARC
8
DEFAULT_255_2_778
10
39.050264
20
71.9364808
40
0.4691611
50
326.5294623
51
346.7448627
0
ARC
8
DEFAULT_255_2_778
10
39.1480916
20
71.8699964
40
0.3508929
50
297.3781584
51
326.7754617
0
ARC
8
DEFAULT_255_2_778
10
39.1819831
20
71.8081972
40
0.2804352
50
270.2969065
51
297.0356794
0
ARC
8
DEFAULT_255_2_778
10
39.1832732
20
71.705351
40
0.1775853
50
269.8420316
51
270.052613
0
ARC
8
DEFAULT_255_2_778
10
39.1851379
20
71.7999319
40
0.2721756
50
229.1369714
51
269.504388
0
ARC
8
DEFAULT_255_2_778
10
39.2519515
20
71.8794105
40
0.3759991
50
208.7418868
51
229.3609071
0
ARC
8
DEFAULT_255_2_778
10
39.4073899
20
71.967157
40
0.5544852
50
195.4305699
51
208.9682768
0
ARC
8
DEFAULT_255_2_778
10
39.5290989
20
72.0059952
40
0.6821596
50
195.0462088
51
195.8551509
0
ARC
8
DEFAULT_255_2_778
10
39.3020984
20
72.5065954
40
0.4368349
50
152.4771488
51
171.2686064
0
ARC
8
DEFAULT_255_2_778
10
39.2013967
20
72.5599193
40
0.3228897
50
122.5999079
51
152.611047
0
ARC
8
DEFAULT_255_2_778
10
39.1824105
20
72.5857576
40
0.2909003
50
89.9870976
51
122.1914045
0
ARC
8
DEFAULT_255_2_778
10
39.1824818
20
72.5839571
40
0.2927009
50
88.3634093
51
90.001127
0
ARC
8
DEFAULT_255_2_778
10
39.1801341
20
72.5702506
40
0.306475
50
44.9159542
51
87.9978676
0
ARC
8
DEFAULT_255_2_778
10
39.1299634
20
72.5193914
40
0.3779134
50
21.3442906
51
45.0056504
0
ARC
8
DEFAULT_255_2_778
10
39.032316
20
72.4776041
40
0.4840843
50
11.3542512
51
21.7443788
0
LINE
8
DEFAULT_255_2_778
10
38.7957261
20
72.6226079
11
38.7957261
21
71.7958079
0
LINE
8
DEFAULT_255_2_778
10
39.5812261
20
71.8289079
11
39.5069261
21
71.8289079
0
LINE
8
DEFAULT_255_2_778
10
38.8703261
20
71.8289079
11
38.8703261
21
72.5729079
0
LINE
8
DEFAULT_255_2_778
10
39.5069261
20
72.5729079
11
39.5812261
21
72.5729079
0
LINE
8
DEFAULT_255_2_778
10
39.5812261
20
72.5729079
11
39.5812261
21
72.5729079
0
ARC
8
DEFAULT_255_2_778
10
54.349989
20
71.999563
40
0.4822798
50
278.654749
51
295.2346676
0
ARC
8
DEFAULT_255_2_778
10
54.4255025
20
71.8399653
40
0.3057193
50
295.1847459
51
323.3097105
0
ARC
8
DEFAULT_255_2_778
10
54.4110986
20
71.8460209
40
0.3209096
50
323.979311
51
340.6018379
0
ARC
8
DEFAULT_255_2_778
10
54.2469554
20
71.9014912
40
0.4941631
50
340.8564039
51
352.4748543
0
ARC
8
DEFAULT_255_2_778
10
54.3963706
20
72.5360864
40
0.3434121
50
7.4771628
51
85.575614
0
ARC
8
DEFAULT_255_2_778
10
54.4362317
20
71.815305
40
0.3676438
50
273.0296222
51
296.8326353
0
ARC
8
DEFAULT_255_2_778
10
54.4292726
20
71.8135223
40
0.3692609
50
297.9210942
51
329.3921793
0
ARC
8
DEFAULT_255_2_778
10
54.3568352
20
71.8644892
40
0.4576095
50
328.5177424
51
331.1329721
0
ARC
8
DEFAULT_255_2_778
10
54.3166327
20
71.8854316
40
0.5029283
50
331.25473
51
342.7485136
0
ARC
8
DEFAULT_255_2_778
10
54.3623391
20
71.8730593
40
0.4556123
50
342.5297825
51
350.170033
0
ARC
8
DEFAULT_255_2_778
10
54.3902132
20
72.5304868
40
0.4292273
50
11.202375
51
64.4743092
0
ARC
8
DEFAULT_255_2_778
10
54.419405
20
72.6156838
40
0.3399252
50
62.7260878
51
78.6880903
0
ARC
8
DEFAULT_255_2_778
10
54.4462353
20
72.7404855
40
0.2122931
50
79.1817738
51
89.6687768
0
LINE
8
DEFAULT_255_2_778
10
54.1330625
20
72.878775
11
54.1330625
21
71.522775
0
LINE
8
DEFAULT_255_2_778
10
54.1330625
20
71.522775
11
54.4225625
21
71.522775
0
LINE
8
DEFAULT_255_2_778
10
54.7368625
20
71.836775
11
54.7368625
21
72.580775
0
LINE
8
DEFAULT_255_2_778
10
54.4228625
20
72.878475
11
54.1330625
21
72.878775
0
LINE
8
DEFAULT_255_2_778
10
54.0587625
20
72.953075
11
54.0587625
21
71.448175
0
LINE
8
DEFAULT_255_2_778
10
54.0587625
20
71.448175
11
54.4556625
21
71.448175
0
LINE
8
DEFAULT_255_2_778
10
54.8112625
20
71.795275
11
54.8112625
21
72.613875
0
LINE
8
DEFAULT_255_2_778
10
54.4474625
20
72.952775
11
54.0587625
21
72.953075
0
ARC
8
DEFAULT_255_2_778
10
64.6245695
20
68.6538421
40
0.4844588
50
325.6923713
51
335.3727384
0
ARC
8
DEFAULT_255_2_778
10
64.7379701
20
68.6022446
40
0.3598723
50
335.3167809
51
348.4759201
0
ARC
8
DEFAULT_255_2_778
10
64.7970368
20
68.5893094
40
0.2994134
50
348.6431918
51
359.9126535
0
ARC
8
DEFAULT_255_2_778
10
64.7925407
20
68.5857389
40
0.303925
50
0.5870765
51
34.8775936
0
ARC
8
DEFAULT_255_2_778
10
64.67909
20
68.5119596
40
0.4392077
50
34.3104709
51
49.9665654
0
ARC
8
DEFAULT_255_2_778
10
64.6454439
20
68.476634
40
0.4879073
50
49.6096784
51
58.6753275
0
ARC
8
DEFAULT_255_2_778
10
64.7246991
20
68.6098859
40
0.3328788
50
58.4045167
51
66.572263
0
ARC
8
DEFAULT_255_2_778
10
64.8140232
20
68.8196501
40
0.1049024
50
65.7856223
51
78.3291635
0
ARC
8
DEFAULT_255_2_778
10
64.7266844
20
68.4722123
40
0.463076
50
76.4419197
51
88.2554313
0
ARC
8
DEFAULT_255_2_778
10
64.7313563
20
68.5495162
40
0.3856727
50
88.5995521
51
89.9972418
0
ARC
8
DEFAULT_255_2_778
10
64.7276508
20
68.6184269
40
0.3167841
50
89.3264205
51
145.2207033
0
ARC
8
DEFAULT_255_2_778
10
64.9605459
20
68.4396598
40
0.6102058
50
143.9075484
51
160.1766576
0
ARC
8
DEFAULT_255_2_778
10
65.2705023
20
68.3141616
40
0.9444429
50
159.3910846
51
163.18428
0
ARC
8
DEFAULT_255_2_778
10
64.7669203
20
68.5496705
40
0.5214422
50
145.0578834
51
175.8524732
0
ARC
8
DEFAULT_255_2_778
10
64.7282029
20
68.5756028
40
0.4748525
50
90.2672676
51
144.9471375
0
ARC
8
DEFAULT_255_2_778
10
64.7259702
20
68.5873839
40
0.4630662
50
81.4417526
51
89.9978158
0
ARC
8
DEFAULT_255_2_778
10
64.7236978
20
68.5756723
40
0.4749857
50
65.2824817
51
81.3809345
0
ARC
8
DEFAULT_255_2_778
10
64.7155275
20
68.5560649
40
0.4962137
50
63.7182518
51
65.3721929
0
ARC
8
DEFAULT_255_2_778
10
64.7497147
20
68.561723
40
0.4768343
50
46.1965694
51
67.1024224
0
ARC
8
DEFAULT_255_2_778
10
64.7753166
20
68.5935441
40
0.4361615
50
11.7287586
51
45.7303944
0
ARC
8
DEFAULT_255_2_778
10
64.7420655
20
68.5838612
40
0.4706946
50
8.0870119
51
12.0600388
0
ARC
8
DEFAULT_255_2_778
10
64.7331706
20
68.5826679
40
0.4796689
50
359.9924827
51
8.0786637
0
ARC
8
DEFAULT_255_2_778
10
64.7605358
20
68.5801109
40
0.4523105
50
336.9176104
51
0.3159339
0
ARC
8
DEFAULT_255_2_778
10
64.8659563
20
68.5367929
40
0.33835
50
322.5992257
51
336.6668967
0
ARC
8
DEFAULT_255_2_778
10
55.7600727
20
64.4770915
40
0.4976765
50
305.5241757
51
313.2139016
0
ARC
8
DEFAULT_255_2_778
10
55.8551326
20
64.3428921
40
0.333222
50
294.7335092
51
305.6290002
0
ARC
8
DEFAULT_255_2_778
10
55.9000978
20
64.2438006
40
0.2244081
50
277.957374
51
294.8916769
0
ARC
8
DEFAULT_255_2_778
10
55.9069839
20
64.2045454
40
0.1845827
50
270.0403576
51
277.5273326
0
ARC
8
DEFAULT_255_2_778
10
55.916495
20
64.2369518
40
0.2171917
50
219.3001125
51
267.5244574
0
ARC
8
DEFAULT_255_2_778
10
56.1779452
20
64.4804383
40
0.5741859
50
204.9926601
51
221.5779683
0
ARC
8
DEFAULT_255_2_778
10
56.8438014
20
64.793162
40
1.3098207
50
192.1519279
51
205.0851864
0
ARC
8
DEFAULT_255_2_778
10
57.2666792
20
64.9034341
40
1.7465369
50
191.7318496
51
192.7681384
0
ARC
8
DEFAULT_255_2_778
10
57.3038219
20
64.9113273
40
1.7845085
50
186.1641783
51
191.7374997
0
ARC
8
DEFAULT_255_2_778
10
57.0387283
20
64.8831619
40
1.5179234
50
182.4949891
51
186.181642
0
ARC
8
DEFAULT_255_2_778
10
56.284989
20
64.8419033
40
0.763149
50
180.1925414
51
181.8637386
0
ARC
8
DEFAULT_255_2_778
10
56.3734479
20
64.8426404
40
0.85161
50
179.9994657
51
180.2221309
0
ARC
8
DEFAULT_255_2_778
10
56.6736658
20
64.8383388
40
1.151836
50
175.1473759
51
179.7856322
0
ARC
8
DEFAULT_255_2_778
10
57.143272
20
64.8004068
40
1.6229687
50
170.4574702
51
175.2154903
0
ARC
8
DEFAULT_255_2_778
10
57.2184737
20
64.789946
40
1.6988654
50
166.7110928
51
170.5300099
0
ARC
8
DEFAULT_255_2_778
10
56.6884585
20
64.9330239
40
1.1502861
50
152.1565495
51
167.5786534
0
ARC
8
DEFAULT_255_2_778
10
56.0632147
20
65.2645791
40
0.4425749
50
129.9838654
51
152.3048349
0
ARC
8
DEFAULT_255_2_778
10
55.9133484
20
65.4414205
40
0.2107781
50
90.6808557
51
129.6581755
0
ARC
8
DEFAULT_255_2_778
10
55.8757665
20
65.4060986
40
0.2485725
50
35.6768633
51
81.8876354
0
ARC
8
DEFAULT_255_2_778
10
55.5377661
20
65.1319962
40
0.6834738
50
21.1709068
51
37.8177369
0
ARC
8
DEFAULT_255_2_778
10
54.9196661
20
64.8751335
40
1.3527211
50
13.4086413
51
21.8612794
0
ARC
8
DEFAULT_255_2_778
10
54.5062373
20
64.769268
40
1.779444
50
7.3736938
51
13.6375017
0
ARC
8
DEFAULT_255_2_778
10
54.7788463
20
64.8022641
40
1.5048565
50
3.3029881
51
7.4598732
0
ARC
8
DEFAULT_255_2_778
10
55.2718624
20
64.8313531
40
1.0109837
50
0.1207454
51
3.2670009
0
ARC
8
DEFAULT_255_2_778
10
55.3573228
20
64.8437074
40
0.9255774
50
357.8357032
51
359.3671111
0
ARC
8
DEFAULT_255_2_778
10
53.3529025
20
64.9104047
40
2.9311006
50
356.9329867
51
358.012559
0
ARC
8
DEFAULT_255_2_778
10
52.6737735
20
64.945085
40
3.6111129
50
355.5554851
51
356.9600465
0
ARC
8
DEFAULT_255_2_778
10
53.2904976
20
64.8918512
40
2.9921227
50
352.1673122
51
355.6566188
0
ARC
8
DEFAULT_255_2_778
10
54.7778945
20
64.6783531
40
1.4895332
50
345.2370209
51
352.505912
0
ARC
8
DEFAULT_255_2_778
10
55.6970693
20
64.435487
40
0.538815
50
334.6584537
51
345.3033416
0
ARC
8
DEFAULT_255_2_778
10
56.0132146
20
64.2844075
40
0.1884314
50
316.7859898
51
335.0315639
0
ARC
8
DEFAULT_255_2_778
10
55.7296297
20
64.6224301
40
0.737313
50
302.6172601
51
308.8210268
0
ARC
8
DEFAULT_255_2_778
10
55.8400075
20
64.4488464
40
0.5316091
50
294.2730133
51
302.6814661
0
ARC
8
DEFAULT_255_2_778
10
55.9014455
20
64.3112877
40
0.3809553
50
282.594161
51
294.3544782
0
ARC
8
DEFAULT_255_2_778
10
55.9206592
20
64.2278298
40
0.2953165
50
270.1735811
51
282.4866992
0
ARC
8
DEFAULT_255_2_778
10
55.932784
20
64.2422818
40
0.3099705
50
217.4002774
51
267.9237429
0
ARC
8
DEFAULT_255_2_778
10
56.2717658
20
64.5425336
40
0.7623274
50
204.2071034
51
219.853679
0
ARC
8
DEFAULT_255_2_778
10
56.9697666
20
64.8629664
40
1.5303535
50
193.3206956
51
204.4336664
0
ARC
8
DEFAULT_255_2_778
10
57.5011767
20
65.0043461
40
2.0800954
50
188.765999
51
193.7376857
0
ARC
8
DEFAULT_255_2_778
10
57.4128917
20
64.9923533
40
1.9910146
50
185.5300478
51
188.812094
0
ARC
8
DEFAULT_255_2_778
10
58.3236214
20
64.7456027
40
2.8929983
50
177.0114323
51
178.9130183
0
ARC
8
DEFAULT_255_2_778
10
57.2145872
20
64.8332699
40
1.7811497
50
163.0511521
51
177.967719
0
ARC
8
DEFAULT_255_2_778
10
56.1843359
20
65.1506529
40
0.7031317
50
138.6734404
51
163.316871
0
ARC
8
DEFAULT_255_2_778
10
55.9540636
20
65.3428085
40
0.4033916
50
97.3519877
51
137.5712499
0
ARC
8
DEFAULT_255_2_778
10
55.8288535
20
65.3154315
40
0.4337406
50
24.2561742
51
80.2317054
0
ARC
8
DEFAULT_255_2_778
10
55.1423529
20
64.940498
40
1.2151372
50
11.5885782
51
27.0773307
0
ARC
8
DEFAULT_255_2_778
10
53.9686468
20
64.6652328
40
2.4204507
50
7.5041246
51
12.3905205
0
ARC
8
DEFAULT_255_2_778
10
52.5180392
20
64.4653184
40
3.8847528
50
5.9243427
51
7.6332724
0
ARC
8
DEFAULT_255_2_778
10
55.3978209
20
64.8745953
40
0.984258
50
356.4537227
51
359.5161573
0
ARC
8
DEFAULT_255_2_778
10
53.732892
20
64.9692105
40
2.651865
50
354.7800142
51
356.6384441
0
ARC
8
DEFAULT_255_2_778
10
52.5773947
20
65.0715592
40
3.8118832
50
352.5819196
51
354.8281571
0
ARC
8
DEFAULT_255_2_778
10
52.8703267
20
65.0318859
40
3.516281
50
351.0034909
51
352.6067072
0
ARC
8
DEFAULT_255_2_778
10
54.1845284
20
64.8116366
40
2.1838386
50
345.7022534
51
351.3191781
0
ARC
8
DEFAULT_255_2_778
10
55.4885987
20
64.4786651
40
0.8379307
50
338.0697617
51
345.7435147
0
ARC
8
DEFAULT_255_2_778
10
56.001476
20
64.2698676
40
0.2841925
50
324.7096093
51
338.5013557
0
ARC
8
DEFAULT_255_2_778
10
66.2585922
20
68.549367
40
0.5197896
50
148.4607838
51
173.9020304
0
ARC
8
DEFAULT_255_2_778
10
66.230614
20
68.560541
40
0.4901261
50
91.1943826
51
147.8632376
0
ARC
8
DEFAULT_255_2_778
10
66.2310511
20
68.5672157
40
0.4834624
50
90.3721139
51
91.2626627
0
ARC
8
DEFAULT_255_2_778
10
66.231079
20
68.5588204
40
0.4918577
50
90.0036554
51
90.3690114
0
ARC
8
DEFAULT_255_2_778
10
66.2340523
20
68.5971241
40
0.453564
50
50.4572597
51
90.3795645
0
ARC
8
DEFAULT_255_2_778
10
66.231839
20
68.5967703
40
0.4552483
50
45.0541628
51
50.2707994
0
ARC
8
DEFAULT_255_2_778
10
66.0144969
20
68.4517369
40
0.7132904
50
36.0209819
51
40.9240606
0
ARC
8
DEFAULT_255_2_778
10
66.064722
20
68.4885227
40
0.6510353
50
32.0422736
51
36.0019855
0
ARC
8
DEFAULT_255_2_778
10
66.1294615
20
68.5273386
40
0.5755665
50
20.1499562
51
32.1860792
0
ARC
8
DEFAULT_255_2_778
10
66.1899652
20
68.5498776
40
0.511002
50
5.2563157
51
20.1143815
0
ARC
8
DEFAULT_255_2_778
10
66.2045724
20
68.5518607
40
0.4962749
50
0.0014354
51
5.1828166
0
ARC
8
DEFAULT_255_2_778
10
66.2011201
20
68.5521603
40
0.4997274
50
337.6841917
51
359.9670795
0
ARC
8
DEFAULT_255_2_778
10
66.2434877
20
68.5320983
40
0.4529217
50
319.5928
51
337.9969047
0
ARC
8
DEFAULT_255_2_778
10
66.3521087
20
68.440055
40
0.3105478
50
306.0586787
51
319.5332469
0
ARC
8
DEFAULT_255_2_778
10
66.4239658
20
68.3408643
40
0.1880647
50
290.8778778
51
306.1484467
0
ARC
8
DEFAULT_255_2_778
10
66.4522352
20
68.2661775
40
0.1082074
50
270.9046887
51
290.9855374
0
ARC
8
DEFAULT_255_2_778
10
66.306241
20
67.8042195
40
0.3833603
50
41.8140362
51
67.3386121
0
ARC
8
DEFAULT_255_2_778
10
66.2490865
20
67.7730385
40
0.4469946
50
0.1565598
51
39.9081391
0
ARC
8
DEFAULT_255_2_778
10
66.1049623
20
67.755337
40
0.59142
50
359.9969535
51
1.8335298
0
ARC
8
DEFAULT_255_2_778
10
66.0753436
20
67.7555646
40
0.6210388
50
338.0076898
51
359.9761001
0
ARC
8
DEFAULT_255_2_778
10
66.2698272
20
67.6736726
40
0.4100516
50
320.1827846
51
338.4411861
0
ARC
8
DEFAULT_255_2_778
10
66.4025038
20
67.5675634
40
0.2402228
50
308.9272937
51
319.3583204
0
ARC
8
DEFAULT_255_2_778
10
66.173334
20
67.8467537
40
0.6014189
50
275.928834
51
309.1994298
0
ARC
8
DEFAULT_255_2_778
10
66.1802779
20
67.7960186
40
0.5502404
50
270.0272905
51
275.7553435
0
ARC
8
DEFAULT_255_2_778
10
66.1653724
20
67.666026
40
0.4205214
50
211.7060633
51
272.0670132
0
ARC
8
DEFAULT_255_2_778
10
66.2470383
20
67.704962
40
0.5105563
50
190.9509922
51
210.606732
0
ARC
8
DEFAULT_255_2_778
10
66.4331534
20
67.7469016
40
0.7012737
50
183.5741793
51
191.4264818
0
ARC
8
DEFAULT_255_2_778
10
66.4260046
20
68.4488264
40
0.6175891
50
151.6778436
51
166.9590569
0
ARC
8
DEFAULT_255_2_778
10
66.271235
20
68.5332008
40
0.4413175
50
129.2077541
51
151.7878247
0
ARC
8
DEFAULT_255_2_778
10
66.2269804
20
68.5847856
40
0.3733754
50
95.255949
51
128.9495576
0
ARC
8
DEFAULT_255_2_778
10
66.227079
20
68.5822276
40
0.3759318
50
89.9975563
51
95.2352123
0
ARC
8
DEFAULT_255_2_778
10
66.228815
20
68.5890838
40
0.3690794
50
45.6005861
51
90.267008
0
ARC
8
DEFAULT_255_2_778
10
66.0509713
20
68.5414864
40
0.5357846
50
6.8907965
51
35.5217465
0
ARC
8
DEFAULT_255_2_778
10
66.014904
20
68.5320836
40
0.5727414
50
0.0283883
51
7.3917611
0
ARC
8
DEFAULT_255_2_778
10
66.1341192
20
68.5241675
40
0.4536002
50
333.4854135
51
1.0358084
0
ARC
8
DEFAULT_255_2_778
10
66.3324028
20
68.4183117
40
0.2289992
50
270.0692881
51
335.0376072
0
ARC
8
DEFAULT_255_2_778
10
66.3327652
20
68.4553859
40
0.2660731
50
266.5910112
51
269.9815905
0
ARC
8
DEFAULT_255_2_778
10
66.4233607
20
67.8570017
40
0.61768
50
193.0542953
51
208.3319672
0
ARC
8
DEFAULT_255_2_778
10
66.2685879
20
67.7725926
40
0.441389
50
208.2221488
51
230.7969984
0
ARC
8
DEFAULT_255_2_778
10
66.2243564
20
67.7210294
40
0.3734784
50
231.0553311
51
264.7375776
0
ARC
8
DEFAULT_255_2_778
10
66.2244642
20
67.7236639
40
0.3761118
50
264.7580295
51
270.0024049
0
ARC
8
DEFAULT_255_2_778
10
66.2262059
20
67.7167603
40
0.3692122
50
269.7321783
51
314.3812394
0
ARC
8
DEFAULT_255_2_778
10
66.0434
20
67.7680563
40
0.5420824
50
324.4501607
51
352.6535395
0
ARC
8
DEFAULT_255_2_778
10
66.0119643
20
67.7769277
40
0.5744142
50
352.1768498
51
359.963347
0
ARC
8
DEFAULT_255_2_778
10
66.1367369
20
67.7847177
40
0.4497153
50
358.9606505
51
26.0576961
0
ARC
8
DEFAULT_255_2_778
10
66.3344098
20
67.8883343
40
0.2267055
50
24.4776068
51
90.0410314
0
ARC
8
DEFAULT_255_2_778
10
66.3343275
20
67.8484193
40
0.2666203
50
90.0171855
51
93.3507982
0
ARC
8
DEFAULT_255_2_778
10
67.6724701
20
67.8804448
40
0.4039068
50
49.6503907
51
83.5356853
0
ARC
8
DEFAULT_255_2_778
10
67.6374028
20
67.8580268
40
0.4438641
50
4.9467746
51
48.073999
0
ARC
8
DEFAULT_255_2_778
10
67.5945453
20
67.8466275
40
0.4876049
50
0.0107625
51
5.8470403
0
ARC
8
DEFAULT_255_2_778
10
67.6042802
20
67.8466877
40
0.4778699
50
357.6368558
51
0.0037671
0
ARC
8
DEFAULT_255_2_778
10
67.4568106
20
67.8375566
40
0.6250226
50
333.9045932
51
359.0307378
0
ARC
8
DEFAULT_255_2_778
10
67.6390909
20
67.742213
40
0.4194203
50
297.3756542
51
334.6484881
0
ARC
8
DEFAULT_255_2_778
10
67.6999093
20
67.6385359
40
0.2994553
50
270.2553266
51
296.1635958
0
ARC
8
DEFAULT_255_2_778
10
67.7223862
20
67.7382301
40
0.399706
50
198.0372683
51
266.9679197
0
ARC
8
DEFAULT_255_2_778
10
68.0193588
20
67.8917252
40
0.731607
50
194.9584681
51
202.2699976
0
ARC
8
DEFAULT_255_2_778
10
67.736293
20
67.7462527
40
0.516573
50
184.815949
51
227.8342711
0
ARC
8
DEFAULT_255_2_778
10
67.6880626
20
67.6922106
40
0.4441409
50
227.7660782
51
269.5460451
0
ARC
8
DEFAULT_255_2_778
10
67.7088935
20
67.6599261
40
0.4125616
50
266.6163857
51
269.99573
0
ARC
8
DEFAULT_255_2_778
10
67.6931643
20
67.7021776
40
0.455084
50
271.9768449
51
337.1506279
0
ARC
8
DEFAULT_255_2_778
10
67.5336833
20
67.7975684
40
0.6396194
50
334.8229922
51
0.3045459
0
ARC
8
DEFAULT_255_2_778
10
67.4823291
20
67.8009212
40
0.6909646
50
0.003893
51
2.8422563
0
ARC
8
DEFAULT_255_2_778
10
67.6479402
20
67.8672681
40
0.5254839
50
356.4995194
51
0.0032919
0
ARC
8
DEFAULT_255_2_778
10
67.6627173
20
67.8759767
40
0.5107805
50
359.0264746
51
67.6321019
0
ARC
8
DEFAULT_255_2_778
10
67.7181669
20
67.962623
40
0.4099611
50
70.191113
51
90.073112
0
LINE
8
DEFAULT_255_2_778
10
62.1389437
20
67.2747837
11
62.1553437
21
68.9231837
0
LINE
8
DEFAULT_255_2_778
10
62.1553437
20
68.9231837
11
61.6438437
21
67.9047837
0
LINE
8
DEFAULT_255_2_778
10
61.6438437
20
67.9047837
11
61.5539437
21
67.9047837
0
LINE
8
DEFAULT_255_2_778
10
61.5539437
20
67.9047837
11
61.0424437
21
68.9231837
0
LINE
8
DEFAULT_255_2_778
10
61.0424437
20
68.9231837
11
61.0591437
21
67.2747837
0
LINE
8
DEFAULT_255_2_778
10
61.0591437
20
67.2747837
11
60.9712437
21
67.2729837
0
LINE
8
DEFAULT_255_2_778
10
60.9712437
20
67.2729837
11
60.9691437
21
69.0461837
0
LINE
8
DEFAULT_255_2_778
10
60.9691437
20
69.0461837
11
61.0591437
21
69.0461837
0
LINE
8
DEFAULT_255_2_778
10
61.0591437
20
69.0461837
11
61.5991437
21
68.0111837
0
LINE
8
DEFAULT_255_2_778
10
61.5991437
20
68.0111837
11
62.1391437
21
69.0461837
0
LINE
8
DEFAULT_255_2_778
10
62.1391437
20
69.0461837
11
62.2291437
21
69.0461837
0
LINE
8
DEFAULT_255_2_778
10
62.2291437
20
69.0461837
11
62.2280437
21
67.2729837
0
LINE
8
DEFAULT_255_2_778
10
62.2280437
20
67.2729837
11
62.1370437
21
67.2729837
0
LINE
8
DEFAULT_255_2_778
10
65.1644437
20
67.2480837
11
64.2566437
21
67.2480837
0
LINE
8
DEFAULT_255_2_778
10
64.2566437
20
67.2480837
11
64.2566437
21
67.3464837
0
LINE
8
DEFAULT_255_2_778
10
64.2566437
20
67.3464837
11
65.0247437
21
68.3807837
0
LINE
8
DEFAULT_255_2_778
10
64.3664437
20
68.5873837
11
64.2468437
21
68.5873837
0
LINE
8
DEFAULT_255_2_778
10
65.1347437
20
68.3312837
11
64.4063437
21
67.3464837
0
LINE
8
DEFAULT_255_2_778
10
64.4063437
20
67.3464837
11
65.1646437
21
67.3464837
0
LINE
8
DEFAULT_255_2_778
10
65.1646437
20
67.3464837
11
65.1644437
21
67.2480837
0
LINE
8
DEFAULT_255_2_778
10
49.4947437
20
64.0235837
11
49.4926437
21
63.9376837
0
LINE
8
DEFAULT_255_2_778
10
49.4926437
20
63.9376837
11
50.2125437
21
63.9376837
0
LINE
8
DEFAULT_255_2_778
10
50.2125437
20
63.9376837
11
50.2138437
21
64.0235837
0
LINE
8
DEFAULT_255_2_778
10
49.4923437
20
65.7372837
11
50.2122437
21
65.7372837
0
LINE
8
DEFAULT_255_2_778
10
49.4923437
20
64.0272837
11
49.8072437
21
64.0272837
0
LINE
8
DEFAULT_255_2_778
10
49.8072437
20
64.0272837
11
49.8072437
21
65.6473837
0
LINE
8
DEFAULT_255_2_778
10
49.8072437
20
65.6473837
11
49.4923437
21
65.6473837
0
LINE
8
DEFAULT_255_2_778
10
49.4923437
20
65.6473837
11
49.4944437
21
65.7351837
0
LINE
8
DEFAULT_255_2_778
10
50.2122437
20
64.0272837
11
49.8971437
21
64.0272837
0
LINE
8
DEFAULT_255_2_778
10
49.8971437
20
64.0272837
11
49.8971437
21
65.6473837
0
LINE
8
DEFAULT_255_2_778
10
49.8971437
20
65.6473837
11
50.2122437
21
65.6473837
0
LINE
8
DEFAULT_255_2_778
10
50.2122437
20
65.6473837
11
50.2136437
21
65.7351837
0
LINE
8
DEFAULT_255_2_778
10
51.5735437
20
65.7351837
11
51.5140437
21
65.7351837
0
LINE
8
DEFAULT_255_2_778
10
51.5140437
20
65.7351837
11
50.8009437
21
64.3993837
0
LINE
8
DEFAULT_255_2_778
10
50.8009437
20
64.3993837
11
50.8009437
21
64.3400837
0
LINE
8
DEFAULT_255_2_778
10
50.8009437
20
64.3400837
11
51.4743437
21
64.3400837
0
LINE
8
DEFAULT_255_2_778
10
51.4743437
20
64.3400837
11
51.4743437
21
63.9839837
0
LINE
8
DEFAULT_255_2_778
10
51.4743437
20
63.9839837
11
51.5635437
21
63.9839837
0
LINE
8
DEFAULT_255_2_778
10
51.5635437
20
63.9839837
11
51.5635437
21
64.3400837
0
LINE
8
DEFAULT_255_2_778
10
51.5635437
20
64.3400837
11
51.7021437
21
64.3400837
0
LINE
8
DEFAULT_255_2_778
10
51.7021437
20
64.3400837
11
51.7021437
21
64.4291837
0
LINE
8
DEFAULT_255_2_778
10
51.7021437
20
64.4291837
11
51.5732437
21
64.4291837
0
LINE
8
DEFAULT_255_2_778
10
51.5732437
20
64.4291837
11
51.5735437
21
65.7351837
0
LINE
8
DEFAULT_255_2_778
10
51.4836437
20
64.4212837
11
50.8996437
21
64.4212837
0
LINE
8
DEFAULT_255_2_778
10
50.8996437
20
64.4212837
11
51.4836437
21
65.4983837
0
LINE
8
DEFAULT_255_2_778
10
51.4836437
20
65.4983837
11
51.4836437
21
64.4212837
0
LINE
8
DEFAULT_255_2_778
10
51.6981437
20
64.3413837
11
51.5635437
21
64.3413837
0
LINE
8
DEFAULT_255_2_778
10
51.5635437
20
64.3413837
11
51.5635437
21
63.9823837
0
LINE
8
DEFAULT_255_2_778
10
53.2155437
20
65.7021837
11
53.1377437
21
65.7372837
0
LINE
8
DEFAULT_255_2_778
10
53.1377437
20
65.7372837
11
52.2069437
21
63.9823837
0
LINE
8
DEFAULT_255_2_778
10
52.2069437
20
63.9823837
11
52.2897437
21
63.9410837
0
LINE
8
DEFAULT_255_2_778
10
52.2897437
20
63.9410837
11
53.2155437
21
65.7021837
0
LINE
8
DEFAULT_255_2_778
10
55.9685437
20
64.2963837
11
55.9272437
21
64.2551837
0
LINE
8
DEFAULT_255_2_778
10
55.9272437
20
64.2551837
11
56.3323437
21
63.9407837
0
LINE
8
DEFAULT_255_2_778
10
56.3323437
20
63.9407837
11
56.3736437
21
63.9820837
0
LINE
8
DEFAULT_255_2_778
10
56.3736437
20
63.9820837
11
55.9767437
21
64.2961837
0
LINE
8
DEFAULT_255_2_778
10
65.8216437
20
68.5839837
11
65.7417437
21
68.6045837
0
LINE
8
DEFAULT_255_2_778
10
66.3187437
20
68.1145837
11
66.3169437
21
68.1897837
0
LINE
8
DEFAULT_255_2_778
10
65.8240437
20
67.7195837
11
65.7330437
21
67.7031837
0
LINE
8
DEFAULT_255_2_778
10
68.1311437
20
69.0424837
11
67.2218437
21
69.0424837
0
LINE
8
DEFAULT_255_2_778
10
67.2218437
20
69.0424837
11
67.2218437
21
68.2817837
0
LINE
8
DEFAULT_255_2_778
10
67.2218437
20
68.2817837
11
67.7179437
21
68.2817837
0
LINE
8
DEFAULT_255_2_778
10
67.3125437
20
67.7028837
11
67.2215437
21
67.7028837
0
LINE
8
DEFAULT_255_2_778
10
67.7176437
20
68.3725837
11
67.3125437
21
68.3725837
0
LINE
8
DEFAULT_255_2_778
10
67.3125437
20
68.3725837
11
67.3125437
21
68.9596837
0
LINE
8
DEFAULT_255_2_778
10
67.3125437
20
68.9596837
11
68.1311437
21
68.9596837
0
LINE
8
DEFAULT_255_2_778
10
68.1311437
20
68.9596837
11
68.1311437
21
69.0424837
0
ARC
8
DEFAULT_255_2_778
10
65.643675
20
64.632134
40
0.719074
50
283.5024967
51
295.8187747
0
ARC
8
DEFAULT_255_2_778
10
65.7248891
20
64.4658965
40
0.5340606
50
295.7430044
51
313.0365851
0
ARC
8
DEFAULT_255_2_778
10
65.7862971
20
64.3991956
40
0.4433993
50
313.1188718
51
340.5897493
0
ARC
8
DEFAULT_255_2_778
10
65.7755831
20
64.4017122
40
0.4543423
50
340.7394504
51
356.3501808
0
ARC
8
DEFAULT_255_2_778
10
65.7565206
20
64.4035922
40
0.4734864
50
356.2699828
51
0.0052725
0
ARC
8
DEFAULT_255_2_778
10
65.7562318
20
64.4061855
40
0.4737821
50
359.6916567
51
45.1316183
0
ARC
8
DEFAULT_255_2_778
10
65.8435141
20
64.4890207
40
0.3535148
50
45.686075
51
77.4101363
0
ARC
8
DEFAULT_255_2_778
10
65.6558816
20
65.4722427
40
0.6909186
50
292.5256043
51
303.6898087
0
ARC
8
DEFAULT_255_2_778
10
65.7613297
20
65.3154555
40
0.5019723
50
303.6020251
51
319.2757966
0
ARC
8
DEFAULT_255_2_778
10
65.8396436
20
65.2479667
40
0.3985903
50
319.2835016
51
344.4420928
0
ARC
8
DEFAULT_255_2_778
10
65.8371006
20
65.2469273
40
0.4007651
50
344.6827621
51
359.0337187
0
ARC
8
DEFAULT_255_2_778
10
65.8172343
20
65.2480052
40
0.4206473
50
358.9325415
51
0.0013979
0
ARC
8
DEFAULT_255_2_778
10
65.727295
20
65.2358851
40
0.5107307
50
1.3609605
51
75.0223299
0
ARC
8
DEFAULT_255_2_778
10
65.7825182
20
65.3664032
40
0.3708938
50
78.0539826
51
83.9560767
0
ARC
8
DEFAULT_255_2_778
10
65.7857514
20
65.0923877
40
0.2093131
50
266.1974145
51
270.0124332
0
ARC
8
DEFAULT_255_2_778
10
65.7855748
20
65.1058082
40
0.2227339
50
270.0571089
51
277.5741016
0
ARC
8
DEFAULT_255_2_778
10
65.7608287
20
65.2071237
40
0.3266184
50
279.5349903
51
312.8214842
0
ARC
8
DEFAULT_255_2_778
10
65.6881854
20
65.3081518
40
0.4503598
50
310.8633528
51
356.7520179
0
ARC
8
DEFAULT_255_2_778
10
65.7979845
20
65.2900098
40
0.3399172
50
358.7569131
51
359.9998827
0
ARC
8
DEFAULT_255_2_778
10
65.8341312
20
65.2925576
40
0.3037813
50
359.5193102
51
37.8313536
0
ARC
8
DEFAULT_255_2_778
10
65.7788415
20
65.2470206
40
0.3753853
50
38.1449706
51
56.6488852
0
ARC
8
DEFAULT_255_2_778
10
65.6834558
20
65.1048114
40
0.5466174
50
56.4921534
51
68.6225976
0
ARC
8
DEFAULT_255_2_778
10
65.5937548
20
64.8821334
40
0.7866755
50
68.450622
51
76.1799975
0
ARC
8
DEFAULT_255_2_778
10
65.7859561
20
64.2408319
40
0.2094573
50
266.198735
51
270.0123856
0
ARC
8
DEFAULT_255_2_778
10
65.7857828
20
64.2541971
40
0.2228228
50
270.0562057
51
277.5499079
0
ARC
8
DEFAULT_255_2_778
10
65.7610916
20
64.3554407
40
0.3266239
50
279.5105529
51
312.8072914
0
ARC
8
DEFAULT_255_2_778
10
65.6885185
20
64.4564384
40
0.4502991
50
310.8488653
51
356.753293
0
ARC
8
DEFAULT_255_2_778
10
65.7981069
20
64.4383022
40
0.3400677
50
358.7587383
51
359.9983508
0
ARC
8
DEFAULT_255_2_778
10
65.8344208
20
64.4408376
40
0.3037644
50
359.5199265
51
37.8366747
0
ARC
8
DEFAULT_255_2_778
10
65.7790762
20
64.3952564
40
0.3754391
50
38.1494211
51
56.6531903
0
ARC
8
DEFAULT_255_2_778
10
65.6836519
20
64.2529697
40
0.5467567
50
56.4962396
51
68.6256383
0
ARC
8
DEFAULT_255_2_778
10
65.5939279
20
64.0302014
40
0.7869072
50
68.4536158
51
76.1821296
0
ARC
8
DEFAULT_255_2_778
10
68.2646246
20
64.3678867
40
0.4972394
50
181.561683
51
212.0383796
0
ARC
8
DEFAULT_255_2_778
10
68.1282558
20
64.3073568
40
0.3501622
50
215.4817027
51
251.8731453
0
ARC
8
DEFAULT_255_2_778
10
68.2386075
20
64.605975
40
0.6684002
50
250.8471541
51
264.3385685
0
ARC
8
DEFAULT_255_2_778
10
68.3163853
20
64.5993299
40
0.5936529
50
239.0655768
51
255.9902805
0
ARC
8
DEFAULT_255_2_778
10
68.1763483
20
64.362104
40
0.3181893
50
182.9127103
51
238.7360672
0
LINE
8
DEFAULT_255_2_778
10
57.6800699
20
63.9659354
11
57.6800699
21
65.7352354
0
LINE
8
DEFAULT_255_2_778
10
57.6800699
20
65.7352354
11
57.6305699
21
65.7352354
0
LINE
8
DEFAULT_255_2_778
10
57.6305699
20
65.7352354
11
56.9196699
21
65.1068354
0
LINE
8
DEFAULT_255_2_778
10
56.9196699
20
65.1068354
11
56.9693699
21
65.0571354
0
LINE
8
DEFAULT_255_2_778
10
56.9693699
20
65.0571354
11
57.5895699
21
65.5944354
0
LINE
8
DEFAULT_255_2_778
10
57.5895699
20
65.5944354
11
57.5895699
21
63.9657354
0
LINE
8
DEFAULT_255_2_778
10
57.5895699
20
63.9657354
11
57.6800699
21
63.9659354
0
LINE
8
DEFAULT_255_2_778
10
59.7554699
20
65.0240354
11
60.1110699
21
64.5279354
0
LINE
8
DEFAULT_255_2_778
10
60.1110699
20
64.5279354
11
60.4748699
21
65.0240354
0
LINE
8
DEFAULT_255_2_778
10
60.4748699
20
65.0240354
11
60.5327699
21
64.9909354
0
LINE
8
DEFAULT_255_2_778
10
60.5327699
20
64.9909354
11
60.1607699
21
64.4782354
0
LINE
8
DEFAULT_255_2_778
10
60.1607699
20
64.4782354
11
60.5245699
21
63.9654354
0
LINE
8
DEFAULT_255_2_778
10
60.5245699
20
63.9654354
11
60.4751699
21
63.9323354
0
LINE
8
DEFAULT_255_2_778
10
60.4751699
20
63.9323354
11
60.1113699
21
64.4366354
0
LINE
8
DEFAULT_255_2_778
10
60.1113699
20
64.4366354
11
59.7475699
21
63.9323354
0
LINE
8
DEFAULT_255_2_778
10
59.7475699
20
63.9323354
11
59.6980699
21
63.9736354
0
LINE
8
DEFAULT_255_2_778
10
59.6980699
20
63.9736354
11
60.0618699
21
64.4779354
0
LINE
8
DEFAULT_255_2_778
10
60.0618699
20
64.4779354
11
59.6980699
21
64.9822354
0
LINE
8
DEFAULT_255_2_778
10
59.6980699
20
64.9822354
11
59.7554699
21
65.0240354
0
LINE
8
DEFAULT_255_2_778
10
65.3360699
20
65.7352354
11
65.3360699
21
63.9329354
0
LINE
8
DEFAULT_255_2_778
10
65.3360699
20
63.9329354
11
65.8115699
21
63.9329354
0
LINE
8
DEFAULT_255_2_778
10
65.8215699
20
65.7352354
11
65.3360699
21
65.7352354
0
LINE
8
DEFAULT_255_2_778
10
65.4252699
20
65.6460354
11
65.4252699
21
64.8835354
0
LINE
8
DEFAULT_255_2_778
10
65.4252699
20
64.8835354
11
65.7718699
21
64.8835354
0
LINE
8
DEFAULT_255_2_778
10
65.7816699
20
65.6460354
11
65.4252699
21
65.6460354
0
LINE
8
DEFAULT_255_2_778
10
65.4254699
20
64.7943354
11
65.4254699
21
64.0318354
0
LINE
8
DEFAULT_255_2_778
10
65.4254699
20
64.0318354
11
65.7720699
21
64.0318354
0
LINE
8
DEFAULT_255_2_778
10
65.7818699
20
64.7943354
11
65.4254699
21
64.7943354
0
LINE
8
DEFAULT_255_2_778
10
66.7587699
20
65.4870354
11
66.8661699
21
65.4870354
0
LINE
8
DEFAULT_255_2_778
10
66.8661699
20
65.4870354
11
66.8661699
21
65.3629354
0
LINE
8
DEFAULT_255_2_778
10
66.8661699
20
65.3629354
11
66.7587699
21
65.3629354
0
LINE
8
DEFAULT_255_2_778
10
66.7587699
20
65.3629354
11
66.7587699
21
65.4870354
0
LINE
8
DEFAULT_255_2_778
10
66.7669699
20
64.9909354
11
66.8661699
21
64.9909354
0
LINE
8
DEFAULT_255_2_778
10
66.8661699
20
64.9909354
11
66.8661699
21
63.9739354
0
LINE
8
DEFAULT_255_2_778
10
66.8661699
20
63.9739354
11
66.7669699
21
63.9739354
0
LINE
8
DEFAULT_255_2_778
10
66.7669699
20
63.9739354
11
66.7669699
21
64.9909354
0
LINE
8
DEFAULT_255_2_778
10
67.7675699
20
65.6939354
11
67.7675699
21
65.0655354
0
LINE
8
DEFAULT_255_2_778
10
67.7675699
20
65.0655354
11
67.4450699
21
65.0655354
0
LINE
8
DEFAULT_255_2_778
10
67.4450699
20
65.0655354
11
67.4450699
21
64.9745354
0
LINE
8
DEFAULT_255_2_778
10
67.4450699
20
64.9745354
11
67.7675699
21
64.9745354
0
LINE
8
DEFAULT_255_2_778
10
67.7675699
20
64.9745354
11
67.7675699
21
64.3543354
0
LINE
8
DEFAULT_255_2_778
10
68.1726699
20
63.9408354
11
68.1726699
21
64.0233354
0
LINE
8
DEFAULT_255_2_778
10
67.8585699
20
64.3459354
11
67.8585699
21
64.9743354
0
LINE
8
DEFAULT_255_2_778
10
67.8585699
20
64.9743354
11
68.1811699
21
64.9743354
0
LINE
8
DEFAULT_255_2_778
10
68.1811699
20
64.9743354
11
68.1811699
21
65.0653354
0
LINE
8
DEFAULT_255_2_778
10
68.1811699
20
65.0653354
11
67.8585699
21
65.0653354
0
LINE
8
DEFAULT_255_2_778
10
67.8585699
20
65.0653354
11
67.8503699
21
65.6937354
0
LINE
8
DEFAULT_255_2_778
10
67.8503699
20
65.6937354
11
67.7675699
21
65.6939354
0
LINE
8
DEFAULT_255_2_778
10
6.9065438
20
64.3080635
11
6.6065438
21
64.3080635
0
LINE
8
DEFAULT_255_2_778
10
6.6065438
20
64.3080635
11
6.6086438
21
64.6086635
0
LINE
8
DEFAULT_255_2_778
10
6.6086438
20
64.6086635
11
6.5350438
21
64.6078635
0
LINE
8
DEFAULT_255_2_778
10
6.5350438
20
64.6078635
11
6.5350438
21
64.3078635
0
LINE
8
DEFAULT_255_2_778
10
6.5350438
20
64.3078635
11
6.2350438
21
64.3078635
0
LINE
8
DEFAULT_255_2_778
10
6.2350438
20
64.3078635
11
6.2366438
21
64.2281635
0
LINE
8
DEFAULT_255_2_778
10
6.2366438
20
64.2281635
11
6.5316438
21
64.2329635
0
LINE
8
DEFAULT_255_2_778
10
6.5316438
20
64.2329635
11
6.5342438
21
63.9305635
0
LINE
8
DEFAULT_255_2_778
10
6.5342438
20
63.9305635
11
6.6086438
21
63.9305635
0
LINE
8
DEFAULT_255_2_778
10
6.6086438
20
63.9305635
11
6.6065438
21
64.2329635
0
LINE
8
DEFAULT_255_2_778
10
6.6065438
20
64.2329635
11
6.9065438
21
64.2329635
0
LINE
8
DEFAULT_255_2_778
10
6.9065438
20
64.2329635
11
6.9062438
21
64.3109635
0
ARC
8
DEFAULT_255_2_778
10
9.3082123
20
61.3806513
40
0.4201049
50
4.1302711
51
35.3675274
0
ARC
8
DEFAULT_255_2_778
10
9.3167784
20
61.3872222
40
0.4093163
50
35.311528
51
89.2302877
0
ARC
8
DEFAULT_255_2_778
10
9.3222772
20
61.4241215
40
0.37238
50
90.0000293
51
90.5570529
0
ARC
8
DEFAULT_255_2_778
10
9.3208783
20
61.4441124
40
0.3523784
50
90.3612124
51
129.4299644
0
ARC
8
DEFAULT_255_2_778
10
9.3657891
20
61.391941
40
0.4212028
50
129.6412618
51
149.6793466
0
ARC
8
DEFAULT_255_2_778
10
9.5017878
20
61.3108792
40
0.5795235
50
149.5492167
51
162.9283248
0
ARC
8
DEFAULT_255_2_778
10
9.6238628
20
61.2686394
40
0.7086345
50
162.5611381
51
164.2821209
0
ARC
8
DEFAULT_255_2_778
10
9.3145905
20
60.6737525
40
0.3749979
50
186.1145365
51
214.8738032
0
ARC
8
DEFAULT_255_2_778
10
9.3338459
20
60.699083
40
0.4053962
50
216.2550164
51
270.1640038
0
ARC
8
DEFAULT_255_2_778
10
9.3385705
20
60.7171276
40
0.4234542
50
269.5177391
51
269.9967591
0
ARC
8
DEFAULT_255_2_778
10
9.3450231
20
60.6691083
40
0.3754906
50
269.0116903
51
322.1220283
0
ARC
8
DEFAULT_255_2_778
10
9.3090475
20
60.6886962
40
0.4159663
50
323.034912
51
344.801361
0
ARC
8
DEFAULT_255_2_778
10
9.1883861
20
60.725165
40
0.5419798
50
344.4250182
51
353.8295165
0
ARC
8
DEFAULT_255_2_778
10
9.196264
20
60.774482
40
0.4691611
50
326.5294623
51
346.7448627
0
ARC
8
DEFAULT_255_2_778
10
9.2940916
20
60.7079976
40
0.3508929
50
297.3781584
51
326.7754617
0
ARC
8
DEFAULT_255_2_778
10
9.3279831
20
60.6461984
40
0.2804352
50
270.2969065
51
297.0356794
0
ARC
8
DEFAULT_255_2_778
10
9.3292732
20
60.5433522
40
0.1775853
50
269.8420316
51
270.052613
0
ARC
8
DEFAULT_255_2_778
10
9.3311379
20
60.6379331
40
0.2721756
50
229.1369714
51
269.504388
0
ARC
8
DEFAULT_255_2_778
10
9.3979515
20
60.7174117
40
0.3759991
50
208.7418868
51
229.3609071
0
ARC
8
DEFAULT_255_2_778
10
9.5533899
20
60.8051582
40
0.5544852
50
195.4305699
51
208.9682768
0
ARC
8
DEFAULT_255_2_778
10
9.6750989
20
60.8439964
40
0.6821596
50
195.0462088
51
195.8551509
0
ARC
8
DEFAULT_255_2_778
10
9.4480984
20
61.3445965
40
0.4368349
50
152.4771488
51
171.2686064
0
ARC
8
DEFAULT_255_2_778
10
9.3473967
20
61.3979205
40
0.3228897
50
122.5999079
51
152.611047
0
ARC
8
DEFAULT_255_2_778
10
9.3284105
20
61.4237588
40
0.2909003
50
89.9870976
51
122.1914045
0
ARC
8
DEFAULT_255_2_778
10
9.3284818
20
61.4219583
40
0.2927009
50
88.3634093
51
90.001127
0
ARC
8
DEFAULT_255_2_778
10
9.3261341
20
61.4082517
40
0.306475
50
44.9159542
51
87.9978676
0
ARC
8
DEFAULT_255_2_778
10
9.2759634
20
61.3573926
40
0.3779134
50
21.3442906
51
45.0056504
0
ARC
8
DEFAULT_255_2_778
10
9.178316
20
61.3156053
40
0.4840843
50
11.3542512
51
21.7443788
0
LINE
8
DEFAULT_255_2_778
10
8.9417261
20
61.4606091
11
8.9417261
21
60.6338091
0
LINE
8
DEFAULT_255_2_778
10
9.7272261
20
60.6669091
11
9.6529261
21
60.6669091
0
LINE
8
DEFAULT_255_2_778
10
9.0163261
20
60.6669091
11
9.0163261
21
61.4109091
0
LINE
8
DEFAULT_255_2_778
10
9.6529261
20
61.4109091
11
9.7272261
21
61.4109091
0
LINE
8
DEFAULT_255_2_778
10
9.7272261
20
61.4109091
11
9.7272261
21
61.4109091
0
ARC
8
DEFAULT_255_2_778
10
9.3082123
20
61.3806513
40
0.4201049
50
4.1302711
51
35.3675274
0
ARC
8
DEFAULT_255_2_778
10
9.3167784
20
61.3872222
40
0.4093163
50
35.311528
51
89.2302877
0
ARC
8
DEFAULT_255_2_778
10
9.3222772
20
61.4241215
40
0.37238
50
90.0000293
51
90.5570529
0
ARC
8
DEFAULT_255_2_778
10
9.3208783
20
61.4441124
40
0.3523784
50
90.3612124
51
129.4299644
0
ARC
8
DEFAULT_255_2_778
10
9.3657891
20
61.391941
40
0.4212028
50
129.6412618
51
149.6793466
0
ARC
8
DEFAULT_255_2_778
10
9.5017878
20
61.3108792
40
0.5795235
50
149.5492167
51
162.9283248
0
ARC
8
DEFAULT_255_2_778
10
9.6238628
20
61.2686394
40
0.7086345
50
162.5611381
51
164.2821209
0
ARC
8
DEFAULT_255_2_778
10
9.3145905
20
60.6737525
40
0.3749979
50
186.1145365
51
214.8738032
0
ARC
8
DEFAULT_255_2_778
10
9.3338459
20
60.699083
40
0.4053962
50
216.2550164
51
270.1640038
0
ARC
8
DEFAULT_255_2_778
10
9.3385705
20
60.7171276
40
0.4234542
50
269.5177391
51
269.9967591
0
ARC
8
DEFAULT_255_2_778
10
9.3450231
20
60.6691083
40
0.3754906
50
269.0116903
51
322.1220283
0
ARC
8
DEFAULT_255_2_778
10
9.3090475
20
60.6886962
40
0.4159663
50
323.034912
51
344.801361
0
ARC
8
DEFAULT_255_2_778
10
9.1883861
20
60.725165
40
0.5419798
50
344.4250182
51
353.8295165
0
ARC
8
DEFAULT_255_2_778
10
9.196264
20
60.774482
40
0.4691611
50
326.5294623
51
346.7448627
0
ARC
8
DEFAULT_255_2_778
10
9.2940916
20
60.7079976
40
0.3508929
50
297.3781584
51
326.7754617
0
ARC
8
DEFAULT_255_2_778
10
9.3279831
20
60.6461984
40
0.2804352
50
270.2969065
51
297.0356794
0
ARC
8
DEFAULT_255_2_778
10
9.3292732
20
60.5433522
40
0.1775853
50
269.8420316
51
270.052613
0
ARC
8
DEFAULT_255_2_778
10
9.3311379
20
60.6379331
40
0.2721756
50
229.1369714
51
269.504388
0
ARC
8
DEFAULT_255_2_778
10
9.3979515
20
60.7174117
40
0.3759991
50
208.7418868
51
229.3609071
0
ARC
8
DEFAULT_255_2_778
10
9.5533899
20
60.8051582
40
0.5544852
50
195.4305699
51
208.9682768
0
ARC
8
DEFAULT_255_2_778
10
9.6750989
20
60.8439964
40
0.6821596
50
195.0462088
51
195.8551509
0
ARC
8
DEFAULT_255_2_778
10
9.4480984
20
61.3445965
40
0.4368349
50
152.4771488
51
171.2686064
0
ARC
8
DEFAULT_255_2_778
10
9.3473967
20
61.3979205
40
0.3228897
50
122.5999079
51
152.611047
0
ARC
8
DEFAULT_255_2_778
10
9.3284105
20
61.4237588
40
0.2909003
50
89.9870976
51
122.1914045
0
ARC
8
DEFAULT_255_2_778
10
9.3284818
20
61.4219583
40
0.2927009
50
88.3634093
51
90.001127
0
ARC
8
DEFAULT_255_2_778
10
9.3261341
20
61.4082517
40
0.306475
50
44.9159542
51
87.9978676
0
ARC
8
DEFAULT_255_2_778
10
9.2759634
20
61.3573926
40
0.3779134
50
21.3442906
51
45.0056504
0
ARC
8
DEFAULT_255_2_778
10
9.178316
20
61.3156053
40
0.4840843
50
11.3542512
51
21.7443788
0
LINE
8
DEFAULT_255_2_778
10
8.9417261
20
61.4606091
11
8.9417261
21
60.6338091
0
LINE
8
DEFAULT_255_2_778
10
9.7272261
20
60.6669091
11
9.6529261
21
60.6669091
0
LINE
8
DEFAULT_255_2_778
10
9.0163261
20
60.6669091
11
9.0163261
21
61.4109091
0
LINE
8
DEFAULT_255_2_778
10
9.6529261
20
61.4109091
11
9.7272261
21
61.4109091
0
LINE
8
DEFAULT_255_2_778
10
9.7272261
20
61.4109091
11
9.7272261
21
61.4109091
0
ARC
8
DEFAULT_255_2_778
10
8.033089
20
60.842863
40
0.4822798
50
278.654749
51
295.2346676
0
ARC
8
DEFAULT_255_2_778
10
8.1086025
20
60.6832653
40
0.3057193
50
295.1847459
51
323.3097105
0
ARC
8
DEFAULT_255_2_778
10
8.0941986
20
60.6893209
40
0.3209096
50
323.979311
51
340.6018379
0
ARC
8
DEFAULT_255_2_778
10
7.9300554
20
60.7447912
40
0.4941631
50
340.8564039
51
352.4748543
0
ARC
8
DEFAULT_255_2_778
10
8.0794706
20
61.3793864
40
0.3434121
50
7.4771628
51
85.575614
0
ARC
8
DEFAULT_255_2_778
10
8.1193317
20
60.658605
40
0.3676438
50
273.0296222
51
296.8326353
0
ARC
8
DEFAULT_255_2_778
10
8.1123726
20
60.6568223
40
0.3692609
50
297.9210942
51
329.3921793
0
ARC
8
DEFAULT_255_2_778
10
8.0399352
20
60.7077892
40
0.4576095
50
328.5177424
51
331.1329721
0
ARC
8
DEFAULT_255_2_778
10
7.9997327
20
60.7287316
40
0.5029283
50
331.25473
51
342.7485136
0
ARC
8
DEFAULT_255_2_778
10
8.0454391
20
60.7163593
40
0.4556123
50
342.5297825
51
350.170033
0
ARC
8
DEFAULT_255_2_778
10
8.0733132
20
61.3737868
40
0.4292273
50
11.202375
51
64.4743092
0
ARC
8
DEFAULT_255_2_778
10
8.102505
20
61.4589838
40
0.3399252
50
62.7260878
51
78.6880903
0
ARC
8
DEFAULT_255_2_778
10
8.1293353
20
61.5837855
40
0.2122931
50
79.1817738
51
89.6687768
0
LINE
8
DEFAULT_255_2_778
10
7.8161625
20
61.722075
11
7.8161625
21
60.366075
0
LINE
8
DEFAULT_255_2_778
10
7.8161625
20
60.366075
11
8.1056625
21
60.366075
0
LINE
8
DEFAULT_255_2_778
10
8.4199625
20
60.680075
11
8.4199625
21
61.424075
0
LINE
8
DEFAULT_255_2_778
10
8.1059625
20
61.721775
11
7.8161625
21
61.722075
0
LINE
8
DEFAULT_255_2_778
10
7.7418625
20
61.796375
11
7.7418625
21
60.291475
0
LINE
8
DEFAULT_255_2_778
10
7.7418625
20
60.291475
11
8.1387625
21
60.291475
0
LINE
8
DEFAULT_255_2_778
10
8.4943625
20
60.638575
11
8.4943625
21
61.457175
0
LINE
8
DEFAULT_255_2_778
10
8.1305625
20
61.796075
11
7.7418625
21
61.796375
0
LINE
8
DEFAULT_255_2_778
10
13.7508073
20
68.3463927
11
15.7508073
21
68.3463927
0
LINE
8
DEFAULT_255_2_778
10
15.7508073
20
68.3463927
11
15.7508073
21
66.3463927
0
LINE
8
DEFAULT_255_2_778
10
15.7508073
20
66.3463927
11
13.7508073
21
66.3463927
0
LINE
8
DEFAULT_255_2_778
10
13.7508073
20
66.3463927
11
13.7508073
21
68.3463927
0
LINE
8
DEFAULT_255_2_778
10
10.4506073
20
68.3463927
11
12.4506073
21
68.3463927
0
LINE
8
DEFAULT_255_2_778
10
12.4506073
20
68.3463927
11
12.4506073
21
66.3463927
0
LINE
8
DEFAULT_255_2_778
10
12.4506073
20
66.3463927
11
10.4506073
21
66.3463927
0
LINE
8
DEFAULT_255_2_778
10
10.4506073
20
66.3463927
11
10.4506073
21
68.3463927
0
LINE
8
DEFAULT_255_2_778
10
7.1508073
20
68.3463927
11
9.1508073
21
68.3463927
0
LINE
8
DEFAULT_255_2_778
10
9.1508073
20
68.3463927
11
9.1508073
21
66.3463927
0
LINE
8
DEFAULT_255_2_778
10
9.1508073
20
66.3463927
11
7.1508073
21
66.3463927
0
LINE
8
DEFAULT_255_2_778
10
7.1508073
20
66.3463927
11
7.1508073
21
68.3463927
0
LINE
8
DEFAULT_255_2_778
10
23.6507073
20
68.3463927
11
25.6507073
21
68.3463927
0
LINE
8
DEFAULT_255_2_778
10
25.6507073
20
68.3463927
11
25.6507073
21
66.3463927
0
LINE
8
DEFAULT_255_2_778
10
25.6507073
20
66.3463927
11
23.6507073
21
66.3463927
0
LINE
8
DEFAULT_255_2_778
10
23.6507073
20
66.3463927
11
23.6507073
21
68.3463927
0
LINE
8
DEFAULT_255_2_778
10
20.3508073
20
68.3463927
11
22.3508073
21
68.3463927
0
LINE
8
DEFAULT_255_2_778
10
22.3508073
20
68.3463927
11
22.3508073
21
66.3463927
0
LINE
8
DEFAULT_255_2_778
10
22.3508073
20
66.3463927
11
20.3508073
21
66.3463927
0
LINE
8
DEFAULT_255_2_778
10
20.3508073
20
66.3463927
11
20.3508073
21
68.3463927
0
LINE
8
DEFAULT_255_2_778
10
17.0507073
20
68.3463927
11
19.0507073
21
68.3463927
0
LINE
8
DEFAULT_255_2_778
10
19.0507073
20
68.3463927
11
19.0507073
21
66.3463927
0
LINE
8
DEFAULT_255_2_778
10
19.0507073
20
66.3463927
11
17.0507073
21
66.3463927
0
LINE
8
DEFAULT_255_2_778
10
17.0507073
20
66.3463927
11
17.0507073
21
68.3463927
0
LINE
8
DEFAULT_255_2_778
10
30.2507073
20
68.3463927
11
32.2507073
21
68.3463927
0
LINE
8
DEFAULT_255_2_778
10
32.2507073
20
68.3463927
11
32.2507073
21
66.3463927
0
LINE
8
DEFAULT_255_2_778
10
32.2507073
20
66.3463927
11
30.2507073
21
66.3463927
0
LINE
8
DEFAULT_255_2_778
10
30.2507073
20
66.3463927
11
30.2507073
21
68.3463927
0
LINE
8
DEFAULT_255_2_778
10
26.9508073
20
68.3463927
11
28.9508073
21
68.3463927
0
LINE
8
DEFAULT_255_2_778
10
28.9508073
20
68.3463927
11
28.9508073
21
66.3463927
0
LINE
8
DEFAULT_255_2_778
10
28.9508073
20
66.3463927
11
26.9508073
21
66.3463927
0
LINE
8
DEFAULT_255_2_778
10
26.9508073
20
66.3463927
11
26.9508073
21
68.3463927
0
ARC
8
DEFAULT_255_2_778
10
7.6957637
20
64.7696033
40
0.4025551
50
325.9782441
51
336.6104396
0
ARC
8
DEFAULT_255_2_778
10
7.7955259
20
64.7268393
40
0.2940143
50
336.5415239
51
351.4747444
0
ARC
8
DEFAULT_255_2_778
10
7.8380901
20
64.7192786
40
0.2508022
50
351.7413843
51
359.9592297
0
ARC
8
DEFAULT_255_2_778
10
7.8276972
20
64.7157584
40
0.2612165
50
0.7330117
51
37.1545824
0
ARC
8
DEFAULT_255_2_778
10
7.7338592
20
64.6519342
40
0.374599
50
36.2664057
51
49.5155377
0
ARC
8
DEFAULT_255_2_778
10
7.7137526
20
64.6313788
40
0.4032918
50
49.238878
51
58.9779676
0
ARC
8
DEFAULT_255_2_778
10
7.7918403
20
64.7645759
40
0.2489083
50
58.5805025
51
67.8749406
0
ARC
8
DEFAULT_255_2_778
10
7.8579376
20
64.9276957
40
0.072906
50
67.7134498
51
78.629301
0
ARC
8
DEFAULT_255_2_778
10
7.7834626
20
64.6376497
40
0.3722789
50
76.1923956
51
89.5701222
0
ARC
8
DEFAULT_255_2_778
10
7.7840218
20
64.7469691
40
0.2629584
50
89.5132529
51
146.9014998
0
ARC
8
DEFAULT_255_2_778
10
8.0104728
20
64.5811598
40
0.5434228
50
145.2940838
51
161.850839
0
ARC
8
DEFAULT_255_2_778
10
8.2808421
20
64.4786435
40
0.8323786
50
160.9423243
51
163.2903392
0
ARC
8
DEFAULT_255_2_778
10
7.8209801
20
64.6875396
40
0.4376279
50
142.4619643
51
176.0126356
0
ARC
8
DEFAULT_255_2_778
10
7.7838688
20
64.715285
40
0.3912962
50
90.3400632
51
142.3725339
0
ARC
8
DEFAULT_255_2_778
10
7.781533
20
64.7279622
40
0.378612
50
81.4733523
51
89.9979664
0
ARC
8
DEFAULT_255_2_778
10
7.7792861
20
64.716713
40
0.3900703
50
63.8463056
51
81.391954
0
ARC
8
DEFAULT_255_2_778
10
7.7692724
20
64.6943712
40
0.4145395
50
63.4115373
51
63.9650864
0
ARC
8
DEFAULT_255_2_778
10
7.8023732
20
64.7070289
40
0.3891418
50
42.7991479
51
66.9378469
0
ARC
8
DEFAULT_255_2_778
10
7.811485
20
64.7215223
40
0.3726352
50
7.5364736
51
42.1158969
0
ARC
8
DEFAULT_255_2_778
10
7.7764361
20
64.7137676
40
0.4084101
50
359.9922246
51
7.970089
0
ARC
8
DEFAULT_255_2_778
10
7.8039681
20
64.7111023
40
0.3808872
50
335.6853134
51
0.3926051
0
ARC
8
DEFAULT_255_2_778
10
7.8972847
20
64.6713353
40
0.2794824
50
322.9054943
51
335.2376992
0
LINE
8
DEFAULT_255_2_778
10
6.8057115
20
60.2863707
11
6.3263115
21
61.7995707
0
LINE
8
DEFAULT_255_2_778
10
6.3263115
20
61.7995707
11
6.3924115
21
61.7995707
0
LINE
8
DEFAULT_255_2_778
10
6.3924115
20
61.7995707
11
6.8060115
21
60.4766707
0
LINE
8
DEFAULT_255_2_778
10
6.8060115
20
60.4766707
11
7.2526115
21
61.7995707
0
LINE
8
DEFAULT_255_2_778
10
7.2526115
20
61.7995707
11
7.3188115
21
61.7995707
0
LINE
8
DEFAULT_255_2_778
10
7.3188115
20
61.7995707
11
6.8057115
21
60.2863707
0
LINE
8
DEFAULT_255_2_778
10
8.1453115
20
63.5936707
11
7.3928115
21
63.5936707
0
LINE
8
DEFAULT_255_2_778
10
7.3928115
20
63.5936707
11
7.3928115
21
63.6762707
0
LINE
8
DEFAULT_255_2_778
10
7.3928115
20
63.6762707
11
8.0294115
21
64.5443707
0
LINE
8
DEFAULT_255_2_778
10
7.4836115
20
64.7179707
11
7.3844115
21
64.7179707
0
LINE
8
DEFAULT_255_2_778
10
8.1202115
20
64.5027707
11
7.5167115
21
63.6759707
0
LINE
8
DEFAULT_255_2_778
10
7.5167115
20
63.6759707
11
8.1450115
21
63.6759707
0
LINE
8
DEFAULT_255_2_778
10
8.1450115
20
63.6759707
11
8.1453115
21
63.5936707
0
LINE
8
DEFAULT_255_2_778
10
9.2780115
20
65.0986707
11
9.2285115
21
65.0986707
0
LINE
8
DEFAULT_255_2_778
10
9.2285115
20
65.0986707
11
8.6332115
21
63.9823707
0
LINE
8
DEFAULT_255_2_778
10
8.6332115
20
63.9823707
11
8.6332115
21
63.9326707
0
LINE
8
DEFAULT_255_2_778
10
8.6332115
20
63.9326707
11
9.1954115
21
63.9326707
0
LINE
8
DEFAULT_255_2_778
10
9.1954115
20
63.9326707
11
9.1954115
21
63.6349707
0
LINE
8
DEFAULT_255_2_778
10
9.1954115
20
63.6349707
11
9.2698115
21
63.6349707
0
LINE
8
DEFAULT_255_2_778
10
9.2698115
20
63.6349707
11
9.2698115
21
63.9326707
0
LINE
8
DEFAULT_255_2_778
10
9.2698115
20
63.9326707
11
9.3857115
21
63.9326707
0
LINE
8
DEFAULT_255_2_778
10
9.3857115
20
63.9326707
11
9.3857115
21
64.0069707
0
LINE
8
DEFAULT_255_2_778
10
9.3857115
20
64.0069707
11
9.2783115
21
64.0069707
0
LINE
8
DEFAULT_255_2_778
10
9.2783115
20
64.0069707
11
9.2780115
21
65.0986707
0
LINE
8
DEFAULT_255_2_778
10
9.2028115
20
64.0008707
11
8.7152115
21
64.0008707
0
LINE
8
DEFAULT_255_2_778
10
8.7152115
20
64.0008707
11
9.2028115
21
64.9010707
0
LINE
8
DEFAULT_255_2_778
10
9.2028115
20
64.9010707
11
9.2028115
21
64.0008707
0
LINE
8
DEFAULT_255_2_778
10
9.3820115
20
63.9342707
11
9.2695115
21
63.9342707
0
LINE
8
DEFAULT_255_2_778
10
9.2695115
20
63.9342707
11
9.2695115
21
63.6341707
0
LINE
8
DEFAULT_255_2_778
10
13.7508073
20
29.3462927
11
15.7508073
21
29.3462927
0
LINE
8
DEFAULT_255_2_778
10
15.7508073
20
29.3462927
11
15.7508073
21
27.3462927
0
LINE
8
DEFAULT_255_2_778
10
15.7508073
20
27.3462927
11
13.7508073
21
27.3462927
0
LINE
8
DEFAULT_255_2_778
10
13.7508073
20
27.3462927
11
13.7508073
21
29.3462927
0
LINE
8
DEFAULT_255_2_778
10
10.4506073
20
29.3462927
11
12.4506073
21
29.3462927
0
LINE
8
DEFAULT_255_2_778
10
12.4506073
20
29.3462927
11
12.4506073
21
27.3462927
0
LINE
8
DEFAULT_255_2_778
10
12.4506073
20
27.3462927
11
10.4506073
21
27.3462927
0
LINE
8
DEFAULT_255_2_778
10
10.4506073
20
27.3462927
11
10.4506073
21
29.3462927
0
LINE
8
DEFAULT_255_2_778
10
7.1508073
20
29.3462927
11
9.1508073
21
29.3462927
0
LINE
8
DEFAULT_255_2_778
10
9.1508073
20
29.3462927
11
9.1508073
21
27.3462927
0
LINE
8
DEFAULT_255_2_778
10
9.1508073
20
27.3462927
11
7.1508073
21
27.3462927
0
LINE
8
DEFAULT_255_2_778
10
7.1508073
20
27.3462927
11
7.1508073
21
29.3462927
0
LINE
8
DEFAULT_255_2_778
10
23.6507073
20
29.3462927
11
25.6507073
21
29.3462927
0
LINE
8
DEFAULT_255_2_778
10
25.6507073
20
29.3462927
11
25.6507073
21
27.3462927
0
LINE
8
DEFAULT_255_2_778
10
25.6507073
20
27.3462927
11
23.6507073
21
27.3462927
0
LINE
8
DEFAULT_255_2_778
10
23.6507073
20
27.3462927
11
23.6507073
21
29.3462927
0
LINE
8
DEFAULT_255_2_778
10
20.3508073
20
29.3462927
11
22.3508073
21
29.3462927
0
LINE
8
DEFAULT_255_2_778
10
22.3508073
20
29.3462927
11
22.3508073
21
27.3462927
0
LINE
8
DEFAULT_255_2_778
10
22.3508073
20
27.3462927
11
20.3508073
21
27.3462927
0
LINE
8
DEFAULT_255_2_778
10
20.3508073
20
27.3462927
11
20.3508073
21
29.3462927
0
LINE
8
DEFAULT_255_2_778
10
17.0507073
20
29.3462927
11
19.0507073
21
29.3462927
0
LINE
8
DEFAULT_255_2_778
10
19.0507073
20
29.3462927
11
19.0507073
21
27.3462927
0
LINE
8
DEFAULT_255_2_778
10
19.0507073
20
27.3462927
11
17.0507073
21
27.3462927
0
LINE
8
DEFAULT_255_2_778
10
17.0507073
20
27.3462927
11
17.0507073
21
29.3462927
0
LINE
8
DEFAULT_255_2_778
10
30.2507073
20
29.3462927
11
32.2507073
21
29.3462927
0
LINE
8
DEFAULT_255_2_778
10
32.2507073
20
29.3462927
11
32.2507073
21
27.3462927
0
LINE
8
DEFAULT_255_2_778
10
32.2507073
20
27.3462927
11
30.2507073
21
27.3462927
0
LINE
8
DEFAULT_255_2_778
10
30.2507073
20
27.3462927
11
30.2507073
21
29.3462927
0
LINE
8
DEFAULT_255_2_778
10
26.9508073
20
29.3462927
11
28.9508073
21
29.3462927
0
LINE
8
DEFAULT_255_2_778
10
28.9508073
20
29.3462927
11
28.9508073
21
27.3462927
0
LINE
8
DEFAULT_255_2_778
10
28.9508073
20
27.3462927
11
26.9508073
21
27.3462927
0
LINE
8
DEFAULT_255_2_778
10
26.9508073
20
27.3462927
11
26.9508073
21
29.3462927
0
LINE
8
DEFAULT_255_2_778
10
66.1062219
20
29.1563323
11
66.4224219
21
28.0327323
0
LINE
8
DEFAULT_255_2_778
10
66.4224219
20
28.0327323
11
65.7901219
21
28.0327323
0
LINE
8
DEFAULT_255_2_778
10
65.7901219
20
28.0327323
11
66.1062219
21
29.1563323
0
LINE
8
DEFAULT_255_2_778
10
66.6021219
20
27.4934323
11
66.6934219
21
27.4934323
0
LINE
8
DEFAULT_255_2_778
10
66.6934219
20
27.4934323
11
66.1515219
21
29.2463323
0
LINE
8
DEFAULT_255_2_778
10
66.1515219
20
29.2463323
11
66.0613219
21
29.2463323
0
LINE
8
DEFAULT_255_2_778
10
66.0613219
20
29.2463323
11
65.5194219
21
27.4934323
0
LINE
8
DEFAULT_255_2_778
10
65.5194219
20
27.4934323
11
65.6064219
21
27.4934323
0
LINE
8
DEFAULT_255_2_778
10
65.6064219
20
27.4934323
11
65.7451219
21
27.9430323
0
LINE
8
DEFAULT_255_2_778
10
65.7451219
20
27.9430323
11
66.4677219
21
27.9430323
0
LINE
8
DEFAULT_255_2_778
10
66.4677219
20
27.9430323
11
66.6021219
21
27.4934323
0
ARC
8
DEFAULT_255_2_778
10
47.8807009
20
28.8581337
40
0.4842016
50
325.7209802
51
335.397579
0
ARC
8
DEFAULT_255_2_778
10
47.9938254
20
28.8067199
40
0.3599424
50
335.3419362
51
348.4897384
0
ARC
8
DEFAULT_255_2_778
10
48.0527645
20
28.7938271
40
0.2996172
50
348.6566037
51
359.9131369
0
ARC
8
DEFAULT_255_2_778
10
48.0482442
20
28.7902636
40
0.3041529
50
0.5857379
51
34.8563271
0
ARC
8
DEFAULT_255_2_778
10
47.9350407
20
28.7167058
40
0.4391075
50
34.290347
51
49.9490141
0
ARC
8
DEFAULT_255_2_778
10
47.9018549
20
28.6819397
40
0.4870835
50
49.5923713
51
58.6691889
0
ARC
8
DEFAULT_255_2_778
10
47.9813386
20
28.8155337
40
0.3316442
50
58.3974871
51
66.5909876
0
ARC
8
DEFAULT_255_2_778
10
48.0703445
20
29.0247501
40
0.1042966
50
65.799866
51
78.4097069
0
ARC
8
DEFAULT_255_2_778
10
47.9826525
20
28.6773047
40
0.4625558
50
76.4152879
51
88.2522243
0
ARC
8
DEFAULT_255_2_778
10
47.9873109
20
28.7534967
40
0.3862644
50
88.598188
51
89.9948234
0
ARC
8
DEFAULT_255_2_778
10
47.983613
20
28.8232475
40
0.3165356
50
89.3243305
51
145.0564069
0
ARC
8
DEFAULT_255_2_778
10
48.2151204
20
28.64495
40
0.6085803
50
143.7803307
51
160.1593517
0
ARC
8
DEFAULT_255_2_778
10
48.5256813
20
28.5189863
40
0.9435497
50
159.3650319
51
163.1798379
0
ARC
8
DEFAULT_255_2_778
10
48.0227953
20
28.7542994
40
0.521263
50
145.0505799
51
175.8502356
0
ARC
8
DEFAULT_255_2_778
10
47.9842459
20
28.7801143
40
0.4748784
50
90.2667345
51
144.9391281
0
ARC
8
DEFAULT_255_2_778
10
47.9820175
20
28.7918862
40
0.4631013
50
81.4414226
51
89.9978099
0
ARC
8
DEFAULT_255_2_778
10
47.9797494
20
28.7801989
40
0.4749961
50
65.2825691
51
81.380681
0
ARC
8
DEFAULT_255_2_778
10
47.9715827
20
28.7606012
40
0.4962137
50
63.7182518
51
65.3721929
0
ARC
8
DEFAULT_255_2_778
10
48.0059724
20
28.766405
40
0.4766213
50
46.2017944
51
67.1180386
0
ARC
8
DEFAULT_255_2_778
10
48.0315282
20
28.7981939
40
0.4360036
50
11.7189718
51
45.7344856
0
ARC
8
DEFAULT_255_2_778
10
47.998206
20
28.7884931
40
0.4706094
50
8.0772875
51
12.0514025
0
ARC
8
DEFAULT_255_2_778
10
47.9892875
20
28.7872991
40
0.4796071
50
359.992443
51
8.0688071
0
ARC
8
DEFAULT_255_2_778
10
48.016605
20
28.7847441
40
0.4522965
50
336.9172504
51
0.3156524
0
ARC
8
DEFAULT_255_2_778
10
48.1220072
20
28.7414321
40
0.3383551
50
322.5992801
51
336.6667063
0
LINE
8
DEFAULT_255_2_778
10
48.4204989
20
27.45292
11
47.5126989
21
27.45292
0
LINE
8
DEFAULT_255_2_778
10
47.5126989
20
27.45292
11
47.5126989
21
27.55142
0
LINE
8
DEFAULT_255_2_778
10
47.5126989
20
27.55142
11
48.2807989
21
28.58542
0
LINE
8
DEFAULT_255_2_778
10
47.6224989
20
28.79202
11
47.5028989
21
28.79202
0
LINE
8
DEFAULT_255_2_778
10
48.3907989
20
28.53592
11
47.6623989
21
27.55112
0
LINE
8
DEFAULT_255_2_778
10
47.6623989
20
27.55112
11
48.4206989
21
27.55112
0
LINE
8
DEFAULT_255_2_778
10
48.4206989
20
27.55112
11
48.4204989
21
27.45292
0
ARC
8
DEFAULT_255_2_778
10
59.9853709
20
28.8417225
40
0.4844311
50
325.7294432
51
335.4036029
0
ARC
8
DEFAULT_255_2_778
10
60.0985497
20
28.7902979
40
0.3601181
50
335.3480342
51
348.4925267
0
ARC
8
DEFAULT_255_2_778
10
60.1575255
20
28.7774011
40
0.2997562
50
348.6592269
51
359.9131347
0
ARC
8
DEFAULT_255_2_778
10
60.1531061
20
28.773852
40
0.3041909
50
0.582908
51
34.8273111
0
ARC
8
DEFAULT_255_2_778
10
60.0399901
20
28.7003983
40
0.4390161
50
34.265502
51
49.947425
0
ARC
8
DEFAULT_255_2_778
10
60.0067757
20
28.6656127
40
0.4870257
50
49.5897997
51
58.6679078
0
ARC
8
DEFAULT_255_2_778
10
60.0862583
20
28.7992004
40
0.3315922
50
58.3959585
51
66.5908056
0
ARC
8
DEFAULT_255_2_778
10
60.1752445
20
29.0083686
40
0.1042967
50
65.799862
51
78.4097046
0
ARC
8
DEFAULT_255_2_778
10
60.0875525
20
28.6609233
40
0.4625558
50
76.4152879
51
88.2522243
0
ARC
8
DEFAULT_255_2_778
10
60.0922109
20
28.7371154
40
0.3862644
50
88.598188
51
89.9948234
0
ARC
8
DEFAULT_255_2_778
10
60.088513
20
28.8068662
40
0.3165356
50
89.3243305
51
145.0564069
0
ARC
8
DEFAULT_255_2_778
10
60.3200204
20
28.6285686
40
0.6085803
50
143.7803307
51
160.1593517
0
ARC
8
DEFAULT_255_2_778
10
60.6305813
20
28.5026049
40
0.9435497
50
159.3650319
51
163.1798379
0
ARC
8
DEFAULT_255_2_778
10
60.1277853
20
28.7379054
40
0.5213537
50
145.0551106
51
175.8495654
0
ARC
8
DEFAULT_255_2_778
10
60.0891367
20
28.7638238
40
0.4748283
50
90.2701096
51
144.9474696
0
ARC
8
DEFAULT_255_2_778
10
60.0868799
20
28.7757546
40
0.4628923
50
81.4328244
51
89.9977269
0
ARC
8
DEFAULT_255_2_778
10
60.0846057
20
28.7640303
40
0.4748249
50
65.2672636
51
81.3722232
0
ARC
8
DEFAULT_255_2_778
10
60.0762863
20
28.7441296
40
0.4963813
50
63.7025368
51
65.3561268
0
ARC
8
DEFAULT_255_2_778
10
60.1108724
20
28.7500236
40
0.4766213
50
46.2017944
51
67.1180386
0
ARC
8
DEFAULT_255_2_778
10
60.1364282
20
28.7818125
40
0.4360036
50
11.7189718
51
45.7344856
0
ARC
8
DEFAULT_255_2_778
10
60.103106
20
28.7721117
40
0.4706094
50
8.0772875
51
12.0514025
0
ARC
8
DEFAULT_255_2_778
10
60.0941875
20
28.7709177
40
0.4796071
50
359.992443
51
8.0688071
0
ARC
8
DEFAULT_255_2_778
10
60.121505
20
28.7683627
40
0.4522965
50
336.9172504
51
0.3156524
0
ARC
8
DEFAULT_255_2_778
10
60.2269072
20
28.7250507
40
0.3383551
50
322.5992801
51
336.6667063
0
LINE
8
DEFAULT_255_2_778
10
60.5253989
20
27.4365386
11
59.6175989
21
27.4365386
0
LINE
8
DEFAULT_255_2_778
10
59.6175989
20
27.4365386
11
59.6175989
21
27.5349386
0
LINE
8
DEFAULT_255_2_778
10
59.6175989
20
27.5349386
11
60.3856989
21
28.5689386
0
LINE
8
DEFAULT_255_2_778
10
59.7273989
20
28.7756386
11
59.6077989
21
28.7756386
0
LINE
8
DEFAULT_255_2_778
10
60.4956989
20
28.5195386
11
59.7672989
21
27.5347386
0
LINE
8
DEFAULT_255_2_778
10
59.7672989
20
27.5347386
11
60.5255989
21
27.5347386
0
LINE
8
DEFAULT_255_2_778
10
60.5255989
20
27.5347386
11
60.5253989
21
27.4365386
0
ARC
8
DEFAULT_255_2_778
10
58.5005709
20
28.8417225
40
0.4844311
50
325.7294432
51
335.4036029
0
ARC
8
DEFAULT_255_2_778
10
58.6137497
20
28.7902979
40
0.3601181
50
335.3480342
51
348.4925267
0
ARC
8
DEFAULT_255_2_778
10
58.6727255
20
28.7774011
40
0.2997562
50
348.6592269
51
359.9131347
0
ARC
8
DEFAULT_255_2_778
10
58.6683061
20
28.773852
40
0.3041909
50
0.582908
51
34.8273111
0
ARC
8
DEFAULT_255_2_778
10
58.5551901
20
28.7003983
40
0.4390161
50
34.265502
51
49.947425
0
ARC
8
DEFAULT_255_2_778
10
58.5219757
20
28.6656127
40
0.4870257
50
49.5897997
51
58.6679078
0
ARC
8
DEFAULT_255_2_778
10
58.6014583
20
28.7992004
40
0.3315922
50
58.3959585
51
66.5908056
0
ARC
8
DEFAULT_255_2_778
10
58.6904445
20
29.0083686
40
0.1042967
50
65.799862
51
78.4097046
0
ARC
8
DEFAULT_255_2_778
10
58.6027525
20
28.6609233
40
0.4625558
50
76.4152879
51
88.2522243
0
ARC
8
DEFAULT_255_2_778
10
58.6074109
20
28.7371154
40
0.3862644
50
88.598188
51
89.9948234
0
ARC
8
DEFAULT_255_2_778
10
58.603713
20
28.8068662
40
0.3165356
50
89.3243305
51
145.0564069
0
ARC
8
DEFAULT_255_2_778
10
58.8352204
20
28.6285686
40
0.6085803
50
143.7803307
51
160.1593517
0
ARC
8
DEFAULT_255_2_778
10
59.1457813
20
28.5026049
40
0.9435497
50
159.3650319
51
163.1798379
0
ARC
8
DEFAULT_255_2_778
10
58.6429853
20
28.7379054
40
0.5213537
50
145.0551106
51
175.8495654
0
ARC
8
DEFAULT_255_2_778
10
58.6043367
20
28.7638238
40
0.4748283
50
90.2701096
51
144.9474696
0
ARC
8
DEFAULT_255_2_778
10
58.6020799
20
28.7757546
40
0.4628923
50
81.4328244
51
89.9977269
0
ARC
8
DEFAULT_255_2_778
10
58.5998057
20
28.7640303
40
0.4748249
50
65.2672636
51
81.3722232
0
ARC
8
DEFAULT_255_2_778
10
58.5914863
20
28.7441296
40
0.4963813
50
63.7025368
51
65.3561268
0
ARC
8
DEFAULT_255_2_778
10
58.6260724
20
28.7500236
40
0.4766213
50
46.2017944
51
67.1180386
0
ARC
8
DEFAULT_255_2_778
10
58.6516282
20
28.7818125
40
0.4360036
50
11.7189718
51
45.7344856
0
ARC
8
DEFAULT_255_2_778
10
58.618306
20
28.7721117
40
0.4706094
50
8.0772875
51
12.0514025
0
ARC
8
DEFAULT_255_2_778
10
58.6093875
20
28.7709177
40
0.4796071
50
359.992443
51
8.0688071
0
ARC
8
DEFAULT_255_2_778
10
58.636705
20
28.7683627
40
0.4522965
50
336.9172504
51
0.3156524
0
ARC
8
DEFAULT_255_2_778
10
58.7421072
20
28.7250507
40
0.3383551
50
322.5992801
51
336.6667063
0
LINE
8
DEFAULT_255_2_778
10
59.0405989
20
27.4365386
11
58.1327989
21
27.4365386
0
LINE
8
DEFAULT_255_2_778
10
58.1327989
20
27.4365386
11
58.1327989
21
27.5349386
0
LINE
8
DEFAULT_255_2_778
10
58.1327989
20
27.5349386
11
58.9008989
21
28.5689386
0
LINE
8
DEFAULT_255_2_778
10
58.2425989
20
28.7756386
11
58.1229989
21
28.7756386
0
LINE
8
DEFAULT_255_2_778
10
59.0108989
20
28.5195386
11
58.2824989
21
27.5347386
0
LINE
8
DEFAULT_255_2_778
10
58.2824989
20
27.5347386
11
59.0407989
21
27.5347386
0
LINE
8
DEFAULT_255_2_778
10
59.0407989
20
27.5347386
11
59.0405989
21
27.4365386
0
ARC
8
DEFAULT_255_2_778
10
68.8263951
20
28.3582397
40
1.5972321
50
166.3516106
51
180.2410194
0
ARC
8
DEFAULT_255_2_778
10
68.3388924
20
28.4812395
40
1.0944814
50
151.4720816
51
166.5868734
0
ARC
8
DEFAULT_255_2_778
10
67.8862919
20
28.7341012
40
0.5761015
50
129.1208763
51
152.0692478
0
ARC
8
DEFAULT_255_2_778
10
67.7060295
20
28.9567347
40
0.2896413
50
91.1182183
51
129.243903
0
ARC
8
DEFAULT_255_2_778
10
67.6868376
20
28.9279348
40
0.3186737
50
40.156408
51
87.5649393
0
ARC
8
DEFAULT_255_2_778
10
67.3924398
20
28.64613
40
0.7258565
50
23.0538787
51
42.1720056
0
ARC
8
DEFAULT_255_2_778
10
66.8974202
20
28.4258063
40
1.2676514
50
9.1997436
51
23.4552453
0
ARC
8
DEFAULT_255_2_778
10
66.5144865
20
28.3544511
40
1.6570932
50
359.8986815
51
9.5183693
0
ARC
8
DEFAULT_255_2_778
10
66.5702063
20
28.3449687
40
1.6013842
50
346.5576832
51
0.2344284
0
ARC
8
DEFAULT_255_2_778
10
67.0492158
20
28.2261916
40
1.1078937
50
332.0435574
51
346.7733172
0
ARC
8
DEFAULT_255_2_778
10
67.5012285
20
27.9795654
40
0.5930403
50
310.3696963
51
332.61768
0
ARC
8
DEFAULT_255_2_778
10
67.6939285
20
27.7499159
40
0.293266
50
271.2599688
51
310.7474287
0
ARC
8
DEFAULT_255_2_778
10
67.7139451
20
27.7750693
40
0.3186375
50
220.1530999
51
267.5595329
0
ARC
8
DEFAULT_255_2_778
10
68.0085009
20
28.05704
40
0.726048
50
203.0584617
51
222.1719896
0
ARC
8
DEFAULT_255_2_778
10
68.5032971
20
28.2773143
40
1.2676187
50
189.2035998
51
203.4597779
0
ARC
8
DEFAULT_255_2_778
10
68.8856272
20
28.348592
40
1.6564527
50
179.8986943
51
189.5221368
0
ARC
8
DEFAULT_255_2_778
10
68.8989029
20
28.3636081
40
1.5707396
50
167.4527266
51
180.2402841
0
ARC
8
DEFAULT_255_2_778
10
68.3712547
20
28.4860345
40
1.0291081
50
153.332137
51
167.7240664
0
ARC
8
DEFAULT_255_2_778
10
67.8969862
20
28.7307367
40
0.4954983
50
131.4954805
51
154.0041356
0
ARC
8
DEFAULT_255_2_778
10
67.7154457
20
28.9380684
40
0.219928
50
91.5030006
51
131.8587926
0
ARC
8
DEFAULT_255_2_778
10
67.6965957
20
28.9134215
40
0.244849
50
37.8996291
51
86.9374374
0
ARC
8
DEFAULT_255_2_778
10
67.4020558
20
28.649688
40
0.6398506
50
21.3757779
51
40.3341175
0
ARC
8
DEFAULT_255_2_778
10
66.8727335
20
28.4312341
40
1.2124291
50
8.443802
51
21.8718599
0
ARC
8
DEFAULT_255_2_778
10
66.4584145
20
28.359872
40
1.632765
50
359.8999485
51
8.7859541
0
ARC
8
DEFAULT_255_2_778
10
66.5204513
20
28.3504335
40
1.5707396
50
347.4527266
51
0.2402841
0
ARC
8
DEFAULT_255_2_778
10
67.0480995
20
28.2280071
40
1.0291081
50
333.332137
51
347.7240664
0
ARC
8
DEFAULT_255_2_778
10
67.522368
20
27.983305
40
0.4954983
50
311.4954805
51
334.0041356
0
ARC
8
DEFAULT_255_2_778
10
67.7039085
20
27.7759733
40
0.219928
50
271.5030006
51
311.8587926
0
ARC
8
DEFAULT_255_2_778
10
67.7227585
20
27.8006201
40
0.244849
50
217.8996291
51
266.9374374
0
ARC
8
DEFAULT_255_2_778
10
68.0172984
20
28.0643536
40
0.6398506
50
201.3757779
51
220.3341175
0
ARC
8
DEFAULT_255_2_778
10
68.5466207
20
28.2828075
40
1.2124291
50
188.443802
51
201.8718599
0
ARC
8
DEFAULT_255_2_778
10
68.9609397
20
28.3541696
40
1.632765
50
179.8999485
51
188.7859541
0
LINE
8
DEFAULT_255_2_778
10
67.2291771
20
28.3515208
11
67.2291771
21
28.3515208
0
LINE
8
DEFAULT_255_2_778
10
67.3281771
20
28.3570208
11
67.3281771
21
28.3570208
0
ARC
8
DEFAULT_255_2_778
10
64.1913951
20
28.3582397
40
1.5972321
50
166.3516106
51
180.2410194
0
ARC
8
DEFAULT_255_2_778
10
63.7038924
20
28.4812395
40
1.0944814
50
151.4720816
51
166.5868734
0
ARC
8
DEFAULT_255_2_778
10
63.2512919
20
28.7341012
40
0.5761015
50
129.1208763
51
152.0692478
0
ARC
8
DEFAULT_255_2_778
10
63.0710295
20
28.9567347
40
0.2896413
50
91.1182183
51
129.243903
0
ARC
8
DEFAULT_255_2_778
10
63.0518091
20
28.9279723
40
0.3186375
50
40.1530999
51
87.5595329
0
ARC
8
DEFAULT_255_2_778
10
62.7572533
20
28.6460016
40
0.726048
50
23.0584617
51
42.1719896
0
ARC
8
DEFAULT_255_2_778
10
62.2624571
20
28.4257274
40
1.2676187
50
9.2035998
51
23.4597779
0
ARC
8
DEFAULT_255_2_778
10
61.880127
20
28.3544496
40
1.6564527
50
359.8986943
51
9.5221368
0
ARC
8
DEFAULT_255_2_778
10
61.9356862
20
28.3449797
40
1.6009043
50
346.5531715
51
0.2341042
0
ARC
8
DEFAULT_255_2_778
10
62.4141383
20
28.2262963
40
1.1079772
50
332.0397227
51
346.7687697
0
ARC
8
DEFAULT_255_2_778
10
62.8660637
20
27.9796746
40
0.5932028
50
310.3718777
51
332.6139283
0
ARC
8
DEFAULT_255_2_778
10
63.0589106
20
27.7498486
40
0.2931991
50
271.2637507
51
310.7523997
0
ARC
8
DEFAULT_255_2_778
10
63.0789451
20
27.7750693
40
0.3186375
50
220.1530999
51
267.5595329
0
ARC
8
DEFAULT_255_2_778
10
63.3735009
20
28.05704
40
0.726048
50
203.0584617
51
222.1719896
0
ARC
8
DEFAULT_255_2_778
10
63.8682971
20
28.2773143
40
1.2676187
50
189.2035998
51
203.4597779
0
ARC
8
DEFAULT_255_2_778
10
64.2506272
20
28.348592
40
1.6564527
50
179.8986943
51
189.5221368
0
ARC
8
DEFAULT_255_2_778
10
64.2639029
20
28.3636081
40
1.5707396
50
167.4527266
51
180.2402841
0
ARC
8
DEFAULT_255_2_778
10
63.7362547
20
28.4860345
40
1.0291081
50
153.332137
51
167.7240664
0
ARC
8
DEFAULT_255_2_778
10
63.2619862
20
28.7307367
40
0.4954983
50
131.4954805
51
154.0041356
0
ARC
8
DEFAULT_255_2_778
10
63.0804457
20
28.9380684
40
0.219928
50
91.5030006
51
131.8587926
0
ARC
8
DEFAULT_255_2_778
10
63.0615957
20
28.9134215
40
0.244849
50
37.8996291
51
86.9374374
0
ARC
8
DEFAULT_255_2_778
10
62.7670558
20
28.649688
40
0.6398506
50
21.3757779
51
40.3341175
0
ARC
8
DEFAULT_255_2_778
10
62.2377335
20
28.4312341
40
1.2124291
50
8.443802
51
21.8718599
0
ARC
8
DEFAULT_255_2_778
10
61.8234145
20
28.359872
40
1.632765
50
359.8999485
51
8.7859541
0
ARC
8
DEFAULT_255_2_778
10
61.8854513
20
28.3504335
40
1.5707396
50
347.4527266
51
0.2402841
0
ARC
8
DEFAULT_255_2_778
10
62.4130995
20
28.2280071
40
1.0291081
50
333.332137
51
347.7240664
0
ARC
8
DEFAULT_255_2_778
10
62.887368
20
27.983305
40
0.4954983
50
311.4954805
51
334.0041356
0
ARC
8
DEFAULT_255_2_778
10
63.0689085
20
27.7759733
40
0.219928
50
271.5030006
51
311.8587926
0
ARC
8
DEFAULT_255_2_778
10
63.0877585
20
27.8006201
40
0.244849
50
217.8996291
51
266.9374374
0
ARC
8
DEFAULT_255_2_778
10
63.3822984
20
28.0643536
40
0.6398506
50
201.3757779
51
220.3341175
0
ARC
8
DEFAULT_255_2_778
10
63.9116207
20
28.2828075
40
1.2124291
50
188.443802
51
201.8718599
0
ARC
8
DEFAULT_255_2_778
10
64.3259397
20
28.3541696
40
1.632765
50
179.8999485
51
188.7859541
0
LINE
8
DEFAULT_255_2_778
10
62.5941771
20
28.3515208
11
62.5941771
21
28.3515208
0
LINE
8
DEFAULT_255_2_778
10
62.6931771
20
28.3570208
11
62.6931771
21
28.3570208
0
LINE
8
DEFAULT_255_2_778
10
54.9442865
20
27.4913031
11
54.9434865
21
29.2060031
0
LINE
8
DEFAULT_255_2_778
10
54.9434865
20
29.2060031
11
55.0344865
21
29.2060031
0
LINE
8
DEFAULT_255_2_778
10
55.0344865
20
29.2060031
11
55.0344865
21
28.1228031
0
LINE
8
DEFAULT_255_2_778
10
55.0344865
20
28.1228031
11
56.1094865
21
29.2473031
0
LINE
8
DEFAULT_255_2_778
10
56.1094865
20
29.2473031
11
56.1592865
21
29.1976031
0
LINE
8
DEFAULT_255_2_778
10
56.1592865
20
29.1976031
11
55.3490865
21
28.3459031
0
LINE
8
DEFAULT_255_2_778
10
55.3490865
20
28.3459031
11
56.1676865
21
27.4860031
0
LINE
8
DEFAULT_255_2_778
10
56.1676865
20
27.4860031
11
56.1181865
21
27.4447031
0
LINE
8
DEFAULT_255_2_778
10
56.1181865
20
27.4447031
11
55.2995865
21
28.3046031
0
LINE
8
DEFAULT_255_2_778
10
55.2995865
20
28.3046031
11
55.0349865
21
28.0318031
0
LINE
8
DEFAULT_255_2_778
10
55.0349865
20
28.0318031
11
55.0349865
21
27.4944031
0
LINE
8
DEFAULT_255_2_778
10
55.0349865
20
27.4944031
11
54.9439865
21
27.4944031
0
ARC
8
DEFAULT_255_2_778
10
55.0523951
20
28.3463397
40
1.5972321
50
166.3516106
51
180.2410194
0
ARC
8
DEFAULT_255_2_778
10
54.5648924
20
28.4693395
40
1.0944814
50
151.4720816
51
166.5868734
0
ARC
8
DEFAULT_255_2_778
10
54.1122919
20
28.7222012
40
0.5761015
50
129.1208763
51
152.0692478
0
ARC
8
DEFAULT_255_2_778
10
53.9320295
20
28.9448347
40
0.2896413
50
91.1182183
51
129.243903
0
ARC
8
DEFAULT_255_2_778
10
53.9128376
20
28.9160348
40
0.3186737
50
40.156408
51
87.5649393
0
ARC
8
DEFAULT_255_2_778
10
53.6184398
20
28.63423
40
0.7258565
50
23.0538787
51
42.1720056
0
ARC
8
DEFAULT_255_2_778
10
53.1234202
20
28.4139063
40
1.2676514
50
9.1997436
51
23.4552453
0
ARC
8
DEFAULT_255_2_778
10
52.7404865
20
28.3425511
40
1.6570932
50
359.8986815
51
9.5183693
0
ARC
8
DEFAULT_255_2_778
10
52.7962063
20
28.3330687
40
1.6013842
50
346.5576832
51
0.2344284
0
ARC
8
DEFAULT_255_2_778
10
53.2752158
20
28.2142916
40
1.1078937
50
332.0435574
51
346.7733172
0
ARC
8
DEFAULT_255_2_778
10
53.7272285
20
27.9676654
40
0.5930403
50
310.3696963
51
332.61768
0
ARC
8
DEFAULT_255_2_778
10
53.9199285
20
27.7380159
40
0.293266
50
271.2599688
51
310.7474287
0
ARC
8
DEFAULT_255_2_778
10
53.9399451
20
27.7631693
40
0.3186375
50
220.1530999
51
267.5595329
0
ARC
8
DEFAULT_255_2_778
10
54.2345009
20
28.04514
40
0.726048
50
203.0584617
51
222.1719896
0
ARC
8
DEFAULT_255_2_778
10
54.7292971
20
28.2654143
40
1.2676187
50
189.2035998
51
203.4597779
0
ARC
8
DEFAULT_255_2_778
10
55.1116272
20
28.336692
40
1.6564527
50
179.8986943
51
189.5221368
0
ARC
8
DEFAULT_255_2_778
10
55.1249029
20
28.3517081
40
1.5707396
50
167.4527266
51
180.2402841
0
ARC
8
DEFAULT_255_2_778
10
54.5972547
20
28.4741345
40
1.0291081
50
153.332137
51
167.7240664
0
ARC
8
DEFAULT_255_2_778
10
54.1229862
20
28.7188367
40
0.4954983
50
131.4954805
51
154.0041356
0
ARC
8
DEFAULT_255_2_778
10
53.9414457
20
28.9261684
40
0.219928
50
91.5030006
51
131.8587926
0
ARC
8
DEFAULT_255_2_778
10
53.9225957
20
28.9015215
40
0.244849
50
37.8996291
51
86.9374374
0
ARC
8
DEFAULT_255_2_778
10
53.6280558
20
28.637788
40
0.6398506
50
21.3757779
51
40.3341175
0
ARC
8
DEFAULT_255_2_778
10
53.0987335
20
28.4193341
40
1.2124291
50
8.443802
51
21.8718599
0
ARC
8
DEFAULT_255_2_778
10
52.6844145
20
28.347972
40
1.632765
50
359.8999485
51
8.7859541
0
ARC
8
DEFAULT_255_2_778
10
52.7464513
20
28.3385335
40
1.5707396
50
347.4527266
51
0.2402841
0
ARC
8
DEFAULT_255_2_778
10
53.2740995
20
28.2161071
40
1.0291081
50
333.332137
51
347.7240664
0
ARC
8
DEFAULT_255_2_778
10
53.748368
20
27.971405
40
0.4954983
50
311.4954805
51
334.0041356
0
ARC
8
DEFAULT_255_2_778
10
53.9299085
20
27.7640733
40
0.219928
50
271.5030006
51
311.8587926
0
ARC
8
DEFAULT_255_2_778
10
53.9487585
20
27.7887201
40
0.244849
50
217.8996291
51
266.9374374
0
ARC
8
DEFAULT_255_2_778
10
54.2432984
20
28.0524536
40
0.6398506
50
201.3757779
51
220.3341175
0
ARC
8
DEFAULT_255_2_778
10
54.7726207
20
28.2709075
40
1.2124291
50
188.443802
51
201.8718599
0
ARC
8
DEFAULT_255_2_778
10
55.1869397
20
28.3422696
40
1.632765
50
179.8999485
51
188.7859541
0
LINE
8
DEFAULT_255_2_778
10
53.4551771
20
28.3396208
11
53.4551771
21
28.3396208
0
LINE
8
DEFAULT_255_2_778
10
53.5541771
20
28.3451208
11
53.5541771
21
28.3451208
0
ARC
8
DEFAULT_255_2_778
10
57.0407401
20
28.1217052
40
0.5946157
50
278.8401513
51
293.4277613
0
ARC
8
DEFAULT_255_2_778
10
57.1261844
20
27.9266308
40
0.3816517
50
293.3016067
51
317.0604248
0
ARC
8
DEFAULT_255_2_778
10
57.1292478
20
27.9159689
40
0.3721898
50
317.9407645
51
340.918338
0
ARC
8
DEFAULT_255_2_778
10
56.9418344
20
27.9820872
40
0.5709217
50
340.7961983
51
351.3917185
0
ARC
8
DEFAULT_255_2_778
10
56.6568572
20
28.0324844
40
0.8602618
50
350.9138667
51
351.8448662
0
ARC
8
DEFAULT_255_2_778
10
57.1015543
20
28.7488256
40
0.4102676
50
7.3840588
51
85.7274581
0
ARC
8
DEFAULT_255_2_778
10
57.1471737
20
27.8904043
40
0.4460327
50
273.1675424
51
294.3209057
0
ARC
8
DEFAULT_255_2_778
10
57.1498298
20
27.8707642
40
0.4270792
50
295.0813753
51
324.4830125
0
ARC
8
DEFAULT_255_2_778
10
57.0705318
20
27.9337638
40
0.5282482
50
323.9178654
51
331.1832384
0
ARC
8
DEFAULT_255_2_778
10
57.0089434
20
27.9670657
40
0.598262
50
331.2319126
51
342.0866287
0
ARC
8
DEFAULT_255_2_778
10
57.0486026
20
27.9560767
40
0.5571479
50
341.9074859
51
349.2710117
0
ARC
8
DEFAULT_255_2_778
10
57.1684328
20
27.9318182
40
0.4348991
50
349.4721026
51
350.6220577
0
ARC
8
DEFAULT_255_2_778
10
57.095967
20
28.7430858
40
0.5110693
50
11.0743166
51
63.4840059
0
ARC
8
DEFAULT_255_2_778
10
57.0845768
20
28.7465602
40
0.5131799
50
62.1727802
51
63.3275411
0
ARC
8
DEFAULT_255_2_778
10
57.1247114
20
28.8344084
40
0.4166792
50
62.8365905
51
77.2926654
0
ARC
8
DEFAULT_255_2_778
10
57.1597889
20
28.9849364
40
0.2621244
50
77.5345167
51
89.5561063
0
ARC
8
DEFAULT_255_2_778
10
49.5229464
20
28.7405724
40
0.5190682
50
148.2779947
51
173.8975271
0
ARC
8
DEFAULT_255_2_778
10
49.4959403
20
28.7511782
40
0.4905473
50
90.3449363
51
147.6731506
0
ARC
8
DEFAULT_255_2_778
10
49.4962791
20
28.7491925
40
0.4925351
50
90.0035154
51
90.382953
0
ARC
8
DEFAULT_255_2_778
10
49.4992655
20
28.7884539
40
0.4532838
50
50.4944064
51
90.3813118
0
ARC
8
DEFAULT_255_2_778
10
49.4970748
20
28.7881295
40
0.4549301
50
45.0426294
51
50.3075111
0
ARC
8
DEFAULT_255_2_778
10
49.2781321
20
28.6419644
40
0.7149305
50
36.0808463
51
40.8994105
0
ARC
8
DEFAULT_255_2_778
10
49.3277161
20
28.6783669
40
0.6534189
50
32.1724993
51
36.0616658
0
ARC
8
DEFAULT_255_2_778
10
49.39306
20
28.7177234
40
0.5771546
50
20.2417731
51
32.3194654
0
ARC
8
DEFAULT_255_2_778
10
49.4545952
20
28.7407526
40
0.5114522
50
5.2825727
51
20.2062828
0
ARC
8
DEFAULT_255_2_778
10
49.4696671
20
28.7428001
40
0.496256
50
0.0010608
51
5.2073915
0
ARC
8
DEFAULT_255_2_778
10
49.4664309
20
28.7430824
40
0.4994924
50
337.6788696
51
359.9686706
0
ARC
8
DEFAULT_255_2_778
10
49.508904
20
28.7229836
40
0.452575
50
319.5778841
51
337.9905074
0
ARC
8
DEFAULT_255_2_778
10
49.6173371
20
28.6310536
40
0.3104177
50
306.0413495
51
319.5180274
0
ARC
8
DEFAULT_255_2_778
10
49.689082
20
28.5319537
40
0.1880739
50
290.8636747
51
306.1311985
0
ARC
8
DEFAULT_255_2_778
10
49.7173129
20
28.4573111
40
0.1082714
50
270.9032042
51
290.9715176
0
ARC
8
DEFAULT_255_2_778
10
49.5713431
20
27.995345
40
0.3832984
50
41.8110663
51
67.3389946
0
ARC
8
DEFAULT_255_2_778
10
49.5141564
20
27.9641548
40
0.4469639
50
0.1505562
51
39.903588
0
ARC
8
DEFAULT_255_2_778
10
49.3704899
20
27.946458
40
0.5909303
50
359.9963371
51
1.8300373
0
ARC
8
DEFAULT_255_2_778
10
49.3401357
20
27.9466891
40
0.6212845
50
338.0131271
51
359.9752112
0
ARC
8
DEFAULT_255_2_778
10
49.5346687
20
27.8647902
40
0.4102494
50
320.1976661
51
338.4475225
0
ARC
8
DEFAULT_255_2_778
10
49.6675254
20
27.7585871
40
0.2402211
50
308.944198
51
319.3734062
0
ARC
8
DEFAULT_255_2_778
10
49.4381942
20
28.0385029
40
0.6020821
50
275.9729755
51
309.1744438
0
ARC
8
DEFAULT_255_2_778
10
49.4452395
20
27.9873784
40
0.5505046
50
270.0278982
51
275.7973897
0
ARC
8
DEFAULT_255_2_778
10
49.430318
20
27.856996
40
0.4203967
50
211.6968426
51
272.0706388
0
ARC
8
DEFAULT_255_2_778
10
49.5120208
20
27.895926
40
0.5104619
50
190.9397943
51
210.5961713
0
ARC
8
DEFAULT_255_2_778
10
49.6981761
20
27.9378377
40
0.7012122
50
183.5635797
51
191.41551
0
ARC
8
DEFAULT_255_2_778
10
49.6908992
20
28.639828
40
0.6175478
50
151.6639324
51
166.942199
0
ARC
8
DEFAULT_255_2_778
10
49.5363455
20
28.7241285
40
0.4415011
50
129.2048276
51
151.7731627
0
ARC
8
DEFAULT_255_2_778
10
49.4921942
20
28.7755895
40
0.3737203
50
95.2839326
51
128.9466118
0
ARC
8
DEFAULT_255_2_778
10
49.4922996
20
28.7729947
40
0.3763139
50
89.9974244
51
95.2635329
0
ARC
8
DEFAULT_255_2_778
10
49.494074
20
28.7801312
40
0.3691815
50
45.6558419
51
90.2727507
0
ARC
8
DEFAULT_255_2_778
10
49.3160472
20
28.7328558
40
0.5357846
50
6.8907965
51
35.5217465
0
ARC
8
DEFAULT_255_2_778
10
49.2799799
20
28.7234529
40
0.5727414
50
0.0283883
51
7.3917611
0
ARC
8
DEFAULT_255_2_778
10
49.3991951
20
28.7155368
40
0.4536002
50
333.4854135
51
1.0358084
0
ARC
8
DEFAULT_255_2_778
10
49.5974787
20
28.6096811
40
0.2289992
50
270.0692881
51
335.0376072
0
ARC
8
DEFAULT_255_2_778
10
49.5978411
20
28.6467553
40
0.2660731
50
266.5910112
51
269.9815905
0
ARC
8
DEFAULT_255_2_778
10
49.6886366
20
28.0483711
40
0.61768
50
193.0542953
51
208.3319672
0
ARC
8
DEFAULT_255_2_778
10
49.5338637
20
27.9639619
40
0.441389
50
208.2221488
51
230.7969984
0
ARC
8
DEFAULT_255_2_778
10
49.4896323
20
27.9123987
40
0.3734784
50
231.0553311
51
264.7375776
0
ARC
8
DEFAULT_255_2_778
10
49.4897401
20
27.9150333
40
0.3761118
50
264.7580295
51
270.0024049
0
ARC
8
DEFAULT_255_2_778
10
49.4914817
20
27.9081297
40
0.3692122
50
269.7321783
51
314.3812394
0
ARC
8
DEFAULT_255_2_778
10
49.3086495
20
27.9594409
40
0.5421127
50
324.4504752
51
352.652333
0
ARC
8
DEFAULT_255_2_778
10
49.2771498
20
27.9683226
40
0.5745096
50
352.17559
51
359.9634672
0
ARC
8
DEFAULT_255_2_778
10
49.4019589
20
27.9761135
40
0.4497746
50
358.9608154
51
26.0519426
0
ARC
8
DEFAULT_255_2_778
10
49.5997622
20
28.0797845
40
0.2266245
50
24.4677333
51
90.0364989
0
ARC
8
DEFAULT_255_2_778
10
49.5996979
20
28.0399707
40
0.2664383
50
90.0171975
51
93.3519104
0
ARC
8
DEFAULT_255_2_778
10
50.9363318
20
28.0829858
40
0.4037066
50
49.4669546
51
83.4447249
0
ARC
8
DEFAULT_255_2_778
10
50.8990847
20
28.0585606
40
0.4466501
50
4.818555
51
47.8715621
0
ARC
8
DEFAULT_255_2_778
10
50.8540545
20
28.0468127
40
0.4925718
50
0.0103897
51
5.7402852
0
ARC
8
DEFAULT_255_2_778
10
50.8632339
20
28.0468804
40
0.4833925
50
357.6492303
51
0.0025667
0
ARC
8
DEFAULT_255_2_778
10
50.7150481
20
28.0378062
40
0.6312631
50
334.2998832
51
359.0239547
0
ARC
8
DEFAULT_255_2_778
10
50.8998284
20
27.9428386
40
0.4236133
50
298.4149715
51
335.0358323
0
ARC
8
DEFAULT_255_2_778
10
50.9644844
20
27.8359026
40
0.2988536
50
270.2943324
51
297.2683108
0
ARC
8
DEFAULT_255_2_778
10
50.9869625
20
27.9345602
40
0.3980585
50
198.7000961
51
266.9841301
0
ARC
8
DEFAULT_255_2_778
10
51.2832384
20
28.0900515
40
0.7304208
50
194.8824171
51
202.8055441
0
ARC
8
DEFAULT_255_2_778
10
51.0050359
20
27.9458252
40
0.5205264
50
184.7796422
51
226.7328447
0
ARC
8
DEFAULT_255_2_778
10
50.9531698
20
27.8895009
40
0.4439646
50
226.6247369
51
269.5031109
0
ARC
8
DEFAULT_255_2_778
10
50.9737255
20
27.8559825
40
0.4111545
50
266.5969545
51
269.9942088
0
ARC
8
DEFAULT_255_2_778
10
50.9580487
20
27.8982213
40
0.4536626
50
271.9750592
51
336.6395603
0
ARC
8
DEFAULT_255_2_778
10
50.7941378
20
27.9972889
40
0.6439423
50
334.3296438
51
0.3268878
0
ARC
8
DEFAULT_255_2_778
10
50.7400209
20
28.0009152
40
0.6980488
50
0.0039041
51
2.8278053
0
ARC
8
DEFAULT_255_2_778
10
50.9072203
20
28.0676114
40
0.5309802
50
356.5169909
51
0.002574
0
ARC
8
DEFAULT_255_2_778
10
50.9209269
20
28.0754602
40
0.5173327
50
359.1333364
51
64.5307087
0
ARC
8
DEFAULT_255_2_778
10
50.9829329
20
28.1668772
40
0.408476
50
66.8693653
51
90.0719975
0
LINE
8
DEFAULT_255_2_778
10
61.1530196
20
28.255153
11
62.0129196
21
28.255153
0
LINE
8
DEFAULT_255_2_778
10
62.0129196
20
28.255153
11
62.0129196
21
28.164153
0
LINE
8
DEFAULT_255_2_778
10
62.0129196
20
28.164153
11
61.1530196
21
28.164153
0
LINE
8
DEFAULT_255_2_778
10
61.1530196
20
28.164153
11
61.1530196
21
28.255153
0
LINE
8
DEFAULT_255_2_778
10
56.7855196
20
29.158153
11
56.7855196
21
27.534153
0
LINE
8
DEFAULT_255_2_778
10
56.7855196
20
27.534153
11
57.1321196
21
27.534153
0
LINE
8
DEFAULT_255_2_778
10
57.5084196
20
27.910453
11
57.5084196
21
28.801553
0
LINE
8
DEFAULT_255_2_778
10
57.1321196
20
29.157953
11
56.7855196
21
29.158153
0
LINE
8
DEFAULT_255_2_778
10
56.6964196
20
29.247353
11
56.6964196
21
27.445053
0
LINE
8
DEFAULT_255_2_778
10
56.6964196
20
27.445053
11
57.1718196
21
27.445053
0
LINE
8
DEFAULT_255_2_778
10
57.5975196
20
27.860953
11
57.5975196
21
28.841253
0
LINE
8
DEFAULT_255_2_778
10
57.1618196
20
29.247053
11
56.6964196
21
29.247353
0
LINE
8
DEFAULT_255_2_778
10
49.0867196
20
28.775053
11
49.0068196
21
28.795753
0
LINE
8
DEFAULT_255_2_778
10
49.5841196
20
28.305953
11
49.5822196
21
28.381353
0
LINE
8
DEFAULT_255_2_778
10
49.0893196
20
27.911253
11
48.9983196
21
27.894853
0
LINE
8
DEFAULT_255_2_778
10
51.3957196
20
29.248153
11
50.4863196
21
29.248153
0
LINE
8
DEFAULT_255_2_778
10
50.4863196
20
29.248153
11
50.4863196
21
28.484053
0
LINE
8
DEFAULT_255_2_778
10
50.4863196
20
28.484053
11
50.9824196
21
28.484053
0
LINE
8
DEFAULT_255_2_778
10
50.5773196
20
27.902453
11
50.4863196
21
27.902453
0
LINE
8
DEFAULT_255_2_778
10
50.9824196
20
28.575353
11
50.5773196
21
28.575353
0
LINE
8
DEFAULT_255_2_778
10
50.5773196
20
28.575353
11
50.5773196
21
29.165053
0
LINE
8
DEFAULT_255_2_778
10
50.5773196
20
29.165053
11
51.3960196
21
29.165053
0
LINE
8
DEFAULT_255_2_778
10
51.3960196
20
29.165053
11
51.3957196
21
29.248153
0
LINE
8
DEFAULT_255_2_778
10
52.0164196
20
28.255153
11
52.8763196
21
28.255153
0
LINE
8
DEFAULT_255_2_778
10
52.8763196
20
28.255153
11
52.8763196
21
28.164153
0
LINE
8
DEFAULT_255_2_778
10
52.8763196
20
28.164153
11
52.0164196
21
28.164153
0
LINE
8
DEFAULT_255_2_778
10
52.0164196
20
28.164153
11
52.0164196
21
28.255153
0
LINE
8
DEFAULT_255_2_778
10
64.1211196
20
29.247353
11
64.5262196
21
28.436953
0
LINE
8
DEFAULT_255_2_778
10
64.5262196
20
28.436953
11
64.9312196
21
29.247053
0
LINE
8
DEFAULT_255_2_778
10
64.9312196
20
29.247053
11
65.0141196
21
29.214053
0
LINE
8
DEFAULT_255_2_778
10
65.0141196
20
29.214053
11
64.5759196
21
28.345953
0
LINE
8
DEFAULT_255_2_778
10
64.5759196
20
28.345953
11
65.0059196
21
27.477853
0
LINE
8
DEFAULT_255_2_778
10
65.0059196
20
27.477853
11
64.9315196
21
27.444753
0
LINE
8
DEFAULT_255_2_778
10
64.9315196
20
27.444753
11
64.5346196
21
28.254953
0
LINE
8
DEFAULT_255_2_778
10
64.5346196
20
28.254953
11
64.1214196
21
27.444753
0
LINE
8
DEFAULT_255_2_778
10
64.1214196
20
27.444753
11
64.0470196
21
27.477853
0
LINE
8
DEFAULT_255_2_778
10
64.0470196
20
27.477853
11
64.4852196
21
28.345953
0
LINE
8
DEFAULT_255_2_778
10
64.4852196
20
28.345953
11
64.0552196
21
29.214053
0
LINE
8
DEFAULT_255_2_778
10
64.0552196
20
29.214053
11
64.1211196
21
29.247353
0
LINE
8
DEFAULT_255_2_778
10
2.5507196
20
25.046353
11
20.1008196
21
25.046353
0
LINE
8
DEFAULT_255_2_778
10
20.1008196
20
25.046353
11
20.1008196
21
21.946453
0
LINE
8
DEFAULT_255_2_778
10
20.1008196
20
21.946453
11
2.5507196
21
21.946453
0
LINE
8
DEFAULT_255_2_778
10
2.5507196
20
21.946453
11
2.5507196
21
25.046353
0
LINE
8
DEFAULT_255_2_778
10
2.6507742
20
24.9462489
11
20.0008742
21
24.9462489
0
LINE
8
DEFAULT_255_2_778
10
20.0008742
20
24.9462489
11
20.0008742
21
22.0461489
0
LINE
8
DEFAULT_255_2_778
10
20.0008742
20
22.0461489
11
2.6507742
21
22.0461489
0
LINE
8
DEFAULT_255_2_778
10
2.6507742
20
22.0461489
11
2.6507742
21
24.9462489
0
LINE
8
DEFAULT_255_2_778
10
12.1005531
20
24.2139083
11
12.1005531
21
22.7513083
0
LINE
8
DEFAULT_255_2_778
10
12.1005531
20
22.7513083
11
12.8506531
21
22.7513083
0
LINE
8
DEFAULT_255_2_778
10
12.175698
20
24.2138385
11
12.175698
21
22.8264385
0
LINE
8
DEFAULT_255_2_778
10
12.175698
20
22.8264385
11
12.850598
21
22.8264385
0
LINE
8
DEFAULT_255_2_778
10
14.049998
20
23.4632385
11
13.749998
21
23.4632385
0
LINE
8
DEFAULT_255_2_778
10
13.749998
20
23.4632385
11
13.752098
21
23.7641385
0
LINE
8
DEFAULT_255_2_778
10
13.752098
20
23.7641385
11
13.678498
21
23.7633385
0
LINE
8
DEFAULT_255_2_778
10
13.678498
20
23.7633385
11
13.678498
21
23.4632385
0
LINE
8
DEFAULT_255_2_778
10
13.678498
20
23.4632385
11
13.378498
21
23.4632385
0
LINE
8
DEFAULT_255_2_778
10
13.378498
20
23.4632385
11
13.380098
21
23.3836385
0
LINE
8
DEFAULT_255_2_778
10
13.380098
20
23.3836385
11
13.675098
21
23.3883385
0
LINE
8
DEFAULT_255_2_778
10
13.675098
20
23.3883385
11
13.677698
21
23.0859385
0
LINE
8
DEFAULT_255_2_778
10
13.677698
20
23.0859385
11
13.752098
21
23.0859385
0
LINE
8
DEFAULT_255_2_778
10
13.752098
20
23.0859385
11
13.749998
21
23.3883385
0
LINE
8
DEFAULT_255_2_778
10
13.749998
20
23.3883385
11
14.049998
21
23.3883385
0
LINE
8
DEFAULT_255_2_778
10
14.049998
20
23.3883385
11
14.049698
21
23.4664385
0
LINE
8
DEFAULT_255_2_778
10
8.458598
20
22.7830385
11
8.472298
21
24.1511385
0
LINE
8
DEFAULT_255_2_778
10
8.472298
20
24.1511385
11
8.044798
21
23.3058385
0
LINE
8
DEFAULT_255_2_778
10
8.044798
20
23.3058385
11
7.969598
21
23.3058385
0
LINE
8
DEFAULT_255_2_778
10
7.969598
20
23.3058385
11
7.541998
21
24.1511385
0
LINE
8
DEFAULT_255_2_778
10
7.541998
20
24.1511385
11
7.555798
21
22.7830385
0
LINE
8
DEFAULT_255_2_778
10
7.555798
20
22.7830385
11
7.482298
21
22.7814385
0
LINE
8
DEFAULT_255_2_778
10
7.482298
20
22.7814385
11
7.480398
21
24.2530385
0
LINE
8
DEFAULT_255_2_778
10
7.480398
20
24.2530385
11
7.555498
21
24.2530385
0
LINE
8
DEFAULT_255_2_778
10
7.555498
20
24.2530385
11
8.006898
21
23.3939385
0
LINE
8
DEFAULT_255_2_778
10
8.006898
20
23.3939385
11
8.458298
21
24.2530385
0
LINE
8
DEFAULT_255_2_778
10
8.458298
20
24.2530385
11
8.533398
21
24.2530385
0
LINE
8
DEFAULT_255_2_778
10
8.533398
20
24.2530385
11
8.532398
21
22.7811385
0
LINE
8
DEFAULT_255_2_778
10
8.532398
20
22.7811385
11
8.456398
21
22.7811385
0
LINE
8
DEFAULT_255_2_778
10
12.0974587
20
24.2203291
11
12.0974587
21
22.7484291
0
LINE
8
DEFAULT_255_2_778
10
12.0974587
20
22.7484291
11
12.8581587
21
22.7484291
0
LINE
8
DEFAULT_255_2_778
10
12.8581587
20
22.7484291
11
12.8581587
21
22.8309291
0
LINE
8
DEFAULT_255_2_778
10
12.8581587
20
22.8309291
11
12.1802587
21
22.8309291
0
LINE
8
DEFAULT_255_2_778
10
12.1802587
20
22.8309291
11
12.1802587
21
24.2200291
0
LINE
8
DEFAULT_255_2_778
10
12.1802587
20
24.2200291
11
12.0974587
21
24.2203291
0
LINE
8
DEFAULT_255_2_778
10
17.9428587
20
22.5254291
11
18.4141587
21
22.5254291
0
LINE
8
DEFAULT_255_2_778
10
18.4141587
20
22.5254291
11
18.4141587
21
22.4095291
0
LINE
8
DEFAULT_255_2_778
10
18.4141587
20
22.4095291
11
17.9428587
21
22.4095291
0
LINE
8
DEFAULT_255_2_778
10
17.9428587
20
22.4095291
11
17.9428587
21
22.5254291
0
LINE
8
DEFAULT_255_2_778
10
17.7195587
20
22.9140291
11
18.7199587
21
22.9140291
0
LINE
8
DEFAULT_255_2_778
10
18.7199587
20
22.9140291
11
18.7199587
21
22.8148291
0
LINE
8
DEFAULT_255_2_778
10
18.7199587
20
22.8148291
11
17.7195587
21
22.8148291
0
LINE
8
DEFAULT_255_2_778
10
17.7195587
20
22.8148291
11
17.7195587
21
22.9140291
0
LINE
8
DEFAULT_255_2_778
10
18.1413587
20
24.4767291
11
18.1495587
21
23.2942291
0
LINE
8
DEFAULT_255_2_778
10
18.1495587
20
23.2942291
11
17.5378587
21
23.2942291
0
LINE
8
DEFAULT_255_2_778
10
17.5378587
20
23.2942291
11
17.5378587
21
23.1950291
0
LINE
8
DEFAULT_255_2_778
10
17.5378587
20
23.1950291
11
18.9350587
21
23.1950291
0
LINE
8
DEFAULT_255_2_778
10
18.9350587
20
23.1950291
11
18.9350587
21
23.2942291
0
LINE
8
DEFAULT_255_2_778
10
18.9350587
20
23.2942291
11
18.2487587
21
23.2942291
0
LINE
8
DEFAULT_255_2_778
10
18.2487587
20
23.2942291
11
18.2487587
21
24.4767291
0
LINE
8
DEFAULT_255_2_778
10
18.2487587
20
24.4767291
11
18.1413587
21
24.4767291
0
LINE
8
DEFAULT_255_2_778
10
21.1006587
20
25.0463291
11
36.2507587
21
25.0463291
0
LINE
8
DEFAULT_255_2_778
10
36.2507587
20
25.0463291
11
36.2507587
21
21.9464291
0
LINE
8
DEFAULT_255_2_778
10
36.2507587
20
21.9464291
11
21.1006587
21
21.9464291
0
LINE
8
DEFAULT_255_2_778
10
21.1006587
20
21.9464291
11
21.1006587
21
25.0463291
0
LINE
8
DEFAULT_255_2_778
10
21.2006919
20
24.9462489
11
36.1506919
21
24.9462489
0
LINE
8
DEFAULT_255_2_778
10
36.1506919
20
24.9462489
11
36.1506919
21
22.0461489
0
LINE
8
DEFAULT_255_2_778
10
36.1506919
20
22.0461489
11
21.2006919
21
22.0461489
0
LINE
8
DEFAULT_255_2_778
10
21.2006919
20
22.0461489
11
21.2006919
21
24.9462489
0
LINE
8
DEFAULT_255_2_778
10
23.1876792
20
22.7762385
11
23.2014792
21
24.1443385
0
LINE
8
DEFAULT_255_2_778
10
23.2014792
20
24.1443385
11
22.7738792
21
23.2990385
0
LINE
8
DEFAULT_255_2_778
10
22.7738792
20
23.2990385
11
22.6987792
21
23.2990385
0
LINE
8
DEFAULT_255_2_778
10
22.6987792
20
23.2990385
11
22.2708792
21
24.1443385
0
LINE
8
DEFAULT_255_2_778
10
22.2708792
20
24.1443385
11
22.2846792
21
22.7762385
0
LINE
8
DEFAULT_255_2_778
10
22.2846792
20
22.7762385
11
22.2111792
21
22.7746385
0
LINE
8
DEFAULT_255_2_778
10
22.2111792
20
22.7746385
11
22.2092792
21
24.2462385
0
LINE
8
DEFAULT_255_2_778
10
22.2092792
20
24.2462385
11
22.2843792
21
24.2462385
0
LINE
8
DEFAULT_255_2_778
10
22.2843792
20
24.2462385
11
22.7357792
21
23.3871385
0
LINE
8
DEFAULT_255_2_778
10
22.7357792
20
23.3871385
11
23.1871792
21
24.2462385
0
LINE
8
DEFAULT_255_2_778
10
23.1871792
20
24.2462385
11
23.2622792
21
24.2462385
0
LINE
8
DEFAULT_255_2_778
10
23.2622792
20
24.2462385
11
23.2612792
21
22.7743385
0
LINE
8
DEFAULT_255_2_778
10
23.2612792
20
22.7743385
11
23.1852792
21
22.7743385
0
ARC
8
DEFAULT_255_2_778
10
29.8458281
20
23.4991044
40
1.343745
50
165.4692327
51
180.2874692
0
ARC
8
DEFAULT_255_2_778
10
29.3885304
20
23.6227368
40
0.8700695
50
148.9725033
51
165.7946648
0
ARC
8
DEFAULT_255_2_778
10
28.9985385
20
23.8653684
40
0.4108713
50
121.2741687
51
149.934032
0
ARC
8
DEFAULT_255_2_778
10
28.8975865
20
24.0206714
40
0.2257982
50
90.4533123
51
119.8378076
0
ARC
8
DEFAULT_255_2_778
10
28.8823211
20
23.9758854
40
0.2709126
50
37.8895328
51
87.1481525
0
ARC
8
DEFAULT_255_2_778
10
28.5924901
20
23.7167214
40
0.6593437
50
20.4841246
51
40.1959206
0
ARC
8
DEFAULT_255_2_778
10
28.1243897
20
23.5319023
40
1.1625601
50
5.9353892
51
20.9435627
0
ARC
8
DEFAULT_255_2_778
10
27.8500973
20
23.4933511
40
1.4394032
50
359.9606463
51
6.3326779
0
ARC
8
DEFAULT_255_2_778
10
27.9462046
20
23.4856305
40
1.3433123
50
345.466888
51
0.2871395
0
ARC
8
DEFAULT_255_2_778
10
28.4031618
20
23.3620647
40
0.8699829
50
328.9702073
51
345.7924516
0
ARC
8
DEFAULT_255_2_778
10
28.7930623
20
23.1194668
40
0.4108801
50
301.2732874
51
329.9316881
0
ARC
8
DEFAULT_255_2_778
10
28.8940137
20
22.9641585
40
0.225803
50
270.4532769
51
299.8370819
0
ARC
8
DEFAULT_255_2_778
10
28.9092795
20
23.0089472
40
0.2709203
50
217.8913634
51
267.1481128
0
ARC
8
DEFAULT_255_2_778
10
29.1990807
20
23.2681022
40
0.6593229
50
200.4865758
51
220.1977231
0
ARC
8
DEFAULT_255_2_778
10
29.666963
20
23.4528616
40
1.1623146
50
185.9368667
51
200.9460523
0
ARC
8
DEFAULT_255_2_778
10
29.940921
20
23.4913761
40
1.4388214
50
179.9607209
51
186.3339602
0
ARC
8
DEFAULT_255_2_778
10
29.8995777
20
23.5041736
40
1.3149964
50
166.2914873
51
180.3054817
0
ARC
8
DEFAULT_255_2_778
10
29.3975972
20
23.6318434
40
0.797076
50
150.4113642
51
166.6561109
0
ARC
8
DEFAULT_255_2_778
10
28.9969136
20
23.8675704
40
0.3323263
50
121.8333341
51
151.6426532
0
ARC
8
DEFAULT_255_2_778
10
28.90495
20
24.0050864
40
0.1670825
50
90.4972338
51
119.9132593
0
ARC
8
DEFAULT_255_2_778
10
28.8903035
20
23.9626204
40
0.2099572
50
35.3128721
51
86.3963985
0
ARC
8
DEFAULT_255_2_778
10
28.5966061
20
23.7187922
40
0.5912806
50
18.8119742
51
38.1432041
0
ARC
8
DEFAULT_255_2_778
10
28.0920316
20
23.5355786
40
1.1280324
50
5.247731
51
19.3564701
0
ARC
8
DEFAULT_255_2_778
10
27.7977559
20
23.498058
40
1.4245445
50
359.9639837
51
5.6679689
0
ARC
8
DEFAULT_255_2_778
10
27.9071716
20
23.4901571
40
1.3151471
50
346.2928334
51
0.3051995
0
ARC
8
DEFAULT_255_2_778
10
28.4090943
20
23.3625125
40
0.7972889
50
330.4175011
51
346.6574564
0
ARC
8
DEFAULT_255_2_778
10
28.809877
20
23.1268033
40
0.3324623
50
301.8736549
51
331.6457667
0
ARC
8
DEFAULT_255_2_778
10
28.9020398
20
22.9891367
40
0.1669806
50
270.5010575
51
299.9615867
0
ARC
8
DEFAULT_255_2_778
10
28.9166756
20
23.0318021
40
0.2100533
50
215.3269499
51
266.4037741
0
ARC
8
DEFAULT_255_2_778
10
29.2101533
20
23.2755149
40
0.5911349
50
198.814957
51
218.1520927
0
ARC
8
DEFAULT_255_2_778
10
29.7146557
20
23.4587266
40
1.1278184
50
185.2477229
51
199.3592276
0
ARC
8
DEFAULT_255_2_778
10
30.0090626
20
23.496265
40
1.424463
50
179.9639009
51
185.6682132
0
LINE
8
DEFAULT_255_2_778
10
28.5021
20
23.4923625
11
28.5021
21
23.4923625
0
LINE
8
DEFAULT_255_2_778
10
28.5846
20
23.4971625
11
28.5846
21
23.4971625
0
ARC
8
DEFAULT_255_2_778
10
25.0497281
20
23.4978044
40
1.343745
50
165.4692327
51
180.2874692
0
ARC
8
DEFAULT_255_2_778
10
24.5924304
20
23.6214368
40
0.8700695
50
148.9725033
51
165.7946648
0
ARC
8
DEFAULT_255_2_778
10
24.2024385
20
23.8640684
40
0.4108713
50
121.2741687
51
149.934032
0
ARC
8
DEFAULT_255_2_778
10
24.1014865
20
24.0193714
40
0.2257982
50
90.4533123
51
119.8378076
0
ARC
8
DEFAULT_255_2_778
10
24.0862211
20
23.9745854
40
0.2709126
50
37.8895328
51
87.1481525
0
ARC
8
DEFAULT_255_2_778
10
23.7963901
20
23.7154214
40
0.6593437
50
20.4841246
51
40.1959206
0
ARC
8
DEFAULT_255_2_778
10
23.3282897
20
23.5306023
40
1.1625601
50
5.9353892
51
20.9435627
0
ARC
8
DEFAULT_255_2_778
10
23.0539973
20
23.4920511
40
1.4394032
50
359.9606463
51
6.3326779
0
ARC
8
DEFAULT_255_2_778
10
23.1501046
20
23.4843305
40
1.3433123
50
345.466888
51
0.2871395
0
ARC
8
DEFAULT_255_2_778
10
23.6070618
20
23.3607647
40
0.8699829
50
328.9702073
51
345.7924516
0
ARC
8
DEFAULT_255_2_778
10
23.9969623
20
23.1181668
40
0.4108801
50
301.2732874
51
329.9316881
0
ARC
8
DEFAULT_255_2_778
10
24.0979137
20
22.9628585
40
0.225803
50
270.4532769
51
299.8370819
0
ARC
8
DEFAULT_255_2_778
10
24.1131795
20
23.0076472
40
0.2709203
50
217.8913634
51
267.1481128
0
ARC
8
DEFAULT_255_2_778
10
24.4029807
20
23.2668022
40
0.6593229
50
200.4865758
51
220.1977231
0
ARC
8
DEFAULT_255_2_778
10
24.870863
20
23.4515616
40
1.1623146
50
185.9368667
51
200.9460523
0
ARC
8
DEFAULT_255_2_778
10
25.144821
20
23.4900761
40
1.4388214
50
179.9607209
51
186.3339602
0
ARC
8
DEFAULT_255_2_778
10
25.1034777
20
23.5028736
40
1.3149964
50
166.2914873
51
180.3054817
0
ARC
8
DEFAULT_255_2_778
10
24.6014972
20
23.6305434
40
0.797076
50
150.4113642
51
166.6561109
0
ARC
8
DEFAULT_255_2_778
10
24.2008136
20
23.8662704
40
0.3323263
50
121.8333341
51
151.6426532
0
ARC
8
DEFAULT_255_2_778
10
24.10885
20
24.0037864
40
0.1670825
50
90.4972338
51
119.9132593
0
ARC
8
DEFAULT_255_2_778
10
24.0942035
20
23.9613204
40
0.2099572
50
35.3128721
51
86.3963985
0
ARC
8
DEFAULT_255_2_778
10
23.8005061
20
23.7174922
40
0.5912806
50
18.8119742
51
38.1432041
0
ARC
8
DEFAULT_255_2_778
10
23.2959316
20
23.5342786
40
1.1280324
50
5.247731
51
19.3564701
0
ARC
8
DEFAULT_255_2_778
10
23.0016559
20
23.496758
40
1.4245445
50
359.9639837
51
5.6679689
0
ARC
8
DEFAULT_255_2_778
10
23.1110716
20
23.4888571
40
1.3151471
50
346.2928334
51
0.3051995
0
ARC
8
DEFAULT_255_2_778
10
23.6129943
20
23.3612125
40
0.7972889
50
330.4175011
51
346.6574564
0
ARC
8
DEFAULT_255_2_778
10
24.013777
20
23.1255033
40
0.3324623
50
301.8736549
51
331.6457667
0
ARC
8
DEFAULT_255_2_778
10
24.1059398
20
22.9878367
40
0.1669806
50
270.5010575
51
299.9615867
0
ARC
8
DEFAULT_255_2_778
10
24.1205756
20
23.0305021
40
0.2100533
50
215.3269499
51
266.4037741
0
ARC
8
DEFAULT_255_2_778
10
24.4140533
20
23.2742149
40
0.5911349
50
198.814957
51
218.1520927
0
ARC
8
DEFAULT_255_2_778
10
24.9185557
20
23.4574266
40
1.1278184
50
185.2477229
51
199.3592276
0
ARC
8
DEFAULT_255_2_778
10
25.2129626
20
23.494965
40
1.424463
50
179.9639009
51
185.6682132
0
LINE
8
DEFAULT_255_2_778
10
23.706
20
23.4910625
11
23.706
21
23.4910625
0
LINE
8
DEFAULT_255_2_778
10
23.7885
20
23.4958625
11
23.7885
21
23.4958625
0
LINE
8
DEFAULT_255_2_778
10
27.567322
20
22.7525604
11
27.087922
21
24.2657604
0
LINE
8
DEFAULT_255_2_778
10
27.087922
20
24.2657604
11
27.154022
21
24.2657604
0
LINE
8
DEFAULT_255_2_778
10
27.154022
20
24.2657604
11
27.567622
21
22.9428604
0
LINE
8
DEFAULT_255_2_778
10
27.567622
20
22.9428604
11
28.014222
21
24.2657604
0
LINE
8
DEFAULT_255_2_778
10
28.014222
20
24.2657604
11
28.080422
21
24.2657604
0
LINE
8
DEFAULT_255_2_778
10
28.080422
20
24.2657604
11
27.567322
21
22.7525604
0
LINE
8
DEFAULT_255_2_778
10
32.562922
20
22.8200604
11
32.561122
21
22.7486604
0
LINE
8
DEFAULT_255_2_778
10
32.561122
20
22.7486604
11
33.188122
21
22.7486604
0
LINE
8
DEFAULT_255_2_778
10
33.188122
20
22.7486604
11
33.189522
21
22.8200604
0
LINE
8
DEFAULT_255_2_778
10
32.561122
20
24.2451604
11
33.188122
21
24.2451604
0
LINE
8
DEFAULT_255_2_778
10
32.561122
20
22.8229604
11
32.835422
21
22.8229604
0
LINE
8
DEFAULT_255_2_778
10
32.835422
20
22.8229604
11
32.835422
21
24.1702604
0
LINE
8
DEFAULT_255_2_778
10
32.835422
20
24.1702604
11
32.561122
21
24.1702604
0
LINE
8
DEFAULT_255_2_778
10
32.561122
20
24.1702604
11
32.562922
21
24.2432604
0
LINE
8
DEFAULT_255_2_778
10
33.188122
20
22.8229604
11
32.913822
21
22.8229604
0
LINE
8
DEFAULT_255_2_778
10
32.913822
20
22.8229604
11
32.913822
21
24.1702604
0
LINE
8
DEFAULT_255_2_778
10
32.913822
20
24.1702604
11
33.188122
21
24.1702604
0
LINE
8
DEFAULT_255_2_778
10
33.188122
20
24.1702604
11
33.189522
21
24.2432604
0
ARC
8
DEFAULT_255_2_778
10
34.1622308
20
23.8412412
40
0.2191541
50
6.1465994
51
21.7470586
0
ARC
8
DEFAULT_255_2_778
10
33.9882255
20
23.7765964
40
0.4047509
50
21.1204095
51
32.0910191
0
ARC
8
DEFAULT_255_2_778
10
34.0282996
20
23.8272461
40
0.3445705
50
28.4935282
51
85.0007403
0
ARC
8
DEFAULT_255_2_778
10
34.0578005
20
24.0168538
40
0.1536528
50
89.8038866
51
90.065436
0
ARC
8
DEFAULT_255_2_778
10
34.0783405
20
23.8139021
40
0.3572057
50
93.3246333
51
120.55479
0
ARC
8
DEFAULT_255_2_778
10
34.0848155
20
23.8284649
40
0.3481986
50
122.690974
51
163.9023689
0
ARC
8
DEFAULT_255_2_778
10
34.2236348
20
23.7732711
40
0.4970914
50
162.2263851
51
169.400601
0
ARC
8
DEFAULT_255_2_778
10
34.0876374
20
23.1749555
40
0.3568068
50
188.7938971
51
257.6545272
0
ARC
8
DEFAULT_255_2_778
10
34.057506
20
23.113001
40
0.2902945
50
260.8513128
51
270.0234879
0
ARC
8
DEFAULT_255_2_778
10
34.049519
20
23.1438027
40
0.3211983
50
271.4461227
51
344.0462218
0
ARC
8
DEFAULT_255_2_778
10
33.8337065
20
23.2516381
40
0.560098
50
339.503263
51
347.3109016
0
ARC
8
DEFAULT_255_2_778
10
34.1229488
20
23.8439972
40
0.3372264
50
10.5958855
51
23.4857845
0
ARC
8
DEFAULT_255_2_778
10
34.0273288
20
23.8057988
40
0.4401587
50
23.0858187
51
28.054321
0
ARC
8
DEFAULT_255_2_778
10
34.0235167
20
23.8138811
40
0.4398124
50
26.8914817
51
73.4391259
0
ARC
8
DEFAULT_255_2_778
10
34.0702536
20
23.9218417
40
0.3233129
50
75.9254635
51
89.9900901
0
ARC
8
DEFAULT_255_2_778
10
34.0703254
20
23.9198247
40
0.3253299
50
90.0028046
51
92.2373137
0
ARC
8
DEFAULT_255_2_778
10
34.0415884
20
23.8259401
40
0.4192733
50
87.8079767
51
89.9933309
0
ARC
8
DEFAULT_255_2_778
10
34.050561
20
23.8588368
40
0.3864798
50
91.323075
51
164.6217766
0
ARC
8
DEFAULT_255_2_778
10
34.2707256
20
23.7467518
40
0.6304466
50
160.1015097
51
165.3681967
0
ARC
8
DEFAULT_255_2_778
10
34.1108869
20
23.1831179
40
0.460245
50
192.0153861
51
229.413223
0
ARC
8
DEFAULT_255_2_778
10
34.0520895
20
23.1306832
40
0.3823167
50
230.9926962
51
270.8296022
0
ARC
8
DEFAULT_255_2_778
10
34.0829874
20
23.0612446
40
0.3138643
50
265.3650489
51
269.9878102
0
ARC
8
DEFAULT_255_2_778
10
34.0478396
20
23.1532707
40
0.4074035
50
274.9397936
51
342.3784639
0
ARC
8
DEFAULT_255_2_778
10
33.9488326
20
23.2190464
40
0.522702
50
338.7898482
51
339.1832668
0
ARC
8
DEFAULT_255_2_778
10
33.9913321
20
23.2034561
40
0.4774366
50
339.1195558
51
345.9199569
0
LINE
8
DEFAULT_255_2_778
10
33.735025
20
23.8647067
11
33.735025
21
23.1204067
0
LINE
8
DEFAULT_255_2_778
10
34.380125
20
23.1286067
11
34.380125
21
23.8647067
0
LINE
8
DEFAULT_255_2_778
10
33.660725
20
23.9060067
11
33.660725
21
23.0873067
0
LINE
8
DEFAULT_255_2_778
10
34.454425
20
23.0873067
11
34.454425
21
23.9060067
0
LINE
8
DEFAULT_255_2_778
10
37.2508675
20
25.0463291
11
42.6409675
21
25.0463291
0
LINE
8
DEFAULT_255_2_778
10
42.6409675
20
25.0463291
11
42.6409675
21
21.9464291
0
LINE
8
DEFAULT_255_2_778
10
42.6409675
20
21.9464291
11
37.2508675
21
21.9464291
0
LINE
8
DEFAULT_255_2_778
10
37.2508675
20
21.9464291
11
37.2508675
21
25.0463291
0
LINE
8
DEFAULT_255_2_778
10
37.3508667
20
24.9462489
11
42.5409667
21
24.9462489
0
LINE
8
DEFAULT_255_2_778
10
42.5409667
20
24.9462489
11
42.5409667
21
22.0461489
0
LINE
8
DEFAULT_255_2_778
10
42.5409667
20
22.0461489
11
37.3508667
21
22.0461489
0
LINE
8
DEFAULT_255_2_778
10
37.3508667
20
22.0461489
11
37.3508667
21
24.9462489
0
ARC
8
DEFAULT_255_2_778
10
41.3630708
20
23.3373512
40
0.2837551
50
101.6510915
51
140.6502386
0
ARC
8
DEFAULT_255_2_778
10
41.3908291
20
23.2354348
40
0.3892333
50
89.8503345
51
102.6232926
0
ARC
8
DEFAULT_255_2_778
10
41.4370899
20
23.2686285
40
0.3589015
50
90.0858828
51
97.2421196
0
ARC
8
DEFAULT_255_2_778
10
41.4295224
20
23.3172764
40
0.3103329
50
11.0475669
51
88.7020481
0
ARC
8
DEFAULT_255_2_778
10
41.218554
20
23.2274238
40
0.5367386
50
9.8092069
51
16.1526936
0
ARC
8
DEFAULT_255_2_778
10
41.3559447
20
23.2742567
40
0.3134815
50
9.6984864
51
39.6185362
0
ARC
8
DEFAULT_255_2_778
10
41.4173892
20
23.3015243
40
0.2494257
50
43.7977244
51
93.9180958
0
ARC
8
DEFAULT_255_2_778
10
41.4001962
20
23.4013833
40
0.1489836
50
89.9424551
51
90.1724813
0
ARC
8
DEFAULT_255_2_778
10
41.3937818
20
23.299881
40
0.2505561
50
88.635615
51
175.6542644
0
LINE
8
DEFAULT_255_2_778
10
41.0693458
20
23.5916669
11
41.1436458
21
23.5916669
0
LINE
8
DEFAULT_255_2_778
10
41.1436458
20
23.5916669
11
41.1436458
21
23.5172669
0
LINE
8
DEFAULT_255_2_778
10
41.7474458
20
23.3188669
11
41.7474458
21
22.7647669
0
LINE
8
DEFAULT_255_2_778
10
41.7474458
20
22.7647669
11
41.6649458
21
22.7647669
0
LINE
8
DEFAULT_255_2_778
10
41.6649458
20
22.7647669
11
41.6649458
21
23.3270669
0
LINE
8
DEFAULT_255_2_778
10
41.1439458
20
23.3188669
11
41.1439458
21
22.7647669
0
LINE
8
DEFAULT_255_2_778
10
41.1439458
20
22.7647669
11
41.0669458
21
22.7624669
0
LINE
8
DEFAULT_255_2_778
10
41.0669458
20
22.7624669
11
41.0695458
21
23.5916669
0
LINE
8
DEFAULT_255_2_778
10
41.0695458
20
23.5916669
11
41.0693458
21
23.5916669
0
ARC
8
DEFAULT_255_2_778
10
38.5491464
20
23.7937982
40
0.2720018
50
4.4584961
51
18.9452298
0
ARC
8
DEFAULT_255_2_778
10
38.3115193
20
23.7154764
40
0.5221939
50
18.6083921
51
29.7455901
0
ARC
8
DEFAULT_255_2_778
10
38.2136498
20
23.6642418
40
0.6326008
50
29.376584
51
30.0367396
0
ARC
8
DEFAULT_255_2_778
10
38.2980339
20
23.7337807
40
0.5250485
50
28.0763477
51
66.3561542
0
ARC
8
DEFAULT_255_2_778
10
38.4302716
20
23.9941616
40
0.2340882
50
70.4499322
51
89.5659171
0
LINE
8
DEFAULT_255_2_778
10
38.4320451
20
24.228243
11
38.431725
21
24.2282428
0
ARC
8
DEFAULT_255_2_778
10
38.4427532
20
23.8031426
40
0.4252432
50
91.4860637
51
159.1194144
0
ARC
8
DEFAULT_255_2_778
10
38.3987295
20
23.817639
40
0.37895
50
158.7948426
51
169.092903
0
ARC
8
DEFAULT_255_2_778
10
38.4224588
20
23.1614724
40
0.4080333
50
194.0459341
51
197.3519204
0
ARC
8
DEFAULT_255_2_778
10
38.4543675
20
23.1608609
40
0.4384238
50
196.0318655
51
265.9296429
0
LINE
8
DEFAULT_255_2_778
10
38.4232475
20
22.7235429
11
38.423525
21
22.7235428
0
ARC
8
DEFAULT_255_2_778
10
38.3881788
20
23.1457793
40
0.4237134
50
274.785183
51
339.4725812
0
ARC
8
DEFAULT_255_2_778
10
38.2926255
20
23.2196513
40
0.5402822
50
335.6865458
51
347.4820739
0
ARC
8
DEFAULT_255_2_778
10
38.3527769
20
23.2051729
40
0.4784238
50
347.6134205
51
347.7598953
0
ARC
8
DEFAULT_255_2_778
10
38.273754
20
23.2209548
40
0.4733396
50
0.0012704
51
3.8507044
0
ARC
8
DEFAULT_255_2_778
10
38.2731623
20
23.2210879
40
0.4739315
50
322.3449639
51
359.9851762
0
ARC
8
DEFAULT_255_2_778
10
38.3699404
20
23.1355734
40
0.3451773
50
286.6684132
51
323.7692637
0
ARC
8
DEFAULT_255_2_778
10
38.4112352
20
23.0305372
40
0.2329009
50
280.6232752
51
284.3474618
0
ARC
8
DEFAULT_255_2_778
10
38.4149061
20
23.0089362
40
0.2109938
50
270.1137599
51
280.7248758
0
ARC
8
DEFAULT_255_2_778
10
38.4459169
20
23.1251119
40
0.3285962
50
198.9092065
51
264.6581044
0
ARC
8
DEFAULT_255_2_778
10
38.7610932
20
23.2699444
40
0.6746015
50
194.9825751
51
201.8727553
0
ARC
8
DEFAULT_255_2_778
10
38.5232715
20
23.7744726
40
0.4218474
50
135.3706591
51
168.823129
0
ARC
8
DEFAULT_255_2_778
10
38.4286099
20
23.858273
40
0.2956883
50
89.3576237
51
134.0406067
0
ARC
8
DEFAULT_255_2_778
10
38.3421813
20
23.7645998
40
0.3995521
50
18.9769345
51
77.0200147
0
ARC
8
DEFAULT_255_2_778
10
38.1885216
20
23.6747007
40
0.5751631
50
14.1127049
51
22.4701356
0
LINE
8
DEFAULT_255_2_778
10
38.026625
20
23.8893428
11
38.026625
21
23.0624428
0
LINE
8
DEFAULT_255_2_778
10
38.820325
20
23.1037428
11
38.820325
21
23.3270428
0
LINE
8
DEFAULT_255_2_778
10
38.820325
20
23.3270428
11
38.398625
21
23.3270428
0
LINE
8
DEFAULT_255_2_778
10
38.398625
20
23.3270428
11
38.398625
21
23.2527428
0
LINE
8
DEFAULT_255_2_778
10
38.398625
20
23.2527428
11
38.746025
21
23.2527428
0
LINE
8
DEFAULT_255_2_778
10
38.109425
20
23.0955428
11
38.109425
21
23.8562428
0
LINE
8
DEFAULT_255_2_778
10
38.746325
20
23.8149428
11
38.820325
21
23.8149428
0
LINE
8
DEFAULT_255_2_778
10
40.540126
20
23.591551
11
40.614426
21
23.591551
0
LINE
8
DEFAULT_255_2_778
10
40.614426
20
23.591551
11
40.614426
21
22.764751
0
LINE
8
DEFAULT_255_2_778
10
40.614426
20
22.764751
11
40.540126
21
22.764751
0
LINE
8
DEFAULT_255_2_778
10
40.540126
20
22.764751
11
40.540126
21
23.591551
0
LINE
8
DEFAULT_255_2_778
10
40.540126
20
24.004851
11
40.614426
21
24.004851
0
LINE
8
DEFAULT_255_2_778
10
40.614426
20
24.004851
11
40.614426
21
23.913851
0
LINE
8
DEFAULT_255_2_778
10
40.614426
20
23.913851
11
40.540126
21
23.913851
0
LINE
8
DEFAULT_255_2_778
10
40.540126
20
23.913851
11
40.540126
21
24.004851
0
ARC
8
DEFAULT_255_2_778
10
39.4858053
20
23.2552293
40
0.484049
50
307.4140443
51
315.1388431
0
ARC
8
DEFAULT_255_2_778
10
39.5236151
20
23.2072942
40
0.4230045
50
304.549128
51
307.2911819
0
ARC
8
DEFAULT_255_2_778
10
39.5631238
20
23.1446937
40
0.349051
50
284.9838975
51
305.0351012
0
ARC
8
DEFAULT_255_2_778
10
39.5757143
20
23.1048737
40
0.3073353
50
270.0006966
51
284.6358271
0
ARC
8
DEFAULT_255_2_778
10
39.5787302
20
23.1362817
40
0.3387569
50
241.214525
51
269.490541
0
ARC
8
DEFAULT_255_2_778
10
39.4838934
20
22.9637773
40
0.1419022
50
182.9647299
51
241.235251
0
ARC
8
DEFAULT_255_2_778
10
39.4423836
20
22.9564454
40
0.1002023
50
177.4451984
51
180.0043037
0
ARC
8
DEFAULT_255_2_778
10
39.4398211
20
22.9558677
40
0.0976705
50
128.7485965
51
177.0396196
0
ARC
8
DEFAULT_255_2_778
10
39.4950848
20
22.8912288
40
0.1826913
50
110.1979476
51
129.5773266
0
ARC
8
DEFAULT_255_2_778
10
41.0919601
20
17.7153582
40
5.5990489
50
103.0371819
51
107.2457276
0
ARC
8
DEFAULT_255_2_778
10
39.446495
20
23.4167184
40
0.1817802
50
103.8358679
51
171.7235924
0
ARC
8
DEFAULT_255_2_778
10
39.5888886
20
23.0610877
40
0.563662
50
89.1339728
51
109.2532987
0
ARC
8
DEFAULT_255_2_778
10
39.6120885
20
23.2382922
40
0.386672
50
63.2350128
51
92.1758258
0
ARC
8
DEFAULT_255_2_778
10
39.6657842
20
23.3685708
40
0.2464038
50
15.515931
51
60.7401602
0
ARC
8
DEFAULT_255_2_778
10
40.1315102
20
23.0324181
40
0.2363194
50
194.9670409
51
208.7802174
0
ARC
8
DEFAULT_255_2_778
10
40.1353842
20
23.0193326
40
0.2337955
50
205.510669
51
251.2952567
0
ARC
8
DEFAULT_255_2_778
10
40.0684205
20
22.9179894
40
0.1946689
50
224.500799
51
267.6410753
0
ARC
8
DEFAULT_255_2_778
10
40.2031845
20
23.0839584
40
0.4078208
50
227.2686229
51
227.862914
0
ARC
8
DEFAULT_255_2_778
10
40.2172045
20
23.0991419
40
0.4284871
50
226.860978
51
227.2692469
0
ARC
8
DEFAULT_255_2_778
10
40.2417871
20
23.1253059
40
0.4643876
50
226.4931573
51
226.8550994
0
ARC
8
DEFAULT_255_2_778
10
40.2667551
20
23.1515316
40
0.5005978
50
226.1643978
51
226.4869441
0
ARC
8
DEFAULT_255_2_778
10
40.2823207
20
23.1676323
40
0.5229924
50
225.7121608
51
226.1559926
0
ARC
8
DEFAULT_255_2_778
10
40.3229131
20
23.2091984
40
0.581091
50
225.3331309
51
225.708845
0
ARC
8
DEFAULT_255_2_778
10
40.3686871
20
23.2555613
40
0.6462431
50
224.9662768
51
225.3364648
0
ARC
8
DEFAULT_255_2_778
10
40.4602267
20
23.3470358
40
0.7756536
50
224.6613063
51
224.9685027
0
ARC
8
DEFAULT_255_2_778
10
39.4730218
20
22.3966373
40
0.5948391
50
42.9343245
51
47.7350404
0
ARC
8
DEFAULT_255_2_778
10
39.8222314
20
22.7752204
40
0.079898
50
50.4684026
51
53.1858552
0
ARC
8
DEFAULT_255_2_778
10
39.5870627
20
23.147242
40
0.4183461
50
278.0559592
51
312.5770902
0
ARC
8
DEFAULT_255_2_778
10
39.5468901
20
23.3015683
40
0.5770648
50
277.0869283
51
279.8582281
0
ARC
8
DEFAULT_255_2_778
10
39.5454482
20
23.3129024
40
0.5884901
50
270.0156186
51
277.0900958
0
ARC
8
DEFAULT_255_2_778
10
39.54055
20
23.2042258
40
0.4798402
50
253.3379353
51
270.6040432
0
ARC
8
DEFAULT_255_2_778
10
39.4628906
20
22.9554954
40
0.2193079
50
229.4595359
51
254.1429288
0
ARC
8
DEFAULT_255_2_778
10
39.3929677
20
22.868805
40
0.1080266
50
210.310556
51
227.7568904
0
ARC
8
DEFAULT_255_2_778
10
39.6267542
20
22.9959792
40
0.3741281
50
198.0070173
51
209.0547976
0
ARC
8
DEFAULT_255_2_778
10
39.4894883
20
22.9523274
40
0.2300932
50
180.6457205
51
198.2360794
0
ARC
8
DEFAULT_255_2_778
10
39.4664496
20
22.9356726
40
0.2075171
50
107.2886404
51
176.1145605
0
ARC
8
DEFAULT_255_2_778
10
39.5999026
20
22.6969818
40
0.4784305
50
110.5440765
51
114.0693479
0
ARC
8
DEFAULT_255_2_778
10
37.2080766
20
32.9110878
40
10.0161183
50
282.8286018
51
283.8715823
0
ARC
8
DEFAULT_255_2_778
10
39.0938782
20
25.3101888
40
2.1847978
50
283.6483086
51
287.2437812
0
ARC
8
DEFAULT_255_2_778
10
39.6287096
20
23.6151914
40
0.4075277
50
286.0725042
51
298.7087406
0
ARC
8
DEFAULT_255_2_778
10
39.7578736
20
23.3672947
40
0.1281903
50
301.2987541
51
303.6509919
0
ARC
8
DEFAULT_255_2_778
10
39.2176571
20
23.2928651
40
0.6121027
50
356.9770578
51
359.9605915
0
ARC
8
DEFAULT_255_2_778
10
39.5255383
20
23.3103963
40
0.3047504
50
356.62287
51
33.6201321
0
ARC
8
DEFAULT_255_2_778
10
39.6333279
20
23.3623566
40
0.1869436
50
38.6568816
51
88.8434333
0
ARC
8
DEFAULT_255_2_778
10
39.6143028
20
23.234105
40
0.3159806
50
85.8624321
51
90.0534421
0
ARC
8
DEFAULT_255_2_778
10
39.604159
20
23.0965228
40
0.4536695
50
88.7560262
51
110.6041957
0
ARC
8
DEFAULT_255_2_778
10
39.5018492
20
23.3548371
40
0.1759421
50
109.0206746
51
150.0461476
0
LINE
8
DEFAULT_255_2_778
10
39.828908
20
23.1700854
11
39.828908
21
22.9137854
0
LINE
8
DEFAULT_255_2_778
10
39.828908
20
23.1700854
11
39.828908
21
23.1700854
0
LINE
8
DEFAULT_255_2_778
10
39.903208
20
23.4344854
11
39.903208
21
22.9713854
0
LINE
8
DEFAULT_255_2_778
10
40.060408
20
22.7978854
11
40.060408
21
22.7234854
0
LINE
8
DEFAULT_255_2_778
10
39.349408
20
23.4426854
11
39.266908
21
23.4426854
0
LINE
8
DEFAULT_255_2_778
10
39.266908
20
23.4426854
11
39.266608
21
23.4428854
0
LINE
8
DEFAULT_255_2_778
10
43.6408095
20
25.0463291
11
51.1108095
21
25.0463291
0
LINE
8
DEFAULT_255_2_778
10
51.1108095
20
25.0463291
11
51.1108095
21
21.9464291
0
LINE
8
DEFAULT_255_2_778
10
51.1108095
20
21.9464291
11
43.6408095
21
21.9464291
0
LINE
8
DEFAULT_255_2_778
10
43.6408095
20
21.9464291
11
43.6408095
21
25.0463291
0
LINE
8
DEFAULT_255_2_778
10
43.740822
20
24.9462489
11
51.010822
21
24.9462489
0
LINE
8
DEFAULT_255_2_778
10
51.010822
20
24.9462489
11
51.010822
21
22.0461489
0
LINE
8
DEFAULT_255_2_778
10
51.010822
20
22.0461489
11
43.740822
21
22.0461489
0
LINE
8
DEFAULT_255_2_778
10
43.740822
20
22.0461489
11
43.740822
21
24.9462489
0
LINE
8
DEFAULT_255_2_778
10
43.740822
20
24.9462489
11
51.010822
21
24.9462489
0
LINE
8
DEFAULT_255_2_778
10
51.010822
20
24.9462489
11
51.010822
21
22.0461489
0
LINE
8
DEFAULT_255_2_778
10
51.010822
20
22.0461489
11
43.740822
21
22.0461489
0
LINE
8
DEFAULT_255_2_778
10
43.740822
20
22.0461489
11
43.740822
21
24.9462489
0
ARC
8
DEFAULT_255_2_778
10
46.9549181
20
23.9231031
40
0.3467258
50
145.4709463
51
177.1065781
0
ARC
8
DEFAULT_255_2_778
10
46.9303482
20
23.9156089
40
0.3313423
50
87.026836
51
141.9929821
0
ARC
8
DEFAULT_255_2_778
10
46.9363102
20
23.9180776
40
0.2543753
50
87.4710212
51
174.9192045
0
LINE
8
DEFAULT_255_2_778
10
46.6086344
20
22.7831052
11
46.6086344
21
23.9406052
0
LINE
8
DEFAULT_255_2_778
10
46.9475344
20
24.2465052
11
46.9475344
21
24.1722052
0
LINE
8
DEFAULT_255_2_778
10
46.6829344
20
23.9406052
11
46.6829344
21
23.6843052
0
LINE
8
DEFAULT_255_2_778
10
46.6829344
20
23.6843052
11
46.9475344
21
23.6843052
0
LINE
8
DEFAULT_255_2_778
10
46.9475344
20
23.6843052
11
46.9475344
21
23.6099052
0
LINE
8
DEFAULT_255_2_778
10
46.9475344
20
23.6099052
11
46.6829344
21
23.6099052
0
LINE
8
DEFAULT_255_2_778
10
46.6829344
20
23.6099052
11
46.6829344
21
22.7831052
0
LINE
8
DEFAULT_255_2_778
10
46.6829344
20
22.7831052
11
46.6086344
21
22.7831052
0
LINE
8
DEFAULT_255_2_778
10
50.0584667
20
24.2088667
11
50.0584667
21
23.6839667
0
LINE
8
DEFAULT_255_2_778
10
50.0584667
20
23.6839667
11
50.3209667
21
23.6839667
0
ARC
8
DEFAULT_255_2_778
10
45.0434308
20
23.8422412
40
0.2191541
50
6.1465994
51
21.7470586
0
ARC
8
DEFAULT_255_2_778
10
44.8694255
20
23.7775964
40
0.4047509
50
21.1204095
51
32.0910191
0
ARC
8
DEFAULT_255_2_778
10
44.9094996
20
23.8282461
40
0.3445705
50
28.4935282
51
85.0007403
0
ARC
8
DEFAULT_255_2_778
10
44.9390005
20
24.0178538
40
0.1536528
50
89.8038866
51
90.065436
0
ARC
8
DEFAULT_255_2_778
10
44.9595405
20
23.8149021
40
0.3572057
50
93.3246333
51
120.55479
0
ARC
8
DEFAULT_255_2_778
10
44.9660155
20
23.8294649
40
0.3481986
50
122.690974
51
163.9023689
0
ARC
8
DEFAULT_255_2_778
10
45.1048348
20
23.7742711
40
0.4970914
50
162.2263851
51
169.400601
0
ARC
8
DEFAULT_255_2_778
10
44.9688374
20
23.1759555
40
0.3568068
50
188.7938971
51
257.6545272
0
ARC
8
DEFAULT_255_2_778
10
44.938706
20
23.114001
40
0.2902945
50
260.8513128
51
270.0234879
0
ARC
8
DEFAULT_255_2_778
10
44.930719
20
23.1448027
40
0.3211983
50
271.4461227
51
344.0462218
0
ARC
8
DEFAULT_255_2_778
10
44.7149065
20
23.2526381
40
0.560098
50
339.503263
51
347.3109016
0
ARC
8
DEFAULT_255_2_778
10
45.0041488
20
23.8449972
40
0.3372264
50
10.5958855
51
23.4857845
0
ARC
8
DEFAULT_255_2_778
10
44.9085288
20
23.8067988
40
0.4401587
50
23.0858187
51
28.054321
0
ARC
8
DEFAULT_255_2_778
10
44.9047167
20
23.8148811
40
0.4398124
50
26.8914817
51
73.4391259
0
ARC
8
DEFAULT_255_2_778
10
44.9514536
20
23.9228417
40
0.3233129
50
75.9254635
51
89.9900901
0
ARC
8
DEFAULT_255_2_778
10
44.9515254
20
23.9208247
40
0.3253299
50
90.0028046
51
92.2373137
0
ARC
8
DEFAULT_255_2_778
10
44.9227884
20
23.8269401
40
0.4192733
50
87.8079767
51
89.9933309
0
ARC
8
DEFAULT_255_2_778
10
44.931761
20
23.8598368
40
0.3864798
50
91.323075
51
164.6217766
0
ARC
8
DEFAULT_255_2_778
10
45.1519256
20
23.7477518
40
0.6304466
50
160.1015097
51
165.3681967
0
ARC
8
DEFAULT_255_2_778
10
44.9920869
20
23.1841179
40
0.460245
50
192.0153861
51
229.413223
0
ARC
8
DEFAULT_255_2_778
10
44.9332895
20
23.1316832
40
0.3823167
50
230.9926962
51
270.8296022
0
ARC
8
DEFAULT_255_2_778
10
44.9641874
20
23.0622446
40
0.3138643
50
265.3650489
51
269.9878102
0
ARC
8
DEFAULT_255_2_778
10
44.9290396
20
23.1542707
40
0.4074035
50
274.9397936
51
342.3784639
0
ARC
8
DEFAULT_255_2_778
10
44.8300326
20
23.2200464
40
0.522702
50
338.7898482
51
339.1832668
0
ARC
8
DEFAULT_255_2_778
10
44.8725321
20
23.2044561
40
0.4774366
50
339.1195558
51
345.9199569
0
LINE
8
DEFAULT_255_2_778
10
44.616225
20
23.8657067
11
44.616225
21
23.1214067
0
LINE
8
DEFAULT_255_2_778
10
45.261325
20
23.1296067
11
45.261325
21
23.8657067
0
LINE
8
DEFAULT_255_2_778
10
44.541925
20
23.9070067
11
44.541925
21
23.0883067
0
LINE
8
DEFAULT_255_2_778
10
45.335625
20
23.0883067
11
45.335625
21
23.9070067
0
ARC
8
DEFAULT_255_2_778
10
46.1283181
20
23.9217031
40
0.3467258
50
145.4709463
51
177.1065781
0
ARC
8
DEFAULT_255_2_778
10
46.1037482
20
23.9142089
40
0.3313423
50
87.026836
51
141.9929821
0
ARC
8
DEFAULT_255_2_778
10
46.1097102
20
23.9166776
40
0.2543753
50
87.4710212
51
174.9192045
0
LINE
8
DEFAULT_255_2_778
10
45.7820344
20
22.7817052
11
45.7820344
21
23.9392052
0
LINE
8
DEFAULT_255_2_778
10
46.1209344
20
24.2451052
11
46.1209344
21
24.1708052
0
LINE
8
DEFAULT_255_2_778
10
45.8563344
20
23.9392052
11
45.8563344
21
23.6829052
0
LINE
8
DEFAULT_255_2_778
10
45.8563344
20
23.6829052
11
46.1209344
21
23.6829052
0
LINE
8
DEFAULT_255_2_778
10
46.1209344
20
23.6829052
11
46.1209344
21
23.6085052
0
LINE
8
DEFAULT_255_2_778
10
46.1209344
20
23.6085052
11
45.8563344
21
23.6085052
0
LINE
8
DEFAULT_255_2_778
10
45.8563344
20
23.6085052
11
45.8563344
21
22.7817052
0
LINE
8
DEFAULT_255_2_778
10
45.8563344
20
22.7817052
11
45.7820344
21
22.7817052
0
ARC
8
DEFAULT_255_2_778
10
50.3604435
20
23.0944645
40
0.3745106
50
180.3917135
51
220.1597414
0
ARC
8
DEFAULT_255_2_778
10
50.3047737
20
23.0823149
40
0.3252206
50
224.8542922
51
256.711925
0
ARC
8
DEFAULT_255_2_778
10
50.3868814
20
23.3564877
40
0.6111584
50
255.1281457
51
263.9758381
0
ARC
8
DEFAULT_255_2_778
10
50.4344934
20
23.275828
40
0.4720427
50
236.8672777
51
256.3057514
0
ARC
8
DEFAULT_255_2_778
10
50.3257119
20
23.0988378
40
0.2644325
50
182.9987749
51
235.6440403
0
LINE
8
DEFAULT_255_2_778
10
49.9859417
20
24.2039041
11
49.9859417
21
23.6821041
0
LINE
8
DEFAULT_255_2_778
10
49.9859417
20
23.6821041
11
49.7179417
21
23.6821041
0
LINE
8
DEFAULT_255_2_778
10
49.7179417
20
23.6821041
11
49.7179417
21
23.6067041
0
LINE
8
DEFAULT_255_2_778
10
49.7179417
20
23.6067041
11
49.9859417
21
23.6067041
0
LINE
8
DEFAULT_255_2_778
10
49.9859417
20
23.6067041
11
49.9859417
21
23.0919041
0
LINE
8
DEFAULT_255_2_778
10
50.3227417
20
22.7487041
11
50.3227417
21
22.8172041
0
LINE
8
DEFAULT_255_2_778
10
50.0616417
20
23.0850041
11
50.0616417
21
23.6067041
0
LINE
8
DEFAULT_255_2_778
10
50.0616417
20
23.6067041
11
50.3296417
21
23.6067041
0
LINE
8
DEFAULT_255_2_778
10
50.3296417
20
23.6067041
11
50.3296417
21
23.6821041
0
LINE
8
DEFAULT_255_2_778
10
50.3296417
20
23.6821041
11
50.0616417
21
23.6821041
0
LINE
8
DEFAULT_255_2_778
10
50.0616417
20
23.6821041
11
50.0547417
21
24.2039041
0
LINE
8
DEFAULT_255_2_778
10
50.0547417
20
24.2039041
11
49.9859417
21
24.2039041
0
ARC
8
DEFAULT_255_2_778
10
47.8543372
20
23.3448528
40
0.2837858
50
23.8564848
51
65.0489706
0
ARC
8
DEFAULT_255_2_778
10
47.7703759
20
23.2072435
40
0.4443382
50
62.7175584
51
89.1652254
0
ARC
8
DEFAULT_255_2_778
10
47.7722629
20
23.2406893
40
0.4108706
50
89.3603931
51
89.9999895
0
ARC
8
DEFAULT_255_2_778
10
47.7710981
20
23.2710863
40
0.3804752
50
89.8245867
51
103.2525354
0
ARC
8
DEFAULT_255_2_778
10
47.7770512
20
23.1542854
40
0.4959743
50
100.8280165
51
106.3616242
0
ARC
8
DEFAULT_255_2_778
10
47.7158758
20
23.3029425
40
0.3365251
50
103.4964576
51
143.4803478
0
ARC
8
DEFAULT_255_2_778
10
47.5827439
20
23.4162366
40
0.1625427
50
147.6514241
51
179.9658267
0
ARC
8
DEFAULT_255_2_778
10
47.6190986
20
23.4187163
40
0.1989116
50
180.6863742
51
202.2154608
0
ARC
8
DEFAULT_255_2_778
10
47.7337569
20
23.4640204
40
0.3221908
50
201.9646924
51
215.0499455
0
ARC
8
DEFAULT_255_2_778
10
47.8847514
20
23.5668367
40
0.5048556
50
214.7612297
51
222.1365462
0
ARC
8
DEFAULT_255_2_778
10
47.6858419
20
23.4443753
40
0.2784788
50
230.9436463
51
259.9814975
0
ARC
8
DEFAULT_255_2_778
10
47.7960646
20
23.9611195
40
0.806734
50
258.6571083
51
268.9850957
0
ARC
8
DEFAULT_255_2_778
10
47.83163
20
24.740286
40
1.5865573
50
268.199287
51
270.0450228
0
ARC
8
DEFAULT_255_2_778
10
47.8427042
20
22.9264807
40
0.2274608
50
90.0058416
51
92.4762469
0
ARC
8
DEFAULT_255_2_778
10
47.8459269
20
22.963214
40
0.1907552
50
47.5884908
51
90.9750018
0
ARC
8
DEFAULT_255_2_778
10
47.8614986
20
22.9799662
40
0.1678845
50
4.7037399
51
47.6562072
0
ARC
8
DEFAULT_255_2_778
10
47.8846668
20
22.9841863
40
0.1444666
50
0.0090784
51
3.7891053
0
ARC
8
DEFAULT_255_2_778
10
47.8964396
20
22.9834949
40
0.1326957
50
306.1756286
51
0.3084454
0
ARC
8
DEFAULT_255_2_778
10
47.8687562
20
23.0174156
40
0.1764327
50
293.9142956
51
306.9304354
0
ARC
8
DEFAULT_255_2_778
10
47.6494665
20
23.8332281
40
1.0194572
50
282.1993306
51
286.5743836
0
ARC
8
DEFAULT_255_2_778
10
47.7271592
20
23.4705684
40
0.6485698
50
276.1490947
51
282.2608665
0
ARC
8
DEFAULT_255_2_778
10
47.7502063
20
23.2625926
40
0.4393222
50
270.1571784
51
276.0660196
0
ARC
8
DEFAULT_255_2_778
10
47.7473134
20
23.1045216
40
0.2812795
50
251.6850287
51
270.8347916
0
ARC
8
DEFAULT_255_2_778
10
47.7764508
20
23.1524312
40
0.3361547
50
230.3396866
51
249.5358608
0
ARC
8
DEFAULT_255_2_778
10
37.9724919
20
10.5083492
40
15.663729
50
52.2508894
51
52.4016341
0
ARC
8
DEFAULT_255_2_778
10
47.0829201
20
22.3360433
40
0.7340884
50
52.550981
51
55.1712576
0
ARC
8
DEFAULT_255_2_778
10
47.7140327
20
23.0750922
40
0.3171193
50
205.4879317
51
254.4584126
0
ARC
8
DEFAULT_255_2_778
10
47.7912243
20
23.2645665
40
0.5208833
50
251.8613809
51
270.2336237
0
ARC
8
DEFAULT_255_2_778
10
47.7933003
20
23.3030593
40
0.5593717
50
270.0049076
51
277.3763273
0
ARC
8
DEFAULT_255_2_778
10
47.7427355
20
23.6910162
40
0.9506097
50
277.3967075
51
277.4490433
0
ARC
8
DEFAULT_255_2_778
10
47.7256035
20
23.3020583
40
0.5711479
50
284.2275728
51
294.6942166
0
ARC
8
DEFAULT_255_2_778
10
47.8341413
20
23.0701745
40
0.31513
50
294.3784432
51
311.3411306
0
ARC
8
DEFAULT_255_2_778
10
47.920616
20
22.9733782
40
0.1853388
50
311.0361641
51
342.3604724
0
ARC
8
DEFAULT_255_2_778
10
47.935071
20
22.9667137
40
0.1695553
50
343.0264968
51
347.6641572
0
ARC
8
DEFAULT_255_2_778
10
47.9253697
20
22.9685049
40
0.1794156
50
347.7672378
51
0.1279896
0
ARC
8
DEFAULT_255_2_778
10
47.8541078
20
22.9626776
40
0.2507546
50
1.4232126
51
29.9612553
0
ARC
8
DEFAULT_255_2_778
10
47.8221761
20
22.9494342
40
0.285068
50
29.0620973
51
33.4992143
0
ARC
8
DEFAULT_255_2_778
10
47.8395491
20
22.9607795
40
0.2643189
50
33.5269137
51
34.9583314
0
ARC
8
DEFAULT_255_2_778
10
47.9278954
20
23.0585165
40
0.1390724
50
22.719529
51
66.502565
0
ARC
8
DEFAULT_255_2_778
10
47.7739613
20
22.7697565
40
0.4659907
50
63.2993221
51
82.7568337
0
ARC
8
DEFAULT_255_2_778
10
47.7595859
20
22.7185765
40
0.5186334
50
81.8942269
51
89.8322639
0
ARC
8
DEFAULT_255_2_778
10
47.7607189
20
22.8206885
40
0.4165195
50
89.947001
51
93.7225072
0
ARC
8
DEFAULT_255_2_778
10
47.7010818
20
23.4823887
40
0.2482091
50
270.0875959
51
277.5458981
0
ARC
8
DEFAULT_255_2_778
10
47.6985546
20
23.4298258
40
0.1956675
50
233.7849149
51
270.8511506
0
ARC
8
DEFAULT_255_2_778
10
47.703946
20
23.4340007
40
0.2022299
50
201.8362815
51
233.2513787
0
ARC
8
DEFAULT_255_2_778
10
47.67139
20
23.4225574
40
0.16776
50
183.1370391
51
202.344193
0
ARC
8
DEFAULT_255_2_778
10
47.6300147
20
23.418641
40
0.1262431
50
180.011359
51
182.3898189
0
ARC
8
DEFAULT_255_2_778
10
47.5864394
20
23.4213568
40
0.0827132
50
151.6169107
51
181.8989799
0
ARC
8
DEFAULT_255_2_778
10
47.5571734
20
23.4350146
40
0.0505086
50
139.4821612
51
149.4654898
0
ARC
8
DEFAULT_255_2_778
10
47.7311778
20
23.3016321
40
0.2696956
50
113.2102957
51
141.9579639
0
ARC
8
DEFAULT_255_2_778
10
47.7452129
20
23.262807
40
0.3109189
50
92.2635341
51
112.7676335
0
ARC
8
DEFAULT_255_2_778
10
47.7503971
20
23.2058699
40
0.368028
50
89.9904769
51
92.719914
0
ARC
8
DEFAULT_255_2_778
10
47.746665
20
23.1387782
40
0.4351362
50
64.9072223
51
89.5005201
0
ARC
8
DEFAULT_255_2_778
10
47.8115378
20
23.2665974
40
0.291904
50
48.0106312
51
65.7991682
0
ARC
8
DEFAULT_255_2_778
10
47.8959601
20
23.3665677
40
0.1611742
50
43.30497
51
46.5419563
0
ARC
8
DEFAULT_255_2_778
10
47.934417
20
23.4012579
40
0.1094011
50
30.7101591
51
43.8980318
0
ARC
8
DEFAULT_255_2_778
10
47.966855
20
23.4214786
40
0.0711902
50
24.6135797
51
30.0509014
0
ARC
8
DEFAULT_255_2_778
10
49.0965999
20
22.9971967
40
0.0613101
50
359.8075903
51
15.1589314
0
ARC
8
DEFAULT_255_2_778
10
49.0673144
20
22.9994538
40
0.0906288
50
331.4469394
51
358.442669
0
ARC
8
DEFAULT_255_2_778
10
49.0325175
20
23.0146197
40
0.1284849
50
332.2499452
51
332.9234319
0
ARC
8
DEFAULT_255_2_778
10
48.9470002
20
23.0721031
40
0.2311961
50
300.9886494
51
329.5094785
0
ARC
8
DEFAULT_255_2_778
10
48.902288
20
23.1258068
40
0.3004455
50
275.993635
51
303.0258005
0
ARC
8
DEFAULT_255_2_778
10
48.9135169
20
23.0548004
40
0.2286857
50
270.0380097
51
275.0532653
0
ARC
8
DEFAULT_255_2_778
10
48.911927
20
23.0135433
40
0.1874366
50
248.0213108
51
270.5323775
0
ARC
8
DEFAULT_255_2_778
10
48.9491965
20
23.1260182
40
0.3057784
50
198.449462
51
249.4331727
0
ARC
8
DEFAULT_255_2_778
10
48.9948902
20
23.1630168
40
0.361422
50
186.4445428
51
201.7227074
0
ARC
8
DEFAULT_255_2_778
10
48.8760748
20
23.1473714
40
0.2416114
50
180.1372132
51
185.9203506
0
ARC
8
DEFAULT_255_2_778
10
48.8221137
20
23.1470785
40
0.1876498
50
175.3689684
51
180.087235
0
ARC
8
DEFAULT_255_2_778
10
48.738316
20
23.2210895
40
0.4955686
50
353.1786821
51
0.0431212
0
ARC
8
DEFAULT_255_2_778
10
48.7106794
20
23.221312
40
0.5232051
50
0.0164764
51
5.8981905
0
ARC
8
DEFAULT_255_2_778
10
48.8341005
20
23.261024
40
0.3972628
50
2.027263
51
74.3374347
0
ARC
8
DEFAULT_255_2_778
10
48.8634853
20
23.286388
40
0.3655371
50
77.7009265
51
84.3179096
0
ARC
8
DEFAULT_255_2_778
10
48.9269325
20
23.2873827
40
0.3637689
50
94.2969775
51
128.4337981
0
ARC
8
DEFAULT_255_2_778
10
48.9889595
20
23.2525999
40
0.4304174
50
132.0257871
51
182.6062056
0
ARC
8
DEFAULT_255_2_778
10
49.1466657
20
23.2330527
40
0.5876786
50
180.0023771
51
181.8938207
0
ARC
8
DEFAULT_255_2_778
10
49.1546135
20
23.2333233
40
0.5956309
50
181.8945702
51
184.4480415
0
ARC
8
DEFAULT_255_2_778
10
49.0726293
20
23.1659737
40
0.5122896
50
177.6332516
51
179.9979008
0
ARC
8
DEFAULT_255_2_778
10
48.9697223
20
23.1456277
40
0.4098888
50
177.1521657
51
255.4252521
0
ARC
8
DEFAULT_255_2_778
10
48.9052542
20
22.9011396
40
0.1570477
50
255.7425687
51
269.7933413
0
ARC
8
DEFAULT_255_2_778
10
48.9074338
20
22.948994
40
0.2049196
50
269.2321879
51
270.001604
0
ARC
8
DEFAULT_255_2_778
10
48.9032079
20
23.0341729
40
0.2901293
50
270.835699
51
285.5200815
0
ARC
8
DEFAULT_255_2_778
10
48.8742552
20
23.1533839
40
0.4127598
50
284.9646915
51
290.9392307
0
ARC
8
DEFAULT_255_2_778
10
48.8949719
20
23.1310698
40
0.3846838
50
289.2449131
51
327.2055262
0
ARC
8
DEFAULT_255_2_778
10
49.079773
20
23.001858
40
0.1595799
50
330.2676452
51
359.0653558
0
ARC
8
DEFAULT_255_2_778
10
49.1043417
20
22.9992721
40
0.13499
50
359.9927509
51
6.0626416
0
ARC
8
DEFAULT_255_2_778
10
48.7842142
20
23.2511081
40
0.3718563
50
357.7222508
51
359.995573
0
ARC
8
DEFAULT_255_2_778
10
48.8199165
20
23.2531603
40
0.3361605
50
359.6453139
51
31.6500908
0
ARC
8
DEFAULT_255_2_778
10
48.8163285
20
23.2508261
40
0.3404398
50
31.667636
51
59.034062
0
ARC
8
DEFAULT_255_2_778
10
48.8609756
20
23.3270342
40
0.252123
50
58.823294
51
75.3027109
0
ARC
8
DEFAULT_255_2_778
10
48.885282
20
23.4140598
40
0.1617844
50
75.8097298
51
85.0020476
0
ARC
8
DEFAULT_255_2_778
10
48.961967
20
23.2603431
40
0.3210463
50
101.2422342
51
161.354811
0
ARC
8
DEFAULT_255_2_778
10
48.981123
20
23.2367913
40
0.3471044
50
158.6811547
51
173.9301172
0
ARC
8
DEFAULT_255_2_778
10
48.9358251
20
23.2427453
40
0.3014329
50
174.1450504
51
179.9613422
0
ARC
8
DEFAULT_255_2_778
10
48.9181383
20
23.2428939
40
0.283746
50
179.9889279
51
182.9827412
0
LINE
8
DEFAULT_255_2_778
10
47.5021767
20
22.9386291
11
47.4277767
21
22.9386291
0
LINE
8
DEFAULT_255_2_778
10
48.0315767
20
23.4511291
11
48.1138767
21
23.4596291
0
LINE
8
DEFAULT_255_2_778
10
48.6350767
20
23.1622291
11
49.2303767
21
23.1622291
0
LINE
8
DEFAULT_255_2_778
10
49.2385767
20
23.0135291
11
49.1557767
21
23.0132291
0
LINE
8
DEFAULT_255_2_778
10
48.6347767
20
23.2281291
11
49.1557767
21
23.2363291
0
LINE
8
DEFAULT_255_2_778
10
48.6347767
20
23.2281291
11
48.6347767
21
23.2281291
0
LINE
8
DEFAULT_255_2_778
10
52.1106767
20
25.0463291
11
69.1505767
21
25.0463291
0
LINE
8
DEFAULT_255_2_778
10
69.1505767
20
25.0463291
11
69.1505767
21
21.9464291
0
LINE
8
DEFAULT_255_2_778
10
69.1505767
20
21.9464291
11
52.1106767
21
21.9464291
0
LINE
8
DEFAULT_255_2_778
10
52.1106767
20
21.9464291
11
52.1106767
21
25.0463291
0
LINE
8
DEFAULT_255_2_778
10
52.2106325
20
24.9462489
11
69.0505325
21
24.9462489
0
LINE
8
DEFAULT_255_2_778
10
69.0505325
20
24.9462489
11
69.0505325
21
22.0461489
0
LINE
8
DEFAULT_255_2_778
10
69.0505325
20
22.0461489
11
52.2106325
21
22.0461489
0
LINE
8
DEFAULT_255_2_778
10
52.2106325
20
22.0461489
11
52.2106325
21
24.9462489
0
ARC
8
DEFAULT_255_2_778
10
58.1192181
20
23.9228031
40
0.3467258
50
145.4709463
51
177.1065781
0
ARC
8
DEFAULT_255_2_778
10
58.0946482
20
23.9153089
40
0.3313423
50
87.026836
51
141.9929821
0
ARC
8
DEFAULT_255_2_778
10
58.1006102
20
23.9177776
40
0.2543753
50
87.4710212
51
174.9192045
0
LINE
8
DEFAULT_255_2_778
10
57.7729344
20
22.7828052
11
57.7729344
21
23.9403052
0
LINE
8
DEFAULT_255_2_778
10
58.1118344
20
24.2462052
11
58.1118344
21
24.1719052
0
LINE
8
DEFAULT_255_2_778
10
57.8472344
20
23.9403052
11
57.8472344
21
23.6840052
0
LINE
8
DEFAULT_255_2_778
10
57.8472344
20
23.6840052
11
58.1118344
21
23.6840052
0
LINE
8
DEFAULT_255_2_778
10
58.1118344
20
23.6840052
11
58.1118344
21
23.6096052
0
LINE
8
DEFAULT_255_2_778
10
58.1118344
20
23.6096052
11
57.8472344
21
23.6096052
0
LINE
8
DEFAULT_255_2_778
10
57.8472344
20
23.6096052
11
57.8472344
21
22.7828052
0
LINE
8
DEFAULT_255_2_778
10
57.8472344
20
22.7828052
11
57.7729344
21
22.7828052
0
ARC
8
DEFAULT_255_2_778
10
66.4325708
20
23.3558512
40
0.2837551
50
101.6510915
51
140.6502386
0
ARC
8
DEFAULT_255_2_778
10
66.4603291
20
23.2539348
40
0.3892333
50
89.8503345
51
102.6232926
0
ARC
8
DEFAULT_255_2_778
10
66.5065899
20
23.2871285
40
0.3589015
50
90.0858828
51
97.2421196
0
ARC
8
DEFAULT_255_2_778
10
66.4990224
20
23.3357764
40
0.3103329
50
11.0475669
51
88.7020481
0
ARC
8
DEFAULT_255_2_778
10
66.288054
20
23.2459238
40
0.5367386
50
9.8092069
51
16.1526936
0
ARC
8
DEFAULT_255_2_778
10
66.4256605
20
23.2930198
40
0.3131259
50
9.6607793
51
39.6098964
0
ARC
8
DEFAULT_255_2_778
10
66.4868333
20
23.3199682
40
0.2494847
50
43.8025743
51
93.9273259
0
ARC
8
DEFAULT_255_2_778
10
66.4695217
20
23.4017994
40
0.1670676
50
89.923128
51
90.2303431
0
ARC
8
DEFAULT_255_2_778
10
66.4632311
20
23.3184258
40
0.2505024
50
88.7147183
51
175.6636068
0
LINE
8
DEFAULT_255_2_778
10
66.1388458
20
23.6101669
11
66.2131458
21
23.6101669
0
LINE
8
DEFAULT_255_2_778
10
66.2131458
20
23.6101669
11
66.2131458
21
23.5357669
0
LINE
8
DEFAULT_255_2_778
10
66.8169458
20
23.3373669
11
66.8169458
21
22.7832669
0
LINE
8
DEFAULT_255_2_778
10
66.8169458
20
22.7832669
11
66.7343458
21
22.7832669
0
LINE
8
DEFAULT_255_2_778
10
66.7343458
20
22.7832669
11
66.7343458
21
23.3455669
0
LINE
8
DEFAULT_255_2_778
10
66.2134458
20
23.3373669
11
66.2134458
21
22.7832669
0
LINE
8
DEFAULT_255_2_778
10
66.2134458
20
22.7832669
11
66.1364458
21
22.7809669
0
LINE
8
DEFAULT_255_2_778
10
66.1364458
20
22.7809669
11
66.1390458
21
23.6101669
0
LINE
8
DEFAULT_255_2_778
10
66.1390458
20
23.6101669
11
66.1388458
21
23.6101669
0
ARC
8
DEFAULT_255_2_778
10
56.9533708
20
23.3558512
40
0.2837551
50
101.6510915
51
140.6502386
0
ARC
8
DEFAULT_255_2_778
10
56.9811291
20
23.2539348
40
0.3892333
50
89.8503345
51
102.6232926
0
ARC
8
DEFAULT_255_2_778
10
57.0273899
20
23.2871285
40
0.3589015
50
90.0858828
51
97.2421196
0
ARC
8
DEFAULT_255_2_778
10
57.0198224
20
23.3357764
40
0.3103329
50
11.0475669
51
88.7020481
0
ARC
8
DEFAULT_255_2_778
10
56.808854
20
23.2459238
40
0.5367386
50
9.8092069
51
16.1526936
0
ARC
8
DEFAULT_255_2_778
10
56.9462447
20
23.2927567
40
0.3134815
50
9.6984864
51
39.6185362
0
ARC
8
DEFAULT_255_2_778
10
57.0076892
20
23.3200243
40
0.2494257
50
43.7977244
51
93.9180958
0
ARC
8
DEFAULT_255_2_778
10
56.9904962
20
23.4198833
40
0.1489836
50
89.9424551
51
90.1724813
0
ARC
8
DEFAULT_255_2_778
10
56.9840818
20
23.318381
40
0.2505561
50
88.635615
51
175.6542644
0
LINE
8
DEFAULT_255_2_778
10
56.6596458
20
23.6101669
11
56.7339458
21
23.6101669
0
LINE
8
DEFAULT_255_2_778
10
56.7339458
20
23.6101669
11
56.7339458
21
23.5357669
0
LINE
8
DEFAULT_255_2_778
10
57.3377458
20
23.3373669
11
57.3377458
21
22.7832669
0
LINE
8
DEFAULT_255_2_778
10
57.3377458
20
22.7832669
11
57.2552458
21
22.7832669
0
LINE
8
DEFAULT_255_2_778
10
57.2552458
20
22.7832669
11
57.2552458
21
23.3455669
0
LINE
8
DEFAULT_255_2_778
10
56.7342458
20
23.3373669
11
56.7342458
21
22.7832669
0
LINE
8
DEFAULT_255_2_778
10
56.7342458
20
22.7832669
11
56.6572458
21
22.7809669
0
LINE
8
DEFAULT_255_2_778
10
56.6572458
20
22.7809669
11
56.6598458
21
23.6101669
0
LINE
8
DEFAULT_255_2_778
10
56.6598458
20
23.6101669
11
56.6596458
21
23.6101669
0
ARC
8
DEFAULT_255_2_778
10
65.5617837
20
23.2120294
40
0.4771429
50
149.985277
51
180.8373726
0
ARC
8
DEFAULT_255_2_778
10
65.3613004
20
23.3413144
40
0.2391583
50
93.3820356
51
152.7801139
0
ARC
8
DEFAULT_255_2_778
10
65.332635
20
23.3401256
40
0.2403718
50
26.5906102
51
86.5280953
0
ARC
8
DEFAULT_255_2_778
10
65.1309455
20
23.2118009
40
0.4787937
50
359.1928578
51
29.5204628
0
ARC
8
DEFAULT_255_2_778
10
65.1324712
20
23.1979884
40
0.4772729
50
330.013377
51
0.8485145
0
ARC
8
DEFAULT_255_2_778
10
65.3332999
20
23.0687791
40
0.2390269
50
273.3318011
51
332.7806049
0
ARC
8
DEFAULT_255_2_778
10
65.3616614
20
23.0701743
40
0.2404538
50
206.5053097
51
266.5500396
0
ARC
8
DEFAULT_255_2_778
10
65.5636857
20
23.1982817
40
0.4790418
50
179.1896992
51
209.4348584
0
ARC
8
DEFAULT_255_2_778
10
65.5578056
20
23.2028444
40
0.547456
50
149.3250708
51
180.7104559
0
ARC
8
DEFAULT_255_2_778
10
65.3623585
20
23.3335555
40
0.3129307
50
92.6314074
51
151.6529876
0
ARC
8
DEFAULT_255_2_778
10
65.3328178
20
23.3315396
40
0.3149823
50
27.3733643
51
87.2387852
0
ARC
8
DEFAULT_255_2_778
10
65.1358849
20
23.2024547
40
0.5497439
50
359.3331159
51
29.8842602
0
ARC
8
DEFAULT_255_2_778
10
65.1385563
20
23.1892616
40
0.5470776
50
329.2647454
51
0.7116293
0
ARC
8
DEFAULT_255_2_778
10
65.3336775
20
23.0585389
40
0.3128103
50
272.6227751
51
331.5806065
0
ARC
8
DEFAULT_255_2_778
10
65.3631668
20
23.0606912
40
0.3150007
50
207.3792701
51
267.2387047
0
ARC
8
DEFAULT_255_2_778
10
65.5598712
20
23.1896777
40
0.5495163
50
179.3349175
51
209.8905429
0
LINE
8
DEFAULT_255_2_778
10
65.0846917
20
23.2050562
11
65.0846917
21
23.2050562
0
LINE
8
DEFAULT_255_2_778
10
65.0103917
20
23.1960562
11
65.0103917
21
23.1960562
0
ARC
8
DEFAULT_255_2_778
10
54.6520123
20
23.8304513
40
0.4201049
50
4.1302711
51
35.3675274
0
ARC
8
DEFAULT_255_2_778
10
54.6605784
20
23.8370222
40
0.4093163
50
35.311528
51
89.2302877
0
ARC
8
DEFAULT_255_2_778
10
54.6660772
20
23.8739215
40
0.37238
50
90.0000293
51
90.5570529
0
ARC
8
DEFAULT_255_2_778
10
54.6646783
20
23.8939124
40
0.3523784
50
90.3612124
51
129.4299644
0
ARC
8
DEFAULT_255_2_778
10
54.7095891
20
23.841741
40
0.4212028
50
129.6412618
51
149.6793466
0
ARC
8
DEFAULT_255_2_778
10
54.8455878
20
23.7606792
40
0.5795235
50
149.5492167
51
162.9283248
0
ARC
8
DEFAULT_255_2_778
10
54.9676628
20
23.7184394
40
0.7086345
50
162.5611381
51
164.2821209
0
ARC
8
DEFAULT_255_2_778
10
54.6583905
20
23.1235525
40
0.3749979
50
186.1145365
51
214.8738032
0
ARC
8
DEFAULT_255_2_778
10
54.6776459
20
23.148883
40
0.4053962
50
216.2550164
51
270.1640038
0
ARC
8
DEFAULT_255_2_778
10
54.6823705
20
23.1669276
40
0.4234542
50
269.5177391
51
269.9967591
0
ARC
8
DEFAULT_255_2_778
10
54.6888231
20
23.1189083
40
0.3754906
50
269.0116903
51
322.1220283
0
ARC
8
DEFAULT_255_2_778
10
54.6528475
20
23.1384962
40
0.4159663
50
323.034912
51
344.801361
0
ARC
8
DEFAULT_255_2_778
10
54.5321861
20
23.174965
40
0.5419798
50
344.4250182
51
353.8295165
0
ARC
8
DEFAULT_255_2_778
10
54.540064
20
23.224282
40
0.4691611
50
326.5294623
51
346.7448627
0
ARC
8
DEFAULT_255_2_778
10
54.6378916
20
23.1577976
40
0.3508929
50
297.3781584
51
326.7754617
0
ARC
8
DEFAULT_255_2_778
10
54.6717831
20
23.0959984
40
0.2804352
50
270.2969065
51
297.0356794
0
ARC
8
DEFAULT_255_2_778
10
54.6730732
20
22.9931522
40
0.1775853
50
269.8420316
51
270.052613
0
ARC
8
DEFAULT_255_2_778
10
54.6749379
20
23.0877331
40
0.2721756
50
229.1369714
51
269.504388
0
ARC
8
DEFAULT_255_2_778
10
54.7417515
20
23.1672117
40
0.3759991
50
208.7418868
51
229.3609071
0
ARC
8
DEFAULT_255_2_778
10
54.8971899
20
23.2549582
40
0.5544852
50
195.4305699
51
208.9682768
0
ARC
8
DEFAULT_255_2_778
10
55.0188989
20
23.2937964
40
0.6821596
50
195.0462088
51
195.8551509
0
ARC
8
DEFAULT_255_2_778
10
54.7918984
20
23.7943965
40
0.4368349
50
152.4771488
51
171.2686064
0
ARC
8
DEFAULT_255_2_778
10
54.6911967
20
23.8477205
40
0.3228897
50
122.5999079
51
152.611047
0
ARC
8
DEFAULT_255_2_778
10
54.6722105
20
23.8735588
40
0.2909003
50
89.9870976
51
122.1914045
0
ARC
8
DEFAULT_255_2_778
10
54.6722818
20
23.8717583
40
0.2927009
50
88.3634093
51
90.001127
0
ARC
8
DEFAULT_255_2_778
10
54.6699341
20
23.8580517
40
0.306475
50
44.9159542
51
87.9978676
0
ARC
8
DEFAULT_255_2_778
10
54.6197634
20
23.8071926
40
0.3779134
50
21.3442906
51
45.0056504
0
ARC
8
DEFAULT_255_2_778
10
54.522116
20
23.7654053
40
0.4840843
50
11.3542512
51
21.7443788
0
LINE
8
DEFAULT_255_2_778
10
54.2855261
20
23.9104091
11
54.2855261
21
23.0836091
0
LINE
8
DEFAULT_255_2_778
10
55.0710261
20
23.1167091
11
54.9967261
21
23.1167091
0
LINE
8
DEFAULT_255_2_778
10
54.3601261
20
23.1167091
11
54.3601261
21
23.8607091
0
LINE
8
DEFAULT_255_2_778
10
54.9967261
20
23.8607091
11
55.0710261
21
23.8607091
0
LINE
8
DEFAULT_255_2_778
10
55.0710261
20
23.8607091
11
55.0710261
21
23.8607091
0
ARC
8
DEFAULT_255_2_778
10
62.3117053
20
23.2764293
40
0.484049
50
307.4140443
51
315.1388431
0
ARC
8
DEFAULT_255_2_778
10
62.3495151
20
23.2284942
40
0.4230045
50
304.549128
51
307.2911819
0
ARC
8
DEFAULT_255_2_778
10
62.3890238
20
23.1658937
40
0.349051
50
284.9838975
51
305.0351012
0
ARC
8
DEFAULT_255_2_778
10
62.4016143
20
23.1260737
40
0.3073353
50
270.0006966
51
284.6358271
0
ARC
8
DEFAULT_255_2_778
10
62.4046302
20
23.1574817
40
0.3387569
50
241.214525
51
269.490541
0
ARC
8
DEFAULT_255_2_778
10
62.3097934
20
22.9849773
40
0.1419022
50
182.9647299
51
241.235251
0
ARC
8
DEFAULT_255_2_778
10
62.2682836
20
22.9776454
40
0.1002023
50
177.4451984
51
180.0043037
0
ARC
8
DEFAULT_255_2_778
10
62.2657211
20
22.9770677
40
0.0976705
50
128.7485965
51
177.0396196
0
ARC
8
DEFAULT_255_2_778
10
62.3209848
20
22.9124288
40
0.1826913
50
110.1979476
51
129.5773266
0
ARC
8
DEFAULT_255_2_778
10
63.9178601
20
17.7365582
40
5.5990489
50
103.0371819
51
107.2457276
0
ARC
8
DEFAULT_255_2_778
10
62.272395
20
23.4379184
40
0.1817802
50
103.8358679
51
171.7235924
0
ARC
8
DEFAULT_255_2_778
10
62.4147886
20
23.0822877
40
0.563662
50
89.1339728
51
109.2532987
0
ARC
8
DEFAULT_255_2_778
10
62.4379885
20
23.2594922
40
0.386672
50
63.2350128
51
92.1758258
0
ARC
8
DEFAULT_255_2_778
10
62.4916842
20
23.3897708
40
0.2464038
50
15.515931
51
60.7401602
0
ARC
8
DEFAULT_255_2_778
10
62.9574102
20
23.0536181
40
0.2363194
50
194.9670409
51
208.7802174
0
ARC
8
DEFAULT_255_2_778
10
62.9612842
20
23.0405326
40
0.2337955
50
205.510669
51
251.2952567
0
ARC
8
DEFAULT_255_2_778
10
62.8943205
20
22.9391894
40
0.1946689
50
224.500799
51
267.6410753
0
ARC
8
DEFAULT_255_2_778
10
63.0290845
20
23.1051584
40
0.4078208
50
227.2686229
51
227.862914
0
ARC
8
DEFAULT_255_2_778
10
63.0431045
20
23.1203419
40
0.4284871
50
226.860978
51
227.2692469
0
ARC
8
DEFAULT_255_2_778
10
63.0676871
20
23.1465059
40
0.4643876
50
226.4931573
51
226.8550994
0
ARC
8
DEFAULT_255_2_778
10
63.0926551
20
23.1727316
40
0.5005978
50
226.1643978
51
226.4869441
0
ARC
8
DEFAULT_255_2_778
10
63.1082207
20
23.1888323
40
0.5229924
50
225.7121608
51
226.1559926
0
ARC
8
DEFAULT_255_2_778
10
63.1488131
20
23.2303984
40
0.581091
50
225.3331309
51
225.708845
0
ARC
8
DEFAULT_255_2_778
10
63.1945871
20
23.2767613
40
0.6462431
50
224.9662768
51
225.3364648
0
ARC
8
DEFAULT_255_2_778
10
63.2861267
20
23.3682358
40
0.7756536
50
224.6613063
51
224.9685027
0
ARC
8
DEFAULT_255_2_778
10
62.2989218
20
22.4178373
40
0.5948391
50
42.9343245
51
47.7350404
0
ARC
8
DEFAULT_255_2_778
10
62.6481314
20
22.7964204
40
0.079898
50
50.4684026
51
53.1858552
0
ARC
8
DEFAULT_255_2_778
10
62.4129627
20
23.168442
40
0.4183461
50
278.0559592
51
312.5770902
0
ARC
8
DEFAULT_255_2_778
10
62.3727901
20
23.3227683
40
0.5770648
50
277.0869283
51
279.8582281
0
ARC
8
DEFAULT_255_2_778
10
62.3713482
20
23.3341024
40
0.5884901
50
270.0156186
51
277.0900958
0
ARC
8
DEFAULT_255_2_778
10
62.36645
20
23.2254258
40
0.4798402
50
253.3379353
51
270.6040432
0
ARC
8
DEFAULT_255_2_778
10
62.2887906
20
22.9766954
40
0.2193079
50
229.4595359
51
254.1429288
0
ARC
8
DEFAULT_255_2_778
10
62.2188677
20
22.890005
40
0.1080266
50
210.310556
51
227.7568904
0
ARC
8
DEFAULT_255_2_778
10
62.4526542
20
23.0171792
40
0.3741281
50
198.0070173
51
209.0547976
0
ARC
8
DEFAULT_255_2_778
10
62.3153883
20
22.9735274
40
0.2300932
50
180.6457205
51
198.2360794
0
ARC
8
DEFAULT_255_2_778
10
62.2923496
20
22.9568726
40
0.2075171
50
107.2886404
51
176.1145605
0
ARC
8
DEFAULT_255_2_778
10
62.4258026
20
22.7181818
40
0.4784305
50
110.5440765
51
114.0693479
0
ARC
8
DEFAULT_255_2_778
10
60.0339766
20
32.9322878
40
10.0161183
50
282.8286018
51
283.8715823
0
ARC
8
DEFAULT_255_2_778
10
61.9197782
20
25.3313888
40
2.1847978
50
283.6483086
51
287.2437812
0
ARC
8
DEFAULT_255_2_778
10
62.4546096
20
23.6363914
40
0.4075277
50
286.0725042
51
298.7087406
0
ARC
8
DEFAULT_255_2_778
10
62.5837736
20
23.3884947
40
0.1281903
50
301.2987541
51
303.6509919
0
ARC
8
DEFAULT_255_2_778
10
62.0435571
20
23.3140651
40
0.6121027
50
356.9770578
51
359.9605915
0
ARC
8
DEFAULT_255_2_778
10
62.3514383
20
23.3315963
40
0.3047504
50
356.62287
51
33.6201321
0
ARC
8
DEFAULT_255_2_778
10
62.4592279
20
23.3835566
40
0.1869436
50
38.6568816
51
88.8434333
0
ARC
8
DEFAULT_255_2_778
10
62.4402028
20
23.255305
40
0.3159806
50
85.8624321
51
90.0534421
0
ARC
8
DEFAULT_255_2_778
10
62.430059
20
23.1177228
40
0.4536695
50
88.7560262
51
110.6041957
0
ARC
8
DEFAULT_255_2_778
10
62.3277492
20
23.3760371
40
0.1759421
50
109.0206746
51
150.0461476
0
LINE
8
DEFAULT_255_2_778
10
62.654808
20
23.1912854
11
62.654808
21
22.9349854
0
LINE
8
DEFAULT_255_2_778
10
62.654808
20
23.1912854
11
62.654808
21
23.1912854
0
LINE
8
DEFAULT_255_2_778
10
62.729108
20
23.4556854
11
62.729108
21
22.9925854
0
LINE
8
DEFAULT_255_2_778
10
62.886308
20
22.8190854
11
62.886308
21
22.7446854
0
LINE
8
DEFAULT_255_2_778
10
62.175308
20
23.4638854
11
62.092808
21
23.4638854
0
LINE
8
DEFAULT_255_2_778
10
62.092808
20
23.4638854
11
62.092508
21
23.4640854
0
LINE
8
DEFAULT_255_2_778
10
58.597926
20
23.607751
11
58.672226
21
23.607751
0
LINE
8
DEFAULT_255_2_778
10
58.672226
20
23.607751
11
58.672226
21
22.780951
0
LINE
8
DEFAULT_255_2_778
10
58.672226
20
22.780951
11
58.597926
21
22.780951
0
LINE
8
DEFAULT_255_2_778
10
58.597926
20
22.780951
11
58.597926
21
23.607751
0
LINE
8
DEFAULT_255_2_778
10
58.597926
20
24.021051
11
58.672226
21
24.021051
0
LINE
8
DEFAULT_255_2_778
10
58.672226
20
24.021051
11
58.672226
21
23.930051
0
LINE
8
DEFAULT_255_2_778
10
58.672226
20
23.930051
11
58.597926
21
23.930051
0
LINE
8
DEFAULT_255_2_778
10
58.597926
20
23.930051
11
58.597926
21
24.021051
0
LINE
8
DEFAULT_255_2_778
10
64.485426
20
23.607751
11
64.559726
21
23.607751
0
LINE
8
DEFAULT_255_2_778
10
64.559726
20
23.607751
11
64.559726
21
22.780951
0
LINE
8
DEFAULT_255_2_778
10
64.559726
20
22.780951
11
64.485426
21
22.780951
0
LINE
8
DEFAULT_255_2_778
10
64.485426
20
22.780951
11
64.485426
21
23.607751
0
LINE
8
DEFAULT_255_2_778
10
64.485426
20
24.021051
11
64.559726
21
24.021051
0
LINE
8
DEFAULT_255_2_778
10
64.559726
20
24.021051
11
64.559726
21
23.930051
0
LINE
8
DEFAULT_255_2_778
10
64.559726
20
23.930051
11
64.485426
21
23.930051
0
LINE
8
DEFAULT_255_2_778
10
64.485426
20
23.930051
11
64.485426
21
24.021051
0
ARC
8
DEFAULT_255_2_778
10
64.0405435
20
23.0991645
40
0.3745106
50
180.3917135
51
220.1597414
0
ARC
8
DEFAULT_255_2_778
10
63.9848737
20
23.0870149
40
0.3252206
50
224.8542922
51
256.711925
0
ARC
8
DEFAULT_255_2_778
10
64.0669814
20
23.3611877
40
0.6111584
50
255.1281457
51
263.9758381
0
ARC
8
DEFAULT_255_2_778
10
64.1145934
20
23.280528
40
0.4720427
50
236.8672777
51
256.3057514
0
ARC
8
DEFAULT_255_2_778
10
64.0058119
20
23.1035378
40
0.2644325
50
182.9987749
51
235.6440403
0
LINE
8
DEFAULT_255_2_778
10
63.6660417
20
24.2086041
11
63.6660417
21
23.6868041
0
LINE
8
DEFAULT_255_2_778
10
63.6660417
20
23.6868041
11
63.3980417
21
23.6868041
0
LINE
8
DEFAULT_255_2_778
10
63.3980417
20
23.6868041
11
63.3980417
21
23.6114041
0
LINE
8
DEFAULT_255_2_778
10
63.3980417
20
23.6114041
11
63.6660417
21
23.6114041
0
LINE
8
DEFAULT_255_2_778
10
63.6660417
20
23.6114041
11
63.6660417
21
23.0966041
0
LINE
8
DEFAULT_255_2_778
10
64.0028417
20
22.7534041
11
64.0028417
21
22.8219041
0
LINE
8
DEFAULT_255_2_778
10
63.7417417
20
23.0897041
11
63.7417417
21
23.6114041
0
LINE
8
DEFAULT_255_2_778
10
63.7417417
20
23.6114041
11
64.0097417
21
23.6114041
0
LINE
8
DEFAULT_255_2_778
10
64.0097417
20
23.6114041
11
64.0097417
21
23.6868041
0
LINE
8
DEFAULT_255_2_778
10
64.0097417
20
23.6868041
11
63.7417417
21
23.6868041
0
LINE
8
DEFAULT_255_2_778
10
63.7417417
20
23.6868041
11
63.7348417
21
24.2086041
0
LINE
8
DEFAULT_255_2_778
10
63.7348417
20
24.2086041
11
63.6660417
21
24.2086041
0
ARC
8
DEFAULT_255_2_778
10
56.0732837
20
23.2072294
40
0.4771429
50
149.985277
51
180.8373726
0
ARC
8
DEFAULT_255_2_778
10
55.8728004
20
23.3365144
40
0.2391583
50
93.3820356
51
152.7801139
0
ARC
8
DEFAULT_255_2_778
10
55.844135
20
23.3353256
40
0.2403718
50
26.5906102
51
86.5280953
0
ARC
8
DEFAULT_255_2_778
10
55.6424455
20
23.2070009
40
0.4787937
50
359.1928578
51
29.5204628
0
ARC
8
DEFAULT_255_2_778
10
55.6439712
20
23.1931884
40
0.4772729
50
330.013377
51
0.8485145
0
ARC
8
DEFAULT_255_2_778
10
55.8447999
20
23.0639791
40
0.2390269
50
273.3318011
51
332.7806049
0
ARC
8
DEFAULT_255_2_778
10
55.8731614
20
23.0653743
40
0.2404538
50
206.5053097
51
266.5500396
0
ARC
8
DEFAULT_255_2_778
10
56.0751857
20
23.1934817
40
0.4790418
50
179.1896992
51
209.4348584
0
ARC
8
DEFAULT_255_2_778
10
56.0693056
20
23.1980444
40
0.547456
50
149.3250708
51
180.7104559
0
ARC
8
DEFAULT_255_2_778
10
55.8738585
20
23.3287555
40
0.3129307
50
92.6314074
51
151.6529876
0
ARC
8
DEFAULT_255_2_778
10
55.8443178
20
23.3267396
40
0.3149823
50
27.3733643
51
87.2387852
0
ARC
8
DEFAULT_255_2_778
10
55.6473849
20
23.1976547
40
0.5497439
50
359.3331159
51
29.8842602
0
ARC
8
DEFAULT_255_2_778
10
55.6500563
20
23.1844616
40
0.5470776
50
329.2647454
51
0.7116293
0
ARC
8
DEFAULT_255_2_778
10
55.8451775
20
23.0537389
40
0.3128103
50
272.6227751
51
331.5806065
0
ARC
8
DEFAULT_255_2_778
10
55.8746668
20
23.0558912
40
0.3150007
50
207.3792701
51
267.2387047
0
ARC
8
DEFAULT_255_2_778
10
56.0713712
20
23.1848777
40
0.5495163
50
179.3349175
51
209.8905429
0
LINE
8
DEFAULT_255_2_778
10
55.5961917
20
23.2002562
11
55.5961917
21
23.2002562
0
LINE
8
DEFAULT_255_2_778
10
55.5218917
20
23.1912562
11
55.5218917
21
23.1912562
0
ARC
8
DEFAULT_255_2_778
10
59.6701241
20
23.2070843
40
0.4772729
50
150.013377
51
180.8485145
0
ARC
8
DEFAULT_255_2_778
10
59.4692954
20
23.3362936
40
0.2390269
50
93.3318011
51
152.7806049
0
ARC
8
DEFAULT_255_2_778
10
59.4409338
20
23.3348984
40
0.2404538
50
26.5053097
51
86.5500396
0
ARC
8
DEFAULT_255_2_778
10
59.2389096
20
23.206791
40
0.4790418
50
359.1896992
51
29.4348584
0
ARC
8
DEFAULT_255_2_778
10
59.2406831
20
23.1929486
40
0.4772729
50
330.013377
51
0.8485145
0
ARC
8
DEFAULT_255_2_778
10
59.4415118
20
23.0637393
40
0.2390269
50
273.3318011
51
332.7806049
0
ARC
8
DEFAULT_255_2_778
10
59.4698733
20
23.0651345
40
0.2404538
50
206.5053097
51
266.5500396
0
ARC
8
DEFAULT_255_2_778
10
59.6718976
20
23.1932419
40
0.4790418
50
179.1896992
51
209.4348584
0
ARC
8
DEFAULT_255_2_778
10
59.4902177
20
23.300525
40
0.3513815
50
96.6865634
51
168.1581071
0
ARC
8
DEFAULT_255_2_778
10
59.824001
20
23.1774852
40
0.7052244
50
163.9356497
51
178.5432377
0
ARC
8
DEFAULT_255_2_778
10
59.9328613
20
23.1698624
40
0.8142576
50
178.201764
51
180.0032325
0
LINE
8
DEFAULT_255_2_778
10
59.1186036
20
23.1698164
11
59.1186037
21
23.169474
0
ARC
8
DEFAULT_255_2_778
10
59.5186575
20
23.1433975
40
0.4009027
50
176.2705927
51
258.143864
0
ARC
8
DEFAULT_255_2_778
10
59.5017273
20
23.146427
40
0.400758
50
260.6024485
51
263.6644979
0
ARC
8
DEFAULT_255_2_778
10
59.4576615
20
23.0169893
40
0.2688729
50
269.9663556
51
305.5960153
0
ARC
8
DEFAULT_255_2_778
10
59.3471713
20
23.1784541
40
0.4644975
50
305.0854527
51
314.2375131
0
ARC
8
DEFAULT_255_2_778
10
57.4956141
20
25.0606528
40
3.1047454
50
314.4860758
51
315.8175964
0
ARC
8
DEFAULT_255_2_778
10
59.4715023
20
22.6213151
40
0.250992
50
315.0608269
51
356.802757
0
ARC
8
DEFAULT_255_2_778
10
59.4415164
20
22.6860884
40
0.3189261
50
266.9421627
51
310.6244619
0
ARC
8
DEFAULT_255_2_778
10
59.5805733
20
22.9131979
40
0.5674654
50
242.4705328
51
254.036223
0
ARC
8
DEFAULT_255_2_778
10
59.4078745
20
22.5914837
40
0.2024044
50
209.420833
51
243.7294412
0
ARC
8
DEFAULT_255_2_778
10
59.5583361
20
22.6605108
40
0.3676277
50
195.528523
51
207.2719338
0
ARC
8
DEFAULT_255_2_778
10
28.2991425
20
13.2137025
40
32.2879307
50
16.829937
51
16.8985936
0
ARC
8
DEFAULT_255_2_778
10
59.4329852
20
22.6174398
40
0.3149152
50
183.3356416
51
244.3730627
0
ARC
8
DEFAULT_255_2_778
10
59.4919464
20
22.8077449
40
0.5128302
50
247.6313373
51
264.9343079
0
ARC
8
DEFAULT_255_2_778
10
59.5441008
20
23.1909261
40
0.8993022
50
263.7799925
51
266.5896028
0
ARC
8
DEFAULT_255_2_778
10
59.4811166
20
22.6057449
40
0.3126724
50
271.7387051
51
340.5443883
0
ARC
8
DEFAULT_255_2_778
10
59.3605669
20
22.6340769
40
0.4359826
50
342.3106557
51
0.833153
0
ARC
8
DEFAULT_255_2_778
10
59.3379448
20
23.2471336
40
0.4590711
50
2.7072061
51
6.0868994
0
ARC
8
DEFAULT_255_2_778
10
59.4113137
20
23.2682345
40
0.3841055
50
4.1171862
51
66.9535022
0
ARC
8
DEFAULT_255_2_778
10
59.4075467
20
23.2326456
40
0.4184595
50
68.3866531
51
84.2730804
0
ARC
8
DEFAULT_255_2_778
10
60.627085
20
23.0419626
40
0.2839737
50
281.8994048
51
320.6262644
0
ARC
8
DEFAULT_255_2_778
10
60.5996717
20
23.1411412
40
0.3867261
50
269.8565613
51
282.8438106
0
ARC
8
DEFAULT_255_2_778
10
60.5534605
20
23.1104418
40
0.3588885
50
270.0859103
51
277.2422366
0
ARC
8
DEFAULT_255_2_778
10
60.5610415
20
23.0618069
40
0.3103331
50
191.034052
51
268.6995694
0
ARC
8
DEFAULT_255_2_778
10
60.7723992
20
23.1517793
40
0.5371398
50
189.8039552
51
196.1456455
0
ARC
8
DEFAULT_255_2_778
10
60.6348746
20
23.1048541
40
0.3134395
50
189.686355
51
219.6179176
0
ARC
8
DEFAULT_255_2_778
10
60.5734212
20
23.0776561
40
0.2494253
50
223.8105831
51
273.9270819
0
ARC
8
DEFAULT_255_2_778
10
60.590461
20
23.0827488
40
0.2539323
50
270.0096109
51
270.2786936
0
ARC
8
DEFAULT_255_2_778
10
60.5970573
20
23.0793309
40
0.2505689
50
268.774004
51
355.6479216
0
ARC
8
DEFAULT_255_2_778
10
61.6533553
20
23.3050245
40
0.2041667
50
180.0281175
51
185.4265634
0
ARC
8
DEFAULT_255_2_778
10
61.6840326
20
23.2904035
40
0.2352926
50
113.4215202
51
176.4618221
0
ARC
8
DEFAULT_255_2_778
10
61.8773748
20
22.9449825
40
0.6303821
50
91.2426863
51
117.0695736
0
ARC
8
DEFAULT_255_2_778
10
62.0463736
20
21.9651598
40
1.6942331
50
96.1895889
51
103.9539144
0
ARC
8
DEFAULT_255_2_778
10
61.7438087
20
23.1529774
40
0.4685626
50
103.0729477
51
121.2437984
0
ARC
8
DEFAULT_255_2_778
10
61.5752402
20
23.4324613
40
0.1421821
50
121.5831982
51
151.4028301
0
LINE
8
DEFAULT_255_2_778
10
59.1929036
20
23.2000164
11
59.1929036
21
23.2000164
0
LINE
8
DEFAULT_255_2_778
10
59.7221036
20
22.8968164
11
59.7221036
21
22.6073164
0
LINE
8
DEFAULT_255_2_778
10
59.1929036
20
22.5991164
11
59.1186036
21
22.5991164
0
LINE
8
DEFAULT_255_2_778
10
59.7965036
20
22.6404164
11
59.7965036
21
23.2688164
0
LINE
8
DEFAULT_255_2_778
10
59.4493036
20
23.6490164
11
59.4493036
21
23.6495164
0
LINE
8
DEFAULT_255_2_778
10
60.9209036
20
22.7875164
11
60.8466036
21
22.7875164
0
LINE
8
DEFAULT_255_2_778
10
60.8466036
20
22.7875164
11
60.8466036
21
22.8618164
0
LINE
8
DEFAULT_255_2_778
10
60.2431036
20
23.0603164
11
60.2431036
21
23.6143164
0
LINE
8
DEFAULT_255_2_778
10
60.2431036
20
23.6143164
11
60.3259036
21
23.6143164
0
LINE
8
DEFAULT_255_2_778
10
60.3259036
20
23.6143164
11
60.3259036
21
23.0521164
0
LINE
8
DEFAULT_255_2_778
10
60.8469036
20
23.0603164
11
60.8469036
21
23.6143164
0
LINE
8
DEFAULT_255_2_778
10
60.8469036
20
23.6143164
11
60.9239036
21
23.6167164
0
LINE
8
DEFAULT_255_2_778
10
60.9239036
20
23.6167164
11
60.9212036
21
22.7875164
0
LINE
8
DEFAULT_255_2_778
10
60.9212036
20
22.7875164
11
60.9209036
21
22.7875164
0
LINE
8
DEFAULT_255_2_778
10
61.3758036
20
23.6164164
11
61.3758036
21
22.7814164
0
LINE
8
DEFAULT_255_2_778
10
61.3758036
20
22.7814164
11
61.4501036
21
22.7814164
0
LINE
8
DEFAULT_255_2_778
10
61.4501036
20
22.7814164
11
61.4501036
21
23.2857164
0
LINE
8
DEFAULT_255_2_778
10
61.8637036
20
23.5752164
11
61.8637036
21
23.6495164
0
LINE
8
DEFAULT_255_2_778
10
61.4504036
20
23.5005164
11
61.4504036
21
23.6162164
0
LINE
8
DEFAULT_255_2_778
10
61.4504036
20
23.6162164
11
61.3758036
21
23.6164164
0
LINE
8
DEFAULT_255_2_778
10
66.7116036
20
21.3463164
11
66.7116036
21
20.9933164
0
LINE
8
DEFAULT_255_2_778
10
66.7116036
20
9.6649164
11
66.7116036
21
7.8465164
0
LINE
8
DEFAULT_255_2_778
10
66.7243036
20
9.6649164
11
66.7243036
21
20.9933164
0
LINE
8
DEFAULT_255_2_778
10
66.7116036
20
9.6253164
11
68.5076036
21
9.6253164
0
LINE
8
DEFAULT_255_2_778
10
68.5076036
20
9.6253164
11
68.5076036
21
21.3463164
0
LINE
8
DEFAULT_255_2_778
10
66.7116036
20
9.2464164
11
68.9151036
21
9.2464164
0
LINE
8
DEFAULT_255_2_778
10
68.9151036
20
9.2464164
11
68.9151036
21
9.2273164
0
LINE
8
DEFAULT_255_2_778
10
68.9151036
20
9.2273164
11
69.3506036
21
9.2273164
0
LINE
8
DEFAULT_255_2_778
10
68.9505718
20
21.3463498
11
68.9505718
21
9.2273498
0
LINE
8
DEFAULT_255_2_778
10
68.8888718
20
10.4079498
11
68.5075718
21
10.7892498
0
LINE
8
DEFAULT_255_2_778
10
68.8888718
20
9.2464498
11
68.8888718
21
10.4079498
0
LINE
8
DEFAULT_255_2_778
10
68.8888718
20
10.4079498
11
68.5075718
21
10.4079498
0
LINE
8
DEFAULT_255_2_778
10
3.1936718
20
21.3463498
11
3.1936718
21
9.6253498
0
LINE
8
DEFAULT_255_2_778
10
3.1936718
20
9.6253498
11
4.9896718
21
9.6253498
0
LINE
8
DEFAULT_255_2_778
10
2.7506718
20
9.2273498
11
2.7506718
21
21.3463498
0
LINE
8
DEFAULT_255_2_778
10
4.9896718
20
9.2464498
11
2.7861718
21
9.2464498
0
LINE
8
DEFAULT_255_2_778
10
2.7861718
20
9.2464498
11
2.7861718
21
9.2273498
0
LINE
8
DEFAULT_255_2_778
10
2.7861718
20
9.2273498
11
2.3506718
21
9.2273498
0
LINE
8
DEFAULT_255_2_778
10
4.9896718
20
21.3463498
11
4.9896718
21
7.8462498
0
LINE
8
DEFAULT_255_2_778
10
4.9896718
20
9.3702498
11
35.9776718
21
9.3702498
0
LINE
8
DEFAULT_255_2_778
10
13.6383
20
9.3705406
11
13.6383
21
9.6650406
0
LINE
8
DEFAULT_255_2_778
10
12.3683
20
9.3705406
11
12.3683
21
9.6650406
0
LINE
8
DEFAULT_255_2_778
10
8.5583
20
9.3705406
11
8.5583
21
9.6650406
0
LINE
8
DEFAULT_255_2_778
10
23.7983
20
9.3705406
11
23.7983
21
9.6650406
0
LINE
8
DEFAULT_255_2_778
10
22.5283
20
9.3705406
11
22.5283
21
9.6650406
0
LINE
8
DEFAULT_255_2_778
10
18.7183
20
9.3705406
11
18.7183
21
9.6650406
0
LINE
8
DEFAULT_255_2_778
10
17.4483
20
9.3705406
11
17.4483
21
9.6650406
0
LINE
8
DEFAULT_255_2_778
10
33.9583
20
9.3705406
11
33.9583
21
9.6650406
0
LINE
8
DEFAULT_255_2_778
10
32.6883
20
9.3705406
11
32.6883
21
9.6650406
0
LINE
8
DEFAULT_255_2_778
10
28.8783
20
9.3705406
11
28.8783
21
9.6650406
0
LINE
8
DEFAULT_255_2_778
10
27.6083
20
9.3705406
11
27.6083
21
9.6650406
0
LINE
8
DEFAULT_255_2_778
10
35.9776723
20
9.6649727
11
5.0023723
21
9.6649727
0
LINE
8
DEFAULT_255_2_778
10
5.0023723
20
9.3704727
11
5.0023723
21
20.9933727
0
LINE
8
DEFAULT_255_2_778
10
5.0023723
20
20.9933727
11
35.9776723
21
20.9933727
0
LINE
8
DEFAULT_255_2_778
10
35.9776723
20
20.9933727
11
35.9776723
21
7.8462727
0
LINE
8
DEFAULT_255_2_778
10
2.8123723
20
10.4079727
11
3.1936723
21
10.4079727
0
LINE
8
DEFAULT_255_2_778
10
2.8123468
20
9.2461489
11
2.8123468
21
10.4076489
0
LINE
8
DEFAULT_255_2_778
10
2.8123468
20
10.4076489
11
3.1936468
21
10.7889489
0
LINE
8
DEFAULT_255_2_778
10
2.3506468
20
87.8464489
11
2.3506468
21
74.3463489
0
LINE
8
DEFAULT_255_2_778
10
2.3506468
20
74.3463489
11
69.3505468
21
74.3463489
0
LINE
8
DEFAULT_255_2_778
10
69.3505468
20
74.3463489
11
69.3505468
21
87.8464489
0
LINE
8
DEFAULT_255_2_778
10
66.7116097
20
74.3463498
11
66.7116097
21
87.8464498
0
LINE
8
DEFAULT_255_2_778
10
66.7116097
20
86.4462498
11
68.9151097
21
86.4462498
0
LINE
8
DEFAULT_255_2_778
10
68.9151097
20
86.4462498
11
68.9151097
21
86.4653498
0
LINE
8
DEFAULT_255_2_778
10
68.9151097
20
86.4653498
11
69.3506097
21
86.4653498
0
LINE
8
DEFAULT_255_2_778
10
68.9508097
20
86.4653498
11
68.9508097
21
74.3463498
0
LINE
8
DEFAULT_255_2_778
10
13.6129
20
86.3224406
11
13.6129
21
86.0279406
0
LINE
8
DEFAULT_255_2_778
10
12.3429
20
86.3224406
11
12.3429
21
86.0279406
0
LINE
8
DEFAULT_255_2_778
10
8.5329
20
86.3224406
11
8.5329
21
86.0279406
0
LINE
8
DEFAULT_255_2_778
10
7.2629
20
86.3224406
11
7.2629
21
86.0279406
0
LINE
8
DEFAULT_255_2_778
10
23.7729
20
86.3224406
11
23.7729
21
86.0279406
0
LINE
8
DEFAULT_255_2_778
10
22.5029
20
86.3224406
11
22.5029
21
86.0279406
0
LINE
8
DEFAULT_255_2_778
10
18.6929
20
86.3224406
11
18.6929
21
86.0279406
0
LINE
8
DEFAULT_255_2_778
10
17.4229
20
86.3224406
11
17.4229
21
86.0279406
0
LINE
8
DEFAULT_255_2_778
10
33.9329
20
86.3224406
11
33.9329
21
86.0279406
0
LINE
8
DEFAULT_255_2_778
10
32.6629
20
86.3224406
11
32.6629
21
86.0279406
0
LINE
8
DEFAULT_255_2_778
10
28.8529
20
86.3224406
11
28.8529
21
86.0279406
0
LINE
8
DEFAULT_255_2_778
10
27.5829
20
86.3224406
11
27.5829
21
86.0279406
0
LINE
8
DEFAULT_255_2_778
10
44.0929
20
86.3224406
11
44.0929
21
86.0279406
0
LINE
8
DEFAULT_255_2_778
10
42.8229
20
86.3224406
11
42.8229
21
86.0279406
0
LINE
8
DEFAULT_255_2_778
10
39.0129
20
86.3224406
11
39.0129
21
86.0279406
0
LINE
8
DEFAULT_255_2_778
10
37.7429
20
86.3224406
11
37.7429
21
86.0279406
0
LINE
8
DEFAULT_255_2_778
10
54.2529
20
86.3224406
11
54.2529
21
86.0279406
0
LINE
8
DEFAULT_255_2_778
10
52.9829
20
86.3224406
11
52.9829
21
86.0279406
0
LINE
8
DEFAULT_255_2_778
10
49.1729
20
86.3224406
11
49.1729
21
86.0279406
0
LINE
8
DEFAULT_255_2_778
10
47.9029
20
86.3224406
11
47.9029
21
86.0279406
0
LINE
8
DEFAULT_255_2_778
10
63.1429
20
86.3224406
11
63.1429
21
86.0279406
0
LINE
8
DEFAULT_255_2_778
10
59.3329
20
86.3224406
11
59.3329
21
86.0279406
0
LINE
8
DEFAULT_255_2_778
10
58.0629
20
86.3224406
11
58.0629
21
86.0279406
0
LINE
8
DEFAULT_255_2_778
10
68.5076728
20
85.284725
11
68.8889728
21
85.284725
0
LINE
8
DEFAULT_255_2_778
10
68.8889728
20
86.446525
11
68.8889728
21
85.284725
0
LINE
8
DEFAULT_255_2_778
10
68.8889728
20
85.284725
11
68.5076728
21
84.903525
0
LINE
8
DEFAULT_255_2_778
10
66.7116728
20
86.322425
11
4.9896728
21
86.322425
0
ARC
8
DEFAULT_255_2_778
10
28.2452894
20
14.9516441
40
2.0085923
50
156.5693287
51
180.0982465
0
ARC
8
DEFAULT_255_2_778
10
28.2387759
20
14.9523277
40
2.0023451
50
100.1984339
51
156.5131642
0
ARC
8
DEFAULT_255_2_778
10
28.2422817
20
14.921029
40
2.0337712
50
89.9713109
51
100.1395175
0
ARC
8
DEFAULT_255_2_778
10
28.24676
20
14.9460821
40
2.0087208
50
66.5700845
51
90.0986899
0
ARC
8
DEFAULT_255_2_778
10
28.2475139
20
14.9528107
40
2.0022483
50
10.1964141
51
66.5133195
0
ARC
8
DEFAULT_255_2_778
10
28.2159269
20
14.9492183
40
2.0339734
50
359.9713149
51
10.1385001
0
ARC
8
DEFAULT_255_2_778
10
28.2410544
20
14.9447324
40
2.0088486
50
336.5719007
51
0.0989013
0
ARC
8
DEFAULT_255_2_778
10
28.2480081
20
14.9438782
40
2.0021296
50
280.194957
51
336.5152077
0
ARC
8
DEFAULT_255_2_778
10
28.2443216
20
14.9758314
40
2.0342317
50
269.9712266
51
280.1378553
0
ARC
8
DEFAULT_255_2_778
10
28.2398482
20
14.9503171
40
2.0087201
50
246.5711449
51
270.098458
0
ARC
8
DEFAULT_255_2_778
10
28.2390644
20
14.9435785
40
2.0022264
50
190.1969768
51
246.5150524
0
ARC
8
DEFAULT_255_2_778
10
28.2707293
20
14.9471783
40
2.0340295
50
179.9712226
51
190.1388726
0
LINE
8
DEFAULT_255_2_778
10
26.2367001
20
14.9481999
11
26.2367001
21
14.9481999
0
ARC
8
DEFAULT_255_2_778
10
33.3254172
20
14.9516518
40
2.0087201
50
156.5711449
51
180.098458
0
ARC
8
DEFAULT_255_2_778
10
33.3186786
20
14.9524356
40
2.0022264
50
100.1969768
51
156.5150524
0
ARC
8
DEFAULT_255_2_778
10
33.3222784
20
14.9207707
40
2.0340295
50
89.9712226
51
100.1388726
0
ARC
8
DEFAULT_255_2_778
10
33.32676
20
14.9460821
40
2.0087208
50
66.5700845
51
90.0986899
0
ARC
8
DEFAULT_255_2_778
10
33.3275139
20
14.9528107
40
2.0022483
50
10.1964141
51
66.5133195
0
ARC
8
DEFAULT_255_2_778
10
33.2959269
20
14.9492183
40
2.0339734
50
359.9713149
51
10.1385001
0
ARC
8
DEFAULT_255_2_778
10
33.3210544
20
14.9447324
40
2.0088486
50
336.5719007
51
0.0989013
0
ARC
8
DEFAULT_255_2_778
10
33.3280081
20
14.9438782
40
2.0021296
50
280.194957
51
336.5152077
0
ARC
8
DEFAULT_255_2_778
10
33.3243216
20
14.9758314
40
2.0342317
50
269.9712266
51
280.1378553
0
ARC
8
DEFAULT_255_2_778
10
33.3198325
20
14.9504456
40
2.0088486
50
246.5719007
51
270.0989013
0
ARC
8
DEFAULT_255_2_778
10
33.3189783
20
14.9434919
40
2.0021296
50
190.194957
51
246.5152077
0
ARC
8
DEFAULT_255_2_778
10
33.3509315
20
14.9471784
40
2.0342317
50
179.9712266
51
190.1378553
0
LINE
8
DEFAULT_255_2_778
10
31.3167001
20
14.9481999
11
31.3167001
21
14.9481999
0
ARC
8
DEFAULT_255_2_778
10
18.0852894
20
14.9516441
40
2.0085923
50
156.5693287
51
180.0982465
0
ARC
8
DEFAULT_255_2_778
10
18.0787759
20
14.9523277
40
2.0023451
50
100.1984339
51
156.5131642
0
ARC
8
DEFAULT_255_2_778
10
18.0822817
20
14.921029
40
2.0337712
50
89.9713109
51
100.1395175
0
ARC
8
DEFAULT_255_2_778
10
18.0867442
20
14.9462106
40
2.0085923
50
66.5693287
51
90.0982465
0
ARC
8
DEFAULT_255_2_778
10
18.0874278
20
14.9527241
40
2.0023451
50
10.1984339
51
66.5131642
0
ARC
8
DEFAULT_255_2_778
10
18.0561291
20
14.9492183
40
2.0337712
50
359.9713109
51
10.1395175
0
ARC
8
DEFAULT_255_2_778
10
18.0811822
20
14.94474
40
2.0087208
50
336.5700845
51
0.0986899
0
ARC
8
DEFAULT_255_2_778
10
18.0879108
20
14.9439861
40
2.0022483
50
280.1964141
51
336.5133195
0
ARC
8
DEFAULT_255_2_778
10
18.0843184
20
14.9755731
40
2.0339734
50
269.9713149
51
280.1385001
0
ARC
8
DEFAULT_255_2_778
10
18.0798482
20
14.9503171
40
2.0087201
50
246.5711449
51
270.098458
0
ARC
8
DEFAULT_255_2_778
10
18.0790644
20
14.9435785
40
2.0022264
50
190.1969768
51
246.5150524
0
ARC
8
DEFAULT_255_2_778
10
18.1107293
20
14.9471783
40
2.0340295
50
179.9712226
51
190.1388726
0
LINE
8
DEFAULT_255_2_778
10
16.0767001
20
14.9481999
11
16.0767001
21
14.9481999
0
ARC
8
DEFAULT_255_2_778
10
23.1654172
20
14.9516518
40
2.0087201
50
156.5711449
51
180.098458
0
ARC
8
DEFAULT_255_2_778
10
23.1586786
20
14.9524356
40
2.0022264
50
100.1969768
51
156.5150524
0
ARC
8
DEFAULT_255_2_778
10
23.1622784
20
14.9207707
40
2.0340295
50
89.9712226
51
100.1388726
0
ARC
8
DEFAULT_255_2_778
10
23.1667442
20
14.9462106
40
2.0085923
50
66.5693287
51
90.0982465
0
ARC
8
DEFAULT_255_2_778
10
23.1674278
20
14.9527241
40
2.0023451
50
10.1984339
51
66.5131642
0
ARC
8
DEFAULT_255_2_778
10
23.1361291
20
14.9492183
40
2.0337712
50
359.9713109
51
10.1395175
0
ARC
8
DEFAULT_255_2_778
10
23.1611822
20
14.94474
40
2.0087208
50
336.5700845
51
0.0986899
0
ARC
8
DEFAULT_255_2_778
10
23.1679108
20
14.9439861
40
2.0022483
50
280.1964141
51
336.5133195
0
ARC
8
DEFAULT_255_2_778
10
23.1643184
20
14.9755731
40
2.0339734
50
269.9713149
51
280.1385001
0
ARC
8
DEFAULT_255_2_778
10
23.1598325
20
14.9504456
40
2.0088486
50
246.5719007
51
270.0989013
0
ARC
8
DEFAULT_255_2_778
10
23.1589783
20
14.9434919
40
2.0021296
50
190.194957
51
246.5152077
0
ARC
8
DEFAULT_255_2_778
10
23.1909315
20
14.9471784
40
2.0342317
50
179.9712266
51
190.1378553
0
LINE
8
DEFAULT_255_2_778
10
21.1567001
20
14.9481999
11
21.1567001
21
14.9481999
0
ARC
8
DEFAULT_255_2_778
10
7.9254172
20
14.9516518
40
2.0087201
50
156.5711449
51
180.098458
0
ARC
8
DEFAULT_255_2_778
10
7.9186786
20
14.9524356
40
2.0022264
50
100.1969768
51
156.5150524
0
ARC
8
DEFAULT_255_2_778
10
7.9222784
20
14.9207707
40
2.0340295
50
89.9712226
51
100.1388726
0
ARC
8
DEFAULT_255_2_778
10
7.9267442
20
14.9462106
40
2.0085923
50
66.5693287
51
90.0982465
0
ARC
8
DEFAULT_255_2_778
10
7.9274278
20
14.9527241
40
2.0023451
50
10.1984339
51
66.5131642
0
ARC
8
DEFAULT_255_2_778
10
7.8961291
20
14.9492183
40
2.0337712
50
359.9713109
51
10.1395175
0
ARC
8
DEFAULT_255_2_778
10
7.9211822
20
14.94474
40
2.0087208
50
336.5700845
51
0.0986899
0
ARC
8
DEFAULT_255_2_778
10
7.9279108
20
14.9439861
40
2.0022483
50
280.1964141
51
336.5133195
0
ARC
8
DEFAULT_255_2_778
10
7.9243184
20
14.9755731
40
2.0339734
50
269.9713149
51
280.1385001
0
ARC
8
DEFAULT_255_2_778
10
7.9198325
20
14.9504456
40
2.0088486
50
246.5719007
51
270.0989013
0
ARC
8
DEFAULT_255_2_778
10
7.9189783
20
14.9434919
40
2.0021296
50
190.194957
51
246.5152077
0
ARC
8
DEFAULT_255_2_778
10
7.9509315
20
14.9471784
40
2.0342317
50
179.9712266
51
190.1378553
0
LINE
8
DEFAULT_255_2_778
10
5.9167001
20
14.9481999
11
5.9167001
21
14.9481999
0
ARC
8
DEFAULT_255_2_778
10
13.0052894
20
14.9516441
40
2.0085923
50
156.5693287
51
180.0982465
0
ARC
8
DEFAULT_255_2_778
10
12.9987759
20
14.9523277
40
2.0023451
50
100.1984339
51
156.5131642
0
ARC
8
DEFAULT_255_2_778
10
13.0022817
20
14.921029
40
2.0337712
50
89.9713109
51
100.1395175
0
ARC
8
DEFAULT_255_2_778
10
13.00676
20
14.9460821
40
2.0087208
50
66.5700845
51
90.0986899
0
ARC
8
DEFAULT_255_2_778
10
13.0075139
20
14.9528107
40
2.0022483
50
10.1964141
51
66.5133195
0
ARC
8
DEFAULT_255_2_778
10
12.9759269
20
14.9492183
40
2.0339734
50
359.9713149
51
10.1385001
0
ARC
8
DEFAULT_255_2_778
10
13.0010544
20
14.9447324
40
2.0088486
50
336.5719007
51
0.0989013
0
ARC
8
DEFAULT_255_2_778
10
13.0080081
20
14.9438782
40
2.0021296
50
280.194957
51
336.5152077
0
ARC
8
DEFAULT_255_2_778
10
13.0043216
20
14.9758314
40
2.0342317
50
269.9712266
51
280.1378553
0
ARC
8
DEFAULT_255_2_778
10
12.9998482
20
14.9503171
40
2.0087201
50
246.5711449
51
270.098458
0
ARC
8
DEFAULT_255_2_778
10
12.9990644
20
14.9435785
40
2.0022264
50
190.1969768
51
246.5150524
0
ARC
8
DEFAULT_255_2_778
10
13.0307293
20
14.9471783
40
2.0340295
50
179.9712226
51
190.1388726
0
LINE
8
DEFAULT_255_2_778
10
10.9967001
20
14.9481999
11
10.9967001
21
14.9481999
0
ARC
8
DEFAULT_255_2_778
10
1.0508052
20
87.0455808
40
1.6006867
50
89.9993249
51
119.9891629
0
ARC
8
DEFAULT_255_2_778
10
1.0509188
20
87.0466508
40
0.7998167
50
90.0067922
51
135.0242202
0
ARC
8
DEFAULT_255_2_778
10
1.0506328
20
87.0462345
40
0.7999088
50
134.9886399
51
179.99047
0
LINE
8
DEFAULT_255_2_778
10
2.750724
20
74.3463675
11
2.750724
21
86.4652675
0
LINE
8
DEFAULT_255_2_778
10
4.989724
20
74.3463675
11
4.989724
21
74.6992675
0
LINE
8
DEFAULT_255_2_778
10
4.989724
20
86.0673675
11
3.193724
21
86.0673675
0
LINE
8
DEFAULT_255_2_778
10
3.193724
20
86.0673675
11
3.193724
21
74.3463675
0
LINE
8
DEFAULT_255_2_778
10
4.989724
20
86.4462675
11
2.786224
21
86.4462675
0
LINE
8
DEFAULT_255_2_778
10
2.786224
20
86.4462675
11
2.786224
21
86.4652675
0
LINE
8
DEFAULT_255_2_778
10
2.786224
20
86.4652675
11
2.350724
21
86.4652675
0
LINE
8
DEFAULT_255_2_778
10
4.989724
20
86.0279675
11
4.989724
21
87.8464675
0
LINE
8
DEFAULT_255_2_778
10
2.812424
20
85.2847675
11
3.193724
21
84.9034675
0
LINE
8
DEFAULT_255_2_778
10
2.8124228
20
86.446253
11
2.8124228
21
85.284753
0
LINE
8
DEFAULT_255_2_778
10
2.8124228
20
85.284753
11
3.1937228
21
85.284753
0
LINE
8
DEFAULT_255_2_778
10
66.6990228
20
86.322453
11
66.6990228
21
74.699553
0
LINE
8
DEFAULT_255_2_778
10
66.6990228
20
74.699553
11
4.9770228
21
74.699553
0
LINE
8
DEFAULT_255_2_778
10
4.9770228
20
74.699553
11
4.9770228
21
86.027953
0
LINE
8
DEFAULT_255_2_778
10
4.9770228
20
86.027953
11
66.6990228
21
86.027953
0
ARC
8
DEFAULT_255_2_778
10
12.9800172
20
80.7479518
40
2.0087201
50
156.5711449
51
180.098458
0
ARC
8
DEFAULT_255_2_778
10
12.9732786
20
80.7487356
40
2.0022264
50
100.1969768
51
156.5150524
0
ARC
8
DEFAULT_255_2_778
10
12.9768784
20
80.7170707
40
2.0340295
50
89.9712226
51
100.1388726
0
ARC
8
DEFAULT_255_2_778
10
12.9813442
20
80.7425106
40
2.0085923
50
66.5693287
51
90.0982465
0
ARC
8
DEFAULT_255_2_778
10
12.9820278
20
80.7490241
40
2.0023451
50
10.1984339
51
66.5131642
0
ARC
8
DEFAULT_255_2_778
10
12.9507291
20
80.7455183
40
2.0337712
50
359.9713109
51
10.1395175
0
ARC
8
DEFAULT_255_2_778
10
12.9759107
20
80.7410558
40
2.0085923
50
336.5693287
51
0.0982465
0
ARC
8
DEFAULT_255_2_778
10
12.9824242
20
80.7403722
40
2.0023451
50
280.1984339
51
336.5131642
0
ARC
8
DEFAULT_255_2_778
10
12.9789184
20
80.7716709
40
2.0337712
50
269.9713109
51
280.1395175
0
ARC
8
DEFAULT_255_2_778
10
12.9744401
20
80.7466178
40
2.0087208
50
246.5700845
51
270.0986899
0
ARC
8
DEFAULT_255_2_778
10
12.9736862
20
80.7398892
40
2.0022483
50
190.1964141
51
246.5133195
0
ARC
8
DEFAULT_255_2_778
10
13.0052732
20
80.7434816
40
2.0339734
50
179.9713149
51
190.1385001
0
LINE
8
DEFAULT_255_2_778
10
10.9713001
20
80.7444999
11
10.9713001
21
80.7444999
0
ARC
8
DEFAULT_255_2_778
10
7.8998894
20
80.7479441
40
2.0085923
50
156.5693287
51
180.0982465
0
ARC
8
DEFAULT_255_2_778
10
7.8933759
20
80.7486277
40
2.0023451
50
100.1984339
51
156.5131642
0
ARC
8
DEFAULT_255_2_778
10
7.8968817
20
80.717329
40
2.0337712
50
89.9713109
51
100.1395175
0
ARC
8
DEFAULT_255_2_778
10
7.9013442
20
80.7425106
40
2.0085923
50
66.5693287
51
90.0982465
0
ARC
8
DEFAULT_255_2_778
10
7.9020278
20
80.7490241
40
2.0023451
50
10.1984339
51
66.5131642
0
ARC
8
DEFAULT_255_2_778
10
7.8707291
20
80.7455183
40
2.0337712
50
359.9713109
51
10.1395175
0
ARC
8
DEFAULT_255_2_778
10
7.8959107
20
80.7410558
40
2.0085923
50
336.5693287
51
0.0982465
0
ARC
8
DEFAULT_255_2_778
10
7.9024242
20
80.7403722
40
2.0023451
50
280.1984339
51
336.5131642
0
ARC
8
DEFAULT_255_2_778
10
7.8989184
20
80.7716709
40
2.0337712
50
269.9713109
51
280.1395175
0
ARC
8
DEFAULT_255_2_778
10
7.8944559
20
80.7464893
40
2.0085923
50
246.5693287
51
270.0982465
0
ARC
8
DEFAULT_255_2_778
10
7.8937723
20
80.7399758
40
2.0023451
50
190.1984339
51
246.5131642
0
ARC
8
DEFAULT_255_2_778
10
7.925071
20
80.7434816
40
2.0337712
50
179.9713109
51
190.1395175
0
LINE
8
DEFAULT_255_2_778
10
5.8913001
20
80.7444999
11
5.8913001
21
80.7444999
0
ARC
8
DEFAULT_255_2_778
10
23.1400172
20
80.7479518
40
2.0087201
50
156.5711449
51
180.098458
0
ARC
8
DEFAULT_255_2_778
10
23.1332786
20
80.7487356
40
2.0022264
50
100.1969768
51
156.5150524
0
ARC
8
DEFAULT_255_2_778
10
23.1368784
20
80.7170707
40
2.0340295
50
89.9712226
51
100.1388726
0
ARC
8
DEFAULT_255_2_778
10
23.1413442
20
80.7425106
40
2.0085923
50
66.5693287
51
90.0982465
0
ARC
8
DEFAULT_255_2_778
10
23.1420278
20
80.7490241
40
2.0023451
50
10.1984339
51
66.5131642
0
ARC
8
DEFAULT_255_2_778
10
23.1107291
20
80.7455183
40
2.0337712
50
359.9713109
51
10.1395175
0
ARC
8
DEFAULT_255_2_778
10
23.1359107
20
80.7410558
40
2.0085923
50
336.5693287
51
0.0982465
0
ARC
8
DEFAULT_255_2_778
10
23.1424242
20
80.7403722
40
2.0023451
50
280.1984339
51
336.5131642
0
ARC
8
DEFAULT_255_2_778
10
23.1389184
20
80.7716709
40
2.0337712
50
269.9713109
51
280.1395175
0
ARC
8
DEFAULT_255_2_778
10
23.1344401
20
80.7466178
40
2.0087208
50
246.5700845
51
270.0986899
0
ARC
8
DEFAULT_255_2_778
10
23.1336862
20
80.7398892
40
2.0022483
50
190.1964141
51
246.5133195
0
ARC
8
DEFAULT_255_2_778
10
23.1652732
20
80.7434816
40
2.0339734
50
179.9713149
51
190.1385001
0
LINE
8
DEFAULT_255_2_778
10
21.1313001
20
80.7444999
11
21.1313001
21
80.7444999
0
ARC
8
DEFAULT_255_2_778
10
18.0598894
20
80.7479441
40
2.0085923
50
156.5693287
51
180.0982465
0
ARC
8
DEFAULT_255_2_778
10
18.0533759
20
80.7486277
40
2.0023451
50
100.1984339
51
156.5131642
0
ARC
8
DEFAULT_255_2_778
10
18.0568817
20
80.717329
40
2.0337712
50
89.9713109
51
100.1395175
0
ARC
8
DEFAULT_255_2_778
10
18.06136
20
80.7423821
40
2.0087208
50
66.5700845
51
90.0986899
0
ARC
8
DEFAULT_255_2_778
10
18.0621139
20
80.7491107
40
2.0022483
50
10.1964141
51
66.5133195
0
ARC
8
DEFAULT_255_2_778
10
18.0305269
20
80.7455183
40
2.0339734
50
359.9713149
51
10.1385001
0
ARC
8
DEFAULT_255_2_778
10
18.0557829
20
80.7410481
40
2.0087201
50
336.5711449
51
0.098458
0
ARC
8
DEFAULT_255_2_778
10
18.0625215
20
80.7402643
40
2.0022264
50
280.1969768
51
336.5150524
0
ARC
8
DEFAULT_255_2_778
10
18.0589217
20
80.7719292
40
2.0340295
50
269.9712226
51
280.1388726
0
ARC
8
DEFAULT_255_2_778
10
18.0544559
20
80.7464893
40
2.0085923
50
246.5693287
51
270.0982465
0
ARC
8
DEFAULT_255_2_778
10
18.0537723
20
80.7399758
40
2.0023451
50
190.1984339
51
246.5131642
0
ARC
8
DEFAULT_255_2_778
10
18.085071
20
80.7434816
40
2.0337712
50
179.9713109
51
190.1395175
0
LINE
8
DEFAULT_255_2_778
10
16.0513001
20
80.7444999
11
16.0513001
21
80.7444999
0
ARC
8
DEFAULT_255_2_778
10
33.2998894
20
80.7479441
40
2.0085923
50
156.5693287
51
180.0982465
0
ARC
8
DEFAULT_255_2_778
10
33.2933759
20
80.7486277
40
2.0023451
50
100.1984339
51
156.5131642
0
ARC
8
DEFAULT_255_2_778
10
33.2968817
20
80.717329
40
2.0337712
50
89.9713109
51
100.1395175
0
ARC
8
DEFAULT_255_2_778
10
33.30136
20
80.7423821
40
2.0087208
50
66.5700845
51
90.0986899
0
ARC
8
DEFAULT_255_2_778
10
33.3021139
20
80.7491107
40
2.0022483
50
10.1964141
51
66.5133195
0
ARC
8
DEFAULT_255_2_778
10
33.2705269
20
80.7455183
40
2.0339734
50
359.9713149
51
10.1385001
0
ARC
8
DEFAULT_255_2_778
10
33.2957829
20
80.7410481
40
2.0087201
50
336.5711449
51
0.098458
0
ARC
8
DEFAULT_255_2_778
10
33.3025215
20
80.7402643
40
2.0022264
50
280.1969768
51
336.5150524
0
ARC
8
DEFAULT_255_2_778
10
33.2989217
20
80.7719292
40
2.0340295
50
269.9712226
51
280.1388726
0
ARC
8
DEFAULT_255_2_778
10
33.2944559
20
80.7464893
40
2.0085923
50
246.5693287
51
270.0982465
0
ARC
8
DEFAULT_255_2_778
10
33.2937723
20
80.7399758
40
2.0023451
50
190.1984339
51
246.5131642
0
ARC
8
DEFAULT_255_2_778
10
33.325071
20
80.7434816
40
2.0337712
50
179.9713109
51
190.1395175
0
LINE
8
DEFAULT_255_2_778
10
31.2913001
20
80.7444999
11
31.2913001
21
80.7444999
0
ARC
8
DEFAULT_255_2_778
10
28.2200172
20
80.7479518
40
2.0087201
50
156.5711449
51
180.098458
0
ARC
8
DEFAULT_255_2_778
10
28.2132786
20
80.7487356
40
2.0022264
50
100.1969768
51
156.5150524
0
ARC
8
DEFAULT_255_2_778
10
28.2168784
20
80.7170707
40
2.0340295
50
89.9712226
51
100.1388726
0
ARC
8
DEFAULT_255_2_778
10
28.2213442
20
80.7425106
40
2.0085923
50
66.5693287
51
90.0982465
0
ARC
8
DEFAULT_255_2_778
10
28.2220278
20
80.7490241
40
2.0023451
50
10.1984339
51
66.5131642
0
ARC
8
DEFAULT_255_2_778
10
28.1907291
20
80.7455183
40
2.0337712
50
359.9713109
51
10.1395175
0
ARC
8
DEFAULT_255_2_778
10
28.2159107
20
80.7410558
40
2.0085923
50
336.5693287
51
0.0982465
0
ARC
8
DEFAULT_255_2_778
10
28.2224242
20
80.7403722
40
2.0023451
50
280.1984339
51
336.5131642
0
ARC
8
DEFAULT_255_2_778
10
28.2189184
20
80.7716709
40
2.0337712
50
269.9713109
51
280.1395175
0
ARC
8
DEFAULT_255_2_778
10
28.2144401
20
80.7466178
40
2.0087208
50
246.5700845
51
270.0986899
0
ARC
8
DEFAULT_255_2_778
10
28.2136862
20
80.7398892
40
2.0022483
50
190.1964141
51
246.5133195
0
ARC
8
DEFAULT_255_2_778
10
28.2452732
20
80.7434816
40
2.0339734
50
179.9713149
51
190.1385001
0
LINE
8
DEFAULT_255_2_778
10
26.2113001
20
80.7444999
11
26.2113001
21
80.7444999
0
ARC
8
DEFAULT_255_2_778
10
43.4600172
20
80.7479518
40
2.0087201
50
156.5711449
51
180.098458
0
ARC
8
DEFAULT_255_2_778
10
43.4532786
20
80.7487356
40
2.0022264
50
100.1969768
51
156.5150524
0
ARC
8
DEFAULT_255_2_778
10
43.4568784
20
80.7170707
40
2.0340295
50
89.9712226
51
100.1388726
0
ARC
8
DEFAULT_255_2_778
10
43.4613442
20
80.7425106
40
2.0085923
50
66.5693287
51
90.0982465
0
ARC
8
DEFAULT_255_2_778
10
43.4620278
20
80.7490241
40
2.0023451
50
10.1984339
51
66.5131642
0
ARC
8
DEFAULT_255_2_778
10
43.4307291
20
80.7455183
40
2.0337712
50
359.9713109
51
10.1395175
0
ARC
8
DEFAULT_255_2_778
10
43.4559107
20
80.7410558
40
2.0085923
50
336.5693287
51
0.0982465
0
ARC
8
DEFAULT_255_2_778
10
43.4624242
20
80.7403722
40
2.0023451
50
280.1984339
51
336.5131642
0
ARC
8
DEFAULT_255_2_778
10
43.4589184
20
80.7716709
40
2.0337712
50
269.9713109
51
280.1395175
0
ARC
8
DEFAULT_255_2_778
10
43.4544401
20
80.7466178
40
2.0087208
50
246.5700845
51
270.0986899
0
ARC
8
DEFAULT_255_2_778
10
43.4536862
20
80.7398892
40
2.0022483
50
190.1964141
51
246.5133195
0
ARC
8
DEFAULT_255_2_778
10
43.4852732
20
80.7434816
40
2.0339734
50
179.9713149
51
190.1385001
0
LINE
8
DEFAULT_255_2_778
10
41.4513001
20
80.7444999
11
41.4513001
21
80.7444999
0
ARC
8
DEFAULT_255_2_778
10
38.3798894
20
80.7479441
40
2.0085923
50
156.5693287
51
180.0982465
0
ARC
8
DEFAULT_255_2_778
10
38.3733759
20
80.7486277
40
2.0023451
50
100.1984339
51
156.5131642
0
ARC
8
DEFAULT_255_2_778
10
38.3768817
20
80.717329
40
2.0337712
50
89.9713109
51
100.1395175
0
ARC
8
DEFAULT_255_2_778
10
38.38136
20
80.7423821
40
2.0087208
50
66.5700845
51
90.0986899
0
ARC
8
DEFAULT_255_2_778
10
38.3821139
20
80.7491107
40
2.0022483
50
10.1964141
51
66.5133195
0
ARC
8
DEFAULT_255_2_778
10
38.3505269
20
80.7455183
40
2.0339734
50
359.9713149
51
10.1385001
0
ARC
8
DEFAULT_255_2_778
10
38.3757829
20
80.7410481
40
2.0087201
50
336.5711449
51
0.098458
0
ARC
8
DEFAULT_255_2_778
10
38.3825215
20
80.7402643
40
2.0022264
50
280.1969768
51
336.5150524
0
ARC
8
DEFAULT_255_2_778
10
38.3789217
20
80.7719292
40
2.0340295
50
269.9712226
51
280.1388726
0
ARC
8
DEFAULT_255_2_778
10
38.3744559
20
80.7464893
40
2.0085923
50
246.5693287
51
270.0982465
0
ARC
8
DEFAULT_255_2_778
10
38.3737723
20
80.7399758
40
2.0023451
50
190.1984339
51
246.5131642
0
ARC
8
DEFAULT_255_2_778
10
38.405071
20
80.7434816
40
2.0337712
50
179.9713109
51
190.1395175
0
LINE
8
DEFAULT_255_2_778
10
36.3713001
20
80.7444999
11
36.3713001
21
80.7444999
0
ARC
8
DEFAULT_255_2_778
10
53.6200172
20
80.7479518
40
2.0087201
50
156.5711449
51
180.098458
0
ARC
8
DEFAULT_255_2_778
10
53.6132786
20
80.7487356
40
2.0022264
50
100.1969768
51
156.5150524
0
ARC
8
DEFAULT_255_2_778
10
53.6168784
20
80.7170707
40
2.0340295
50
89.9712226
51
100.1388726
0
ARC
8
DEFAULT_255_2_778
10
53.6213442
20
80.7425106
40
2.0085923
50
66.5693287
51
90.0982465
0
ARC
8
DEFAULT_255_2_778
10
53.6220278
20
80.7490241
40
2.0023451
50
10.1984339
51
66.5131642
0
ARC
8
DEFAULT_255_2_778
10
53.5907291
20
80.7455183
40
2.0337712
50
359.9713109
51
10.1395175
0
ARC
8
DEFAULT_255_2_778
10
53.6159107
20
80.7410558
40
2.0085923
50
336.5693287
51
0.0982465
0
ARC
8
DEFAULT_255_2_778
10
53.6224242
20
80.7403722
40
2.0023451
50
280.1984339
51
336.5131642
0
ARC
8
DEFAULT_255_2_778
10
53.6189184
20
80.7716709
40
2.0337712
50
269.9713109
51
280.1395175
0
ARC
8
DEFAULT_255_2_778
10
53.6144401
20
80.7466178
40
2.0087208
50
246.5700845
51
270.0986899
0
ARC
8
DEFAULT_255_2_778
10
53.6136862
20
80.7398892
40
2.0022483
50
190.1964141
51
246.5133195
0
ARC
8
DEFAULT_255_2_778
10
53.6452732
20
80.7434816
40
2.0339734
50
179.9713149
51
190.1385001
0
LINE
8
DEFAULT_255_2_778
10
51.6113001
20
80.7444999
11
51.6113001
21
80.7444999
0
ARC
8
DEFAULT_255_2_778
10
48.5400172
20
80.7479518
40
2.0087201
50
156.5711449
51
180.098458
0
ARC
8
DEFAULT_255_2_778
10
48.5332786
20
80.7487356
40
2.0022264
50
100.1969768
51
156.5150524
0
ARC
8
DEFAULT_255_2_778
10
48.5368784
20
80.7170707
40
2.0340295
50
89.9712226
51
100.1388726
0
ARC
8
DEFAULT_255_2_778
10
48.5413442
20
80.7425106
40
2.0085923
50
66.5693287
51
90.0982465
0
ARC
8
DEFAULT_255_2_778
10
48.5420278
20
80.7490241
40
2.0023451
50
10.1984339
51
66.5131642
0
ARC
8
DEFAULT_255_2_778
10
48.5107291
20
80.7455183
40
2.0337712
50
359.9713109
51
10.1395175
0
ARC
8
DEFAULT_255_2_778
10
48.5359107
20
80.7410558
40
2.0085923
50
336.5693287
51
0.0982465
0
ARC
8
DEFAULT_255_2_778
10
48.5424242
20
80.7403722
40
2.0023451
50
280.1984339
51
336.5131642
0
ARC
8
DEFAULT_255_2_778
10
48.5389184
20
80.7716709
40
2.0337712
50
269.9713109
51
280.1395175
0
ARC
8
DEFAULT_255_2_778
10
48.5344401
20
80.7466178
40
2.0087208
50
246.5700845
51
270.0986899
0
ARC
8
DEFAULT_255_2_778
10
48.5336862
20
80.7398892
40
2.0022483
50
190.1964141
51
246.5133195
0
ARC
8
DEFAULT_255_2_778
10
48.5652732
20
80.7434816
40
2.0339734
50
179.9713149
51
190.1385001
0
LINE
8
DEFAULT_255_2_778
10
46.5313001
20
80.7444999
11
46.5313001
21
80.7444999
0
ARC
8
DEFAULT_255_2_778
10
63.7798894
20
80.7479441
40
2.0085923
50
156.5693287
51
180.0982465
0
ARC
8
DEFAULT_255_2_778
10
63.7733759
20
80.7486277
40
2.0023451
50
100.1984339
51
156.5131642
0
ARC
8
DEFAULT_255_2_778
10
63.7768817
20
80.717329
40
2.0337712
50
89.9713109
51
100.1395175
0
ARC
8
DEFAULT_255_2_778
10
63.78136
20
80.7423821
40
2.0087208
50
66.5700845
51
90.0986899
0
ARC
8
DEFAULT_255_2_778
10
63.7821139
20
80.7491107
40
2.0022483
50
10.1964141
51
66.5133195
0
ARC
8
DEFAULT_255_2_778
10
63.7505269
20
80.7455183
40
2.0339734
50
359.9713149
51
10.1385001
0
ARC
8
DEFAULT_255_2_778
10
63.7757829
20
80.7410481
40
2.0087201
50
336.5711449
51
0.098458
0
ARC
8
DEFAULT_255_2_778
10
63.7825215
20
80.7402643
40
2.0022264
50
280.1969768
51
336.5150524
0
ARC
8
DEFAULT_255_2_778
10
63.7789217
20
80.7719292
40
2.0340295
50
269.9712226
51
280.1388726
0
ARC
8
DEFAULT_255_2_778
10
63.7744559
20
80.7464893
40
2.0085923
50
246.5693287
51
270.0982465
0
ARC
8
DEFAULT_255_2_778
10
63.7737723
20
80.7399758
40
2.0023451
50
190.1984339
51
246.5131642
0
ARC
8
DEFAULT_255_2_778
10
63.805071
20
80.7434816
40
2.0337712
50
179.9713109
51
190.1395175
0
LINE
8
DEFAULT_255_2_778
10
61.7713001
20
80.7444999
11
61.7713001
21
80.7444999
0
ARC
8
DEFAULT_255_2_778
10
58.6998894
20
80.7479441
40
2.0085923
50
156.5693287
51
180.0982465
0
ARC
8
DEFAULT_255_2_778
10
58.6933759
20
80.7486277
40
2.0023451
50
100.1984339
51
156.5131642
0
ARC
8
DEFAULT_255_2_778
10
58.6968817
20
80.717329
40
2.0337712
50
89.9713109
51
100.1395175
0
ARC
8
DEFAULT_255_2_778
10
58.70136
20
80.7423821
40
2.0087208
50
66.5700845
51
90.0986899
0
ARC
8
DEFAULT_255_2_778
10
58.7021139
20
80.7491107
40
2.0022483
50
10.1964141
51
66.5133195
0
ARC
8
DEFAULT_255_2_778
10
58.6705269
20
80.7455183
40
2.0339734
50
359.9713149
51
10.1385001
0
ARC
8
DEFAULT_255_2_778
10
58.6957829
20
80.7410481
40
2.0087201
50
336.5711449
51
0.098458
0
ARC
8
DEFAULT_255_2_778
10
58.7025215
20
80.7402643
40
2.0022264
50
280.1969768
51
336.5150524
0
ARC
8
DEFAULT_255_2_778
10
58.6989217
20
80.7719292
40
2.0340295
50
269.9712226
51
280.1388726
0
ARC
8
DEFAULT_255_2_778
10
58.6944559
20
80.7464893
40
2.0085923
50
246.5693287
51
270.0982465
0
ARC
8
DEFAULT_255_2_778
10
58.6937723
20
80.7399758
40
2.0023451
50
190.1984339
51
246.5131642
0
ARC
8
DEFAULT_255_2_778
10
58.725071
20
80.7434816
40
2.0337712
50
179.9713109
51
190.1395175
0
LINE
8
DEFAULT_255_2_778
10
56.6913001
20
80.7444999
11
56.6913001
21
80.7444999
0
LINE
8
DEFAULT_255_2_778
10
68.5076042
20
74.3464207
11
68.5076042
21
86.0674207
0
LINE
8
DEFAULT_255_2_778
10
68.5076042
20
86.0674207
11
66.7116042
21
86.0674207
0
ENDSEC
0
EOF