0
SECTION
2
HEADER
9
$MEASUREMENT
70
1
0
ENDSEC
0
SECTION
2
TABLES
0
TABLE
2
LTYPE
0
LTYPE
72
65
70
64
2
CONTINUOUS
3
______
73
0
40
0
0
ENDTAB
0
TABLE
2
LAYER
0
LAYER
2
DEFAULT_255_2_778
70
0
62
255
6
CONTINUOUS
0
ENDTAB
0
ENDSEC
0
SECTION
2
ENTITIES
0
LINE
8
DEFAULT_255_2_778
10
0.2508489
20
95.0466101
11
0.2508488
21
95.0469875
0
ARC
8
DEFAULT_255_2_778
10
1.0501473
20
95.04683
40
0.7992986
50
135.0516165
51
179.988712
0
ARC
8
DEFAULT_255_2_778
10
70.6505196
20
87.0463691
40
0.800141
50
44.9955306
51
89.9907439
0
ARC
8
DEFAULT_255_2_778
10
70.6506079
20
87.0462809
40
0.800141
50
0.0092561
51
45.0044694
0
ARC
8
DEFAULT_255_2_778
10
70.6506079
20
0.6463394
40
0.800141
50
314.9955306
51
359.9907439
0
ARC
8
DEFAULT_255_2_778
10
70.6505196
20
0.6462511
40
0.800141
50
270.0092561
51
315.0044694
0
ARC
8
DEFAULT_255_2_778
10
64.2510781
20
0.6462511
40
0.800141
50
224.9955306
51
269.9907439
0
ARC
8
DEFAULT_255_2_778
10
64.2509899
20
0.6463394
40
0.800141
50
180.0092561
51
225.0044694
0
ARC
8
DEFAULT_255_2_778
10
1.0510781
20
8.6464511
40
0.800141
50
224.9955306
51
269.9907439
0
ARC
8
DEFAULT_255_2_778
10
1.049232
20
8.6458209
40
0.7983904
50
180.2447742
51
225.0572244
0
ARC
8
DEFAULT_255_2_778
10
1.049956
20
95.0467981
40
0.7991858
50
135.0403051
51
179.1961502
0
ARC
8
DEFAULT_255_2_778
10
1.0513511
20
95.0459087
40
0.8008016
50
90.028778
51
135.0658084
0
ARC
8
DEFAULT_255_2_778
10
7.4508196
20
95.0465691
40
0.800141
50
44.9955306
51
89.9907439
0
ARC
8
DEFAULT_255_2_778
10
7.4533054
20
95.047465
40
0.7977505
50
0.2402504
51
45.0762601
0
LINE
8
DEFAULT_255_2_778
10
63.4508489
20
7.8468101
11
69.3507489
21
7.8468101
0
LINE
8
DEFAULT_255_2_778
10
69.3507489
20
7.8468101
11
2.3508489
21
7.8468101
0
LINE
8
DEFAULT_255_2_778
10
8.2444489
20
87.8465101
11
70.6506489
21
87.8465101
0
LINE
8
DEFAULT_255_2_778
10
71.4507489
20
87.0464101
11
71.4507489
21
33.6463101
0
LINE
8
DEFAULT_255_2_778
10
71.4507489
20
33.6463101
11
71.4507489
21
0.6462101
0
LINE
8
DEFAULT_255_2_778
10
70.6506489
20
-0.1538899
11
64.2509489
21
-0.1538899
0
LINE
8
DEFAULT_255_2_778
10
63.4508489
20
0.6462101
11
63.4508489
21
7.8463101
0
LINE
8
DEFAULT_255_2_778
10
63.4508489
20
7.8463101
11
2.3508489
21
7.8463101
0
LINE
8
DEFAULT_255_2_778
10
2.3508489
20
7.8463101
11
1.0509489
21
7.8463101
0
LINE
8
DEFAULT_255_2_778
10
0.2508489
20
8.6424101
11
0.2508489
21
95.0466101
0
LINE
8
DEFAULT_255_2_778
10
0.2508489
20
95.0466101
11
0.2508489
21
95.0580101
0
LINE
8
DEFAULT_255_2_778
10
1.0509489
20
95.8467101
11
7.4509489
21
95.8467101
0
LINE
8
DEFAULT_255_2_778
10
8.2510489
20
95.0508101
11
8.2510489
21
94.9585101
0
LINE
8
DEFAULT_255_2_778
10
8.2510489
20
94.9585101
11
8.2510489
21
88.6466101
0
LINE
8
DEFAULT_255_2_778
10
1.0509489
20
87.8528101
11
1.0509489
21
87.8465101
0
LINE
8
DEFAULT_255_2_778
10
1.0509489
20
87.8465101
11
8.2447489
21
87.8465101
0
LINE
8
DEFAULT_255_2_778
10
8.2454489
20
88.6466101
11
8.2513489
21
88.6466101
0
LINE
8
DEFAULT_255_2_778
10
8.2513489
20
88.6466101
11
8.2449489
21
87.8465101
0
LINE
8
DEFAULT_255_2_778
10
8.2449489
20
87.8465101
11
8.2513489
21
88.6466101
0
ARC
8
DEFAULT_255_2_778
10
70.6507652
20
87.0462096
40
0.8003153
50
45.0006999
51
89.9855797
0
ARC
8
DEFAULT_255_2_778
10
70.6509256
20
87.0462955
40
0.800141
50
0.0092561
51
45.0044694
0
ARC
8
DEFAULT_255_2_778
10
70.6509256
20
0.6466541
40
0.800141
50
314.9955306
51
359.9907439
0
ARC
8
DEFAULT_255_2_778
10
70.6507652
20
0.6467399
40
0.8003151
50
270.0144182
51
314.9993059
0
ARC
8
DEFAULT_255_2_778
10
64.2510959
20
0.6465658
40
0.800141
50
224.9955306
51
269.9907439
0
ARC
8
DEFAULT_255_2_778
10
64.2510076
20
0.6466541
40
0.800141
50
180.0092561
51
225.0044694
0
LINE
8
DEFAULT_255_2_778
10
8.2510666
20
88.6466248
11
1.0509666
21
88.6466248
0
LINE
8
DEFAULT_255_2_778
10
1.0509666
20
88.6466248
11
1.0509666
21
87.8465248
0
LINE
8
DEFAULT_255_2_778
10
1.0509666
20
87.8465248
11
70.6509666
21
87.8465248
0
LINE
8
DEFAULT_255_2_778
10
71.4510666
20
87.0464248
11
71.4510666
21
0.6465248
0
LINE
8
DEFAULT_255_2_778
10
70.6509666
20
-0.1535752
11
64.2509666
21
-0.1535752
0
LINE
8
DEFAULT_255_2_778
10
63.4508666
20
0.6465248
11
63.4508666
21
7.8466248
0
LINE
8
DEFAULT_255_2_778
10
6.6421666
20
64.3084248
11
6.3420666
21
64.3084248
0
LINE
8
DEFAULT_255_2_778
10
6.3420666
20
64.3084248
11
6.3442666
21
64.6089248
0
LINE
8
DEFAULT_255_2_778
10
6.3442666
20
64.6089248
11
6.2706666
21
64.6081248
0
LINE
8
DEFAULT_255_2_778
10
6.2706666
20
64.6081248
11
6.2706666
21
64.3081248
0
LINE
8
DEFAULT_255_2_778
10
6.2706666
20
64.3081248
11
5.9706666
21
64.3081248
0
LINE
8
DEFAULT_255_2_778
10
5.9706666
20
64.3081248
11
5.9721666
21
64.2285248
0
LINE
8
DEFAULT_255_2_778
10
5.9721666
20
64.2285248
11
6.2672666
21
64.2332248
0
LINE
8
DEFAULT_255_2_778
10
6.2672666
20
64.2332248
11
6.2698666
21
63.9308248
0
LINE
8
DEFAULT_255_2_778
10
6.2698666
20
63.9308248
11
6.3442666
21
63.9308248
0
LINE
8
DEFAULT_255_2_778
10
6.3442666
20
63.9308248
11
6.3420666
21
64.2332248
0
LINE
8
DEFAULT_255_2_778
10
6.3420666
20
64.2332248
11
6.6421666
21
64.2332248
0
LINE
8
DEFAULT_255_2_778
10
6.6421666
20
64.2332248
11
6.6418666
21
64.3113248
0
ARC
8
DEFAULT_255_2_778
10
9.3083274
20
61.3809316
40
0.4200879
50
4.1269062
51
35.3609686
0
ARC
8
DEFAULT_255_2_778
10
9.317048
20
61.3875819
40
0.4091277
50
35.3082192
51
89.2347052
0
ARC
8
DEFAULT_255_2_778
10
9.3225126
20
61.4293386
40
0.3673347
50
90.0000071
51
90.5858244
0
ARC
8
DEFAULT_255_2_778
10
9.3211203
20
61.4441684
40
0.3524937
50
90.3841826
51
129.362315
0
ARC
8
DEFAULT_255_2_778
10
9.3656857
20
61.3922724
40
0.4208844
50
129.5722523
51
149.5783908
0
ARC
8
DEFAULT_255_2_778
10
9.5013643
20
61.3111632
40
0.5789549
50
149.4556557
51
162.9221147
0
ARC
8
DEFAULT_255_2_778
10
9.6231983
20
61.2689237
40
0.7078362
50
162.5499403
51
164.2832638
0
ARC
8
DEFAULT_255_2_778
10
9.3146905
20
60.673807
40
0.3749979
50
186.1145365
51
214.8738032
0
ARC
8
DEFAULT_255_2_778
10
9.3339459
20
60.6991375
40
0.4053962
50
216.2550164
51
270.1640038
0
ARC
8
DEFAULT_255_2_778
10
9.3386705
20
60.7171821
40
0.4234542
50
269.5177391
51
269.9967591
0
ARC
8
DEFAULT_255_2_778
10
9.3451231
20
60.6691627
40
0.3754906
50
269.0116903
51
322.1220283
0
ARC
8
DEFAULT_255_2_778
10
9.3091475
20
60.6887507
40
0.4159663
50
323.034912
51
344.801361
0
ARC
8
DEFAULT_255_2_778
10
9.1884861
20
60.7252195
40
0.5419798
50
344.4250182
51
353.8295165
0
ARC
8
DEFAULT_255_2_778
10
9.196364
20
60.7745365
40
0.4691611
50
326.5294623
51
346.7448627
0
ARC
8
DEFAULT_255_2_778
10
9.2941916
20
60.708052
40
0.3508929
50
297.3781584
51
326.7754617
0
ARC
8
DEFAULT_255_2_778
10
9.3280831
20
60.6462529
40
0.2804352
50
270.2969065
51
297.0356794
0
ARC
8
DEFAULT_255_2_778
10
9.3293732
20
60.5434067
40
0.1775853
50
269.8420316
51
270.052613
0
ARC
8
DEFAULT_255_2_778
10
9.3312379
20
60.6379876
40
0.2721756
50
229.1369714
51
269.504388
0
ARC
8
DEFAULT_255_2_778
10
9.3980515
20
60.7174661
40
0.3759991
50
208.7418868
51
229.3609071
0
ARC
8
DEFAULT_255_2_778
10
9.5534899
20
60.8052127
40
0.5544852
50
195.4305699
51
208.9682768
0
ARC
8
DEFAULT_255_2_778
10
9.6751989
20
60.8440508
40
0.6821596
50
195.0462088
51
195.8551509
0
ARC
8
DEFAULT_255_2_778
10
9.4481984
20
61.344651
40
0.4368349
50
152.4771488
51
171.2686064
0
ARC
8
DEFAULT_255_2_778
10
9.3474967
20
61.397975
40
0.3228897
50
122.5999079
51
152.611047
0
ARC
8
DEFAULT_255_2_778
10
9.3285105
20
61.4238133
40
0.2909003
50
89.9870976
51
122.1914045
0
ARC
8
DEFAULT_255_2_778
10
9.3285818
20
61.4220128
40
0.2927009
50
88.3634093
51
90.001127
0
ARC
8
DEFAULT_255_2_778
10
9.3262341
20
61.4083062
40
0.306475
50
44.9159542
51
87.9978676
0
ARC
8
DEFAULT_255_2_778
10
9.2760634
20
61.357447
40
0.3779134
50
21.3442906
51
45.0056504
0
ARC
8
DEFAULT_255_2_778
10
9.178416
20
61.3156597
40
0.4840843
50
11.3542512
51
21.7443788
0
LINE
8
DEFAULT_255_2_778
10
8.9418261
20
61.4606636
11
8.9418261
21
60.6338636
0
LINE
8
DEFAULT_255_2_778
10
9.7273261
20
60.6669636
11
9.6530261
21
60.6669636
0
LINE
8
DEFAULT_255_2_778
10
9.0164261
20
60.6669636
11
9.0164261
21
61.4109636
0
LINE
8
DEFAULT_255_2_778
10
9.6530261
20
61.4109636
11
9.7273261
21
61.4109636
0
LINE
8
DEFAULT_255_2_778
10
9.7273261
20
61.4109636
11
9.7273261
21
61.4111636
0
ARC
8
DEFAULT_255_2_778
10
9.3083274
20
61.3809316
40
0.4200879
50
4.1269062
51
35.3609686
0
ARC
8
DEFAULT_255_2_778
10
9.317048
20
61.3875819
40
0.4091277
50
35.3082192
51
89.2347052
0
ARC
8
DEFAULT_255_2_778
10
9.3225126
20
61.4293386
40
0.3673347
50
90.0000071
51
90.5858244
0
ARC
8
DEFAULT_255_2_778
10
9.3211203
20
61.4441684
40
0.3524937
50
90.3841826
51
129.362315
0
ARC
8
DEFAULT_255_2_778
10
9.3656857
20
61.3922724
40
0.4208844
50
129.5722523
51
149.5783908
0
ARC
8
DEFAULT_255_2_778
10
9.5013643
20
61.3111632
40
0.5789549
50
149.4556557
51
162.9221147
0
ARC
8
DEFAULT_255_2_778
10
9.6231983
20
61.2689237
40
0.7078362
50
162.5499403
51
164.2832638
0
ARC
8
DEFAULT_255_2_778
10
9.3146905
20
60.673807
40
0.3749979
50
186.1145365
51
214.8738032
0
ARC
8
DEFAULT_255_2_778
10
9.3339459
20
60.6991375
40
0.4053962
50
216.2550164
51
270.1640038
0
ARC
8
DEFAULT_255_2_778
10
9.3386705
20
60.7171821
40
0.4234542
50
269.5177391
51
269.9967591
0
ARC
8
DEFAULT_255_2_778
10
9.3451231
20
60.6691627
40
0.3754906
50
269.0116903
51
322.1220283
0
ARC
8
DEFAULT_255_2_778
10
9.3091475
20
60.6887507
40
0.4159663
50
323.034912
51
344.801361
0
ARC
8
DEFAULT_255_2_778
10
9.1884861
20
60.7252195
40
0.5419798
50
344.4250182
51
353.8295165
0
ARC
8
DEFAULT_255_2_778
10
9.196364
20
60.7745365
40
0.4691611
50
326.5294623
51
346.7448627
0
ARC
8
DEFAULT_255_2_778
10
9.2941916
20
60.708052
40
0.3508929
50
297.3781584
51
326.7754617
0
ARC
8
DEFAULT_255_2_778
10
9.3280831
20
60.6462529
40
0.2804352
50
270.2969065
51
297.0356794
0
ARC
8
DEFAULT_255_2_778
10
9.3293732
20
60.5434067
40
0.1775853
50
269.8420316
51
270.052613
0
ARC
8
DEFAULT_255_2_778
10
9.3312379
20
60.6379876
40
0.2721756
50
229.1369714
51
269.504388
0
ARC
8
DEFAULT_255_2_778
10
9.3980515
20
60.7174661
40
0.3759991
50
208.7418868
51
229.3609071
0
ARC
8
DEFAULT_255_2_778
10
9.5534899
20
60.8052127
40
0.5544852
50
195.4305699
51
208.9682768
0
ARC
8
DEFAULT_255_2_778
10
9.6751989
20
60.8440508
40
0.6821596
50
195.0462088
51
195.8551509
0
ARC
8
DEFAULT_255_2_778
10
9.4481984
20
61.344651
40
0.4368349
50
152.4771488
51
171.2686064
0
ARC
8
DEFAULT_255_2_778
10
9.3474967
20
61.397975
40
0.3228897
50
122.5999079
51
152.611047
0
ARC
8
DEFAULT_255_2_778
10
9.3285105
20
61.4238133
40
0.2909003
50
89.9870976
51
122.1914045
0
ARC
8
DEFAULT_255_2_778
10
9.3285818
20
61.4220128
40
0.2927009
50
88.3634093
51
90.001127
0
ARC
8
DEFAULT_255_2_778
10
9.3262341
20
61.4083062
40
0.306475
50
44.9159542
51
87.9978676
0
ARC
8
DEFAULT_255_2_778
10
9.2760634
20
61.357447
40
0.3779134
50
21.3442906
51
45.0056504
0
ARC
8
DEFAULT_255_2_778
10
9.178416
20
61.3156597
40
0.4840843
50
11.3542512
51
21.7443788
0
LINE
8
DEFAULT_255_2_778
10
8.9418261
20
61.4606636
11
8.9418261
21
60.6338636
0
LINE
8
DEFAULT_255_2_778
10
9.7273261
20
60.6669636
11
9.6530261
21
60.6669636
0
LINE
8
DEFAULT_255_2_778
10
9.0164261
20
60.6669636
11
9.0164261
21
61.4109636
0
LINE
8
DEFAULT_255_2_778
10
9.6530261
20
61.4109636
11
9.7273261
21
61.4109636
0
LINE
8
DEFAULT_255_2_778
10
9.7273261
20
61.4109636
11
9.7273261
21
61.4111636
0
ARC
8
DEFAULT_255_2_778
10
8.032889
20
60.843163
40
0.4822798
50
278.654749
51
295.2346676
0
ARC
8
DEFAULT_255_2_778
10
8.1084025
20
60.6835653
40
0.3057193
50
295.1847459
51
323.3097105
0
ARC
8
DEFAULT_255_2_778
10
8.0939986
20
60.6896209
40
0.3209096
50
323.979311
51
340.6018379
0
ARC
8
DEFAULT_255_2_778
10
7.9298554
20
60.7450912
40
0.4941631
50
340.8564039
51
352.4748543
0
ARC
8
DEFAULT_255_2_778
10
8.0792706
20
61.3796864
40
0.3434121
50
7.4771628
51
85.575614
0
ARC
8
DEFAULT_255_2_778
10
8.1191317
20
60.658905
40
0.3676438
50
273.0296222
51
296.8326353
0
ARC
8
DEFAULT_255_2_778
10
8.1121726
20
60.6571223
40
0.3692609
50
297.9210942
51
329.3921793
0
ARC
8
DEFAULT_255_2_778
10
8.0397352
20
60.7080892
40
0.4576095
50
328.5177424
51
331.1329721
0
ARC
8
DEFAULT_255_2_778
10
7.9995327
20
60.7290316
40
0.5029283
50
331.25473
51
342.7485136
0
ARC
8
DEFAULT_255_2_778
10
8.0452391
20
60.7166593
40
0.4556123
50
342.5297825
51
350.170033
0
ARC
8
DEFAULT_255_2_778
10
8.0731132
20
61.3740868
40
0.4292273
50
11.202375
51
64.4743092
0
ARC
8
DEFAULT_255_2_778
10
8.102305
20
61.4592838
40
0.3399252
50
62.7260878
51
78.6880903
0
ARC
8
DEFAULT_255_2_778
10
8.1291353
20
61.5840855
40
0.2122931
50
79.1817738
51
89.6687768
0
LINE
8
DEFAULT_255_2_778
10
7.8159625
20
61.722375
11
7.8159625
21
60.366375
0
LINE
8
DEFAULT_255_2_778
10
7.8159625
20
60.366375
11
8.1054625
21
60.366375
0
LINE
8
DEFAULT_255_2_778
10
8.4197625
20
60.680375
11
8.4197625
21
61.424375
0
LINE
8
DEFAULT_255_2_778
10
8.1057625
20
61.722075
11
7.8159625
21
61.722375
0
LINE
8
DEFAULT_255_2_778
10
7.7416625
20
61.796675
11
7.7416625
21
60.291775
0
LINE
8
DEFAULT_255_2_778
10
7.7416625
20
60.291775
11
8.1385625
21
60.291775
0
LINE
8
DEFAULT_255_2_778
10
8.4941625
20
60.638875
11
8.4941625
21
61.457475
0
LINE
8
DEFAULT_255_2_778
10
8.1303625
20
61.796375
11
7.7416625
21
61.796675
0
LINE
8
DEFAULT_255_2_778
10
13.7509073
20
68.3467927
11
15.7509073
21
68.3467927
0
LINE
8
DEFAULT_255_2_778
10
15.7509073
20
68.3467927
11
15.7509073
21
66.3467927
0
LINE
8
DEFAULT_255_2_778
10
15.7509073
20
66.3467927
11
13.7509073
21
66.3467927
0
LINE
8
DEFAULT_255_2_778
10
13.7509073
20
66.3467927
11
13.7509073
21
68.3467927
0
LINE
8
DEFAULT_255_2_778
10
10.4508073
20
68.3467927
11
12.4508073
21
68.3467927
0
LINE
8
DEFAULT_255_2_778
10
12.4508073
20
68.3467927
11
12.4508073
21
66.3467927
0
LINE
8
DEFAULT_255_2_778
10
12.4508073
20
66.3467927
11
10.4508073
21
66.3467927
0
LINE
8
DEFAULT_255_2_778
10
10.4508073
20
66.3467927
11
10.4508073
21
68.3467927
0
LINE
8
DEFAULT_255_2_778
10
7.1509073
20
68.3467927
11
9.1509073
21
68.3467927
0
LINE
8
DEFAULT_255_2_778
10
9.1509073
20
68.3467927
11
9.1509073
21
66.3467927
0
LINE
8
DEFAULT_255_2_778
10
9.1509073
20
66.3467927
11
7.1509073
21
66.3467927
0
LINE
8
DEFAULT_255_2_778
10
7.1509073
20
66.3467927
11
7.1509073
21
68.3467927
0
LINE
8
DEFAULT_255_2_778
10
23.6508073
20
68.3467927
11
25.6508073
21
68.3467927
0
LINE
8
DEFAULT_255_2_778
10
25.6508073
20
68.3467927
11
25.6508073
21
66.3467927
0
LINE
8
DEFAULT_255_2_778
10
25.6508073
20
66.3467927
11
23.6508073
21
66.3467927
0
LINE
8
DEFAULT_255_2_778
10
23.6508073
20
66.3467927
11
23.6508073
21
68.3467927
0
LINE
8
DEFAULT_255_2_778
10
20.3507073
20
68.3467927
11
22.3507073
21
68.3467927
0
LINE
8
DEFAULT_255_2_778
10
22.3507073
20
68.3467927
11
22.3507073
21
66.3467927
0
LINE
8
DEFAULT_255_2_778
10
22.3507073
20
66.3467927
11
20.3507073
21
66.3467927
0
LINE
8
DEFAULT_255_2_778
10
20.3507073
20
66.3467927
11
20.3507073
21
68.3467927
0
LINE
8
DEFAULT_255_2_778
10
17.0508073
20
68.3467927
11
19.0508073
21
68.3467927
0
LINE
8
DEFAULT_255_2_778
10
19.0508073
20
68.3467927
11
19.0508073
21
66.3467927
0
LINE
8
DEFAULT_255_2_778
10
19.0508073
20
66.3467927
11
17.0508073
21
66.3467927
0
LINE
8
DEFAULT_255_2_778
10
17.0508073
20
66.3467927
11
17.0508073
21
68.3467927
0
LINE
8
DEFAULT_255_2_778
10
30.2509073
20
68.3467927
11
32.2509073
21
68.3467927
0
LINE
8
DEFAULT_255_2_778
10
32.2509073
20
68.3467927
11
32.2509073
21
66.3467927
0
LINE
8
DEFAULT_255_2_778
10
32.2509073
20
66.3467927
11
30.2509073
21
66.3467927
0
LINE
8
DEFAULT_255_2_778
10
30.2509073
20
66.3467927
11
30.2509073
21
68.3467927
0
LINE
8
DEFAULT_255_2_778
10
26.9510073
20
68.3467927
11
28.9510073
21
68.3467927
0
LINE
8
DEFAULT_255_2_778
10
28.9510073
20
68.3467927
11
28.9510073
21
66.3467927
0
LINE
8
DEFAULT_255_2_778
10
28.9510073
20
66.3467927
11
26.9510073
21
66.3467927
0
LINE
8
DEFAULT_255_2_778
10
26.9510073
20
66.3467927
11
26.9510073
21
68.3467927
0
ARC
8
DEFAULT_255_2_778
10
7.4310588
20
64.7697779
40
0.4025523
50
325.9930259
51
336.6219284
0
ARC
8
DEFAULT_255_2_778
10
7.5307569
20
64.7270658
40
0.2940909
50
336.5529281
51
351.4790262
0
ARC
8
DEFAULT_255_2_778
10
7.5732901
20
64.7195109
40
0.2509105
50
351.7460536
51
359.9590356
0
ARC
8
DEFAULT_255_2_778
10
7.5629493
20
64.7159926
40
0.2612727
50
0.7322096
51
37.1581947
0
ARC
8
DEFAULT_255_2_778
10
7.4691866
20
64.6522147
40
0.3745669
50
36.2701633
51
49.5242441
0
ARC
8
DEFAULT_255_2_778
10
7.4491926
20
64.6317826
40
0.4030926
50
49.2476362
51
58.9889529
0
ARC
8
DEFAULT_255_2_778
10
7.5272709
20
64.765017
40
0.2486815
50
58.591646
51
67.895068
0
ARC
8
DEFAULT_255_2_778
10
7.5932093
20
64.9279044
40
0.0729543
50
67.735315
51
78.653631
0
ARC
8
DEFAULT_255_2_778
10
7.5187607
20
64.638301
40
0.3718898
50
76.1851646
51
89.5703249
0
ARC
8
DEFAULT_255_2_778
10
7.5193425
20
64.7472819
40
0.2629076
50
89.5190019
51
146.9074359
0
ARC
8
DEFAULT_255_2_778
10
7.7458869
20
64.5813982
40
0.5434903
50
145.2959612
51
161.8505323
0
ARC
8
DEFAULT_255_2_778
10
8.0161929
20
64.4789058
40
0.8323785
50
160.9423244
51
163.2903393
0
ARC
8
DEFAULT_255_2_778
10
7.556331
20
64.6878018
40
0.4376279
50
142.4619643
51
176.0126356
0
ARC
8
DEFAULT_255_2_778
10
7.5192197
20
64.7155472
40
0.3912962
50
90.3400632
51
142.3725339
0
ARC
8
DEFAULT_255_2_778
10
7.5168839
20
64.7282245
40
0.378612
50
81.4733523
51
89.9979664
0
ARC
8
DEFAULT_255_2_778
10
7.5146369
20
64.7169752
40
0.3900703
50
63.8463056
51
81.391954
0
ARC
8
DEFAULT_255_2_778
10
7.5046232
20
64.6946334
40
0.4145395
50
63.4115373
51
63.9650864
0
ARC
8
DEFAULT_255_2_778
10
7.5370467
20
64.7066588
40
0.3899892
50
42.8009377
51
66.8826731
0
ARC
8
DEFAULT_255_2_778
10
7.5467307
20
64.7216175
40
0.372746
50
7.5777171
51
42.1252496
0
ARC
8
DEFAULT_255_2_778
10
7.5121436
20
64.7139487
40
0.4080537
50
359.992397
51
8.004694
0
ARC
8
DEFAULT_255_2_778
10
7.5396071
20
64.7112927
40
0.3805991
50
335.6759909
51
0.3916827
0
ARC
8
DEFAULT_255_2_778
10
7.6325511
20
64.67167
40
0.2795935
50
322.9040853
51
335.2296825
0
ARC
8
DEFAULT_255_2_778
10
84.6480923
20
47.897007
40
14.4972697
50
195.0937369
51
204.3903997
0
LINE
8
DEFAULT_255_2_778
10
6.8061624
20
60.2866329
11
6.3267624
21
61.7998329
0
LINE
8
DEFAULT_255_2_778
10
6.3267624
20
61.7998329
11
6.3928624
21
61.7998329
0
LINE
8
DEFAULT_255_2_778
10
6.3928624
20
61.7998329
11
6.8064624
21
60.4769329
0
LINE
8
DEFAULT_255_2_778
10
6.8064624
20
60.4769329
11
7.2530624
21
61.7998329
0
LINE
8
DEFAULT_255_2_778
10
7.2530624
20
61.7998329
11
7.3192624
21
61.7998329
0
LINE
8
DEFAULT_255_2_778
10
7.3192624
20
61.7998329
11
6.8061624
21
60.2866329
0
LINE
8
DEFAULT_255_2_778
10
7.8806624
20
63.5939329
11
7.1281624
21
63.5939329
0
LINE
8
DEFAULT_255_2_778
10
7.1281624
20
63.5939329
11
7.1281624
21
63.6765329
0
LINE
8
DEFAULT_255_2_778
10
7.1281624
20
63.6765329
11
7.7647624
21
64.5446329
0
LINE
8
DEFAULT_255_2_778
10
7.2189624
20
64.7182329
11
7.1197624
21
64.7182329
0
LINE
8
DEFAULT_255_2_778
10
7.8555624
20
64.5030329
11
7.2519624
21
63.6762329
0
LINE
8
DEFAULT_255_2_778
10
7.2519624
20
63.6762329
11
7.8803624
21
63.6762329
0
LINE
8
DEFAULT_255_2_778
10
7.8803624
20
63.6762329
11
7.8806624
21
63.5939329
0
LINE
8
DEFAULT_255_2_778
10
9.0135624
20
65.0986329
11
8.9641624
21
65.0986329
0
LINE
8
DEFAULT_255_2_778
10
8.9641624
20
65.0986329
11
8.3688624
21
63.9823329
0
LINE
8
DEFAULT_255_2_778
10
8.3688624
20
63.9823329
11
8.3688624
21
63.9326329
0
LINE
8
DEFAULT_255_2_778
10
8.3688624
20
63.9326329
11
8.9310624
21
63.9326329
0
LINE
8
DEFAULT_255_2_778
10
8.9310624
20
63.9326329
11
8.9310624
21
63.6349329
0
LINE
8
DEFAULT_255_2_778
10
8.9310624
20
63.6349329
11
9.0053624
21
63.6349329
0
LINE
8
DEFAULT_255_2_778
10
9.0053624
20
63.6349329
11
9.0053624
21
63.9326329
0
LINE
8
DEFAULT_255_2_778
10
9.0053624
20
63.9326329
11
9.1212624
21
63.9326329
0
LINE
8
DEFAULT_255_2_778
10
9.1212624
20
63.9326329
11
9.1212624
21
64.0070329
0
LINE
8
DEFAULT_255_2_778
10
9.1212624
20
64.0070329
11
9.0138624
21
64.0070329
0
LINE
8
DEFAULT_255_2_778
10
9.0138624
20
64.0070329
11
9.0135624
21
65.0986329
0
LINE
8
DEFAULT_255_2_778
10
8.9387624
20
64.0009329
11
8.4510624
21
64.0009329
0
LINE
8
DEFAULT_255_2_778
10
8.4510624
20
64.0009329
11
8.9387624
21
64.9010329
0
LINE
8
DEFAULT_255_2_778
10
8.9387624
20
64.9010329
11
8.9387624
21
64.0009329
0
LINE
8
DEFAULT_255_2_778
10
9.1178624
20
63.9342329
11
9.0053624
21
63.9342329
0
LINE
8
DEFAULT_255_2_778
10
9.0053624
20
63.9342329
11
9.0053624
21
63.6342329
0
LINE
8
DEFAULT_255_2_778
10
70.6509624
20
64.9468329
11
70.6509624
21
62.2467329
0
LINE
8
DEFAULT_255_2_778
10
70.6509624
20
62.2467329
11
70.8972624
21
62.2856329
0
LINE
8
DEFAULT_255_2_778
10
70.8972624
20
62.2856329
11
71.1224624
21
62.4004329
0
LINE
8
DEFAULT_255_2_778
10
71.1224624
20
62.4004329
11
71.2973624
21
62.5750329
0
LINE
8
DEFAULT_255_2_778
10
71.2973624
20
62.5750329
11
71.4121624
21
62.8002329
0
LINE
8
DEFAULT_255_2_778
10
71.4121624
20
62.8002329
11
71.4510624
21
63.0468329
0
LINE
8
DEFAULT_255_2_778
10
71.4510624
20
41.6589329
11
71.4502624
21
41.7404329
0
LINE
8
DEFAULT_255_2_778
10
71.4502624
20
41.7404329
11
71.4481624
21
41.8243329
0
LINE
8
DEFAULT_255_2_778
10
71.4481624
20
41.8243329
11
71.4446624
21
41.9103329
0
ARC
8
DEFAULT_255_2_778
10
84.6650034
20
47.8891259
40
14.5156687
50
155.6112311
51
164.8951
0
LINE
8
DEFAULT_255_2_778
10
71.4509459
20
54.1344215
11
71.4501459
21
54.0529215
0
LINE
8
DEFAULT_255_2_778
10
71.4501459
20
54.0529215
11
71.4480459
21
53.9690215
0
LINE
8
DEFAULT_255_2_778
10
71.4480459
20
53.9690215
11
71.4446459
21
53.8830215
0
LINE
8
DEFAULT_255_2_778
10
70.6508459
20
30.7466215
11
70.6508459
21
33.4466215
0
LINE
8
DEFAULT_255_2_778
10
70.6508459
20
33.4466215
11
66.3508459
21
33.4466215
0
ARC
8
DEFAULT_255_2_778
10
65.5999324
20
34.1503574
40
0.9040156
50
302.8419449
51
326.1369253
0
LINE
8
DEFAULT_255_2_778
10
66.0902013
20
33.3908308
11
66.1744013
21
33.3910308
0
LINE
8
DEFAULT_255_2_778
10
66.1744013
20
33.3910308
11
66.3506013
21
33.3995308
0
LINE
8
DEFAULT_255_2_778
10
66.3506013
20
33.3995308
11
66.3506013
21
33.6466308
0
LINE
8
DEFAULT_255_2_778
10
66.0902013
20
33.3908308
11
66.0902013
21
33.3908308
0
LINE
8
DEFAULT_255_2_778
10
54.2009013
20
62.2468308
11
52.1009013
21
62.2468308
0
LINE
8
DEFAULT_255_2_778
10
52.1009013
20
33.4469308
11
52.1009013
21
62.2468308
0
LINE
8
DEFAULT_255_2_778
10
52.0202013
20
62.3272308
11
52.1009013
21
62.2465308
0
LINE
8
DEFAULT_255_2_778
10
52.0202013
20
33.3662308
11
52.1007013
21
33.4466308
0
LINE
8
DEFAULT_255_2_778
10
54.2009013
20
33.4466308
11
52.1009013
21
33.4466308
0
LINE
8
DEFAULT_255_2_778
10
52.0202013
20
33.3662308
11
51.2204013
21
32.5663308
0
LINE
8
DEFAULT_255_2_778
10
51.2204472
20
63.1270808
11
51.2204472
21
32.5660808
0
LINE
8
DEFAULT_255_2_778
10
52.0202472
20
33.3661808
11
70.6509472
21
33.3661808
0
LINE
8
DEFAULT_255_2_778
10
70.6509472
20
33.3661808
11
70.8940472
21
33.3283808
0
LINE
8
DEFAULT_255_2_778
10
70.8940472
20
33.3283808
11
71.1173472
21
33.2161808
0
LINE
8
DEFAULT_255_2_778
10
71.1173472
20
33.2161808
11
71.2967472
21
33.0383808
0
LINE
8
DEFAULT_255_2_778
10
71.2967472
20
33.0383808
11
71.4113472
21
32.8147808
0
LINE
8
DEFAULT_255_2_778
10
71.4113472
20
32.8147808
11
71.4507472
21
32.5663808
0
LINE
8
DEFAULT_255_2_778
10
71.4507472
20
32.5663808
11
51.2204472
21
32.5663808
0
LINE
8
DEFAULT_255_2_778
10
52.0202472
20
62.3272808
11
52.0202472
21
33.3661808
0
LINE
8
DEFAULT_255_2_778
10
52.0202472
20
62.327234
11
51.2204472
21
63.127034
0
LINE
8
DEFAULT_255_2_778
10
52.0202472
20
62.327234
11
70.6509472
21
62.327234
0
LINE
8
DEFAULT_255_2_778
10
70.6509472
20
62.327234
11
70.8980472
21
62.366334
0
LINE
8
DEFAULT_255_2_778
10
70.8980472
20
62.366334
11
71.1210472
21
62.479834
0
LINE
8
DEFAULT_255_2_778
10
71.1210472
20
62.479834
11
71.2980472
21
62.656834
0
LINE
8
DEFAULT_255_2_778
10
71.2980472
20
62.656834
11
71.4115472
21
62.879934
0
LINE
8
DEFAULT_255_2_778
10
71.4115472
20
62.879934
11
71.4507472
21
63.127034
0
LINE
8
DEFAULT_255_2_778
10
71.4507472
20
63.127034
11
51.2204472
21
63.127034
0
LINE
8
DEFAULT_255_2_778
10
56.4009472
20
33.646634
11
56.4009472
21
33.446634
0
LINE
8
DEFAULT_255_2_778
10
64.8509472
20
33.446634
11
56.4009472
21
33.446634
0
LINE
8
DEFAULT_255_2_778
10
56.3009472
20
33.392334
11
56.3475472
21
33.393434
0
LINE
8
DEFAULT_255_2_778
10
56.3475472
20
33.393434
11
56.4009472
21
33.399234
0
LINE
8
DEFAULT_255_2_778
10
56.4009472
20
33.399234
11
56.4009472
21
33.446334
0
LINE
8
DEFAULT_255_2_778
10
56.301
20
33.3926646
11
56.301
21
33.3921646
0
LINE
8
DEFAULT_255_2_778
10
56.3010073
20
33.6466885
11
56.3010073
21
33.3923885
0
LINE
8
DEFAULT_255_2_778
10
54.3010073
20
33.3929885
11
54.9622073
21
33.3812885
0
LINE
8
DEFAULT_255_2_778
10
54.9622073
20
33.3812885
11
55.9494073
21
33.3839885
0
LINE
8
DEFAULT_255_2_778
10
55.9494073
20
33.3839885
11
56.3010073
21
33.3923885
0
LINE
8
DEFAULT_255_2_778
10
54.301
20
33.3928969
11
54.301
21
33.3920969
0
LINE
8
DEFAULT_255_2_778
10
54.3009938
20
33.6466677
11
54.3009938
21
33.3929677
0
LINE
8
DEFAULT_255_2_778
10
54.2009938
20
33.4466677
11
54.2009938
21
33.3995677
0
LINE
8
DEFAULT_255_2_778
10
54.2009938
20
33.3995677
11
54.2543938
21
33.3937677
0
LINE
8
DEFAULT_255_2_778
10
54.2543938
20
33.3937677
11
54.3009938
21
33.3929677
0
LINE
8
DEFAULT_255_2_778
10
54.2009948
20
33.6466558
11
54.2009948
21
33.4466558
0
LINE
8
DEFAULT_255_2_778
10
54.3009948
20
62.3010558
11
54.2543948
21
62.2999558
0
LINE
8
DEFAULT_255_2_778
10
54.2543948
20
62.2999558
11
54.2009948
21
62.2941558
0
LINE
8
DEFAULT_255_2_778
10
54.2009948
20
62.2941558
11
54.2009948
21
62.1470558
0
LINE
8
DEFAULT_255_2_778
10
54.3006948
20
62.1465558
11
54.3006948
21
62.3010558
0
LINE
8
DEFAULT_255_2_778
10
56.3009948
20
62.3005558
11
55.6397948
21
62.3121558
0
LINE
8
DEFAULT_255_2_778
10
55.6397948
20
62.3121558
11
54.6525948
21
62.3095558
0
LINE
8
DEFAULT_255_2_778
10
54.6525948
20
62.3095558
11
54.3009948
21
62.3010558
0
LINE
8
DEFAULT_255_2_778
10
56.3009948
20
62.1465558
11
56.3009948
21
62.3010558
0
LINE
8
DEFAULT_255_2_778
10
56.4009948
20
62.2465558
11
56.4009948
21
62.2936558
0
LINE
8
DEFAULT_255_2_778
10
56.4009948
20
62.2936558
11
56.3475948
21
62.2994558
0
LINE
8
DEFAULT_255_2_778
10
56.3475948
20
62.2994558
11
56.3009948
21
62.3002558
0
LINE
8
DEFAULT_255_2_778
10
56.4009948
20
62.2467558
11
56.4009948
21
62.1467558
0
LINE
8
DEFAULT_255_2_778
10
56.3009949
20
62.1468062
11
56.4009949
21
62.1468062
0
LINE
8
DEFAULT_255_2_778
10
64.8509949
20
62.2468062
11
56.4009949
21
62.2468062
0
ARC
8
DEFAULT_255_2_778
10
65.6017603
20
61.643086
40
0.904102
50
133.3987809
51
146.1417932
0
ARC
8
DEFAULT_255_2_778
10
65.5989018
20
61.6415318
40
0.9058021
50
33.8875378
51
46.628586
0
LINE
8
DEFAULT_255_2_778
10
64.8509386
20
62.246775
11
64.8509386
21
62.146775
0
LINE
8
DEFAULT_255_2_778
10
64.8509386
20
62.246775
11
64.8509386
21
62.293875
0
LINE
8
DEFAULT_255_2_778
10
64.8509386
20
62.293875
11
64.9805386
21
62.299975
0
LINE
8
DEFAULT_255_2_778
10
66.2209386
20
62.300275
11
65.9767386
21
62.305275
0
LINE
8
DEFAULT_255_2_778
10
65.9767386
20
62.305275
11
65.0268386
21
62.302375
0
LINE
8
DEFAULT_255_2_778
10
65.0268386
20
62.302375
11
64.9803386
21
62.300275
0
ARC
8
DEFAULT_255_2_778
10
65.5981664
20
34.1469083
40
0.8992484
50
213.8033826
51
237.260493
0
LINE
8
DEFAULT_255_2_778
10
66.3508345
20
62.2465163
11
66.3508345
21
62.2936163
0
LINE
8
DEFAULT_255_2_778
10
66.3508345
20
62.2936163
11
66.3058345
21
62.2980163
0
LINE
8
DEFAULT_255_2_778
10
66.3058345
20
62.2980163
11
66.2212345
21
62.2999163
0
LINE
8
DEFAULT_255_2_778
10
66.3508345
20
62.2467163
11
66.3508345
21
62.1467163
0
LINE
8
DEFAULT_255_2_778
10
70.6508345
20
62.2467163
11
66.3508345
21
62.2467163
0
LINE
8
DEFAULT_255_2_778
10
64.8509345
20
33.6466163
11
64.8509345
21
33.4466163
0
ARC
8
DEFAULT_255_2_778
10
65.6004603
20
34.1495234
40
0.9030886
50
302.8387693
51
326.1625351
0
ARC
8
DEFAULT_255_2_778
10
84.6476766
20
47.8959798
40
14.4966462
50
182.3585991
51
195.0897235
0
ARC
8
DEFAULT_255_2_778
10
84.6565869
20
47.8966764
40
14.5055776
50
180.0112118
51
182.3599
0
ARC
8
DEFAULT_255_2_778
10
80.2015453
20
47.8959646
40
10.0505359
50
179.9959588
51
180.0121235
0
ARC
8
DEFAULT_255_2_778
10
84.6483992
20
47.8970778
40
14.4973898
50
165.8584311
51
180.0015979
0
ARC
8
DEFAULT_255_2_778
10
84.6387362
20
47.8989953
40
14.4875511
50
164.9078616
51
165.8564482
0
LINE
8
DEFAULT_255_2_778
10
65.1117843
20
33.3905485
11
64.8961843
21
33.3950485
0
LINE
8
DEFAULT_255_2_778
10
64.8961843
20
33.3950485
11
64.8511843
21
33.3995485
0
LINE
8
DEFAULT_255_2_778
10
64.8511843
20
33.3995485
11
64.8511843
21
33.4466485
0
LINE
8
DEFAULT_255_2_778
10
66.0901843
20
33.3907485
11
66.0811843
21
33.3849485
0
LINE
8
DEFAULT_255_2_778
10
66.3505843
20
33.6466485
11
66.3505843
21
33.3995485
0
LINE
8
DEFAULT_255_2_778
10
66.3505843
20
33.3995485
11
66.1743843
21
33.3910485
0
LINE
8
DEFAULT_255_2_778
10
66.1743843
20
33.3910485
11
66.0901843
21
33.3907485
0
LINE
8
DEFAULT_255_2_778
10
65.1117843
20
33.3905485
11
65.2250843
21
33.3881485
0
LINE
8
DEFAULT_255_2_778
10
65.2250843
20
33.3881485
11
66.0904843
21
33.3907485
0
LINE
8
DEFAULT_255_2_778
10
65.1204843
20
33.3849485
11
65.1117843
21
33.3905485
0
LINE
8
DEFAULT_255_2_778
10
70.6510843
20
34.4467485
11
71.4511843
21
33.6466485
0
LINE
8
DEFAULT_255_2_778
10
53.3827843
20
33.6466485
11
53.5978843
21
33.6707485
0
LINE
8
DEFAULT_255_2_778
10
53.5978843
20
33.6707485
11
53.8545843
21
33.7424485
0
LINE
8
DEFAULT_255_2_778
10
53.8545843
20
33.7424485
11
54.1521843
21
33.8593485
0
LINE
8
DEFAULT_255_2_778
10
54.1521843
20
33.8593485
11
54.4921843
21
34.0186485
0
LINE
8
DEFAULT_255_2_778
10
54.4921843
20
34.0186485
11
54.8805843
21
34.2191485
0
LINE
8
DEFAULT_255_2_778
10
54.8805843
20
34.2191485
11
55.3012843
21
34.4464485
0
LINE
8
DEFAULT_255_2_778
10
53.3827843
20
62.1464485
11
53.5978843
21
62.1224485
0
LINE
8
DEFAULT_255_2_778
10
53.5978843
20
62.1224485
11
53.8545843
21
62.0507485
0
LINE
8
DEFAULT_255_2_778
10
53.8545843
20
62.0507485
11
54.1521843
21
61.9337485
0
LINE
8
DEFAULT_255_2_778
10
54.1521843
20
61.9337485
11
54.4921843
21
61.7744485
0
LINE
8
DEFAULT_255_2_778
10
54.4921843
20
61.7744485
11
54.8805843
21
61.5739485
0
LINE
8
DEFAULT_255_2_778
10
54.8805843
20
61.5739485
11
55.3012843
21
61.3466485
0
LINE
8
DEFAULT_255_2_778
10
54.3011843
20
62.1467485
11
54.2011843
21
62.1467485
0
LINE
8
DEFAULT_255_2_778
10
54.2011843
20
62.1467485
11
53.3827843
21
62.1467485
0
LINE
8
DEFAULT_255_2_778
10
71.4511843
20
33.6466485
11
52.6012843
21
33.6466485
0
LINE
8
DEFAULT_255_2_778
10
52.6012843
20
33.6466485
11
52.6012843
21
62.1467485
0
LINE
8
DEFAULT_255_2_778
10
52.6012843
20
62.1467485
11
53.3827843
21
62.1467485
0
LINE
8
DEFAULT_255_2_778
10
56.3011843
20
62.1467485
11
54.3011843
21
62.1467485
0
LINE
8
DEFAULT_255_2_778
10
56.4011843
20
62.1467485
11
64.8511843
21
62.1467485
0
LINE
8
DEFAULT_255_2_778
10
64.8511843
20
62.1467485
11
66.3510843
21
62.1467485
0
LINE
8
DEFAULT_255_2_778
10
66.3510843
20
62.1467485
11
71.4511843
21
62.1467485
0
LINE
8
DEFAULT_255_2_778
10
71.4511843
20
62.1467485
11
70.6510843
21
61.3466485
0
LINE
8
DEFAULT_255_2_778
10
70.6508843
20
51.6711485
11
70.6508843
21
61.3466485
0
LINE
8
DEFAULT_255_2_778
10
70.6508843
20
61.3466485
11
55.3007843
21
61.3466485
0
LINE
8
DEFAULT_255_2_778
10
55.3007843
20
61.3466485
11
55.3007843
21
34.4467485
0
LINE
8
DEFAULT_255_2_778
10
55.3007843
20
34.4467485
11
70.6508843
21
34.4467485
0
LINE
8
DEFAULT_255_2_778
10
70.6508843
20
34.4467485
11
70.6508843
21
44.1220485
0
LINE
8
DEFAULT_255_2_778
10
69.1508843
20
66.9801485
11
71.4509843
21
66.9801485
0
LINE
8
DEFAULT_255_2_778
10
69.1508843
20
68.8732485
11
71.4509843
21
68.8732485
0
LINE
8
DEFAULT_255_2_778
10
0.2507843
20
66.9801485
11
2.5507843
21
66.9801485
0
LINE
8
DEFAULT_255_2_778
10
0.2507886
20
68.8733
11
2.5507886
21
68.8733
0
LINE
8
DEFAULT_255_2_778
10
71.4507489
20
64.9466239
11
69.1507489
21
64.9466239
0
LINE
8
DEFAULT_255_2_778
10
69.1507489
20
64.9466239
11
69.1507489
21
69.9466239
0
LINE
8
DEFAULT_255_2_778
10
69.1507489
20
69.9466239
11
2.5508489
21
69.9466239
0
LINE
8
DEFAULT_255_2_778
10
2.5508489
20
69.9466239
11
2.5508489
21
64.9466239
0
LINE
8
DEFAULT_255_2_778
10
2.5508489
20
64.9466239
11
0.2508489
21
64.9466239
0
LINE
8
DEFAULT_255_2_778
10
2.5508489
20
69.9781239
11
3.0509489
21
69.9699239
0
LINE
8
DEFAULT_255_2_778
10
3.0509489
20
69.9699239
11
2.7704489
21
69.9625239
0
LINE
8
DEFAULT_255_2_778
10
2.7704489
20
69.9625239
11
2.5508489
21
69.9620239
0
LINE
8
DEFAULT_255_2_778
10
2.5508489
20
69.9620239
11
2.5508489
21
70.0374239
0
LINE
8
DEFAULT_255_2_778
10
2.5508489
20
70.0374239
11
69.1509489
21
70.0374239
0
LINE
8
DEFAULT_255_2_778
10
69.1509489
20
70.0374239
11
69.1509489
21
69.9620239
0
LINE
8
DEFAULT_255_2_778
10
69.1509489
20
69.9620239
11
68.6509489
21
69.9702239
0
LINE
8
DEFAULT_255_2_778
10
68.6509489
20
69.9702239
11
68.9313489
21
69.9776239
0
LINE
8
DEFAULT_255_2_778
10
68.9313489
20
69.9776239
11
69.1509489
21
69.9781239
0
ARC
8
DEFAULT_255_2_778
10
4.257459
20
91.8504004
40
2.4066969
50
159.2976576
51
180.084873
0
ARC
8
DEFAULT_255_2_778
10
4.2453294
20
91.8518615
40
2.3948358
50
100.6121045
51
159.2277679
0
ARC
8
DEFAULT_255_2_778
10
4.2494609
20
91.8153835
40
2.4314521
50
89.9692772
51
100.5494958
0
ARC
8
DEFAULT_255_2_778
10
4.2543238
20
91.8400362
40
2.4068017
50
69.2981156
51
90.0847272
0
ARC
8
DEFAULT_255_2_778
10
4.2558215
20
91.8521763
40
2.3949178
50
10.6140344
51
69.2289625
0
ARC
8
DEFAULT_255_2_778
10
4.2196228
20
91.8481381
40
2.4312423
50
359.9692987
51
10.5504412
0
ARC
8
DEFAULT_255_2_778
10
4.2442411
20
91.8432786
40
2.4066262
50
339.2964768
51
0.0846785
0
ARC
8
DEFAULT_255_2_778
10
4.2560964
20
91.8419179
40
2.3950571
50
280.6137206
51
339.2266602
0
ARC
8
DEFAULT_255_2_778
10
4.2520656
20
91.8780372
40
2.4313023
50
269.9693418
51
280.5503085
0
ARC
8
DEFAULT_255_2_778
10
4.2472019
20
91.8532541
40
2.4065214
50
249.2960188
51
270.0848243
0
ARC
8
DEFAULT_255_2_778
10
4.2458779
20
91.8414092
40
2.3949751
50
190.6117907
51
249.2254656
0
ARC
8
DEFAULT_255_2_778
10
4.2822765
20
91.8455334
40
2.4315121
50
179.9693203
51
190.5493631
0
LINE
8
DEFAULT_255_2_778
10
1.8507647
20
91.8468353
11
1.8507647
21
91.8468353
0
LINE
8
DEFAULT_255_2_778
10
1.0509
20
64.9468204
11
1.0509
21
30.7468204
0
LINE
8
DEFAULT_255_2_778
10
1.0508846
20
64.9467961
11
1.0508846
21
30.7467961
0
LINE
8
DEFAULT_255_2_778
10
2.3507846
20
87.8467961
11
2.3507846
21
74.3466961
0
LINE
8
DEFAULT_255_2_778
10
2.3507846
20
74.3466961
11
69.3506846
21
74.3466961
0
LINE
8
DEFAULT_255_2_778
10
69.3506846
20
74.3466961
11
69.3506846
21
87.8467961
0
LINE
8
DEFAULT_255_2_778
10
66.7118097
20
74.3467498
11
66.7118097
21
87.8468498
0
LINE
8
DEFAULT_255_2_778
10
66.7118097
20
86.4466498
11
68.9153097
21
86.4466498
0
LINE
8
DEFAULT_255_2_778
10
68.9153097
20
86.4466498
11
68.9153097
21
86.4657498
0
LINE
8
DEFAULT_255_2_778
10
68.9153097
20
86.4657498
11
69.3508097
21
86.4657498
0
LINE
8
DEFAULT_255_2_778
10
68.9510097
20
86.4657498
11
68.9510097
21
74.3467498
0
LINE
8
DEFAULT_255_2_778
10
13.6131
20
86.3228406
11
13.6131
21
86.0283406
0
LINE
8
DEFAULT_255_2_778
10
12.3431
20
86.3228406
11
12.3431
21
86.0283406
0
LINE
8
DEFAULT_255_2_778
10
8.5331
20
86.3228406
11
8.5331
21
86.0283406
0
LINE
8
DEFAULT_255_2_778
10
7.2631
20
86.3228406
11
7.2631
21
86.0283406
0
LINE
8
DEFAULT_255_2_778
10
23.7731
20
86.3228406
11
23.7731
21
86.0283406
0
LINE
8
DEFAULT_255_2_778
10
22.5031
20
86.3228406
11
22.5031
21
86.0283406
0
LINE
8
DEFAULT_255_2_778
10
18.6931
20
86.3228406
11
18.6931
21
86.0283406
0
LINE
8
DEFAULT_255_2_778
10
17.4231
20
86.3228406
11
17.4231
21
86.0283406
0
LINE
8
DEFAULT_255_2_778
10
33.9331
20
86.3228406
11
33.9331
21
86.0283406
0
LINE
8
DEFAULT_255_2_778
10
32.6631
20
86.3228406
11
32.6631
21
86.0283406
0
LINE
8
DEFAULT_255_2_778
10
28.8531
20
86.3228406
11
28.8531
21
86.0283406
0
LINE
8
DEFAULT_255_2_778
10
27.5831
20
86.3228406
11
27.5831
21
86.0283406
0
LINE
8
DEFAULT_255_2_778
10
44.0931
20
86.3228406
11
44.0931
21
86.0283406
0
LINE
8
DEFAULT_255_2_778
10
42.8231
20
86.3228406
11
42.8231
21
86.0283406
0
LINE
8
DEFAULT_255_2_778
10
39.0131
20
86.3228406
11
39.0131
21
86.0283406
0
LINE
8
DEFAULT_255_2_778
10
37.7431
20
86.3228406
11
37.7431
21
86.0283406
0
LINE
8
DEFAULT_255_2_778
10
54.2531
20
86.3228406
11
54.2531
21
86.0283406
0
LINE
8
DEFAULT_255_2_778
10
52.9831
20
86.3228406
11
52.9831
21
86.0283406
0
LINE
8
DEFAULT_255_2_778
10
49.1731
20
86.3228406
11
49.1731
21
86.0283406
0
LINE
8
DEFAULT_255_2_778
10
47.9031
20
86.3228406
11
47.9031
21
86.0283406
0
LINE
8
DEFAULT_255_2_778
10
63.1431
20
86.3228406
11
63.1431
21
86.0283406
0
LINE
8
DEFAULT_255_2_778
10
59.3331
20
86.3228406
11
59.3331
21
86.0283406
0
LINE
8
DEFAULT_255_2_778
10
58.0631
20
86.3228406
11
58.0631
21
86.0283406
0
LINE
8
DEFAULT_255_2_778
10
68.5080677
20
85.2851
11
68.8893677
21
85.2851
0
ARC
8
DEFAULT_255_2_778
10
1.0509456
20
87.0459808
40
1.6006867
50
89.9993249
51
119.9891629
0
ARC
8
DEFAULT_255_2_778
10
1.0510593
20
87.0470508
40
0.7998167
50
90.0067922
51
135.0242202
0
ARC
8
DEFAULT_255_2_778
10
1.0507733
20
87.0466345
40
0.7999088
50
134.9886399
51
179.99047
0
LINE
8
DEFAULT_255_2_778
10
68.8893645
20
86.4466675
11
68.8893645
21
85.2848675
0
LINE
8
DEFAULT_255_2_778
10
68.8893645
20
85.2848675
11
68.5080645
21
84.9035675
0
LINE
8
DEFAULT_255_2_778
10
66.7118645
20
86.3228675
11
4.9898645
21
86.3228675
0
LINE
8
DEFAULT_255_2_778
10
2.7508645
20
74.3467675
11
2.7508645
21
86.4656675
0
LINE
8
DEFAULT_255_2_778
10
4.9898645
20
86.0677675
11
3.1938645
21
86.0677675
0
LINE
8
DEFAULT_255_2_778
10
3.1938645
20
86.0677675
11
3.1938645
21
74.3467675
0
LINE
8
DEFAULT_255_2_778
10
4.9898645
20
86.4466675
11
2.7863645
21
86.4466675
0
LINE
8
DEFAULT_255_2_778
10
2.7863645
20
86.4466675
11
2.7863645
21
86.4656675
0
LINE
8
DEFAULT_255_2_778
10
2.7863645
20
86.4656675
11
2.3508645
21
86.4656675
0
LINE
8
DEFAULT_255_2_778
10
4.9897719
20
86.0282802
11
4.9897719
21
87.8467802
0
LINE
8
DEFAULT_255_2_778
10
2.8124719
20
85.2850802
11
3.1937719
21
84.9037802
0
LINE
8
DEFAULT_255_2_778
10
2.8125228
20
86.446653
11
2.8125228
21
85.285153
0
LINE
8
DEFAULT_255_2_778
10
2.8125228
20
85.285153
11
3.1938228
21
85.285153
0
LINE
8
DEFAULT_255_2_778
10
66.6991228
20
86.322853
11
66.6991228
21
74.699953
0
LINE
8
DEFAULT_255_2_778
10
66.6991228
20
74.699953
11
4.9771228
21
74.699953
0
LINE
8
DEFAULT_255_2_778
10
4.9771228
20
74.699953
11
4.9771228
21
86.028353
0
LINE
8
DEFAULT_255_2_778
10
4.9771228
20
86.028353
11
66.6991228
21
86.028353
0
ARC
8
DEFAULT_255_2_778
10
12.9802172
20
80.7483518
40
2.0087201
50
156.5711449
51
180.098458
0
ARC
8
DEFAULT_255_2_778
10
12.9734786
20
80.7491356
40
2.0022264
50
100.1969768
51
156.5150524
0
ARC
8
DEFAULT_255_2_778
10
12.9770784
20
80.7174707
40
2.0340295
50
89.9712226
51
100.1388726
0
ARC
8
DEFAULT_255_2_778
10
12.9815442
20
80.7429106
40
2.0085923
50
66.5693287
51
90.0982465
0
ARC
8
DEFAULT_255_2_778
10
12.9822278
20
80.7494241
40
2.0023451
50
10.1984339
51
66.5131642
0
ARC
8
DEFAULT_255_2_778
10
12.9509291
20
80.7459183
40
2.0337712
50
359.9713109
51
10.1395175
0
ARC
8
DEFAULT_255_2_778
10
12.9761107
20
80.7414558
40
2.0085923
50
336.5693287
51
0.0982465
0
ARC
8
DEFAULT_255_2_778
10
12.9826242
20
80.7407722
40
2.0023451
50
280.1984339
51
336.5131642
0
ARC
8
DEFAULT_255_2_778
10
12.9791184
20
80.7720709
40
2.0337712
50
269.9713109
51
280.1395175
0
ARC
8
DEFAULT_255_2_778
10
12.9746401
20
80.7470178
40
2.0087208
50
246.5700845
51
270.0986899
0
ARC
8
DEFAULT_255_2_778
10
12.9738862
20
80.7402892
40
2.0022483
50
190.1964141
51
246.5133195
0
ARC
8
DEFAULT_255_2_778
10
13.0054732
20
80.7438816
40
2.0339734
50
179.9713149
51
190.1385001
0
LINE
8
DEFAULT_255_2_778
10
10.9715001
20
80.7448999
11
10.9715001
21
80.7448999
0
ARC
8
DEFAULT_255_2_778
10
7.9000894
20
80.7483441
40
2.0085923
50
156.5693287
51
180.0982465
0
ARC
8
DEFAULT_255_2_778
10
7.8935759
20
80.7490277
40
2.0023451
50
100.1984339
51
156.5131642
0
ARC
8
DEFAULT_255_2_778
10
7.8970817
20
80.717729
40
2.0337712
50
89.9713109
51
100.1395175
0
ARC
8
DEFAULT_255_2_778
10
7.9015442
20
80.7429106
40
2.0085923
50
66.5693287
51
90.0982465
0
ARC
8
DEFAULT_255_2_778
10
7.9022278
20
80.7494241
40
2.0023451
50
10.1984339
51
66.5131642
0
ARC
8
DEFAULT_255_2_778
10
7.8709291
20
80.7459183
40
2.0337712
50
359.9713109
51
10.1395175
0
ARC
8
DEFAULT_255_2_778
10
7.8961107
20
80.7414558
40
2.0085923
50
336.5693287
51
0.0982465
0
ARC
8
DEFAULT_255_2_778
10
7.9026242
20
80.7407722
40
2.0023451
50
280.1984339
51
336.5131642
0
ARC
8
DEFAULT_255_2_778
10
7.8991184
20
80.7720709
40
2.0337712
50
269.9713109
51
280.1395175
0
ARC
8
DEFAULT_255_2_778
10
7.8946559
20
80.7468893
40
2.0085923
50
246.5693287
51
270.0982465
0
ARC
8
DEFAULT_255_2_778
10
7.8939723
20
80.7403758
40
2.0023451
50
190.1984339
51
246.5131642
0
ARC
8
DEFAULT_255_2_778
10
7.925271
20
80.7438816
40
2.0337712
50
179.9713109
51
190.1395175
0
LINE
8
DEFAULT_255_2_778
10
5.8915001
20
80.7448999
11
5.8915001
21
80.7448999
0
ARC
8
DEFAULT_255_2_778
10
23.1402172
20
80.7483518
40
2.0087201
50
156.5711449
51
180.098458
0
ARC
8
DEFAULT_255_2_778
10
23.1334786
20
80.7491356
40
2.0022264
50
100.1969768
51
156.5150524
0
ARC
8
DEFAULT_255_2_778
10
23.1370784
20
80.7174707
40
2.0340295
50
89.9712226
51
100.1388726
0
ARC
8
DEFAULT_255_2_778
10
23.1415442
20
80.7429106
40
2.0085923
50
66.5693287
51
90.0982465
0
ARC
8
DEFAULT_255_2_778
10
23.1422278
20
80.7494241
40
2.0023451
50
10.1984339
51
66.5131642
0
ARC
8
DEFAULT_255_2_778
10
23.1109291
20
80.7459183
40
2.0337712
50
359.9713109
51
10.1395175
0
ARC
8
DEFAULT_255_2_778
10
23.1361107
20
80.7414558
40
2.0085923
50
336.5693287
51
0.0982465
0
ARC
8
DEFAULT_255_2_778
10
23.1426242
20
80.7407722
40
2.0023451
50
280.1984339
51
336.5131642
0
ARC
8
DEFAULT_255_2_778
10
23.1391184
20
80.7720709
40
2.0337712
50
269.9713109
51
280.1395175
0
ARC
8
DEFAULT_255_2_778
10
23.1346401
20
80.7470178
40
2.0087208
50
246.5700845
51
270.0986899
0
ARC
8
DEFAULT_255_2_778
10
23.1338862
20
80.7402892
40
2.0022483
50
190.1964141
51
246.5133195
0
ARC
8
DEFAULT_255_2_778
10
23.1654732
20
80.7438816
40
2.0339734
50
179.9713149
51
190.1385001
0
LINE
8
DEFAULT_255_2_778
10
21.1315001
20
80.7448999
11
21.1315001
21
80.7448999
0
ARC
8
DEFAULT_255_2_778
10
18.0600894
20
80.7483441
40
2.0085923
50
156.5693287
51
180.0982465
0
ARC
8
DEFAULT_255_2_778
10
18.0535759
20
80.7490277
40
2.0023451
50
100.1984339
51
156.5131642
0
ARC
8
DEFAULT_255_2_778
10
18.0570817
20
80.717729
40
2.0337712
50
89.9713109
51
100.1395175
0
ARC
8
DEFAULT_255_2_778
10
18.06156
20
80.7427821
40
2.0087208
50
66.5700845
51
90.0986899
0
ARC
8
DEFAULT_255_2_778
10
18.0623139
20
80.7495107
40
2.0022483
50
10.1964141
51
66.5133195
0
ARC
8
DEFAULT_255_2_778
10
18.0307269
20
80.7459183
40
2.0339734
50
359.9713149
51
10.1385001
0
ARC
8
DEFAULT_255_2_778
10
18.0559829
20
80.7414481
40
2.0087201
50
336.5711449
51
0.098458
0
ARC
8
DEFAULT_255_2_778
10
18.0627215
20
80.7406643
40
2.0022264
50
280.1969768
51
336.5150524
0
ARC
8
DEFAULT_255_2_778
10
18.0591217
20
80.7723292
40
2.0340295
50
269.9712226
51
280.1388726
0
ARC
8
DEFAULT_255_2_778
10
18.0546559
20
80.7468893
40
2.0085923
50
246.5693287
51
270.0982465
0
ARC
8
DEFAULT_255_2_778
10
18.0539723
20
80.7403758
40
2.0023451
50
190.1984339
51
246.5131642
0
ARC
8
DEFAULT_255_2_778
10
18.085271
20
80.7438816
40
2.0337712
50
179.9713109
51
190.1395175
0
LINE
8
DEFAULT_255_2_778
10
16.0515001
20
80.7448999
11
16.0515001
21
80.7448999
0
ARC
8
DEFAULT_255_2_778
10
33.3000894
20
80.7483441
40
2.0085923
50
156.5693287
51
180.0982465
0
ARC
8
DEFAULT_255_2_778
10
33.2935759
20
80.7490277
40
2.0023451
50
100.1984339
51
156.5131642
0
ARC
8
DEFAULT_255_2_778
10
33.2970817
20
80.717729
40
2.0337712
50
89.9713109
51
100.1395175
0
ARC
8
DEFAULT_255_2_778
10
33.30156
20
80.7427821
40
2.0087208
50
66.5700845
51
90.0986899
0
ARC
8
DEFAULT_255_2_778
10
33.3023139
20
80.7495107
40
2.0022483
50
10.1964141
51
66.5133195
0
ARC
8
DEFAULT_255_2_778
10
33.2707269
20
80.7459183
40
2.0339734
50
359.9713149
51
10.1385001
0
ARC
8
DEFAULT_255_2_778
10
33.2959829
20
80.7414481
40
2.0087201
50
336.5711449
51
0.098458
0
ARC
8
DEFAULT_255_2_778
10
33.3027215
20
80.7406643
40
2.0022264
50
280.1969768
51
336.5150524
0
ARC
8
DEFAULT_255_2_778
10
33.2991217
20
80.7723292
40
2.0340295
50
269.9712226
51
280.1388726
0
ARC
8
DEFAULT_255_2_778
10
33.2946559
20
80.7468893
40
2.0085923
50
246.5693287
51
270.0982465
0
ARC
8
DEFAULT_255_2_778
10
33.2939723
20
80.7403758
40
2.0023451
50
190.1984339
51
246.5131642
0
ARC
8
DEFAULT_255_2_778
10
33.325271
20
80.7438816
40
2.0337712
50
179.9713109
51
190.1395175
0
LINE
8
DEFAULT_255_2_778
10
31.2915001
20
80.7448999
11
31.2915001
21
80.7448999
0
ARC
8
DEFAULT_255_2_778
10
28.2202172
20
80.7483518
40
2.0087201
50
156.5711449
51
180.098458
0
ARC
8
DEFAULT_255_2_778
10
28.2134786
20
80.7491356
40
2.0022264
50
100.1969768
51
156.5150524
0
ARC
8
DEFAULT_255_2_778
10
28.2170784
20
80.7174707
40
2.0340295
50
89.9712226
51
100.1388726
0
ARC
8
DEFAULT_255_2_778
10
28.2215442
20
80.7429106
40
2.0085923
50
66.5693287
51
90.0982465
0
ARC
8
DEFAULT_255_2_778
10
28.2222278
20
80.7494241
40
2.0023451
50
10.1984339
51
66.5131642
0
ARC
8
DEFAULT_255_2_778
10
28.1909291
20
80.7459183
40
2.0337712
50
359.9713109
51
10.1395175
0
ARC
8
DEFAULT_255_2_778
10
28.2161107
20
80.7414558
40
2.0085923
50
336.5693287
51
0.0982465
0
ARC
8
DEFAULT_255_2_778
10
28.2226242
20
80.7407722
40
2.0023451
50
280.1984339
51
336.5131642
0
ARC
8
DEFAULT_255_2_778
10
28.2191184
20
80.7720709
40
2.0337712
50
269.9713109
51
280.1395175
0
ARC
8
DEFAULT_255_2_778
10
28.2146401
20
80.7470178
40
2.0087208
50
246.5700845
51
270.0986899
0
ARC
8
DEFAULT_255_2_778
10
28.2138862
20
80.7402892
40
2.0022483
50
190.1964141
51
246.5133195
0
ARC
8
DEFAULT_255_2_778
10
28.2454732
20
80.7438816
40
2.0339734
50
179.9713149
51
190.1385001
0
LINE
8
DEFAULT_255_2_778
10
26.2115001
20
80.7448999
11
26.2115001
21
80.7448999
0
ARC
8
DEFAULT_255_2_778
10
43.4602172
20
80.7483518
40
2.0087201
50
156.5711449
51
180.098458
0
ARC
8
DEFAULT_255_2_778
10
43.4534786
20
80.7491356
40
2.0022264
50
100.1969768
51
156.5150524
0
ARC
8
DEFAULT_255_2_778
10
43.4570784
20
80.7174707
40
2.0340295
50
89.9712226
51
100.1388726
0
ARC
8
DEFAULT_255_2_778
10
43.4615442
20
80.7429106
40
2.0085923
50
66.5693287
51
90.0982465
0
ARC
8
DEFAULT_255_2_778
10
43.4622278
20
80.7494241
40
2.0023451
50
10.1984339
51
66.5131642
0
ARC
8
DEFAULT_255_2_778
10
43.4309291
20
80.7459183
40
2.0337712
50
359.9713109
51
10.1395175
0
ARC
8
DEFAULT_255_2_778
10
43.4561107
20
80.7414558
40
2.0085923
50
336.5693287
51
0.0982465
0
ARC
8
DEFAULT_255_2_778
10
43.4626242
20
80.7407722
40
2.0023451
50
280.1984339
51
336.5131642
0
ARC
8
DEFAULT_255_2_778
10
43.4591184
20
80.7720709
40
2.0337712
50
269.9713109
51
280.1395175
0
ARC
8
DEFAULT_255_2_778
10
43.4546401
20
80.7470178
40
2.0087208
50
246.5700845
51
270.0986899
0
ARC
8
DEFAULT_255_2_778
10
43.4538862
20
80.7402892
40
2.0022483
50
190.1964141
51
246.5133195
0
ARC
8
DEFAULT_255_2_778
10
43.4854732
20
80.7438816
40
2.0339734
50
179.9713149
51
190.1385001
0
LINE
8
DEFAULT_255_2_778
10
41.4515001
20
80.7448999
11
41.4515001
21
80.7448999
0
ARC
8
DEFAULT_255_2_778
10
38.3800894
20
80.7483441
40
2.0085923
50
156.5693287
51
180.0982465
0
ARC
8
DEFAULT_255_2_778
10
38.3735759
20
80.7490277
40
2.0023451
50
100.1984339
51
156.5131642
0
ARC
8
DEFAULT_255_2_778
10
38.3770817
20
80.717729
40
2.0337712
50
89.9713109
51
100.1395175
0
ARC
8
DEFAULT_255_2_778
10
38.38156
20
80.7427821
40
2.0087208
50
66.5700845
51
90.0986899
0
ARC
8
DEFAULT_255_2_778
10
38.3823139
20
80.7495107
40
2.0022483
50
10.1964141
51
66.5133195
0
ARC
8
DEFAULT_255_2_778
10
38.3507269
20
80.7459183
40
2.0339734
50
359.9713149
51
10.1385001
0
ARC
8
DEFAULT_255_2_778
10
38.3759829
20
80.7414481
40
2.0087201
50
336.5711449
51
0.098458
0
ARC
8
DEFAULT_255_2_778
10
38.3827215
20
80.7406643
40
2.0022264
50
280.1969768
51
336.5150524
0
ARC
8
DEFAULT_255_2_778
10
38.3791217
20
80.7723292
40
2.0340295
50
269.9712226
51
280.1388726
0
ARC
8
DEFAULT_255_2_778
10
38.3746559
20
80.7468893
40
2.0085923
50
246.5693287
51
270.0982465
0
ARC
8
DEFAULT_255_2_778
10
38.3739723
20
80.7403758
40
2.0023451
50
190.1984339
51
246.5131642
0
ARC
8
DEFAULT_255_2_778
10
38.405271
20
80.7438816
40
2.0337712
50
179.9713109
51
190.1395175
0
LINE
8
DEFAULT_255_2_778
10
36.3715001
20
80.7448999
11
36.3715001
21
80.7448999
0
ARC
8
DEFAULT_255_2_778
10
53.6202172
20
80.7483518
40
2.0087201
50
156.5711449
51
180.098458
0
ARC
8
DEFAULT_255_2_778
10
53.6134786
20
80.7491356
40
2.0022264
50
100.1969768
51
156.5150524
0
ARC
8
DEFAULT_255_2_778
10
53.6170784
20
80.7174707
40
2.0340295
50
89.9712226
51
100.1388726
0
ARC
8
DEFAULT_255_2_778
10
53.6215442
20
80.7429106
40
2.0085923
50
66.5693287
51
90.0982465
0
ARC
8
DEFAULT_255_2_778
10
53.6222278
20
80.7494241
40
2.0023451
50
10.1984339
51
66.5131642
0
ARC
8
DEFAULT_255_2_778
10
53.5909291
20
80.7459183
40
2.0337712
50
359.9713109
51
10.1395175
0
ARC
8
DEFAULT_255_2_778
10
53.6161107
20
80.7414558
40
2.0085923
50
336.5693287
51
0.0982465
0
ARC
8
DEFAULT_255_2_778
10
53.6226242
20
80.7407722
40
2.0023451
50
280.1984339
51
336.5131642
0
ARC
8
DEFAULT_255_2_778
10
53.6191184
20
80.7720709
40
2.0337712
50
269.9713109
51
280.1395175
0
ARC
8
DEFAULT_255_2_778
10
53.6146401
20
80.7470178
40
2.0087208
50
246.5700845
51
270.0986899
0
ARC
8
DEFAULT_255_2_778
10
53.6138862
20
80.7402892
40
2.0022483
50
190.1964141
51
246.5133195
0
ARC
8
DEFAULT_255_2_778
10
53.6454732
20
80.7438816
40
2.0339734
50
179.9713149
51
190.1385001
0
LINE
8
DEFAULT_255_2_778
10
51.6115001
20
80.7448999
11
51.6115001
21
80.7448999
0
ARC
8
DEFAULT_255_2_778
10
48.5402172
20
80.7483518
40
2.0087201
50
156.5711449
51
180.098458
0
ARC
8
DEFAULT_255_2_778
10
48.5334786
20
80.7491356
40
2.0022264
50
100.1969768
51
156.5150524
0
ARC
8
DEFAULT_255_2_778
10
48.5370784
20
80.7174707
40
2.0340295
50
89.9712226
51
100.1388726
0
ARC
8
DEFAULT_255_2_778
10
48.5415442
20
80.7429106
40
2.0085923
50
66.5693287
51
90.0982465
0
ARC
8
DEFAULT_255_2_778
10
48.5422278
20
80.7494241
40
2.0023451
50
10.1984339
51
66.5131642
0
ARC
8
DEFAULT_255_2_778
10
48.5109291
20
80.7459183
40
2.0337712
50
359.9713109
51
10.1395175
0
ARC
8
DEFAULT_255_2_778
10
48.5361107
20
80.7414558
40
2.0085923
50
336.5693287
51
0.0982465
0
ARC
8
DEFAULT_255_2_778
10
48.5426242
20
80.7407722
40
2.0023451
50
280.1984339
51
336.5131642
0
ARC
8
DEFAULT_255_2_778
10
48.5391184
20
80.7720709
40
2.0337712
50
269.9713109
51
280.1395175
0
ARC
8
DEFAULT_255_2_778
10
48.5346401
20
80.7470178
40
2.0087208
50
246.5700845
51
270.0986899
0
ARC
8
DEFAULT_255_2_778
10
48.5338862
20
80.7402892
40
2.0022483
50
190.1964141
51
246.5133195
0
ARC
8
DEFAULT_255_2_778
10
48.5654732
20
80.7438816
40
2.0339734
50
179.9713149
51
190.1385001
0
LINE
8
DEFAULT_255_2_778
10
46.5315001
20
80.7448999
11
46.5315001
21
80.7448999
0
ARC
8
DEFAULT_255_2_778
10
63.7800894
20
80.7483441
40
2.0085923
50
156.5693287
51
180.0982465
0
ARC
8
DEFAULT_255_2_778
10
63.7735759
20
80.7490277
40
2.0023451
50
100.1984339
51
156.5131642
0
ARC
8
DEFAULT_255_2_778
10
63.7770817
20
80.717729
40
2.0337712
50
89.9713109
51
100.1395175
0
ARC
8
DEFAULT_255_2_778
10
63.78156
20
80.7427821
40
2.0087208
50
66.5700845
51
90.0986899
0
ARC
8
DEFAULT_255_2_778
10
63.7823139
20
80.7495107
40
2.0022483
50
10.1964141
51
66.5133195
0
ARC
8
DEFAULT_255_2_778
10
63.7507269
20
80.7459183
40
2.0339734
50
359.9713149
51
10.1385001
0
ARC
8
DEFAULT_255_2_778
10
63.7759829
20
80.7414481
40
2.0087201
50
336.5711449
51
0.098458
0
ARC
8
DEFAULT_255_2_778
10
63.7827215
20
80.7406643
40
2.0022264
50
280.1969768
51
336.5150524
0
ARC
8
DEFAULT_255_2_778
10
63.7791217
20
80.7723292
40
2.0340295
50
269.9712226
51
280.1388726
0
ARC
8
DEFAULT_255_2_778
10
63.7746559
20
80.7468893
40
2.0085923
50
246.5693287
51
270.0982465
0
ARC
8
DEFAULT_255_2_778
10
63.7739723
20
80.7403758
40
2.0023451
50
190.1984339
51
246.5131642
0
ARC
8
DEFAULT_255_2_778
10
63.805271
20
80.7438816
40
2.0337712
50
179.9713109
51
190.1395175
0
LINE
8
DEFAULT_255_2_778
10
61.7715001
20
80.7448999
11
61.7715001
21
80.7448999
0
ARC
8
DEFAULT_255_2_778
10
58.7000894
20
80.7483441
40
2.0085923
50
156.5693287
51
180.0982465
0
ARC
8
DEFAULT_255_2_778
10
58.6935759
20
80.7490277
40
2.0023451
50
100.1984339
51
156.5131642
0
ARC
8
DEFAULT_255_2_778
10
58.6970817
20
80.717729
40
2.0337712
50
89.9713109
51
100.1395175
0
ARC
8
DEFAULT_255_2_778
10
58.70156
20
80.7427821
40
2.0087208
50
66.5700845
51
90.0986899
0
ARC
8
DEFAULT_255_2_778
10
58.7023139
20
80.7495107
40
2.0022483
50
10.1964141
51
66.5133195
0
ARC
8
DEFAULT_255_2_778
10
58.6707269
20
80.7459183
40
2.0339734
50
359.9713149
51
10.1385001
0
ARC
8
DEFAULT_255_2_778
10
58.6959829
20
80.7414481
40
2.0087201
50
336.5711449
51
0.098458
0
ARC
8
DEFAULT_255_2_778
10
58.7027215
20
80.7406643
40
2.0022264
50
280.1969768
51
336.5150524
0
ARC
8
DEFAULT_255_2_778
10
58.6991217
20
80.7723292
40
2.0340295
50
269.9712226
51
280.1388726
0
ARC
8
DEFAULT_255_2_778
10
58.6946559
20
80.7468893
40
2.0085923
50
246.5693287
51
270.0982465
0
ARC
8
DEFAULT_255_2_778
10
58.6939723
20
80.7403758
40
2.0023451
50
190.1984339
51
246.5131642
0
ARC
8
DEFAULT_255_2_778
10
58.725271
20
80.7438816
40
2.0337712
50
179.9713109
51
190.1395175
0
LINE
8
DEFAULT_255_2_778
10
56.6915001
20
80.7448999
11
56.6915001
21
80.7448999
0
LINE
8
DEFAULT_255_2_778
10
68.5078051
20
74.3467207
11
68.5078051
21
86.0677207
0
LINE
8
DEFAULT_255_2_778
10
68.5078051
20
86.0677207
11
66.7118051
21
86.0677207
0
LINE
8
DEFAULT_255_2_778
10
4.9898051
20
74.3467207
11
4.9898051
21
74.6996207
0
LINE
8
DEFAULT_255_2_778
10
60.6322115
20
67.2468802
11
59.7321115
21
67.2468802
0
LINE
8
DEFAULT_255_2_778
10
59.7321115
20
67.2468802
11
59.7321115
21
69.0468802
0
LINE
8
DEFAULT_255_2_778
10
59.7321115
20
69.0468802
11
60.6322115
21
69.0468802
0
LINE
8
DEFAULT_255_2_778
10
60.6322115
20
69.0468802
11
60.6322115
21
68.9518802
0
LINE
8
DEFAULT_255_2_778
10
60.6322115
20
68.9518802
11
59.8221115
21
68.9518802
0
LINE
8
DEFAULT_255_2_778
10
59.8221115
20
68.9518802
11
59.8221115
21
68.1911802
0
LINE
8
DEFAULT_255_2_778
10
59.8221115
20
68.1911802
11
60.4586115
21
68.1911802
0
LINE
8
DEFAULT_255_2_778
10
60.4586115
20
68.1911802
11
60.4586115
21
68.1001802
0
LINE
8
DEFAULT_255_2_778
10
60.4586115
20
68.1001802
11
59.8221115
21
68.1001802
0
LINE
8
DEFAULT_255_2_778
10
59.8221115
20
68.1001802
11
59.8221115
21
67.3394802
0
LINE
8
DEFAULT_255_2_778
10
59.8221115
20
67.3394802
11
60.6325115
21
67.3394802
0
LINE
8
DEFAULT_255_2_778
10
60.6325115
20
67.3394802
11
60.6325115
21
67.2484802
0
LINE
8
DEFAULT_255_2_778
10
56.2252219
20
65.6455323
11
56.5414219
21
64.5219323
0
LINE
8
DEFAULT_255_2_778
10
56.5414219
20
64.5219323
11
55.9093219
21
64.5219323
0
LINE
8
DEFAULT_255_2_778
10
55.9093219
20
64.5219323
11
56.2252219
21
65.6455323
0
LINE
8
DEFAULT_255_2_778
10
56.7211219
20
63.9826323
11
56.8124219
21
63.9826323
0
LINE
8
DEFAULT_255_2_778
10
56.8124219
20
63.9826323
11
56.2705219
21
65.7355323
0
LINE
8
DEFAULT_255_2_778
10
56.2705219
20
65.7355323
11
56.1803219
21
65.7355323
0
LINE
8
DEFAULT_255_2_778
10
56.1803219
20
65.7355323
11
55.6384219
21
63.9826323
0
LINE
8
DEFAULT_255_2_778
10
55.6384219
20
63.9826323
11
55.7254219
21
63.9826323
0
LINE
8
DEFAULT_255_2_778
10
55.7254219
20
63.9826323
11
55.8641219
21
64.4322323
0
LINE
8
DEFAULT_255_2_778
10
55.8641219
20
64.4322323
11
56.5867219
21
64.4322323
0
LINE
8
DEFAULT_255_2_778
10
56.5867219
20
64.4322323
11
56.7211219
21
63.9826323
0
ARC
8
DEFAULT_255_2_778
10
64.8563621
20
68.6545783
40
0.4843284
50
325.7089514
51
335.3872823
0
ARC
8
DEFAULT_255_2_778
10
64.9696038
20
68.6030849
40
0.3599295
50
335.3318453
51
348.4847259
0
ARC
8
DEFAULT_255_2_778
10
65.0285738
20
68.5901802
40
0.2995716
50
348.6516526
51
359.9130538
0
ARC
8
DEFAULT_255_2_778
10
65.0240693
20
68.5866176
40
0.3040916
50
0.5856031
51
34.85697
0
ARC
8
DEFAULT_255_2_778
10
64.9108914
20
68.5130771
40
0.4390153
50
34.2907434
51
49.949895
0
ARC
8
DEFAULT_255_2_778
10
64.8777273
20
68.4783399
40
0.4869552
50
49.5928327
51
58.6702485
0
ARC
8
DEFAULT_255_2_778
10
64.9571997
20
68.6119307
40
0.3315245
50
58.3975588
51
66.5925056
0
ARC
8
DEFAULT_255_2_778
10
65.0461538
20
68.8210427
40
0.1042932
50
65.8013568
51
78.4096733
0
ARC
8
DEFAULT_255_2_778
10
64.9584118
20
68.4731826
40
0.4629673
50
76.4213076
51
88.2525839
0
ARC
8
DEFAULT_255_2_778
10
64.9630763
20
68.5494921
40
0.3865582
50
88.5987291
51
89.9948027
0
ARC
8
DEFAULT_255_2_778
10
64.9594052
20
68.6192845
40
0.3167875
50
89.329676
51
145.2226225
0
ARC
8
DEFAULT_255_2_778
10
65.1922986
20
68.4404986
40
0.6102187
50
143.907023
51
160.1712341
0
ARC
8
DEFAULT_255_2_778
10
65.5019047
20
68.3151061
40
0.9440915
50
159.3861121
51
163.1790369
0
ARC
8
DEFAULT_255_2_778
10
64.9984127
20
68.5505903
40
0.5211718
50
145.0437928
51
175.8496901
0
ARC
8
DEFAULT_255_2_778
10
64.9600392
20
68.5762769
40
0.475005
50
90.266397
51
144.9311808
0
ARC
8
DEFAULT_255_2_778
10
64.9578114
20
68.5880842
40
0.4631925
50
81.462743
51
89.9976175
0
ARC
8
DEFAULT_255_2_778
10
64.9555626
20
68.5764912
40
0.4749912
50
65.2849258
51
81.4020823
0
ARC
8
DEFAULT_255_2_778
10
64.9474436
20
68.5569956
40
0.4960962
50
63.7182807
51
65.3745407
0
ARC
8
DEFAULT_255_2_778
10
64.9819453
20
68.5631542
40
0.4761337
50
46.0745308
51
67.1147225
0
ARC
8
DEFAULT_255_2_778
10
65.0068877
20
68.5943037
40
0.4364107
50
11.4600873
51
45.596042
0
ARC
8
DEFAULT_255_2_778
10
64.9734184
20
68.5846572
40
0.4711378
50
8.0922718
51
11.8011249
0
ARC
8
DEFAULT_255_2_778
10
64.9647357
20
68.5834995
40
0.479897
50
359.9923221
51
8.0831916
0
ARC
8
DEFAULT_255_2_778
10
64.9922805
20
68.5809294
40
0.4523592
50
336.9292416
51
0.3173765
0
ARC
8
DEFAULT_255_2_778
10
65.0980541
20
68.5374925
40
0.3380269
50
322.6055657
51
336.6773108
0
ARC
8
DEFAULT_255_2_778
10
66.5066225
20
68.5496814
40
0.5198568
50
148.462717
51
173.9015836
0
ARC
8
DEFAULT_255_2_778
10
66.478606
20
68.5609016
40
0.4901361
50
91.1976478
51
147.8675623
0
ARC
8
DEFAULT_255_2_778
10
66.479015
20
68.5675855
40
0.4834624
50
90.3721139
51
91.2626627
0
ARC
8
DEFAULT_255_2_778
10
66.4790443
20
68.5587126
40
0.4923355
50
90.0036536
51
90.3688233
0
ARC
8
DEFAULT_255_2_778
10
66.4820092
20
68.5975851
40
0.4534729
50
50.4923346
51
90.3785789
0
ARC
8
DEFAULT_255_2_778
10
66.4797239
20
68.5971375
40
0.4552746
50
45.0434252
51
50.30627
0
ARC
8
DEFAULT_255_2_778
10
66.2610201
20
68.4512206
40
0.7149305
50
36.0808463
51
40.8994105
0
ARC
8
DEFAULT_255_2_778
10
66.3106041
20
68.4876231
40
0.6534189
50
32.1724993
51
36.0616658
0
ARC
8
DEFAULT_255_2_778
10
66.3759479
20
68.5269796
40
0.5771546
50
20.2417731
51
32.3194654
0
ARC
8
DEFAULT_255_2_778
10
66.4374832
20
68.5500087
40
0.5114522
50
5.2825727
51
20.2062828
0
ARC
8
DEFAULT_255_2_778
10
66.4525551
20
68.5520562
40
0.496256
50
0.0010608
51
5.2073915
0
ARC
8
DEFAULT_255_2_778
10
66.4493189
20
68.5523385
40
0.4994924
50
337.6788696
51
359.9686706
0
ARC
8
DEFAULT_255_2_778
10
66.491792
20
68.5322398
40
0.452575
50
319.5778841
51
337.9905074
0
ARC
8
DEFAULT_255_2_778
10
66.600225
20
68.4403098
40
0.3104177
50
306.0413495
51
319.5180274
0
ARC
8
DEFAULT_255_2_778
10
66.6719699
20
68.3412098
40
0.1880739
50
290.8636747
51
306.1311985
0
ARC
8
DEFAULT_255_2_778
10
66.7002009
20
68.2665672
40
0.1082714
50
270.9032042
51
290.9715176
0
ARC
8
DEFAULT_255_2_778
10
66.5542311
20
67.8046012
40
0.3832984
50
41.8110663
51
67.3389946
0
ARC
8
DEFAULT_255_2_778
10
66.4970444
20
67.7734109
40
0.4469639
50
0.1505562
51
39.903588
0
ARC
8
DEFAULT_255_2_778
10
66.3533778
20
67.7557142
40
0.5909303
50
359.9963371
51
1.8300373
0
ARC
8
DEFAULT_255_2_778
10
66.3230237
20
67.7559452
40
0.6212845
50
338.0131271
51
359.9752112
0
ARC
8
DEFAULT_255_2_778
10
66.5175567
20
67.6740463
40
0.4102494
50
320.1976661
51
338.4475225
0
ARC
8
DEFAULT_255_2_778
10
66.6504134
20
67.5678432
40
0.2402211
50
308.944198
51
319.3734062
0
ARC
8
DEFAULT_255_2_778
10
66.4208556
20
67.8480183
40
0.6024262
50
275.9912213
51
309.1755766
0
ARC
8
DEFAULT_255_2_778
10
66.427975
20
67.7964975
40
0.5504464
50
270.0281778
51
275.8139552
0
ARC
8
DEFAULT_255_2_778
10
66.4130523
20
67.6659386
40
0.4201622
50
211.6777293
51
272.0723176
0
ARC
8
DEFAULT_255_2_778
10
66.4951753
20
67.7051267
40
0.510723
50
190.9313925
51
210.5808778
0
ARC
8
DEFAULT_255_2_778
10
66.6817499
20
67.7471092
40
0.7018978
50
183.5613544
51
191.4081141
0
ARC
8
DEFAULT_255_2_778
10
66.6740253
20
68.4489645
40
0.6177842
50
151.6697992
51
166.9454082
0
ARC
8
DEFAULT_255_2_778
10
66.5193288
20
68.533325
40
0.4415834
50
129.2120677
51
151.7794118
0
ARC
8
DEFAULT_255_2_778
10
66.4751074
20
68.5848621
40
0.3736992
50
95.2881139
51
128.9542057
0
ARC
8
DEFAULT_255_2_778
10
66.4752031
20
68.5823769
40
0.3761828
50
89.9968032
51
95.26775
0
ARC
8
DEFAULT_255_2_778
10
66.4769782
20
68.5894094
40
0.3691544
50
45.6552586
51
90.272252
0
ARC
8
DEFAULT_255_2_778
10
66.2989282
20
68.5421092
40
0.5357918
50
6.8862562
51
35.5215565
0
ARC
8
DEFAULT_255_2_778
10
66.2627609
20
68.5326998
40
0.5728484
50
0.0288001
51
7.3868707
0
ARC
8
DEFAULT_255_2_778
10
66.3820017
20
68.524789
40
0.4536815
50
333.4829858
51
1.0354762
0
ARC
8
DEFAULT_255_2_778
10
66.580279
20
68.4189268
40
0.229083
50
270.068535
51
335.0343868
0
ARC
8
DEFAULT_255_2_778
10
66.5806334
20
68.4557546
40
0.2659108
50
266.6095923
51
269.9826822
0
ARC
8
DEFAULT_255_2_778
10
66.6716065
20
67.8576486
40
0.6177646
50
193.0545089
51
208.3305283
0
ARC
8
DEFAULT_255_2_778
10
66.5168455
20
67.7732491
40
0.4414887
50
208.2205409
51
230.7918507
0
ARC
8
DEFAULT_255_2_778
10
66.4725488
20
67.7216054
40
0.3734743
50
231.0491882
51
264.733121
0
ARC
8
DEFAULT_255_2_778
10
66.4726338
20
67.7240843
40
0.3759506
50
264.7549047
51
270.0030583
0
ARC
8
DEFAULT_255_2_778
10
66.4743776
20
67.7172121
40
0.3690825
50
269.7324069
51
314.3992296
0
ARC
8
DEFAULT_255_2_778
10
66.2915375
20
67.768697
40
0.5421127
50
324.4504752
51
352.652333
0
ARC
8
DEFAULT_255_2_778
10
66.2600378
20
67.7775787
40
0.5745096
50
352.17559
51
359.9634672
0
ARC
8
DEFAULT_255_2_778
10
66.3848469
20
67.7853696
40
0.4497746
50
358.9608154
51
26.0519426
0
ARC
8
DEFAULT_255_2_778
10
66.5826502
20
67.8890407
40
0.2266245
50
24.4677333
51
90.0364989
0
ARC
8
DEFAULT_255_2_778
10
66.5825858
20
67.8492269
40
0.2664383
50
90.0171975
51
93.3519104
0
LINE
8
DEFAULT_255_2_778
10
62.3868076
20
67.2754092
11
62.4035076
21
68.9238092
0
LINE
8
DEFAULT_255_2_778
10
62.4035076
20
68.9238092
11
61.8921076
21
67.9054092
0
LINE
8
DEFAULT_255_2_778
10
61.8921076
20
67.9054092
11
61.8021076
21
67.9054092
0
LINE
8
DEFAULT_255_2_778
10
61.8021076
20
67.9054092
11
61.2907076
21
68.9238092
0
LINE
8
DEFAULT_255_2_778
10
61.2907076
20
68.9238092
11
61.3073076
21
67.2754092
0
LINE
8
DEFAULT_255_2_778
10
61.3073076
20
67.2754092
11
61.2195076
21
67.2736092
0
LINE
8
DEFAULT_255_2_778
10
61.2195076
20
67.2736092
11
61.2174076
21
69.0468092
0
LINE
8
DEFAULT_255_2_778
10
61.2174076
20
69.0468092
11
61.3073076
21
69.0468092
0
LINE
8
DEFAULT_255_2_778
10
61.3073076
20
69.0468092
11
61.8474076
21
68.0118092
0
LINE
8
DEFAULT_255_2_778
10
61.8474076
20
68.0118092
11
62.3874076
21
69.0468092
0
LINE
8
DEFAULT_255_2_778
10
62.3874076
20
69.0468092
11
62.4773076
21
69.0468092
0
LINE
8
DEFAULT_255_2_778
10
62.4773076
20
69.0468092
11
62.4763076
21
67.2736092
0
LINE
8
DEFAULT_255_2_778
10
62.4763076
20
67.2736092
11
62.3853076
21
67.2736092
0
LINE
8
DEFAULT_255_2_778
10
65.3962076
20
67.2490092
11
64.4884076
21
67.2490092
0
LINE
8
DEFAULT_255_2_778
10
64.4884076
20
67.2490092
11
64.4884076
21
67.3474092
0
LINE
8
DEFAULT_255_2_778
10
64.4884076
20
67.3474092
11
65.2565076
21
68.3817092
0
LINE
8
DEFAULT_255_2_778
10
64.5982076
20
68.5883092
11
64.4786076
21
68.5883092
0
LINE
8
DEFAULT_255_2_778
10
65.3666076
20
68.3322092
11
64.6382076
21
67.3474092
0
LINE
8
DEFAULT_255_2_778
10
64.6382076
20
67.3474092
11
65.3965076
21
67.3474092
0
LINE
8
DEFAULT_255_2_778
10
65.3965076
20
67.3474092
11
65.3962076
21
67.2490092
0
LINE
8
DEFAULT_255_2_778
10
57.3992076
20
64.0240092
11
57.3971076
21
63.9380092
0
LINE
8
DEFAULT_255_2_778
10
57.3971076
20
63.9380092
11
58.1170076
21
63.9380092
0
LINE
8
DEFAULT_255_2_778
10
58.1170076
20
63.9380092
11
58.1183076
21
64.0240092
0
LINE
8
DEFAULT_255_2_778
10
57.3968076
20
65.7377092
11
58.1167076
21
65.7377092
0
LINE
8
DEFAULT_255_2_778
10
57.3968076
20
64.0277092
11
57.7117076
21
64.0277092
0
LINE
8
DEFAULT_255_2_778
10
57.7117076
20
64.0277092
11
57.7117076
21
65.6477092
0
LINE
8
DEFAULT_255_2_778
10
57.7117076
20
65.6477092
11
57.3968076
21
65.6477092
0
LINE
8
DEFAULT_255_2_778
10
57.3968076
20
65.6477092
11
57.3989076
21
65.7355092
0
LINE
8
DEFAULT_255_2_778
10
58.1167076
20
64.0277092
11
57.8016076
21
64.0277092
0
LINE
8
DEFAULT_255_2_778
10
57.8016076
20
64.0277092
11
57.8016076
21
65.6477092
0
LINE
8
DEFAULT_255_2_778
10
57.8016076
20
65.6477092
11
58.1167076
21
65.6477092
0
LINE
8
DEFAULT_255_2_778
10
58.1167076
20
65.6477092
11
58.1181076
21
65.7355092
0
LINE
8
DEFAULT_255_2_778
10
66.0696076
20
68.5843092
11
65.9897076
21
68.6049092
0
LINE
8
DEFAULT_255_2_778
10
66.5670076
20
68.1152092
11
66.5651076
21
68.1906092
0
LINE
8
DEFAULT_255_2_778
10
66.0722076
20
67.7204092
11
65.9812076
21
67.7040092
0
LINE
8
DEFAULT_255_2_778
10
61.7399076
20
65.0243092
11
62.0955076
21
64.5282092
0
LINE
8
DEFAULT_255_2_778
10
62.0955076
20
64.5282092
11
62.4593076
21
65.0243092
0
LINE
8
DEFAULT_255_2_778
10
62.4593076
20
65.0243092
11
62.5173076
21
64.9913092
0
LINE
8
DEFAULT_255_2_778
10
62.5173076
20
64.9913092
11
62.1453076
21
64.4785092
0
LINE
8
DEFAULT_255_2_778
10
62.1453076
20
64.4785092
11
62.5091076
21
63.9657092
0
LINE
8
DEFAULT_255_2_778
10
62.5091076
20
63.9657092
11
62.4596076
21
63.9327092
0
LINE
8
DEFAULT_255_2_778
10
62.4596076
20
63.9327092
11
62.0958076
21
64.4370092
0
LINE
8
DEFAULT_255_2_778
10
62.0958076
20
64.4370092
11
61.7320076
21
63.9327092
0
LINE
8
DEFAULT_255_2_778
10
61.7320076
20
63.9327092
11
61.6825076
21
63.9740092
0
LINE
8
DEFAULT_255_2_778
10
61.6825076
20
63.9740092
11
62.0463076
21
64.4783092
0
LINE
8
DEFAULT_255_2_778
10
62.0463076
20
64.4783092
11
61.6825076
21
64.9825092
0
LINE
8
DEFAULT_255_2_778
10
61.6825076
20
64.9825092
11
61.7399076
21
65.0243092
0
LINE
8
DEFAULT_255_2_778
10
68.2261938
20
67.2881666
11
68.2261938
21
69.0574666
0
LINE
8
DEFAULT_255_2_778
10
68.2261938
20
69.0574666
11
68.1766938
21
69.0574666
0
LINE
8
DEFAULT_255_2_778
10
68.1766938
20
69.0574666
11
67.4657938
21
68.4290666
0
LINE
8
DEFAULT_255_2_778
10
67.4657938
20
68.4290666
11
67.5154938
21
68.3793666
0
LINE
8
DEFAULT_255_2_778
10
67.5154938
20
68.3793666
11
68.1356938
21
68.9166666
0
LINE
8
DEFAULT_255_2_778
10
68.1356938
20
68.9166666
11
68.1356938
21
67.2879666
0
LINE
8
DEFAULT_255_2_778
10
68.1356938
20
67.2879666
11
68.2261938
21
67.2881666
0
ARC
8
DEFAULT_255_2_778
10
64.9309785
20
65.2623703
40
0.3807273
50
273.9283121
51
0.4236552
0
ARC
8
DEFAULT_255_2_778
10
64.9054633
20
65.2647729
40
0.4062323
50
0.0581729
51
11.6259415
0
ARC
8
DEFAULT_255_2_778
10
64.925863
20
65.2751278
40
0.3842119
50
10.7264666
51
89.8063615
0
ARC
8
DEFAULT_255_2_778
10
64.9241336
20
65.2590643
40
0.4747202
50
279.9869665
51
328.0828718
0
ARC
8
DEFAULT_255_2_778
10
64.8932616
20
65.2982874
40
0.5219377
50
326.2195108
51
359.551752
0
ARC
8
DEFAULT_255_2_778
10
64.933093
20
65.2942532
40
0.4820904
50
359.9941711
51
6.2022533
0
ARC
8
DEFAULT_255_2_778
10
64.904173
20
65.248676
40
0.5174875
50
10.8782293
51
66.5638334
0
ARC
8
DEFAULT_255_2_778
10
64.9674763
20
65.3514696
40
0.398368
50
69.0380085
51
90.059651
0
ARC
8
DEFAULT_255_2_778
10
67.6415886
20
64.592359
40
0.5781287
50
278.9933456
51
294.1546409
0
ARC
8
DEFAULT_255_2_778
10
67.7251604
20
64.4074981
40
0.3752562
50
294.0615975
51
318.9244752
0
ARC
8
DEFAULT_255_2_778
10
67.7184807
20
64.4059373
40
0.379307
50
319.7651938
51
341.1254791
0
ARC
8
DEFAULT_255_2_778
10
67.5270016
20
64.4723206
40
0.5819655
50
341.0397247
51
351.5728509
0
ARC
8
DEFAULT_255_2_778
10
67.2389462
20
64.5223362
40
0.8742708
50
351.0970243
51
352.0248998
0
ARC
8
DEFAULT_255_2_778
10
67.6975006
20
65.2517101
40
0.4101774
50
6.8366761
51
85.1806418
0
ARC
8
DEFAULT_255_2_778
10
67.7465518
20
64.3656095
40
0.4349687
50
273.2434162
51
295.1986628
0
ARC
8
DEFAULT_255_2_778
10
67.7431968
20
64.3571002
40
0.4287493
50
296.0885313
51
326.2105905
0
ARC
8
DEFAULT_255_2_778
10
67.6547518
20
64.4243042
40
0.5396712
50
325.5030175
51
331.6205123
0
ARC
8
DEFAULT_255_2_778
10
67.5916362
20
64.4575085
40
0.6109841
50
331.6941908
51
342.4563977
0
ARC
8
DEFAULT_255_2_778
10
67.6283769
20
64.4477742
40
0.5730209
50
342.2770905
51
349.4538216
0
ARC
8
DEFAULT_255_2_778
10
67.747395
20
64.4240717
40
0.4516776
50
349.6464478
51
350.7203899
0
ARC
8
DEFAULT_255_2_778
10
67.6888407
20
65.2463124
40
0.5131028
50
10.6158112
51
61.8235504
0
ARC
8
DEFAULT_255_2_778
10
67.6794255
20
65.2521032
40
0.5125627
50
60.5900607
51
62.9033163
0
ARC
8
DEFAULT_255_2_778
10
67.7238929
20
65.3467006
40
0.4081089
50
62.4116589
51
76.9639201
0
ARC
8
DEFAULT_255_2_778
10
67.7593066
20
65.4950144
40
0.2556315
50
77.19852
51
89.5394093
0
LINE
8
DEFAULT_255_2_778
10
64.6006615
20
65.6596375
11
64.6006615
21
64.8825375
0
LINE
8
DEFAULT_255_2_778
10
64.6006615
20
64.8825375
11
64.9570615
21
64.8825375
0
LINE
8
DEFAULT_255_2_778
10
64.9271615
20
65.6593375
11
64.6006615
21
65.6596375
0
LINE
8
DEFAULT_255_2_778
10
64.5114615
20
65.7503375
11
64.5114615
21
63.9644375
0
LINE
8
DEFAULT_255_2_778
10
64.5114615
20
63.9644375
11
64.6006615
21
63.9644375
0
LINE
8
DEFAULT_255_2_778
10
64.6006615
20
63.9644375
11
64.6006615
21
64.7918375
0
LINE
8
DEFAULT_255_2_778
10
64.6006615
20
64.7918375
11
64.8974615
21
64.7918375
0
LINE
8
DEFAULT_255_2_778
10
64.8974615
20
64.7918375
11
64.9371615
21
64.7513375
0
LINE
8
DEFAULT_255_2_778
10
64.9371615
20
64.7513375
11
65.3231615
21
63.9641375
0
LINE
8
DEFAULT_255_2_778
10
65.3231615
20
63.9641375
11
65.4123615
21
63.9641375
0
LINE
8
DEFAULT_255_2_778
10
65.4123615
20
63.9641375
11
65.0064615
21
64.7915375
0
LINE
8
DEFAULT_255_2_778
10
64.9670615
20
65.7498375
11
64.5114615
21
65.7503375
0
LINE
8
DEFAULT_255_2_778
10
67.3885615
20
65.6604375
11
67.3885615
21
64.0213375
0
LINE
8
DEFAULT_255_2_778
10
67.3885615
20
64.0213375
11
67.7319615
21
64.0213375
0
LINE
8
DEFAULT_255_2_778
10
68.1047615
20
64.4010375
11
68.1047615
21
65.3005375
0
LINE
8
DEFAULT_255_2_778
10
67.7319615
20
65.6604375
11
67.3885615
21
65.6604375
0
LINE
8
DEFAULT_255_2_778
10
67.3001615
20
65.7503375
11
67.3001615
21
63.9313375
0
LINE
8
DEFAULT_255_2_778
10
67.3001615
20
63.9313375
11
67.7711615
21
63.9313375
0
LINE
8
DEFAULT_255_2_778
10
68.1931615
20
64.3512375
11
68.1931615
21
65.3408375
0
LINE
8
DEFAULT_255_2_778
10
67.7613615
20
65.7506375
11
67.3001615
21
65.7503375
0
LINE
8
DEFAULT_255_2_778
10
65.9939615
20
65.7503375
11
66.7215615
21
65.7503375
0
LINE
8
DEFAULT_255_2_778
10
66.7215615
20
65.7503375
11
66.7215615
21
65.6511375
0
LINE
8
DEFAULT_255_2_778
10
66.7215615
20
65.6511375
11
66.4074615
21
65.6511375
0
LINE
8
DEFAULT_255_2_778
10
66.4074615
20
65.6511375
11
66.4074615
21
63.9808375
0
LINE
8
DEFAULT_255_2_778
10
66.4074615
20
63.9808375
11
66.3082615
21
63.9808375
0
LINE
8
DEFAULT_255_2_778
10
66.3082615
20
63.9808375
11
66.3082615
21
65.6509375
0
LINE
8
DEFAULT_255_2_778
10
66.3082615
20
65.6509375
11
65.9941615
21
65.6509375
0
LINE
8
DEFAULT_255_2_778
10
65.9941615
20
65.6509375
11
65.9941615
21
65.7501375
0
LINE
8
DEFAULT_255_2_778
10
65.9941615
20
65.7501375
11
65.9939615
21
65.7503375
0
LINE
8
DEFAULT_255_2_778
10
59.478532
20
65.7344733
11
59.419032
21
65.7344733
0
LINE
8
DEFAULT_255_2_778
10
59.419032
20
65.7344733
11
58.706032
21
64.3985733
0
LINE
8
DEFAULT_255_2_778
10
58.706032
20
64.3985733
11
58.706032
21
64.3393733
0
LINE
8
DEFAULT_255_2_778
10
58.706032
20
64.3393733
11
59.379332
21
64.3393733
0
LINE
8
DEFAULT_255_2_778
10
59.379332
20
64.3393733
11
59.379332
21
63.9831733
0
LINE
8
DEFAULT_255_2_778
10
59.379332
20
63.9831733
11
59.468532
21
63.9831733
0
LINE
8
DEFAULT_255_2_778
10
59.468532
20
63.9831733
11
59.468532
21
64.3393733
0
LINE
8
DEFAULT_255_2_778
10
59.468532
20
64.3393733
11
59.607132
21
64.3393733
0
LINE
8
DEFAULT_255_2_778
10
59.607132
20
64.3393733
11
59.607132
21
64.4284733
0
LINE
8
DEFAULT_255_2_778
10
59.607132
20
64.4284733
11
59.478332
21
64.4284733
0
LINE
8
DEFAULT_255_2_778
10
59.478332
20
64.4284733
11
59.478532
21
65.7344733
0
LINE
8
DEFAULT_255_2_778
10
59.388632
20
64.4205733
11
58.804732
21
64.4205733
0
LINE
8
DEFAULT_255_2_778
10
58.804732
20
64.4205733
11
59.388632
21
65.4976733
0
LINE
8
DEFAULT_255_2_778
10
59.388632
20
65.4976733
11
59.388632
21
64.4205733
0
LINE
8
DEFAULT_255_2_778
10
59.603232
20
64.3406733
11
59.468532
21
64.3406733
0
LINE
8
DEFAULT_255_2_778
10
59.468532
20
64.3406733
11
59.468532
21
63.9815733
0
LINE
8
DEFAULT_255_2_778
10
2.550832
20
25.0465733
11
20.100932
21
25.0465733
0
LINE
8
DEFAULT_255_2_778
10
20.100932
20
25.0465733
11
20.100932
21
21.9467733
0
LINE
8
DEFAULT_255_2_778
10
20.100932
20
21.9467733
11
2.550832
21
21.9467733
0
LINE
8
DEFAULT_255_2_778
10
2.550832
20
21.9467733
11
2.550832
21
25.0465733
0
LINE
8
DEFAULT_255_2_778
10
2.6508742
20
24.9466489
11
20.0009742
21
24.9466489
0
LINE
8
DEFAULT_255_2_778
10
20.0009742
20
24.9466489
11
20.0009742
21
22.0465489
0
LINE
8
DEFAULT_255_2_778
10
20.0009742
20
22.0465489
11
2.6508742
21
22.0465489
0
LINE
8
DEFAULT_255_2_778
10
2.6508742
20
22.0465489
11
2.6508742
21
24.9466489
0
LINE
8
DEFAULT_255_2_778
10
12.1007531
20
24.2142083
11
12.1007531
21
22.7516083
0
LINE
8
DEFAULT_255_2_778
10
12.1007531
20
22.7516083
11
12.8508531
21
22.7516083
0
LINE
8
DEFAULT_255_2_778
10
12.175898
20
24.2142385
11
12.175898
21
22.8268385
0
LINE
8
DEFAULT_255_2_778
10
12.175898
20
22.8268385
11
12.850798
21
22.8268385
0
LINE
8
DEFAULT_255_2_778
10
14.050198
20
23.4636385
11
13.750198
21
23.4636385
0
LINE
8
DEFAULT_255_2_778
10
13.750198
20
23.4636385
11
13.752298
21
23.7645385
0
LINE
8
DEFAULT_255_2_778
10
13.752298
20
23.7645385
11
13.678698
21
23.7637385
0
LINE
8
DEFAULT_255_2_778
10
13.678698
20
23.7637385
11
13.678698
21
23.4636385
0
LINE
8
DEFAULT_255_2_778
10
13.678698
20
23.4636385
11
13.378698
21
23.4636385
0
LINE
8
DEFAULT_255_2_778
10
13.378698
20
23.4636385
11
13.380298
21
23.3840385
0
LINE
8
DEFAULT_255_2_778
10
13.380298
20
23.3840385
11
13.675298
21
23.3887385
0
LINE
8
DEFAULT_255_2_778
10
13.675298
20
23.3887385
11
13.677898
21
23.0863385
0
LINE
8
DEFAULT_255_2_778
10
13.677898
20
23.0863385
11
13.752298
21
23.0863385
0
LINE
8
DEFAULT_255_2_778
10
13.752298
20
23.0863385
11
13.750198
21
23.3887385
0
LINE
8
DEFAULT_255_2_778
10
13.750198
20
23.3887385
11
14.050198
21
23.3887385
0
LINE
8
DEFAULT_255_2_778
10
14.050198
20
23.3887385
11
14.049898
21
23.4668385
0
LINE
8
DEFAULT_255_2_778
10
8.458798
20
22.7834385
11
8.472498
21
24.1515385
0
LINE
8
DEFAULT_255_2_778
10
8.472498
20
24.1515385
11
8.044998
21
23.3062385
0
LINE
8
DEFAULT_255_2_778
10
8.044998
20
23.3062385
11
7.969798
21
23.3062385
0
LINE
8
DEFAULT_255_2_778
10
7.969798
20
23.3062385
11
7.542198
21
24.1515385
0
LINE
8
DEFAULT_255_2_778
10
7.542198
20
24.1515385
11
7.555998
21
22.7834385
0
LINE
8
DEFAULT_255_2_778
10
7.555998
20
22.7834385
11
7.482498
21
22.7818385
0
LINE
8
DEFAULT_255_2_778
10
7.482498
20
22.7818385
11
7.480598
21
24.2534385
0
LINE
8
DEFAULT_255_2_778
10
7.480598
20
24.2534385
11
7.555698
21
24.2534385
0
LINE
8
DEFAULT_255_2_778
10
7.555698
20
24.2534385
11
8.007098
21
23.3943385
0
LINE
8
DEFAULT_255_2_778
10
8.007098
20
23.3943385
11
8.458498
21
24.2534385
0
LINE
8
DEFAULT_255_2_778
10
8.458498
20
24.2534385
11
8.533598
21
24.2534385
0
LINE
8
DEFAULT_255_2_778
10
8.533598
20
24.2534385
11
8.532598
21
22.7815385
0
LINE
8
DEFAULT_255_2_778
10
8.532598
20
22.7815385
11
8.456598
21
22.7815385
0
LINE
8
DEFAULT_255_2_778
10
12.0975866
20
24.2205948
11
12.0975866
21
22.7486948
0
LINE
8
DEFAULT_255_2_778
10
12.0975866
20
22.7486948
11
12.8582866
21
22.7486948
0
LINE
8
DEFAULT_255_2_778
10
12.8582866
20
22.7486948
11
12.8582866
21
22.8312948
0
LINE
8
DEFAULT_255_2_778
10
12.8582866
20
22.8312948
11
12.1803866
21
22.8312948
0
LINE
8
DEFAULT_255_2_778
10
12.1803866
20
22.8312948
11
12.1803866
21
24.2202948
0
LINE
8
DEFAULT_255_2_778
10
12.1803866
20
24.2202948
11
12.0975866
21
24.2205948
0
LINE
8
DEFAULT_255_2_778
10
17.9429866
20
22.4925948
11
18.4142866
21
22.4925948
0
LINE
8
DEFAULT_255_2_778
10
18.4142866
20
22.4925948
11
18.4142866
21
22.3766948
0
LINE
8
DEFAULT_255_2_778
10
18.4142866
20
22.3766948
11
17.9429866
21
22.3766948
0
LINE
8
DEFAULT_255_2_778
10
17.9429866
20
22.3766948
11
17.9429866
21
22.4925948
0
LINE
8
DEFAULT_255_2_778
10
17.7196866
20
22.8812948
11
18.7200866
21
22.8812948
0
LINE
8
DEFAULT_255_2_778
10
18.7200866
20
22.8812948
11
18.7200866
21
22.7820948
0
LINE
8
DEFAULT_255_2_778
10
18.7200866
20
22.7820948
11
17.7196866
21
22.7820948
0
LINE
8
DEFAULT_255_2_778
10
17.7196866
20
22.7820948
11
17.7196866
21
22.8812948
0
LINE
8
DEFAULT_255_2_778
10
18.1414866
20
24.4438948
11
18.1496866
21
23.2614948
0
LINE
8
DEFAULT_255_2_778
10
18.1496866
20
23.2614948
11
17.5379866
21
23.2614948
0
LINE
8
DEFAULT_255_2_778
10
17.5379866
20
23.2614948
11
17.5379866
21
23.1622948
0
LINE
8
DEFAULT_255_2_778
10
17.5379866
20
23.1622948
11
18.9351866
21
23.1622948
0
LINE
8
DEFAULT_255_2_778
10
18.9351866
20
23.1622948
11
18.9351866
21
23.2614948
0
LINE
8
DEFAULT_255_2_778
10
18.9351866
20
23.2614948
11
18.2488866
21
23.2614948
0
LINE
8
DEFAULT_255_2_778
10
18.2488866
20
23.2614948
11
18.2488866
21
24.4438948
0
LINE
8
DEFAULT_255_2_778
10
18.2488866
20
24.4438948
11
18.1414866
21
24.4438948
0
ARC
8
DEFAULT_255_2_778
10
70.6506068
20
8.6468291
40
0.800141
50
314.9955306
51
359.9907439
0
ARC
8
DEFAULT_255_2_778
10
70.6505186
20
8.6467408
40
0.800141
50
270.0092561
51
315.0044694
0
LINE
8
DEFAULT_255_2_778
10
2.3508478
20
7.8465998
11
2.3508478
21
21.3466998
0
LINE
8
DEFAULT_255_2_778
10
2.3508478
20
21.3466998
11
69.3507478
21
21.3466998
0
LINE
8
DEFAULT_255_2_778
10
69.3507478
20
21.3466998
11
69.3507478
21
7.8465998
0
LINE
8
DEFAULT_255_2_778
10
69.3507478
20
7.8465998
11
2.3508478
21
7.8465998
0
LINE
8
DEFAULT_255_2_778
10
70.6506478
20
7.8465998
11
70.6506478
21
7.0464998
0
LINE
8
DEFAULT_255_2_778
10
70.6506478
20
7.0464998
11
63.4505478
21
7.0464998
0
ARC
8
DEFAULT_255_2_778
10
67.457459
20
3.8502004
40
2.4066969
50
159.2976576
51
180.084873
0
ARC
8
DEFAULT_255_2_778
10
67.4453294
20
3.8516615
40
2.3948358
50
100.6121045
51
159.2277679
0
ARC
8
DEFAULT_255_2_778
10
67.4494609
20
3.8151835
40
2.4314521
50
89.9692772
51
100.5494958
0
ARC
8
DEFAULT_255_2_778
10
67.4543363
20
3.8396835
40
2.4069545
50
69.2987756
51
90.0850211
0
ARC
8
DEFAULT_255_2_778
10
67.4559114
20
3.8520661
40
2.3948164
50
10.6123017
51
69.2293012
0
ARC
8
DEFAULT_255_2_778
10
67.4194361
20
3.8479402
40
2.4314289
50
359.9692516
51
10.5495722
0
ARC
8
DEFAULT_255_2_778
10
67.4440943
20
3.8430736
40
2.406773
50
339.2979222
51
0.0847906
0
ARC
8
DEFAULT_255_2_778
10
67.4561939
20
3.841611
40
2.3949392
50
280.612534
51
339.228324
0
ARC
8
DEFAULT_255_2_778
10
67.4520691
20
3.8780908
40
2.4315559
50
269.9692631
51
280.5497591
0
ARC
8
DEFAULT_255_2_778
10
67.4472019
20
3.8530541
40
2.4065214
50
249.2960188
51
270.0848243
0
ARC
8
DEFAULT_255_2_778
10
67.4458779
20
3.8412092
40
2.3949751
50
190.6117907
51
249.2254656
0
ARC
8
DEFAULT_255_2_778
10
67.4822765
20
3.8453334
40
2.4315121
50
179.9693203
51
190.5493631
0
LINE
8
DEFAULT_255_2_778
10
65.0507647
20
3.8466353
11
65.0507647
21
3.8466353
0
ARC
8
DEFAULT_255_2_778
10
70.6510114
20
8.6464838
40
1.5997581
50
269.9966048
51
300.0052207
0
LINE
8
DEFAULT_255_2_778
10
71.4507166
20
30.7468257
11
69.1507166
21
30.7468257
0
LINE
8
DEFAULT_255_2_778
10
69.1507166
20
30.7468257
11
69.1507166
21
25.7467257
0
LINE
8
DEFAULT_255_2_778
10
69.1507166
20
25.7467257
11
2.5508166
21
25.7467257
0
LINE
8
DEFAULT_255_2_778
10
2.5508166
20
25.7467257
11
2.5508166
21
30.7468257
0
LINE
8
DEFAULT_255_2_778
10
2.5508166
20
30.7468257
11
0.2508166
21
30.7468257
0
LINE
8
DEFAULT_255_2_778
10
69.1509166
20
25.7152257
11
68.6509166
21
25.7234257
0
LINE
8
DEFAULT_255_2_778
10
68.6509166
20
25.7234257
11
68.9313166
21
25.7308257
0
LINE
8
DEFAULT_255_2_778
10
68.9313166
20
25.7308257
11
69.1509166
21
25.7314257
0
LINE
8
DEFAULT_255_2_778
10
69.1509166
20
25.7314257
11
69.1509166
21
25.6560257
0
LINE
8
DEFAULT_255_2_778
10
69.1509166
20
25.6560257
11
2.5508166
21
25.6560257
0
LINE
8
DEFAULT_255_2_778
10
2.5508166
20
25.6560257
11
2.5508166
21
25.7314257
0
LINE
8
DEFAULT_255_2_778
10
2.5508166
20
25.7314257
11
3.0509166
21
25.7232257
0
LINE
8
DEFAULT_255_2_778
10
3.0509166
20
25.7232257
11
2.7704166
21
25.7157257
0
LINE
8
DEFAULT_255_2_778
10
2.7704166
20
25.7157257
11
2.5508166
21
25.7152257
0
LINE
8
DEFAULT_255_2_778
10
2.5508166
20
26.8201257
11
0.2508166
21
26.8201257
0
LINE
8
DEFAULT_255_2_778
10
71.4510166
20
26.8201257
11
69.1509166
21
26.8201257
0
LINE
8
DEFAULT_255_2_778
10
69.3332166
20
7.8524257
11
71.4425166
21
7.8524257
0
LINE
8
DEFAULT_255_2_778
10
71.4158166
20
9.3949257
11
71.4158166
21
7.8947257
0
LINE
8
DEFAULT_255_2_778
10
71.4158166
20
7.8947257
11
69.3028166
21
7.8947257
0
LINE
8
DEFAULT_255_2_778
10
41.2554166
20
25.0466257
11
69.1509166
21
25.0466257
0
LINE
8
DEFAULT_255_2_778
10
69.1509166
20
25.0466257
11
69.1509166
21
21.9468257
0
LINE
8
DEFAULT_255_2_778
10
69.1509166
20
21.9468257
11
41.2554166
21
21.9468257
0
LINE
8
DEFAULT_255_2_778
10
41.2554166
20
21.9468257
11
41.2554166
21
25.0466257
0
LINE
8
DEFAULT_255_2_778
10
41.3710754
20
24.9466489
11
69.0506754
21
24.9466489
0
LINE
8
DEFAULT_255_2_778
10
69.0506754
20
24.9466489
11
69.0506754
21
22.0465489
0
LINE
8
DEFAULT_255_2_778
10
69.0506754
20
22.0465489
11
41.3710754
21
22.0465489
0
LINE
8
DEFAULT_255_2_778
10
41.3710754
20
22.0465489
11
41.3710754
21
24.9466489
0
ARC
8
DEFAULT_255_2_778
10
51.9019314
20
23.9234031
40
0.3467258
50
145.4709463
51
177.1065781
0
ARC
8
DEFAULT_255_2_778
10
51.8773615
20
23.9159089
40
0.3313423
50
87.026836
51
141.9929821
0
ARC
8
DEFAULT_255_2_778
10
51.8833234
20
23.9183776
40
0.2543753
50
87.4710212
51
174.9192045
0
LINE
8
DEFAULT_255_2_778
10
51.5556476
20
22.7834052
11
51.5556476
21
23.9409052
0
LINE
8
DEFAULT_255_2_778
10
51.8945476
20
24.2468052
11
51.8945476
21
24.1725052
0
LINE
8
DEFAULT_255_2_778
10
51.6299476
20
23.9409052
11
51.6299476
21
23.6846052
0
LINE
8
DEFAULT_255_2_778
10
51.6299476
20
23.6846052
11
51.8945476
21
23.6846052
0
LINE
8
DEFAULT_255_2_778
10
51.8945476
20
23.6846052
11
51.8945476
21
23.6102052
0
LINE
8
DEFAULT_255_2_778
10
51.8945476
20
23.6102052
11
51.6299476
21
23.6102052
0
LINE
8
DEFAULT_255_2_778
10
51.6299476
20
23.6102052
11
51.6299476
21
22.7834052
0
LINE
8
DEFAULT_255_2_778
10
51.6299476
20
22.7834052
11
51.5556476
21
22.7834052
0
ARC
8
DEFAULT_255_2_778
10
60.2152708
20
23.3564512
40
0.2837551
50
101.6510915
51
140.6502386
0
ARC
8
DEFAULT_255_2_778
10
60.2430291
20
23.2545348
40
0.3892333
50
89.8503345
51
102.6232926
0
ARC
8
DEFAULT_255_2_778
10
60.2892899
20
23.2877285
40
0.3589015
50
90.0858828
51
97.2421196
0
ARC
8
DEFAULT_255_2_778
10
60.2817224
20
23.3363764
40
0.3103329
50
11.0475669
51
88.7020481
0
ARC
8
DEFAULT_255_2_778
10
60.070754
20
23.2465238
40
0.5367386
50
9.8092069
51
16.1526936
0
ARC
8
DEFAULT_255_2_778
10
60.2081447
20
23.2933567
40
0.3134815
50
9.6984864
51
39.6185362
0
ARC
8
DEFAULT_255_2_778
10
60.2695892
20
23.3206243
40
0.2494257
50
43.7977244
51
93.9180958
0
ARC
8
DEFAULT_255_2_778
10
60.2523962
20
23.4204833
40
0.1489836
50
89.9424551
51
90.1724813
0
ARC
8
DEFAULT_255_2_778
10
60.2459818
20
23.318981
40
0.2505561
50
88.635615
51
175.6542644
0
LINE
8
DEFAULT_255_2_778
10
59.9215458
20
23.6107669
11
59.9958458
21
23.6107669
0
LINE
8
DEFAULT_255_2_778
10
59.9958458
20
23.6107669
11
59.9958458
21
23.5363669
0
LINE
8
DEFAULT_255_2_778
10
60.5996458
20
23.3379669
11
60.5996458
21
22.7838669
0
LINE
8
DEFAULT_255_2_778
10
60.5996458
20
22.7838669
11
60.5171458
21
22.7838669
0
LINE
8
DEFAULT_255_2_778
10
60.5171458
20
22.7838669
11
60.5171458
21
23.3461669
0
LINE
8
DEFAULT_255_2_778
10
59.9961458
20
23.3379669
11
59.9961458
21
22.7838669
0
LINE
8
DEFAULT_255_2_778
10
59.9961458
20
22.7838669
11
59.9191458
21
22.7815669
0
LINE
8
DEFAULT_255_2_778
10
59.9191458
20
22.7815669
11
59.9217458
21
23.6107669
0
LINE
8
DEFAULT_255_2_778
10
59.9217458
20
23.6107669
11
59.9215458
21
23.6107669
0
ARC
8
DEFAULT_255_2_778
10
50.7360708
20
23.3564512
40
0.2837551
50
101.6510915
51
140.6502386
0
ARC
8
DEFAULT_255_2_778
10
50.7638291
20
23.2545348
40
0.3892333
50
89.8503345
51
102.6232926
0
ARC
8
DEFAULT_255_2_778
10
50.8100899
20
23.2877285
40
0.3589015
50
90.0858828
51
97.2421196
0
ARC
8
DEFAULT_255_2_778
10
50.8025224
20
23.3363764
40
0.3103329
50
11.0475669
51
88.7020481
0
ARC
8
DEFAULT_255_2_778
10
50.591554
20
23.2465238
40
0.5367386
50
9.8092069
51
16.1526936
0
ARC
8
DEFAULT_255_2_778
10
50.7289447
20
23.2933567
40
0.3134815
50
9.6984864
51
39.6185362
0
ARC
8
DEFAULT_255_2_778
10
50.7903892
20
23.3206243
40
0.2494257
50
43.7977244
51
93.9180958
0
ARC
8
DEFAULT_255_2_778
10
50.7731962
20
23.4204833
40
0.1489836
50
89.9424551
51
90.1724813
0
ARC
8
DEFAULT_255_2_778
10
50.7667818
20
23.318981
40
0.2505561
50
88.635615
51
175.6542644
0
LINE
8
DEFAULT_255_2_778
10
50.4423458
20
23.6107669
11
50.5166458
21
23.6107669
0
LINE
8
DEFAULT_255_2_778
10
50.5166458
20
23.6107669
11
50.5166458
21
23.5363669
0
LINE
8
DEFAULT_255_2_778
10
51.1204458
20
23.3379669
11
51.1204458
21
22.7838669
0
LINE
8
DEFAULT_255_2_778
10
51.1204458
20
22.7838669
11
51.0379458
21
22.7838669
0
LINE
8
DEFAULT_255_2_778
10
51.0379458
20
22.7838669
11
51.0379458
21
23.3461669
0
LINE
8
DEFAULT_255_2_778
10
50.5169458
20
23.3379669
11
50.5169458
21
22.7838669
0
LINE
8
DEFAULT_255_2_778
10
50.5169458
20
22.7838669
11
50.4399458
21
22.7815669
0
LINE
8
DEFAULT_255_2_778
10
50.4399458
20
22.7815669
11
50.4425458
21
23.6107669
0
LINE
8
DEFAULT_255_2_778
10
50.4425458
20
23.6107669
11
50.4423458
21
23.6107669
0
ARC
8
DEFAULT_255_2_778
10
59.3444837
20
23.2126294
40
0.4771429
50
149.985277
51
180.8373726
0
ARC
8
DEFAULT_255_2_778
10
59.1440004
20
23.3419144
40
0.2391583
50
93.3820356
51
152.7801139
0
ARC
8
DEFAULT_255_2_778
10
59.115335
20
23.3407256
40
0.2403718
50
26.5906102
51
86.5280953
0
ARC
8
DEFAULT_255_2_778
10
58.9136455
20
23.2124009
40
0.4787937
50
359.1928578
51
29.5204628
0
ARC
8
DEFAULT_255_2_778
10
58.9150516
20
23.1985629
40
0.4773928
50
330.0252169
51
0.8513598
0
ARC
8
DEFAULT_255_2_778
10
59.1160605
20
23.0693414
40
0.2389857
50
273.3178246
51
332.7856824
0
ARC
8
DEFAULT_255_2_778
10
59.1443614
20
23.0707743
40
0.2404538
50
206.5053097
51
266.5500396
0
ARC
8
DEFAULT_255_2_778
10
59.3463857
20
23.1988817
40
0.4790418
50
179.1896992
51
209.4348584
0
ARC
8
DEFAULT_255_2_778
10
59.3405056
20
23.2034444
40
0.547456
50
149.3250708
51
180.7104559
0
ARC
8
DEFAULT_255_2_778
10
59.1450585
20
23.3341555
40
0.3129307
50
92.6314074
51
151.6529876
0
ARC
8
DEFAULT_255_2_778
10
59.1155178
20
23.3321396
40
0.3149823
50
27.3733643
51
87.2387852
0
ARC
8
DEFAULT_255_2_778
10
58.9185849
20
23.2030547
40
0.5497439
50
359.3331159
51
29.8842602
0
ARC
8
DEFAULT_255_2_778
10
58.9212563
20
23.1898616
40
0.5470776
50
329.2647454
51
0.7116293
0
ARC
8
DEFAULT_255_2_778
10
59.1163775
20
23.0591389
40
0.3128103
50
272.6227751
51
331.5806065
0
ARC
8
DEFAULT_255_2_778
10
59.1458668
20
23.0612912
40
0.3150007
50
207.3792701
51
267.2387047
0
ARC
8
DEFAULT_255_2_778
10
59.3425712
20
23.1902777
40
0.5495163
50
179.3349175
51
209.8905429
0
LINE
8
DEFAULT_255_2_778
10
58.8673917
20
23.2056562
11
58.8673917
21
23.2056562
0
LINE
8
DEFAULT_255_2_778
10
58.7930917
20
23.1966562
11
58.7930917
21
23.1966562
0
ARC
8
DEFAULT_255_2_778
10
48.4346274
20
23.8310316
40
0.4200879
50
4.1269062
51
35.3609686
0
ARC
8
DEFAULT_255_2_778
10
48.443348
20
23.8376819
40
0.4091277
50
35.3082192
51
89.2347052
0
ARC
8
DEFAULT_255_2_778
10
48.4488126
20
23.8794386
40
0.3673347
50
90.0000071
51
90.5858244
0
ARC
8
DEFAULT_255_2_778
10
48.4474203
20
23.8942684
40
0.3524937
50
90.3841826
51
129.362315
0
ARC
8
DEFAULT_255_2_778
10
48.4919857
20
23.8423724
40
0.4208844
50
129.5722523
51
149.5783908
0
ARC
8
DEFAULT_255_2_778
10
48.6276643
20
23.7612632
40
0.5789549
50
149.4556557
51
162.9221147
0
ARC
8
DEFAULT_255_2_778
10
48.7494983
20
23.7190237
40
0.7078362
50
162.5499403
51
164.2832638
0
ARC
8
DEFAULT_255_2_778
10
48.4409905
20
23.123907
40
0.3749979
50
186.1145365
51
214.8738032
0
ARC
8
DEFAULT_255_2_778
10
48.4602459
20
23.1492375
40
0.4053962
50
216.2550164
51
270.1640038
0
ARC
8
DEFAULT_255_2_778
10
48.4649705
20
23.1672821
40
0.4234542
50
269.5177391
51
269.9967591
0
ARC
8
DEFAULT_255_2_778
10
48.4714231
20
23.1192627
40
0.3754906
50
269.0116903
51
322.1220283
0
ARC
8
DEFAULT_255_2_778
10
48.4354475
20
23.1388507
40
0.4159663
50
323.034912
51
344.801361
0
ARC
8
DEFAULT_255_2_778
10
48.3147861
20
23.1753195
40
0.5419798
50
344.4250182
51
353.8295165
0
ARC
8
DEFAULT_255_2_778
10
48.322664
20
23.2246365
40
0.4691611
50
326.5294623
51
346.7448627
0
ARC
8
DEFAULT_255_2_778
10
48.4204916
20
23.158152
40
0.3508929
50
297.3781584
51
326.7754617
0
ARC
8
DEFAULT_255_2_778
10
48.4543831
20
23.0963529
40
0.2804352
50
270.2969065
51
297.0356794
0
ARC
8
DEFAULT_255_2_778
10
48.4556732
20
22.9935067
40
0.1775853
50
269.8420316
51
270.052613
0
ARC
8
DEFAULT_255_2_778
10
48.4575379
20
23.0880876
40
0.2721756
50
229.1369714
51
269.504388
0
ARC
8
DEFAULT_255_2_778
10
48.5243515
20
23.1675661
40
0.3759991
50
208.7418868
51
229.3609071
0
ARC
8
DEFAULT_255_2_778
10
48.6797899
20
23.2553127
40
0.5544852
50
195.4305699
51
208.9682768
0
ARC
8
DEFAULT_255_2_778
10
48.8014989
20
23.2941508
40
0.6821596
50
195.0462088
51
195.8551509
0
ARC
8
DEFAULT_255_2_778
10
48.5744984
20
23.794751
40
0.4368349
50
152.4771488
51
171.2686064
0
ARC
8
DEFAULT_255_2_778
10
48.4737967
20
23.848075
40
0.3228897
50
122.5999079
51
152.611047
0
ARC
8
DEFAULT_255_2_778
10
48.4548105
20
23.8739133
40
0.2909003
50
89.9870976
51
122.1914045
0
ARC
8
DEFAULT_255_2_778
10
48.4548818
20
23.8721128
40
0.2927009
50
88.3634093
51
90.001127
0
ARC
8
DEFAULT_255_2_778
10
48.4525341
20
23.8584062
40
0.306475
50
44.9159542
51
87.9978676
0
ARC
8
DEFAULT_255_2_778
10
48.4023634
20
23.807547
40
0.3779134
50
21.3442906
51
45.0056504
0
ARC
8
DEFAULT_255_2_778
10
48.304716
20
23.7657597
40
0.4840843
50
11.3542512
51
21.7443788
0
LINE
8
DEFAULT_255_2_778
10
48.0681261
20
23.9107636
11
48.0681261
21
23.0839636
0
LINE
8
DEFAULT_255_2_778
10
48.8536261
20
23.1170636
11
48.7793261
21
23.1170636
0
LINE
8
DEFAULT_255_2_778
10
48.1427261
20
23.1170636
11
48.1427261
21
23.8610636
0
LINE
8
DEFAULT_255_2_778
10
48.7793261
20
23.8610636
11
48.8536261
21
23.8610636
0
LINE
8
DEFAULT_255_2_778
10
48.8536261
20
23.8610636
11
48.8536261
21
23.8612636
0
ARC
8
DEFAULT_255_2_778
10
56.0944053
20
23.2770293
40
0.484049
50
307.4140443
51
315.1388431
0
ARC
8
DEFAULT_255_2_778
10
56.1322151
20
23.2290942
40
0.4230045
50
304.549128
51
307.2911819
0
ARC
8
DEFAULT_255_2_778
10
56.1717238
20
23.1664937
40
0.349051
50
284.9838975
51
305.0351012
0
ARC
8
DEFAULT_255_2_778
10
56.1843143
20
23.1266737
40
0.3073353
50
270.0006966
51
284.6358271
0
ARC
8
DEFAULT_255_2_778
10
56.1873302
20
23.1580817
40
0.3387569
50
241.214525
51
269.490541
0
ARC
8
DEFAULT_255_2_778
10
56.0924934
20
22.9855773
40
0.1419022
50
182.9647299
51
241.235251
0
ARC
8
DEFAULT_255_2_778
10
56.0509836
20
22.9782454
40
0.1002023
50
177.4451984
51
180.0043037
0
ARC
8
DEFAULT_255_2_778
10
56.0484211
20
22.9776677
40
0.0976705
50
128.7485965
51
177.0396196
0
ARC
8
DEFAULT_255_2_778
10
56.1036848
20
22.9130288
40
0.1826913
50
110.1979476
51
129.5773266
0
ARC
8
DEFAULT_255_2_778
10
57.7005601
20
17.7371582
40
5.5990489
50
103.0371819
51
107.2457276
0
ARC
8
DEFAULT_255_2_778
10
56.055095
20
23.4385184
40
0.1817802
50
103.8358679
51
171.7235924
0
ARC
8
DEFAULT_255_2_778
10
56.1974886
20
23.0828877
40
0.563662
50
89.1339728
51
109.2532987
0
ARC
8
DEFAULT_255_2_778
10
56.2206885
20
23.2600922
40
0.386672
50
63.2350128
51
92.1758258
0
ARC
8
DEFAULT_255_2_778
10
56.2743842
20
23.3903708
40
0.2464038
50
15.515931
51
60.7401602
0
ARC
8
DEFAULT_255_2_778
10
56.7401102
20
23.0542181
40
0.2363194
50
194.9670409
51
208.7802174
0
ARC
8
DEFAULT_255_2_778
10
56.7439842
20
23.0411326
40
0.2337955
50
205.510669
51
251.2952567
0
ARC
8
DEFAULT_255_2_778
10
56.6770205
20
22.9397894
40
0.1946689
50
224.500799
51
267.6410753
0
ARC
8
DEFAULT_255_2_778
10
56.8117845
20
23.1057584
40
0.4078208
50
227.2686229
51
227.862914
0
ARC
8
DEFAULT_255_2_778
10
56.8258045
20
23.1209419
40
0.4284871
50
226.860978
51
227.2692469
0
ARC
8
DEFAULT_255_2_778
10
56.8503871
20
23.1471059
40
0.4643876
50
226.4931573
51
226.8550994
0
ARC
8
DEFAULT_255_2_778
10
56.8753551
20
23.1733316
40
0.5005978
50
226.1643978
51
226.4869441
0
ARC
8
DEFAULT_255_2_778
10
56.8909207
20
23.1894323
40
0.5229924
50
225.7121608
51
226.1559926
0
ARC
8
DEFAULT_255_2_778
10
56.9315131
20
23.2309984
40
0.581091
50
225.3331309
51
225.708845
0
ARC
8
DEFAULT_255_2_778
10
56.9772871
20
23.2773613
40
0.6462431
50
224.9662768
51
225.3364648
0
ARC
8
DEFAULT_255_2_778
10
57.0688267
20
23.3688358
40
0.7756536
50
224.6613063
51
224.9685027
0
ARC
8
DEFAULT_255_2_778
10
56.0816218
20
22.4184373
40
0.5948391
50
42.9343245
51
47.7350404
0
ARC
8
DEFAULT_255_2_778
10
56.4308314
20
22.7970204
40
0.079898
50
50.4684026
51
53.1858552
0
ARC
8
DEFAULT_255_2_778
10
56.1956627
20
23.169042
40
0.4183461
50
278.0559592
51
312.5770902
0
ARC
8
DEFAULT_255_2_778
10
56.1554901
20
23.3233683
40
0.5770648
50
277.0869283
51
279.8582281
0
ARC
8
DEFAULT_255_2_778
10
56.1540482
20
23.3347024
40
0.5884901
50
270.0156186
51
277.0900958
0
ARC
8
DEFAULT_255_2_778
10
56.14915
20
23.2260258
40
0.4798402
50
253.3379353
51
270.6040432
0
ARC
8
DEFAULT_255_2_778
10
56.0714906
20
22.9772954
40
0.2193079
50
229.4595359
51
254.1429288
0
ARC
8
DEFAULT_255_2_778
10
56.0015677
20
22.890605
40
0.1080266
50
210.310556
51
227.7568904
0
ARC
8
DEFAULT_255_2_778
10
56.2353542
20
23.0177792
40
0.3741281
50
198.0070173
51
209.0547976
0
ARC
8
DEFAULT_255_2_778
10
56.0980883
20
22.9741274
40
0.2300932
50
180.6457205
51
198.2360794
0
ARC
8
DEFAULT_255_2_778
10
56.0750496
20
22.9574726
40
0.2075171
50
107.2886404
51
176.1145605
0
ARC
8
DEFAULT_255_2_778
10
56.2085026
20
22.7187818
40
0.4784305
50
110.5440765
51
114.0693479
0
ARC
8
DEFAULT_255_2_778
10
53.8166766
20
32.9328878
40
10.0161183
50
282.8286018
51
283.8715823
0
ARC
8
DEFAULT_255_2_778
10
55.7024782
20
25.3319888
40
2.1847978
50
283.6483086
51
287.2437812
0
ARC
8
DEFAULT_255_2_778
10
56.2373096
20
23.6369914
40
0.4075277
50
286.0725042
51
298.7087406
0
ARC
8
DEFAULT_255_2_778
10
56.3664736
20
23.3890947
40
0.1281903
50
301.2987541
51
303.6509919
0
ARC
8
DEFAULT_255_2_778
10
55.8262571
20
23.3146651
40
0.6121027
50
356.9770578
51
359.9605915
0
ARC
8
DEFAULT_255_2_778
10
56.1341383
20
23.3321963
40
0.3047504
50
356.62287
51
33.6201321
0
ARC
8
DEFAULT_255_2_778
10
56.2419279
20
23.3841566
40
0.1869436
50
38.6568816
51
88.8434333
0
ARC
8
DEFAULT_255_2_778
10
56.2229028
20
23.255905
40
0.3159806
50
85.8624321
51
90.0534421
0
ARC
8
DEFAULT_255_2_778
10
56.212759
20
23.1183228
40
0.4536695
50
88.7560262
51
110.6041957
0
ARC
8
DEFAULT_255_2_778
10
56.1104492
20
23.3766371
40
0.1759421
50
109.0206746
51
150.0461476
0
LINE
8
DEFAULT_255_2_778
10
56.437508
20
23.1918854
11
56.437508
21
22.9355854
0
LINE
8
DEFAULT_255_2_778
10
56.437508
20
23.1918854
11
56.437508
21
23.1918854
0
LINE
8
DEFAULT_255_2_778
10
56.511808
20
23.4562854
11
56.511808
21
22.9931854
0
LINE
8
DEFAULT_255_2_778
10
56.669008
20
22.8196854
11
56.669008
21
22.7452854
0
LINE
8
DEFAULT_255_2_778
10
55.958008
20
23.4644854
11
55.875508
21
23.4644854
0
LINE
8
DEFAULT_255_2_778
10
55.875508
20
23.4644854
11
55.875208
21
23.4646854
0
LINE
8
DEFAULT_255_2_778
10
52.380626
20
23.608351
11
52.454926
21
23.608351
0
LINE
8
DEFAULT_255_2_778
10
52.454926
20
23.608351
11
52.454926
21
22.781551
0
LINE
8
DEFAULT_255_2_778
10
52.454926
20
22.781551
11
52.380626
21
22.781551
0
LINE
8
DEFAULT_255_2_778
10
52.380626
20
22.781551
11
52.380626
21
23.608351
0
LINE
8
DEFAULT_255_2_778
10
52.380626
20
24.021651
11
52.454926
21
24.021651
0
LINE
8
DEFAULT_255_2_778
10
52.454926
20
24.021651
11
52.454926
21
23.930651
0
LINE
8
DEFAULT_255_2_778
10
52.454926
20
23.930651
11
52.380626
21
23.930651
0
LINE
8
DEFAULT_255_2_778
10
52.380626
20
23.930651
11
52.380626
21
24.021651
0
LINE
8
DEFAULT_255_2_778
10
58.268126
20
23.608351
11
58.342426
21
23.608351
0
LINE
8
DEFAULT_255_2_778
10
58.342426
20
23.608351
11
58.342426
21
22.781551
0
LINE
8
DEFAULT_255_2_778
10
58.342426
20
22.781551
11
58.268126
21
22.781551
0
LINE
8
DEFAULT_255_2_778
10
58.268126
20
22.781551
11
58.268126
21
23.608351
0
LINE
8
DEFAULT_255_2_778
10
58.268126
20
24.021651
11
58.342426
21
24.021651
0
LINE
8
DEFAULT_255_2_778
10
58.342426
20
24.021651
11
58.342426
21
23.930651
0
LINE
8
DEFAULT_255_2_778
10
58.342426
20
23.930651
11
58.268126
21
23.930651
0
LINE
8
DEFAULT_255_2_778
10
58.268126
20
23.930651
11
58.268126
21
24.021651
0
ARC
8
DEFAULT_255_2_778
10
57.8231435
20
23.0997645
40
0.3745106
50
180.3917135
51
220.1597414
0
ARC
8
DEFAULT_255_2_778
10
57.7674737
20
23.0876149
40
0.3252206
50
224.8542922
51
256.711925
0
ARC
8
DEFAULT_255_2_778
10
57.8495814
20
23.3617877
40
0.6111584
50
255.1281457
51
263.9758381
0
ARC
8
DEFAULT_255_2_778
10
57.8971934
20
23.281128
40
0.4720427
50
236.8672777
51
256.3057514
0
ARC
8
DEFAULT_255_2_778
10
57.7884119
20
23.1041378
40
0.2644325
50
182.9987749
51
235.6440403
0
LINE
8
DEFAULT_255_2_778
10
57.4486417
20
24.2092041
11
57.4486417
21
23.6874041
0
LINE
8
DEFAULT_255_2_778
10
57.4486417
20
23.6874041
11
57.1806417
21
23.6874041
0
LINE
8
DEFAULT_255_2_778
10
57.1806417
20
23.6874041
11
57.1806417
21
23.6120041
0
LINE
8
DEFAULT_255_2_778
10
57.1806417
20
23.6120041
11
57.4486417
21
23.6120041
0
LINE
8
DEFAULT_255_2_778
10
57.4486417
20
23.6120041
11
57.4486417
21
23.0972041
0
LINE
8
DEFAULT_255_2_778
10
57.7854417
20
22.7540041
11
57.7854417
21
22.8225041
0
LINE
8
DEFAULT_255_2_778
10
57.5243417
20
23.0903041
11
57.5243417
21
23.6120041
0
LINE
8
DEFAULT_255_2_778
10
57.5243417
20
23.6120041
11
57.7923417
21
23.6120041
0
LINE
8
DEFAULT_255_2_778
10
57.7923417
20
23.6120041
11
57.7923417
21
23.6874041
0
LINE
8
DEFAULT_255_2_778
10
57.7923417
20
23.6874041
11
57.5243417
21
23.6874041
0
LINE
8
DEFAULT_255_2_778
10
57.5243417
20
23.6874041
11
57.5174417
21
24.2092041
0
LINE
8
DEFAULT_255_2_778
10
57.5174417
20
24.2092041
11
57.4486417
21
24.2092041
0
ARC
8
DEFAULT_255_2_778
10
49.8559837
20
23.2078294
40
0.4771429
50
149.985277
51
180.8373726
0
ARC
8
DEFAULT_255_2_778
10
49.6555004
20
23.3371144
40
0.2391583
50
93.3820356
51
152.7801139
0
ARC
8
DEFAULT_255_2_778
10
49.626835
20
23.3359256
40
0.2403718
50
26.5906102
51
86.5280953
0
ARC
8
DEFAULT_255_2_778
10
49.4251455
20
23.2076009
40
0.4787937
50
359.1928578
51
29.5204628
0
ARC
8
DEFAULT_255_2_778
10
49.4266712
20
23.1937884
40
0.4772729
50
330.013377
51
0.8485145
0
ARC
8
DEFAULT_255_2_778
10
49.6274999
20
23.0645791
40
0.2390269
50
273.3318011
51
332.7806049
0
ARC
8
DEFAULT_255_2_778
10
49.6558614
20
23.0659743
40
0.2404538
50
206.5053097
51
266.5500396
0
ARC
8
DEFAULT_255_2_778
10
49.8578857
20
23.1940817
40
0.4790418
50
179.1896992
51
209.4348584
0
ARC
8
DEFAULT_255_2_778
10
49.8520056
20
23.1986444
40
0.547456
50
149.3250708
51
180.7104559
0
ARC
8
DEFAULT_255_2_778
10
49.6565585
20
23.3293555
40
0.3129307
50
92.6314074
51
151.6529876
0
ARC
8
DEFAULT_255_2_778
10
49.6270178
20
23.3273396
40
0.3149823
50
27.3733643
51
87.2387852
0
ARC
8
DEFAULT_255_2_778
10
49.4300849
20
23.1982547
40
0.5497439
50
359.3331159
51
29.8842602
0
ARC
8
DEFAULT_255_2_778
10
49.4327563
20
23.1850616
40
0.5470776
50
329.2647454
51
0.7116293
0
ARC
8
DEFAULT_255_2_778
10
49.6278775
20
23.0543389
40
0.3128103
50
272.6227751
51
331.5806065
0
ARC
8
DEFAULT_255_2_778
10
49.6573668
20
23.0564912
40
0.3150007
50
207.3792701
51
267.2387047
0
ARC
8
DEFAULT_255_2_778
10
49.8540712
20
23.1854777
40
0.5495163
50
179.3349175
51
209.8905429
0
LINE
8
DEFAULT_255_2_778
10
49.3788917
20
23.2008562
11
49.3788917
21
23.2008562
0
LINE
8
DEFAULT_255_2_778
10
49.3045917
20
23.1918562
11
49.3045917
21
23.1918562
0
ARC
8
DEFAULT_255_2_778
10
53.4524441
20
23.2076162
40
0.4769213
50
149.9780729
51
180.8396777
0
ARC
8
DEFAULT_255_2_778
10
53.2521475
20
23.3367913
40
0.2391502
50
93.3736822
51
152.7653844
0
ARC
8
DEFAULT_255_2_778
10
53.2235174
20
23.335517
40
0.2404511
50
26.5606493
51
86.5292545
0
ARC
8
DEFAULT_255_2_778
10
53.0219374
20
23.207369
40
0.4786841
50
359.1929988
51
29.4930044
0
ARC
8
DEFAULT_255_2_778
10
53.0233535
20
23.1935592
40
0.4772729
50
330.013377
51
0.8485145
0
ARC
8
DEFAULT_255_2_778
10
53.2241822
20
23.0643499
40
0.2390269
50
273.3318011
51
332.7806049
0
ARC
8
DEFAULT_255_2_778
10
53.2525437
20
23.0657451
40
0.2404538
50
206.5053097
51
266.5500396
0
ARC
8
DEFAULT_255_2_778
10
53.454568
20
23.1938525
40
0.4790418
50
179.1896992
51
209.4348584
0
ARC
8
DEFAULT_255_2_778
10
53.2728881
20
23.3011356
40
0.3513815
50
96.6865634
51
168.1581071
0
ARC
8
DEFAULT_255_2_778
10
53.6066714
20
23.1780958
40
0.7052244
50
163.9356497
51
178.5432377
0
ARC
8
DEFAULT_255_2_778
10
53.7155317
20
23.170473
40
0.8142576
50
178.201764
51
180.0032325
0
LINE
8
DEFAULT_255_2_778
10
52.901274
20
23.1704271
11
52.9012741
21
23.1700846
0
ARC
8
DEFAULT_255_2_778
10
53.3013279
20
23.1440081
40
0.4009027
50
176.2705927
51
258.143864
0
ARC
8
DEFAULT_255_2_778
10
53.2843977
20
23.1470376
40
0.400758
50
260.6024485
51
263.6644979
0
ARC
8
DEFAULT_255_2_778
10
53.2403319
20
23.0175999
40
0.2688729
50
269.9663556
51
305.5960153
0
ARC
8
DEFAULT_255_2_778
10
53.1298417
20
23.1790647
40
0.4644975
50
305.0854527
51
314.2375131
0
ARC
8
DEFAULT_255_2_778
10
51.2782845
20
25.0612635
40
3.1047454
50
314.4860758
51
315.8175964
0
ARC
8
DEFAULT_255_2_778
10
53.2541727
20
22.6219258
40
0.250992
50
315.0608269
51
356.802757
0
ARC
8
DEFAULT_255_2_778
10
53.2241868
20
22.686699
40
0.3189261
50
266.9421627
51
310.6244619
0
ARC
8
DEFAULT_255_2_778
10
53.3632438
20
22.9138086
40
0.5674654
50
242.4705328
51
254.036223
0
ARC
8
DEFAULT_255_2_778
10
53.1905449
20
22.5920943
40
0.2024044
50
209.420833
51
243.7294412
0
ARC
8
DEFAULT_255_2_778
10
53.3410065
20
22.6611214
40
0.3676277
50
195.528523
51
207.2719338
0
ARC
8
DEFAULT_255_2_778
10
22.0818129
20
13.2143131
40
32.2879307
50
16.829937
51
16.8985936
0
ARC
8
DEFAULT_255_2_778
10
53.2156557
20
22.6180504
40
0.3149152
50
183.3356416
51
244.3730627
0
ARC
8
DEFAULT_255_2_778
10
53.2746168
20
22.8083556
40
0.5128302
50
247.6313373
51
264.9343079
0
ARC
8
DEFAULT_255_2_778
10
53.3267713
20
23.1915367
40
0.8993022
50
263.7799925
51
266.5896028
0
ARC
8
DEFAULT_255_2_778
10
53.2637871
20
22.6063555
40
0.3126724
50
271.7387051
51
340.5443883
0
ARC
8
DEFAULT_255_2_778
10
53.1432373
20
22.6346875
40
0.4359826
50
342.3106557
51
0.833153
0
ARC
8
DEFAULT_255_2_778
10
53.1206152
20
23.2477442
40
0.4590711
50
2.7072061
51
6.0868994
0
ARC
8
DEFAULT_255_2_778
10
53.1939841
20
23.2688451
40
0.3841055
50
4.1171862
51
66.9535022
0
ARC
8
DEFAULT_255_2_778
10
53.1902171
20
23.2332562
40
0.4184595
50
68.3866531
51
84.2730804
0
ARC
8
DEFAULT_255_2_778
10
54.4097554
20
23.0425732
40
0.2839737
50
281.8994048
51
320.6262644
0
ARC
8
DEFAULT_255_2_778
10
54.3823422
20
23.1417519
40
0.3867261
50
269.8565613
51
282.8438106
0
ARC
8
DEFAULT_255_2_778
10
54.3361097
20
23.1113855
40
0.3592217
50
270.0860515
51
277.2388833
0
ARC
8
DEFAULT_255_2_778
10
54.343644
20
23.0623401
40
0.3102546
50
191.0223149
51
268.7081476
0
ARC
8
DEFAULT_255_2_778
10
54.555443
20
23.152451
40
0.5375183
50
189.8035924
51
196.1407437
0
ARC
8
DEFAULT_255_2_778
10
54.417545
20
23.1054647
40
0.3134395
50
189.686355
51
219.6179176
0
ARC
8
DEFAULT_255_2_778
10
54.3560916
20
23.0782667
40
0.2494253
50
223.8105831
51
273.9270819
0
ARC
8
DEFAULT_255_2_778
10
54.3731314
20
23.0833594
40
0.2539323
50
270.0096109
51
270.2786936
0
ARC
8
DEFAULT_255_2_778
10
54.3797277
20
23.0799415
40
0.2505689
50
268.774004
51
355.6479216
0
ARC
8
DEFAULT_255_2_778
10
55.4360257
20
23.3056351
40
0.2041667
50
180.0281175
51
185.4265634
0
ARC
8
DEFAULT_255_2_778
10
55.466703
20
23.2910141
40
0.2352926
50
113.4215202
51
176.4618221
0
ARC
8
DEFAULT_255_2_778
10
55.6600453
20
22.9455932
40
0.6303821
50
91.2426863
51
117.0695736
0
ARC
8
DEFAULT_255_2_778
10
55.829144
20
21.9649067
40
1.6951026
50
96.1898008
51
103.9511182
0
ARC
8
DEFAULT_255_2_778
10
55.5263797
20
23.153707
40
0.4684308
50
103.0678938
51
121.245304
0
ARC
8
DEFAULT_255_2_778
10
55.3577158
20
23.4333151
40
0.1418947
50
121.5819317
51
151.451387
0
LINE
8
DEFAULT_255_2_778
10
52.975574
20
23.2006271
11
52.975574
21
23.2006271
0
LINE
8
DEFAULT_255_2_778
10
53.504774
20
22.8974271
11
53.504774
21
22.6079271
0
LINE
8
DEFAULT_255_2_778
10
52.975574
20
22.5997271
11
52.901274
21
22.5997271
0
LINE
8
DEFAULT_255_2_778
10
53.579174
20
22.6410271
11
53.579174
21
23.2694271
0
LINE
8
DEFAULT_255_2_778
10
53.231974
20
23.6496271
11
53.231974
21
23.6501271
0
LINE
8
DEFAULT_255_2_778
10
54.703574
20
22.7881271
11
54.629274
21
22.7881271
0
LINE
8
DEFAULT_255_2_778
10
54.629274
20
22.7881271
11
54.629274
21
22.8624271
0
LINE
8
DEFAULT_255_2_778
10
54.025774
20
23.0609271
11
54.025774
21
23.6149271
0
LINE
8
DEFAULT_255_2_778
10
54.025774
20
23.6149271
11
54.108574
21
23.6149271
0
LINE
8
DEFAULT_255_2_778
10
54.108574
20
23.6149271
11
54.108574
21
23.0527271
0
LINE
8
DEFAULT_255_2_778
10
54.629574
20
23.0609271
11
54.629574
21
23.6149271
0
LINE
8
DEFAULT_255_2_778
10
54.629574
20
23.6149271
11
54.706574
21
23.6173271
0
LINE
8
DEFAULT_255_2_778
10
54.706574
20
23.6173271
11
54.703874
21
22.7881271
0
LINE
8
DEFAULT_255_2_778
10
54.703874
20
22.7881271
11
54.703574
21
22.7881271
0
LINE
8
DEFAULT_255_2_778
10
55.158474
20
23.6170271
11
55.158474
21
22.7820271
0
LINE
8
DEFAULT_255_2_778
10
55.158474
20
22.7820271
11
55.232774
21
22.7820271
0
LINE
8
DEFAULT_255_2_778
10
55.232774
20
22.7820271
11
55.232774
21
23.2863271
0
LINE
8
DEFAULT_255_2_778
10
55.646374
20
23.5758271
11
55.646374
21
23.6501271
0
LINE
8
DEFAULT_255_2_778
10
55.233074
20
23.5011271
11
55.233074
21
23.6168271
0
LINE
8
DEFAULT_255_2_778
10
55.233074
20
23.6168271
11
55.158474
21
23.6170271
0
LINE
8
DEFAULT_255_2_778
10
66.7118097
20
9.6653175
11
66.7118097
21
7.8469175
0
LINE
8
DEFAULT_255_2_778
10
66.7118097
20
9.6257175
11
68.5078097
21
9.6257175
0
LINE
8
DEFAULT_255_2_778
10
68.5078097
20
9.6257175
11
68.5078097
21
21.3467175
0
LINE
8
DEFAULT_255_2_778
10
66.7118097
20
9.2468175
11
68.9153097
21
9.2468175
0
LINE
8
DEFAULT_255_2_778
10
68.9153097
20
9.2468175
11
68.9153097
21
9.2277175
0
LINE
8
DEFAULT_255_2_778
10
68.9153097
20
9.2277175
11
69.3508097
21
9.2277175
0
LINE
8
DEFAULT_255_2_778
10
68.9509645
20
21.3466873
11
68.9509645
21
9.2276873
0
LINE
8
DEFAULT_255_2_778
10
68.8890645
20
10.4085873
11
68.5077645
21
10.7897873
0
LINE
8
DEFAULT_255_2_778
10
68.8890645
20
9.2467873
11
68.8890645
21
10.4082873
0
LINE
8
DEFAULT_255_2_778
10
68.8890645
20
10.4082873
11
68.5077645
21
10.4082873
0
LINE
8
DEFAULT_255_2_778
10
3.1937645
20
21.3466873
11
3.1937645
21
9.6256873
0
LINE
8
DEFAULT_255_2_778
10
3.1937645
20
9.6256873
11
4.9897645
21
9.6256873
0
LINE
8
DEFAULT_255_2_778
10
2.7508645
20
9.2276873
11
2.7508645
21
21.3466873
0
LINE
8
DEFAULT_255_2_778
10
4.9897974
20
21.3466498
11
4.9897974
21
7.8465498
0
LINE
8
DEFAULT_255_2_778
10
5.0024974
20
9.3708498
11
5.0024974
21
20.9936498
0
LINE
8
DEFAULT_255_2_778
10
5.0024974
20
20.9936498
11
41.0569974
21
20.9936498
0
LINE
8
DEFAULT_255_2_778
10
41.0569974
20
20.9936498
11
41.0569974
21
7.8465498
0
ARC
8
DEFAULT_255_2_778
10
7.9256172
20
14.9519518
40
2.0087201
50
156.5711449
51
180.098458
0
ARC
8
DEFAULT_255_2_778
10
7.9188786
20
14.9527356
40
2.0022264
50
100.1969768
51
156.5150524
0
ARC
8
DEFAULT_255_2_778
10
7.9224784
20
14.9210707
40
2.0340295
50
89.9712226
51
100.1388726
0
ARC
8
DEFAULT_255_2_778
10
7.9269442
20
14.9465106
40
2.0085923
50
66.5693287
51
90.0982465
0
ARC
8
DEFAULT_255_2_778
10
7.9276278
20
14.9530241
40
2.0023451
50
10.1984339
51
66.5131642
0
ARC
8
DEFAULT_255_2_778
10
7.8963291
20
14.9495183
40
2.0337712
50
359.9713109
51
10.1395175
0
ARC
8
DEFAULT_255_2_778
10
7.9213822
20
14.94504
40
2.0087208
50
336.5700845
51
0.0986899
0
ARC
8
DEFAULT_255_2_778
10
7.9281108
20
14.9442861
40
2.0022483
50
280.1964141
51
336.5133195
0
ARC
8
DEFAULT_255_2_778
10
7.9245184
20
14.9758731
40
2.0339734
50
269.9713149
51
280.1385001
0
ARC
8
DEFAULT_255_2_778
10
7.9200325
20
14.9507456
40
2.0088486
50
246.5719007
51
270.0989013
0
ARC
8
DEFAULT_255_2_778
10
7.9191783
20
14.9437919
40
2.0021296
50
190.194957
51
246.5152077
0
ARC
8
DEFAULT_255_2_778
10
7.9511315
20
14.9474784
40
2.0342317
50
179.9712266
51
190.1378553
0
LINE
8
DEFAULT_255_2_778
10
5.9169001
20
14.9484999
11
5.9169001
21
14.9484999
0
ARC
8
DEFAULT_255_2_778
10
28.2454894
20
14.9519441
40
2.0085923
50
156.5693287
51
180.0982465
0
ARC
8
DEFAULT_255_2_778
10
28.2389759
20
14.9526277
40
2.0023451
50
100.1984339
51
156.5131642
0
ARC
8
DEFAULT_255_2_778
10
28.2424817
20
14.921329
40
2.0337712
50
89.9713109
51
100.1395175
0
ARC
8
DEFAULT_255_2_778
10
28.24696
20
14.9463821
40
2.0087208
50
66.5700845
51
90.0986899
0
ARC
8
DEFAULT_255_2_778
10
28.2477139
20
14.9531107
40
2.0022483
50
10.1964141
51
66.5133195
0
ARC
8
DEFAULT_255_2_778
10
28.2161269
20
14.9495183
40
2.0339734
50
359.9713149
51
10.1385001
0
ARC
8
DEFAULT_255_2_778
10
28.2412544
20
14.9450324
40
2.0088486
50
336.5719007
51
0.0989013
0
ARC
8
DEFAULT_255_2_778
10
28.2482081
20
14.9441782
40
2.0021296
50
280.194957
51
336.5152077
0
ARC
8
DEFAULT_255_2_778
10
28.2445216
20
14.9761314
40
2.0342317
50
269.9712266
51
280.1378553
0
ARC
8
DEFAULT_255_2_778
10
28.2400482
20
14.9506171
40
2.0087201
50
246.5711449
51
270.098458
0
ARC
8
DEFAULT_255_2_778
10
28.2392644
20
14.9438785
40
2.0022264
50
190.1969768
51
246.5150524
0
ARC
8
DEFAULT_255_2_778
10
28.2709293
20
14.9474783
40
2.0340295
50
179.9712226
51
190.1388726
0
LINE
8
DEFAULT_255_2_778
10
26.2369001
20
14.9484999
11
26.2369001
21
14.9484999
0
ARC
8
DEFAULT_255_2_778
10
33.3256172
20
14.9519518
40
2.0087201
50
156.5711449
51
180.098458
0
ARC
8
DEFAULT_255_2_778
10
33.3188786
20
14.9527356
40
2.0022264
50
100.1969768
51
156.5150524
0
ARC
8
DEFAULT_255_2_778
10
33.3224784
20
14.9210707
40
2.0340295
50
89.9712226
51
100.1388726
0
ARC
8
DEFAULT_255_2_778
10
33.32696
20
14.9463821
40
2.0087208
50
66.5700845
51
90.0986899
0
ARC
8
DEFAULT_255_2_778
10
33.3277139
20
14.9531107
40
2.0022483
50
10.1964141
51
66.5133195
0
ARC
8
DEFAULT_255_2_778
10
33.2961269
20
14.9495183
40
2.0339734
50
359.9713149
51
10.1385001
0
ARC
8
DEFAULT_255_2_778
10
33.3212544
20
14.9450324
40
2.0088486
50
336.5719007
51
0.0989013
0
ARC
8
DEFAULT_255_2_778
10
33.3282081
20
14.9441782
40
2.0021296
50
280.194957
51
336.5152077
0
ARC
8
DEFAULT_255_2_778
10
33.3245216
20
14.9761314
40
2.0342317
50
269.9712266
51
280.1378553
0
ARC
8
DEFAULT_255_2_778
10
33.3200325
20
14.9507456
40
2.0088486
50
246.5719007
51
270.0989013
0
ARC
8
DEFAULT_255_2_778
10
33.3191783
20
14.9437919
40
2.0021296
50
190.194957
51
246.5152077
0
ARC
8
DEFAULT_255_2_778
10
33.3511315
20
14.9474784
40
2.0342317
50
179.9712266
51
190.1378553
0
LINE
8
DEFAULT_255_2_778
10
31.3169001
20
14.9484999
11
31.3169001
21
14.9484999
0
ARC
8
DEFAULT_255_2_778
10
18.0854894
20
14.9519441
40
2.0085923
50
156.5693287
51
180.0982465
0
ARC
8
DEFAULT_255_2_778
10
18.0789759
20
14.9526277
40
2.0023451
50
100.1984339
51
156.5131642
0
ARC
8
DEFAULT_255_2_778
10
18.0824817
20
14.921329
40
2.0337712
50
89.9713109
51
100.1395175
0
ARC
8
DEFAULT_255_2_778
10
18.0869442
20
14.9465106
40
2.0085923
50
66.5693287
51
90.0982465
0
ARC
8
DEFAULT_255_2_778
10
18.0876278
20
14.9530241
40
2.0023451
50
10.1984339
51
66.5131642
0
ARC
8
DEFAULT_255_2_778
10
18.0563291
20
14.9495183
40
2.0337712
50
359.9713109
51
10.1395175
0
ARC
8
DEFAULT_255_2_778
10
18.0813822
20
14.94504
40
2.0087208
50
336.5700845
51
0.0986899
0
ARC
8
DEFAULT_255_2_778
10
18.0881108
20
14.9442861
40
2.0022483
50
280.1964141
51
336.5133195
0
ARC
8
DEFAULT_255_2_778
10
18.0845184
20
14.9758731
40
2.0339734
50
269.9713149
51
280.1385001
0
ARC
8
DEFAULT_255_2_778
10
18.0800482
20
14.9506171
40
2.0087201
50
246.5711449
51
270.098458
0
ARC
8
DEFAULT_255_2_778
10
18.0792644
20
14.9438785
40
2.0022264
50
190.1969768
51
246.5150524
0
ARC
8
DEFAULT_255_2_778
10
18.1109293
20
14.9474783
40
2.0340295
50
179.9712226
51
190.1388726
0
LINE
8
DEFAULT_255_2_778
10
16.0769001
20
14.9484999
11
16.0769001
21
14.9484999
0
ARC
8
DEFAULT_255_2_778
10
23.1656172
20
14.9519518
40
2.0087201
50
156.5711449
51
180.098458
0
ARC
8
DEFAULT_255_2_778
10
23.1588786
20
14.9527356
40
2.0022264
50
100.1969768
51
156.5150524
0
ARC
8
DEFAULT_255_2_778
10
23.1624784
20
14.9210707
40
2.0340295
50
89.9712226
51
100.1388726
0
ARC
8
DEFAULT_255_2_778
10
23.1669442
20
14.9465106
40
2.0085923
50
66.5693287
51
90.0982465
0
ARC
8
DEFAULT_255_2_778
10
23.1676278
20
14.9530241
40
2.0023451
50
10.1984339
51
66.5131642
0
ARC
8
DEFAULT_255_2_778
10
23.1363291
20
14.9495183
40
2.0337712
50
359.9713109
51
10.1395175
0
ARC
8
DEFAULT_255_2_778
10
23.1613822
20
14.94504
40
2.0087208
50
336.5700845
51
0.0986899
0
ARC
8
DEFAULT_255_2_778
10
23.1681108
20
14.9442861
40
2.0022483
50
280.1964141
51
336.5133195
0
ARC
8
DEFAULT_255_2_778
10
23.1645184
20
14.9758731
40
2.0339734
50
269.9713149
51
280.1385001
0
ARC
8
DEFAULT_255_2_778
10
23.1600325
20
14.9507456
40
2.0088486
50
246.5719007
51
270.0989013
0
ARC
8
DEFAULT_255_2_778
10
23.1591783
20
14.9437919
40
2.0021296
50
190.194957
51
246.5152077
0
ARC
8
DEFAULT_255_2_778
10
23.1911315
20
14.9474784
40
2.0342317
50
179.9712266
51
190.1378553
0
LINE
8
DEFAULT_255_2_778
10
21.1569001
20
14.9484999
11
21.1569001
21
14.9484999
0
ARC
8
DEFAULT_255_2_778
10
13.0054894
20
14.9519441
40
2.0085923
50
156.5693287
51
180.0982465
0
ARC
8
DEFAULT_255_2_778
10
12.9989759
20
14.9526277
40
2.0023451
50
100.1984339
51
156.5131642
0
ARC
8
DEFAULT_255_2_778
10
13.0024817
20
14.921329
40
2.0337712
50
89.9713109
51
100.1395175
0
ARC
8
DEFAULT_255_2_778
10
13.00696
20
14.9463821
40
2.0087208
50
66.5700845
51
90.0986899
0
ARC
8
DEFAULT_255_2_778
10
13.0077139
20
14.9531107
40
2.0022483
50
10.1964141
51
66.5133195
0
ARC
8
DEFAULT_255_2_778
10
12.9761269
20
14.9495183
40
2.0339734
50
359.9713149
51
10.1385001
0
ARC
8
DEFAULT_255_2_778
10
13.0012544
20
14.9450324
40
2.0088486
50
336.5719007
51
0.0989013
0
ARC
8
DEFAULT_255_2_778
10
13.0082081
20
14.9441782
40
2.0021296
50
280.194957
51
336.5152077
0
ARC
8
DEFAULT_255_2_778
10
13.0045216
20
14.9761314
40
2.0342317
50
269.9712266
51
280.1378553
0
ARC
8
DEFAULT_255_2_778
10
13.0000482
20
14.9506171
40
2.0087201
50
246.5711449
51
270.098458
0
ARC
8
DEFAULT_255_2_778
10
12.9992644
20
14.9438785
40
2.0022264
50
190.1969768
51
246.5150524
0
ARC
8
DEFAULT_255_2_778
10
13.0309293
20
14.9474783
40
2.0340295
50
179.9712226
51
190.1388726
0
LINE
8
DEFAULT_255_2_778
10
10.9969001
20
14.9484999
11
10.9969001
21
14.9484999
0
ARC
8
DEFAULT_255_2_778
10
38.4186894
20
14.9519441
40
2.0085923
50
156.5693287
51
180.0982465
0
ARC
8
DEFAULT_255_2_778
10
38.4121759
20
14.9526277
40
2.0023451
50
100.1984339
51
156.5131642
0
ARC
8
DEFAULT_255_2_778
10
38.4156817
20
14.921329
40
2.0337712
50
89.9713109
51
100.1395175
0
ARC
8
DEFAULT_255_2_778
10
38.42016
20
14.9463821
40
2.0087208
50
66.5700845
51
90.0986899
0
ARC
8
DEFAULT_255_2_778
10
38.4209139
20
14.9531107
40
2.0022483
50
10.1964141
51
66.5133195
0
ARC
8
DEFAULT_255_2_778
10
38.3893269
20
14.9495183
40
2.0339734
50
359.9713149
51
10.1385001
0
ARC
8
DEFAULT_255_2_778
10
38.4144544
20
14.9450324
40
2.0088486
50
336.5719007
51
0.0989013
0
ARC
8
DEFAULT_255_2_778
10
38.4214081
20
14.9441782
40
2.0021296
50
280.194957
51
336.5152077
0
ARC
8
DEFAULT_255_2_778
10
38.4177216
20
14.9761314
40
2.0342317
50
269.9712266
51
280.1378553
0
ARC
8
DEFAULT_255_2_778
10
38.4132482
20
14.9506171
40
2.0087201
50
246.5711449
51
270.098458
0
ARC
8
DEFAULT_255_2_778
10
38.4124644
20
14.9438785
40
2.0022264
50
190.1969768
51
246.5150524
0
ARC
8
DEFAULT_255_2_778
10
38.4441293
20
14.9474783
40
2.0340295
50
179.9712226
51
190.1388726
0
LINE
8
DEFAULT_255_2_778
10
36.4101001
20
14.9484999
11
36.4101001
21
14.9484999
0
LINE
8
DEFAULT_255_2_778
10
42.9584993
20
20.7418811
11
64.8614993
21
20.7418811
0
LINE
8
DEFAULT_255_2_778
10
64.8614993
20
20.7418811
11
64.8614993
21
9.9420811
0
LINE
8
DEFAULT_255_2_778
10
64.8614993
20
9.9420811
11
42.9584993
21
9.9420811
0
LINE
8
DEFAULT_255_2_778
10
42.9584993
20
9.9420811
11
42.9584993
21
20.7418811
0
LINE
8
DEFAULT_255_2_778
10
45.9622993
20
12.179429
11
62.1904993
21
12.179429
0
LINE
8
DEFAULT_255_2_778
10
62.1904993
20
12.179429
11
62.1904993
21
9.942029
0
LINE
8
DEFAULT_255_2_778
10
47.0989993
20
12.179429
11
47.0989993
21
9.942029
0
LINE
8
DEFAULT_255_2_778
10
42.9584993
20
18.883929
11
64.8614993
21
18.883929
0
LINE
8
DEFAULT_255_2_778
10
58.5982993
20
12.179429
11
58.5982993
21
9.942029
0
LINE
8
DEFAULT_255_2_778
10
57.8756993
20
12.177829
11
57.8756993
21
9.942029
0
LINE
8
DEFAULT_255_2_778
10
55.7247033
20
12.1942573
11
55.7247033
21
9.9421573
0
LINE
8
DEFAULT_255_2_778
10
52.1187033
20
12.1942573
11
52.1187033
21
9.9421573
0
LINE
8
DEFAULT_255_2_778
10
49.9676033
20
12.1942573
11
49.9676033
21
9.9421573
0
LINE
8
DEFAULT_255_2_778
10
47.8166033
20
12.1942573
11
47.8166033
21
9.9421573
0
LINE
8
DEFAULT_255_2_778
10
53.5686033
20
12.1794573
11
53.5686033
21
9.9421573
0
LINE
8
DEFAULT_255_2_778
10
51.4012033
20
12.1794573
11
51.4012033
21
9.9421573
0
LINE
8
DEFAULT_255_2_778
10
49.2501033
20
12.1794573
11
49.2501033
21
9.9421573
0
LINE
8
DEFAULT_255_2_778
10
56.4473033
20
12.1794573
11
56.4473033
21
9.9421573
0
LINE
8
DEFAULT_255_2_778
10
45.9682033
20
12.1889573
11
45.9682033
21
9.9516573
0
LINE
8
DEFAULT_255_2_778
10
54.2862033
20
12.1937573
11
54.2862033
21
9.9564573
0
LINE
8
DEFAULT_255_2_778
10
60.0409033
20
12.1722573
11
60.0409033
21
9.9400573
0
LINE
8
DEFAULT_255_2_778
10
60.7518033
20
12.1886573
11
60.7518033
21
9.9397573
0
LINE
8
DEFAULT_255_2_778
10
21.1092096
20
25.0453291
11
40.2632096
21
25.0453291
0
LINE
8
DEFAULT_255_2_778
10
40.2632096
20
25.0453291
11
40.2632096
21
21.9454291
0
LINE
8
DEFAULT_255_2_778
10
40.2632096
20
21.9454291
11
21.1092096
21
21.9454291
0
LINE
8
DEFAULT_255_2_778
10
21.1092096
20
21.9454291
11
21.1092096
21
25.0453291
0
LINE
8
DEFAULT_255_2_778
10
21.2092253
20
24.9452489
11
40.1639253
21
24.9452489
0
LINE
8
DEFAULT_255_2_778
10
40.1639253
20
24.9452489
11
40.1639253
21
22.0451489
0
LINE
8
DEFAULT_255_2_778
10
40.1639253
20
22.0451489
11
21.2092253
21
22.0451489
0
LINE
8
DEFAULT_255_2_778
10
21.2092253
20
22.0451489
11
21.2092253
21
24.9452489
0
LINE
8
DEFAULT_255_2_778
10
24.3686438
20
23.4676635
11
24.0694438
21
23.4639635
0
LINE
8
DEFAULT_255_2_778
10
24.0694438
20
23.4639635
11
24.0715438
21
23.7647635
0
LINE
8
DEFAULT_255_2_778
10
24.0715438
20
23.7647635
11
23.9979438
21
23.7639635
0
LINE
8
DEFAULT_255_2_778
10
23.9979438
20
23.7639635
11
23.9979438
21
23.4639635
0
LINE
8
DEFAULT_255_2_778
10
23.9979438
20
23.4639635
11
23.6979438
21
23.4639635
0
LINE
8
DEFAULT_255_2_778
10
23.6979438
20
23.4639635
11
23.6995438
21
23.3842635
0
LINE
8
DEFAULT_255_2_778
10
23.6995438
20
23.3842635
11
23.9945438
21
23.3890635
0
LINE
8
DEFAULT_255_2_778
10
23.9945438
20
23.3890635
11
23.9971438
21
23.0866635
0
LINE
8
DEFAULT_255_2_778
10
23.9971438
20
23.0866635
11
24.0715438
21
23.0866635
0
LINE
8
DEFAULT_255_2_778
10
24.0715438
20
23.0866635
11
24.0694438
21
23.3890635
0
LINE
8
DEFAULT_255_2_778
10
24.0694438
20
23.3890635
11
24.3694438
21
23.3890635
0
LINE
8
DEFAULT_255_2_778
10
24.3694438
20
23.3890635
11
24.3691438
21
23.4670635
0
LINE
8
DEFAULT_255_2_778
10
29.4615354
20
23.426274
11
28.7506354
21
23.426274
0
LINE
8
DEFAULT_255_2_778
10
28.7506354
20
23.426274
11
28.7506354
21
23.351974
0
LINE
8
DEFAULT_255_2_778
10
28.7506354
20
23.351974
11
29.4623354
21
23.352174
0
LINE
8
DEFAULT_255_2_778
10
29.4623354
20
23.352174
11
29.4615354
21
23.426274
0
ARC
8
DEFAULT_255_2_778
10
22.744589
20
23.290363
40
0.4822798
50
278.654749
51
295.2346676
0
ARC
8
DEFAULT_255_2_778
10
22.8201025
20
23.1307653
40
0.3057193
50
295.1847459
51
323.3097105
0
ARC
8
DEFAULT_255_2_778
10
22.8056986
20
23.1368209
40
0.3209096
50
323.979311
51
340.6018379
0
ARC
8
DEFAULT_255_2_778
10
22.6415554
20
23.1922912
40
0.4941631
50
340.8564039
51
352.4748543
0
ARC
8
DEFAULT_255_2_778
10
22.7909706
20
23.8268864
40
0.3434121
50
7.4771628
51
85.575614
0
ARC
8
DEFAULT_255_2_778
10
22.8308317
20
23.106105
40
0.3676438
50
273.0296222
51
296.8326353
0
ARC
8
DEFAULT_255_2_778
10
22.8238726
20
23.1043223
40
0.3692609
50
297.9210942
51
329.3921793
0
ARC
8
DEFAULT_255_2_778
10
22.7514352
20
23.1552892
40
0.4576095
50
328.5177424
51
331.1329721
0
ARC
8
DEFAULT_255_2_778
10
22.7112327
20
23.1762316
40
0.5029283
50
331.25473
51
342.7485136
0
ARC
8
DEFAULT_255_2_778
10
22.7569391
20
23.1638593
40
0.4556123
50
342.5297825
51
350.170033
0
ARC
8
DEFAULT_255_2_778
10
22.7848132
20
23.8212868
40
0.4292273
50
11.202375
51
64.4743092
0
ARC
8
DEFAULT_255_2_778
10
22.814005
20
23.9064838
40
0.3399252
50
62.7260878
51
78.6880903
0
ARC
8
DEFAULT_255_2_778
10
22.8408353
20
24.0312855
40
0.2122931
50
79.1817738
51
89.6687768
0
LINE
8
DEFAULT_255_2_778
10
22.5276625
20
24.169575
11
22.5276625
21
22.813575
0
LINE
8
DEFAULT_255_2_778
10
22.5276625
20
22.813575
11
22.8171625
21
22.813575
0
LINE
8
DEFAULT_255_2_778
10
23.1314625
20
23.127575
11
23.1314625
21
23.871575
0
LINE
8
DEFAULT_255_2_778
10
22.8174625
20
24.169275
11
22.5276625
21
24.169575
0
LINE
8
DEFAULT_255_2_778
10
22.4533625
20
24.243875
11
22.4533625
21
22.738975
0
LINE
8
DEFAULT_255_2_778
10
22.4533625
20
22.738975
11
22.8502625
21
22.738975
0
LINE
8
DEFAULT_255_2_778
10
23.2058625
20
23.086075
11
23.2058625
21
23.904675
0
LINE
8
DEFAULT_255_2_778
10
22.8420625
20
24.243575
11
22.4533625
21
24.243875
0
ARC
8
DEFAULT_255_2_778
10
27.796489
20
23.290363
40
0.4822798
50
278.654749
51
295.2346676
0
ARC
8
DEFAULT_255_2_778
10
27.8720025
20
23.1307653
40
0.3057193
50
295.1847459
51
323.3097105
0
ARC
8
DEFAULT_255_2_778
10
27.8575986
20
23.1368209
40
0.3209096
50
323.979311
51
340.6018379
0
ARC
8
DEFAULT_255_2_778
10
27.6934554
20
23.1922912
40
0.4941631
50
340.8564039
51
352.4748543
0
ARC
8
DEFAULT_255_2_778
10
27.8428706
20
23.8268864
40
0.3434121
50
7.4771628
51
85.575614
0
ARC
8
DEFAULT_255_2_778
10
27.8827317
20
23.106105
40
0.3676438
50
273.0296222
51
296.8326353
0
ARC
8
DEFAULT_255_2_778
10
27.8757726
20
23.1043223
40
0.3692609
50
297.9210942
51
329.3921793
0
ARC
8
DEFAULT_255_2_778
10
27.8033352
20
23.1552892
40
0.4576095
50
328.5177424
51
331.1329721
0
ARC
8
DEFAULT_255_2_778
10
27.7631327
20
23.1762316
40
0.5029283
50
331.25473
51
342.7485136
0
ARC
8
DEFAULT_255_2_778
10
27.8088391
20
23.1638593
40
0.4556123
50
342.5297825
51
350.170033
0
ARC
8
DEFAULT_255_2_778
10
27.8367132
20
23.8212868
40
0.4292273
50
11.202375
51
64.4743092
0
ARC
8
DEFAULT_255_2_778
10
27.865905
20
23.9064838
40
0.3399252
50
62.7260878
51
78.6880903
0
ARC
8
DEFAULT_255_2_778
10
27.8927353
20
24.0312855
40
0.2122931
50
79.1817738
51
89.6687768
0
LINE
8
DEFAULT_255_2_778
10
27.5795625
20
24.169575
11
27.5795625
21
22.813575
0
LINE
8
DEFAULT_255_2_778
10
27.5795625
20
22.813575
11
27.8690625
21
22.813575
0
LINE
8
DEFAULT_255_2_778
10
28.1833625
20
23.127575
11
28.1833625
21
23.871575
0
LINE
8
DEFAULT_255_2_778
10
27.8693625
20
24.169275
11
27.5795625
21
24.169575
0
LINE
8
DEFAULT_255_2_778
10
27.5052625
20
24.243875
11
27.5052625
21
22.738975
0
LINE
8
DEFAULT_255_2_778
10
27.5052625
20
22.738975
11
27.9021625
21
22.738975
0
LINE
8
DEFAULT_255_2_778
10
28.2577625
20
23.086075
11
28.2577625
21
23.904675
0
LINE
8
DEFAULT_255_2_778
10
27.8939625
20
24.243575
11
27.5052625
21
24.243875
0
LINE
8
DEFAULT_255_2_778
10
34.2042438
20
23.4644635
11
33.9050438
21
23.4607635
0
LINE
8
DEFAULT_255_2_778
10
33.9050438
20
23.4607635
11
33.9071438
21
23.7615635
0
LINE
8
DEFAULT_255_2_778
10
33.9071438
20
23.7615635
11
33.8335438
21
23.7607635
0
LINE
8
DEFAULT_255_2_778
10
33.8335438
20
23.7607635
11
33.8335438
21
23.4607635
0
LINE
8
DEFAULT_255_2_778
10
33.8335438
20
23.4607635
11
33.5335438
21
23.4607635
0
LINE
8
DEFAULT_255_2_778
10
33.5335438
20
23.4607635
11
33.5351438
21
23.3810635
0
LINE
8
DEFAULT_255_2_778
10
33.5351438
20
23.3810635
11
33.8301438
21
23.3858635
0
LINE
8
DEFAULT_255_2_778
10
33.8301438
20
23.3858635
11
33.8327438
21
23.0834635
0
LINE
8
DEFAULT_255_2_778
10
33.8327438
20
23.0834635
11
33.9071438
21
23.0834635
0
LINE
8
DEFAULT_255_2_778
10
33.9071438
20
23.0834635
11
33.9050438
21
23.3858635
0
LINE
8
DEFAULT_255_2_778
10
33.9050438
20
23.3858635
11
34.2050438
21
23.3858635
0
LINE
8
DEFAULT_255_2_778
10
34.2050438
20
23.3858635
11
34.2047438
21
23.4638635
0
LINE
8
DEFAULT_255_2_778
10
39.2977222
20
23.422874
11
38.5868222
21
23.422874
0
LINE
8
DEFAULT_255_2_778
10
38.5868222
20
23.422874
11
38.5868222
21
23.348574
0
LINE
8
DEFAULT_255_2_778
10
38.5868222
20
23.348574
11
39.2986222
21
23.348774
0
LINE
8
DEFAULT_255_2_778
10
39.2986222
20
23.348774
11
39.2977222
21
23.422874
0
ARC
8
DEFAULT_255_2_778
10
37.9920554
20
22.9629951
40
0.1370785
50
271.6117649
51
298.7535599
0
ARC
8
DEFAULT_255_2_778
10
37.9602156
20
23.0320751
40
0.2130234
50
297.3234164
51
302.3886062
0
ARC
8
DEFAULT_255_2_778
10
37.8734228
20
23.1497267
40
0.3590106
50
304.0278028
51
327.2954859
0
ARC
8
DEFAULT_255_2_778
10
37.7116978
20
23.2622984
40
0.5559687
50
326.5385857
51
349.7520272
0
ARC
8
DEFAULT_255_2_778
10
37.694026
20
23.2673657
40
0.574263
50
349.5681958
51
350.5592591
0
ARC
8
DEFAULT_255_2_778
10
37.8138586
20
23.1690856
40
0.4466711
50
0.5240342
51
9.1882966
0
ARC
8
DEFAULT_255_2_778
10
37.6805946
20
23.1506636
40
0.581175
50
8.883279
51
19.5672572
0
ARC
8
DEFAULT_255_2_778
10
37.9265732
20
23.2651663
40
0.3120975
50
14.879077
51
74.2313824
0
ARC
8
DEFAULT_255_2_778
10
37.9599342
20
23.3134756
40
0.2572412
50
78.4620727
51
85.6354118
0
ARC
8
DEFAULT_255_2_778
10
38.0523027
20
23.2663682
40
0.3122069
50
103.4827216
51
139.3675683
0
ARC
8
DEFAULT_255_2_778
10
38.0910181
20
23.2375469
40
0.3603722
50
139.898453
51
166.0822161
0
ARC
8
DEFAULT_255_2_778
10
38.1125824
20
23.2287891
40
0.3834243
50
165.5870149
51
179.8251076
0
ARC
8
DEFAULT_255_2_778
10
38.054266
20
23.2294216
40
0.3251065
50
179.905205
51
187.040881
0
ARC
8
DEFAULT_255_2_778
10
38.1674672
20
23.1845045
40
0.4358857
50
179.3340347
51
215.575281
0
ARC
8
DEFAULT_255_2_778
10
38.0091998
20
23.0607055
40
0.2352935
50
213.4766057
51
266.8355191
0
ARC
8
DEFAULT_255_2_778
10
37.8846452
20
23.1885503
40
0.4660841
50
300.3374788
51
320.4659695
0
ARC
8
DEFAULT_255_2_778
10
37.9416105
20
23.0770367
40
0.3411429
50
284.7727406
51
301.5400802
0
ARC
8
DEFAULT_255_2_778
10
37.994116
20
22.8861098
40
0.1431544
50
270.8385267
51
283.9377225
0
ARC
8
DEFAULT_255_2_778
10
38.0138704
20
23.067108
40
0.3246179
50
231.4397642
51
266.8815341
0
ARC
8
DEFAULT_255_2_778
10
38.0902248
20
23.1500774
40
0.4371637
50
200.4940347
51
230.3928258
0
ARC
8
DEFAULT_255_2_778
10
38.1476459
20
23.1811714
40
0.5019179
50
188.9983791
51
201.5240242
0
ARC
8
DEFAULT_255_2_778
10
38.0184806
20
23.1608405
40
0.3711622
50
180.3203839
51
189.0171377
0
ARC
8
DEFAULT_255_2_778
10
37.8953307
20
23.1596153
40
0.2480078
50
173.5441648
51
180.1964312
0
ARC
8
DEFAULT_255_2_778
10
37.8473342
20
23.1642525
40
0.1997958
50
172.806584
51
173.3179725
0
ARC
8
DEFAULT_255_2_778
10
37.9507441
20
23.2216636
40
0.3033675
50
179.8553249
51
186.1295802
0
ARC
8
DEFAULT_255_2_778
10
38.0851698
20
23.219182
40
0.4378043
50
167.8590774
51
179.5749724
0
ARC
8
DEFAULT_255_2_778
10
38.1718393
20
23.2030065
40
0.5259427
50
160.7150404
51
168.122101
0
ARC
8
DEFAULT_255_2_778
10
38.0655701
20
23.2584473
40
0.4076908
50
112.2561945
51
163.1375931
0
ARC
8
DEFAULT_255_2_778
10
38.0236856
20
23.3187563
40
0.3363881
50
97.4943687
51
109.5432327
0
ARC
8
DEFAULT_255_2_778
10
37.976435
20
23.3754809
40
0.2768105
50
53.0297446
51
89.3012016
0
ARC
8
DEFAULT_255_2_778
10
37.8766012
20
23.2259297
40
0.4564478
50
47.7824895
51
54.3074746
0
ARC
8
DEFAULT_255_2_778
10
37.5274262
20
22.8490882
40
0.9701781
50
43.4843056
51
47.4646849
0
ARC
8
DEFAULT_255_2_778
10
39.2349967
20
24.4853841
40
1.3948513
50
223.9838437
51
224.7510079
0
LINE
8
DEFAULT_255_2_778
10
37.996211
20
22.8257708
11
37.995911
21
22.8259708
0
LINE
8
DEFAULT_255_2_778
10
38.326711
20
24.2150708
11
38.326711
21
22.7762708
0
LINE
8
DEFAULT_255_2_778
10
38.326711
20
22.7762708
11
38.244111
21
22.7762708
0
LINE
8
DEFAULT_255_2_778
10
38.244111
20
22.7762708
11
38.244111
21
22.8918708
0
LINE
8
DEFAULT_255_2_778
10
38.244411
20
23.5033708
11
38.244411
21
24.2142708
0
LINE
8
DEFAULT_255_2_778
10
38.244411
20
24.2142708
11
38.326711
21
24.2150708
0
ARC
8
DEFAULT_255_2_778
10
32.9412554
20
22.9711951
40
0.1370785
50
271.6117649
51
298.7535599
0
ARC
8
DEFAULT_255_2_778
10
32.9094156
20
23.0402751
40
0.2130234
50
297.3234164
51
302.3886062
0
ARC
8
DEFAULT_255_2_778
10
32.8226228
20
23.1579267
40
0.3590106
50
304.0278028
51
327.2954859
0
ARC
8
DEFAULT_255_2_778
10
32.6608978
20
23.2704984
40
0.5559687
50
326.5385857
51
349.7520272
0
ARC
8
DEFAULT_255_2_778
10
32.643226
20
23.2755657
40
0.574263
50
349.5681958
51
350.5592591
0
ARC
8
DEFAULT_255_2_778
10
32.7630586
20
23.1772856
40
0.4466711
50
0.5240342
51
9.1882966
0
ARC
8
DEFAULT_255_2_778
10
32.6297946
20
23.1588636
40
0.581175
50
8.883279
51
19.5672572
0
ARC
8
DEFAULT_255_2_778
10
32.8757732
20
23.2733663
40
0.3120975
50
14.879077
51
74.2313824
0
ARC
8
DEFAULT_255_2_778
10
32.9091342
20
23.3216756
40
0.2572412
50
78.4620727
51
85.6354118
0
ARC
8
DEFAULT_255_2_778
10
33.0015027
20
23.2745682
40
0.3122069
50
103.4827216
51
139.3675683
0
ARC
8
DEFAULT_255_2_778
10
33.0402181
20
23.2457469
40
0.3603722
50
139.898453
51
166.0822161
0
ARC
8
DEFAULT_255_2_778
10
33.0617824
20
23.2369891
40
0.3834243
50
165.5870149
51
179.8251076
0
ARC
8
DEFAULT_255_2_778
10
33.003466
20
23.2376216
40
0.3251065
50
179.905205
51
187.040881
0
ARC
8
DEFAULT_255_2_778
10
33.1166672
20
23.1927045
40
0.4358857
50
179.3340347
51
215.575281
0
ARC
8
DEFAULT_255_2_778
10
32.9583998
20
23.0689055
40
0.2352935
50
213.4766057
51
266.8355191
0
ARC
8
DEFAULT_255_2_778
10
32.8338452
20
23.1967503
40
0.4660841
50
300.3374788
51
320.4659695
0
ARC
8
DEFAULT_255_2_778
10
32.8908105
20
23.0852367
40
0.3411429
50
284.7727406
51
301.5400802
0
ARC
8
DEFAULT_255_2_778
10
32.943316
20
22.8943098
40
0.1431544
50
270.8385267
51
283.9377225
0
ARC
8
DEFAULT_255_2_778
10
32.9630704
20
23.075308
40
0.3246179
50
231.4397642
51
266.8815341
0
ARC
8
DEFAULT_255_2_778
10
33.0394248
20
23.1582774
40
0.4371637
50
200.4940347
51
230.3928258
0
ARC
8
DEFAULT_255_2_778
10
33.0968459
20
23.1893714
40
0.5019179
50
188.9983791
51
201.5240242
0
ARC
8
DEFAULT_255_2_778
10
32.9676806
20
23.1690405
40
0.3711622
50
180.3203839
51
189.0171377
0
ARC
8
DEFAULT_255_2_778
10
32.8445307
20
23.1678153
40
0.2480078
50
173.5441648
51
180.1964312
0
ARC
8
DEFAULT_255_2_778
10
32.7965342
20
23.1724525
40
0.1997958
50
172.806584
51
173.3179725
0
ARC
8
DEFAULT_255_2_778
10
32.8999441
20
23.2298636
40
0.3033675
50
179.8553249
51
186.1295802
0
ARC
8
DEFAULT_255_2_778
10
33.0343698
20
23.227382
40
0.4378043
50
167.8590774
51
179.5749724
0
ARC
8
DEFAULT_255_2_778
10
33.1210393
20
23.2112065
40
0.5259427
50
160.7150404
51
168.122101
0
ARC
8
DEFAULT_255_2_778
10
33.0147701
20
23.2666473
40
0.4076908
50
112.2561945
51
163.1375931
0
ARC
8
DEFAULT_255_2_778
10
32.9728856
20
23.3269563
40
0.3363881
50
97.4943687
51
109.5432327
0
ARC
8
DEFAULT_255_2_778
10
32.925635
20
23.3836809
40
0.2768105
50
53.0297446
51
89.3012016
0
ARC
8
DEFAULT_255_2_778
10
32.8258012
20
23.2341297
40
0.4564478
50
47.7824895
51
54.3074746
0
ARC
8
DEFAULT_255_2_778
10
32.4766262
20
22.8572882
40
0.9701781
50
43.4843056
51
47.4646849
0
ARC
8
DEFAULT_255_2_778
10
34.1841967
20
24.4935841
40
1.3948513
50
223.9838437
51
224.7510079
0
LINE
8
DEFAULT_255_2_778
10
32.945411
20
22.8339708
11
32.945111
21
22.8341708
0
LINE
8
DEFAULT_255_2_778
10
33.275911
20
24.2232708
11
33.275911
21
22.7844708
0
LINE
8
DEFAULT_255_2_778
10
33.275911
20
22.7844708
11
33.193311
21
22.7844708
0
LINE
8
DEFAULT_255_2_778
10
33.193311
20
22.7844708
11
33.193311
21
22.9000708
0
LINE
8
DEFAULT_255_2_778
10
33.193611
20
23.5115708
11
33.193611
21
24.2224708
0
LINE
8
DEFAULT_255_2_778
10
33.193611
20
24.2224708
11
33.275911
21
24.2232708
0
LINE
8
DEFAULT_255_2_778
10
13.7509073
20
29.3465927
11
15.7509073
21
29.3465927
0
LINE
8
DEFAULT_255_2_778
10
15.7509073
20
29.3465927
11
15.7509073
21
27.3465927
0
LINE
8
DEFAULT_255_2_778
10
15.7509073
20
27.3465927
11
13.7509073
21
27.3465927
0
LINE
8
DEFAULT_255_2_778
10
13.7509073
20
27.3465927
11
13.7509073
21
29.3465927
0
LINE
8
DEFAULT_255_2_778
10
10.4508073
20
29.3465927
11
12.4508073
21
29.3465927
0
LINE
8
DEFAULT_255_2_778
10
12.4508073
20
29.3465927
11
12.4508073
21
27.3465927
0
LINE
8
DEFAULT_255_2_778
10
12.4508073
20
27.3465927
11
10.4508073
21
27.3465927
0
LINE
8
DEFAULT_255_2_778
10
10.4508073
20
27.3465927
11
10.4508073
21
29.3465927
0
LINE
8
DEFAULT_255_2_778
10
7.1509073
20
29.3465927
11
9.1509073
21
29.3465927
0
LINE
8
DEFAULT_255_2_778
10
9.1509073
20
29.3465927
11
9.1509073
21
27.3465927
0
LINE
8
DEFAULT_255_2_778
10
9.1509073
20
27.3465927
11
7.1509073
21
27.3465927
0
LINE
8
DEFAULT_255_2_778
10
7.1509073
20
27.3465927
11
7.1509073
21
29.3465927
0
LINE
8
DEFAULT_255_2_778
10
23.6508073
20
29.3465927
11
25.6508073
21
29.3465927
0
LINE
8
DEFAULT_255_2_778
10
25.6508073
20
29.3465927
11
25.6508073
21
27.3465927
0
LINE
8
DEFAULT_255_2_778
10
25.6508073
20
27.3465927
11
23.6508073
21
27.3465927
0
LINE
8
DEFAULT_255_2_778
10
23.6508073
20
27.3465927
11
23.6508073
21
29.3465927
0
LINE
8
DEFAULT_255_2_778
10
20.3507073
20
29.3465927
11
22.3507073
21
29.3465927
0
LINE
8
DEFAULT_255_2_778
10
22.3507073
20
29.3465927
11
22.3507073
21
27.3465927
0
LINE
8
DEFAULT_255_2_778
10
22.3507073
20
27.3465927
11
20.3507073
21
27.3465927
0
LINE
8
DEFAULT_255_2_778
10
20.3507073
20
27.3465927
11
20.3507073
21
29.3465927
0
LINE
8
DEFAULT_255_2_778
10
17.0508073
20
29.3465927
11
19.0508073
21
29.3465927
0
LINE
8
DEFAULT_255_2_778
10
19.0508073
20
29.3465927
11
19.0508073
21
27.3465927
0
LINE
8
DEFAULT_255_2_778
10
19.0508073
20
27.3465927
11
17.0508073
21
27.3465927
0
LINE
8
DEFAULT_255_2_778
10
17.0508073
20
27.3465927
11
17.0508073
21
29.3465927
0
LINE
8
DEFAULT_255_2_778
10
30.2509073
20
29.3465927
11
32.2509073
21
29.3465927
0
LINE
8
DEFAULT_255_2_778
10
32.2509073
20
29.3465927
11
32.2509073
21
27.3465927
0
LINE
8
DEFAULT_255_2_778
10
32.2509073
20
27.3465927
11
30.2509073
21
27.3465927
0
LINE
8
DEFAULT_255_2_778
10
30.2509073
20
27.3465927
11
30.2509073
21
29.3465927
0
LINE
8
DEFAULT_255_2_778
10
26.9510073
20
29.3465927
11
28.9510073
21
29.3465927
0
LINE
8
DEFAULT_255_2_778
10
28.9510073
20
29.3465927
11
28.9510073
21
27.3465927
0
LINE
8
DEFAULT_255_2_778
10
28.9510073
20
27.3465927
11
26.9510073
21
27.3465927
0
LINE
8
DEFAULT_255_2_778
10
26.9510073
20
27.3465927
11
26.9510073
21
29.3465927
0
LINE
8
DEFAULT_255_2_778
10
71.4510166
20
28.7132
11
69.1509166
21
28.7132
0
LINE
8
DEFAULT_255_2_778
10
2.5508166
20
28.7132
11
0.2508166
21
28.7132
0
LINE
8
DEFAULT_255_2_778
10
66.1725219
20
29.1566323
11
66.4887219
21
28.0330323
0
LINE
8
DEFAULT_255_2_778
10
66.4887219
20
28.0330323
11
65.8566219
21
28.0330323
0
LINE
8
DEFAULT_255_2_778
10
65.8566219
20
28.0330323
11
66.1725219
21
29.1566323
0
LINE
8
DEFAULT_255_2_778
10
66.6684219
20
27.4937323
11
66.7597219
21
27.4937323
0
LINE
8
DEFAULT_255_2_778
10
66.7597219
20
27.4937323
11
66.2178219
21
29.2466323
0
LINE
8
DEFAULT_255_2_778
10
66.2178219
20
29.2466323
11
66.1276219
21
29.2466323
0
LINE
8
DEFAULT_255_2_778
10
66.1276219
20
29.2466323
11
65.5857219
21
27.4937323
0
LINE
8
DEFAULT_255_2_778
10
65.5857219
20
27.4937323
11
65.6727219
21
27.4937323
0
LINE
8
DEFAULT_255_2_778
10
65.6727219
20
27.4937323
11
65.8114219
21
27.9433323
0
LINE
8
DEFAULT_255_2_778
10
65.8114219
20
27.9433323
11
66.5340219
21
27.9433323
0
LINE
8
DEFAULT_255_2_778
10
66.5340219
20
27.9433323
11
66.6684219
21
27.4937323
0
ARC
8
DEFAULT_255_2_778
10
48.4431009
20
28.8584337
40
0.4842016
50
325.7209802
51
335.397579
0
ARC
8
DEFAULT_255_2_778
10
48.5562254
20
28.8070199
40
0.3599424
50
335.3419362
51
348.4897384
0
ARC
8
DEFAULT_255_2_778
10
48.6151645
20
28.7941271
40
0.2996172
50
348.6566037
51
359.9131369
0
ARC
8
DEFAULT_255_2_778
10
48.6106442
20
28.7905636
40
0.3041529
50
0.5857379
51
34.8563271
0
ARC
8
DEFAULT_255_2_778
10
48.4974407
20
28.7170058
40
0.4391075
50
34.290347
51
49.9490141
0
ARC
8
DEFAULT_255_2_778
10
48.4642549
20
28.6822397
40
0.4870835
50
49.5923713
51
58.6691889
0
ARC
8
DEFAULT_255_2_778
10
48.5437386
20
28.8158337
40
0.3316442
50
58.3974871
51
66.5909876
0
ARC
8
DEFAULT_255_2_778
10
48.6327445
20
29.0250501
40
0.1042966
50
65.799866
51
78.4097069
0
ARC
8
DEFAULT_255_2_778
10
48.5450525
20
28.6776047
40
0.4625558
50
76.4152879
51
88.2522243
0
ARC
8
DEFAULT_255_2_778
10
48.5497109
20
28.7537967
40
0.3862644
50
88.598188
51
89.9948234
0
ARC
8
DEFAULT_255_2_778
10
48.546013
20
28.8235475
40
0.3165356
50
89.3243305
51
145.0564069
0
ARC
8
DEFAULT_255_2_778
10
48.7775204
20
28.64525
40
0.6085803
50
143.7803307
51
160.1593517
0
ARC
8
DEFAULT_255_2_778
10
49.0880813
20
28.5192863
40
0.9435497
50
159.3650319
51
163.1798379
0
ARC
8
DEFAULT_255_2_778
10
48.5851953
20
28.7545994
40
0.521263
50
145.0505799
51
175.8502356
0
ARC
8
DEFAULT_255_2_778
10
48.5466459
20
28.7804143
40
0.4748784
50
90.2667345
51
144.9391281
0
ARC
8
DEFAULT_255_2_778
10
48.5444175
20
28.7921862
40
0.4631013
50
81.4414226
51
89.9978099
0
ARC
8
DEFAULT_255_2_778
10
48.5421494
20
28.7804989
40
0.4749961
50
65.2825691
51
81.380681
0
ARC
8
DEFAULT_255_2_778
10
48.5339827
20
28.7609012
40
0.4962137
50
63.7182518
51
65.3721929
0
ARC
8
DEFAULT_255_2_778
10
48.5683724
20
28.766705
40
0.4766213
50
46.2017944
51
67.1180386
0
ARC
8
DEFAULT_255_2_778
10
48.5939282
20
28.7984939
40
0.4360036
50
11.7189718
51
45.7344856
0
ARC
8
DEFAULT_255_2_778
10
48.560606
20
28.7887931
40
0.4706094
50
8.0772875
51
12.0514025
0
ARC
8
DEFAULT_255_2_778
10
48.5516875
20
28.7875991
40
0.4796071
50
359.992443
51
8.0688071
0
ARC
8
DEFAULT_255_2_778
10
48.579005
20
28.7850441
40
0.4522965
50
336.9172504
51
0.3156524
0
ARC
8
DEFAULT_255_2_778
10
48.6844072
20
28.7417321
40
0.3383551
50
322.5992801
51
336.6667063
0
LINE
8
DEFAULT_255_2_778
10
48.9828989
20
27.45322
11
48.0750989
21
27.45322
0
LINE
8
DEFAULT_255_2_778
10
48.0750989
20
27.45322
11
48.0750989
21
27.55172
0
LINE
8
DEFAULT_255_2_778
10
48.0750989
20
27.55172
11
48.8431989
21
28.58572
0
LINE
8
DEFAULT_255_2_778
10
48.1848989
20
28.79232
11
48.0652989
21
28.79232
0
LINE
8
DEFAULT_255_2_778
10
48.9531989
20
28.53622
11
48.2247989
21
27.55142
0
LINE
8
DEFAULT_255_2_778
10
48.2247989
20
27.55142
11
48.9830989
21
27.55142
0
LINE
8
DEFAULT_255_2_778
10
48.9830989
20
27.55142
11
48.9828989
21
27.45322
0
ARC
8
DEFAULT_255_2_778
10
60.0516709
20
28.8420225
40
0.4844311
50
325.7294432
51
335.4036029
0
ARC
8
DEFAULT_255_2_778
10
60.1648497
20
28.7905979
40
0.3601181
50
335.3480342
51
348.4925267
0
ARC
8
DEFAULT_255_2_778
10
60.2238255
20
28.7777011
40
0.2997562
50
348.6592269
51
359.9131347
0
ARC
8
DEFAULT_255_2_778
10
60.2194061
20
28.774152
40
0.3041909
50
0.582908
51
34.8273111
0
ARC
8
DEFAULT_255_2_778
10
60.1062901
20
28.7006983
40
0.4390161
50
34.265502
51
49.947425
0
ARC
8
DEFAULT_255_2_778
10
60.0730757
20
28.6659127
40
0.4870257
50
49.5897997
51
58.6679078
0
ARC
8
DEFAULT_255_2_778
10
60.1525583
20
28.7995004
40
0.3315922
50
58.3959585
51
66.5908056
0
ARC
8
DEFAULT_255_2_778
10
60.2415445
20
29.0086686
40
0.1042967
50
65.799862
51
78.4097046
0
ARC
8
DEFAULT_255_2_778
10
60.1538525
20
28.6612233
40
0.4625558
50
76.4152879
51
88.2522243
0
ARC
8
DEFAULT_255_2_778
10
60.1585109
20
28.7374154
40
0.3862644
50
88.598188
51
89.9948234
0
ARC
8
DEFAULT_255_2_778
10
60.154813
20
28.8071662
40
0.3165356
50
89.3243305
51
145.0564069
0
ARC
8
DEFAULT_255_2_778
10
60.3863204
20
28.6288686
40
0.6085803
50
143.7803307
51
160.1593517
0
ARC
8
DEFAULT_255_2_778
10
60.6968813
20
28.5029049
40
0.9435497
50
159.3650319
51
163.1798379
0
ARC
8
DEFAULT_255_2_778
10
60.1940853
20
28.7382054
40
0.5213537
50
145.0551106
51
175.8495654
0
ARC
8
DEFAULT_255_2_778
10
60.1554367
20
28.7641238
40
0.4748283
50
90.2701096
51
144.9474696
0
ARC
8
DEFAULT_255_2_778
10
60.1531799
20
28.7760546
40
0.4628923
50
81.4328244
51
89.9977269
0
ARC
8
DEFAULT_255_2_778
10
60.1509057
20
28.7643303
40
0.4748249
50
65.2672636
51
81.3722232
0
ARC
8
DEFAULT_255_2_778
10
60.1425863
20
28.7444296
40
0.4963813
50
63.7025368
51
65.3561268
0
ARC
8
DEFAULT_255_2_778
10
60.1771724
20
28.7503236
40
0.4766213
50
46.2017944
51
67.1180386
0
ARC
8
DEFAULT_255_2_778
10
60.2027282
20
28.7821125
40
0.4360036
50
11.7189718
51
45.7344856
0
ARC
8
DEFAULT_255_2_778
10
60.169406
20
28.7724117
40
0.4706094
50
8.0772875
51
12.0514025
0
ARC
8
DEFAULT_255_2_778
10
60.1604875
20
28.7712177
40
0.4796071
50
359.992443
51
8.0688071
0
ARC
8
DEFAULT_255_2_778
10
60.187805
20
28.7686627
40
0.4522965
50
336.9172504
51
0.3156524
0
ARC
8
DEFAULT_255_2_778
10
60.2932072
20
28.7253507
40
0.3383551
50
322.5992801
51
336.6667063
0
LINE
8
DEFAULT_255_2_778
10
60.5916989
20
27.4368386
11
59.6838989
21
27.4368386
0
LINE
8
DEFAULT_255_2_778
10
59.6838989
20
27.4368386
11
59.6838989
21
27.5352386
0
LINE
8
DEFAULT_255_2_778
10
59.6838989
20
27.5352386
11
60.4519989
21
28.5692386
0
LINE
8
DEFAULT_255_2_778
10
59.7936989
20
28.7759386
11
59.6740989
21
28.7759386
0
LINE
8
DEFAULT_255_2_778
10
60.5619989
20
28.5198386
11
59.8335989
21
27.5350386
0
LINE
8
DEFAULT_255_2_778
10
59.8335989
20
27.5350386
11
60.5918989
21
27.5350386
0
LINE
8
DEFAULT_255_2_778
10
60.5918989
20
27.5350386
11
60.5916989
21
27.4368386
0
ARC
8
DEFAULT_255_2_778
10
58.5665709
20
28.8420225
40
0.4844311
50
325.7294432
51
335.4036029
0
ARC
8
DEFAULT_255_2_778
10
58.6797497
20
28.7905979
40
0.3601181
50
335.3480342
51
348.4925267
0
ARC
8
DEFAULT_255_2_778
10
58.7387255
20
28.7777011
40
0.2997562
50
348.6592269
51
359.9131347
0
ARC
8
DEFAULT_255_2_778
10
58.7343061
20
28.774152
40
0.3041909
50
0.582908
51
34.8273111
0
ARC
8
DEFAULT_255_2_778
10
58.6211901
20
28.7006983
40
0.4390161
50
34.265502
51
49.947425
0
ARC
8
DEFAULT_255_2_778
10
58.5879757
20
28.6659127
40
0.4870257
50
49.5897997
51
58.6679078
0
ARC
8
DEFAULT_255_2_778
10
58.6674583
20
28.7995004
40
0.3315922
50
58.3959585
51
66.5908056
0
ARC
8
DEFAULT_255_2_778
10
58.7564445
20
29.0086686
40
0.1042967
50
65.799862
51
78.4097046
0
ARC
8
DEFAULT_255_2_778
10
58.6687525
20
28.6612233
40
0.4625558
50
76.4152879
51
88.2522243
0
ARC
8
DEFAULT_255_2_778
10
58.6734109
20
28.7374154
40
0.3862644
50
88.598188
51
89.9948234
0
ARC
8
DEFAULT_255_2_778
10
58.669713
20
28.8071662
40
0.3165356
50
89.3243305
51
145.0564069
0
ARC
8
DEFAULT_255_2_778
10
58.9012204
20
28.6288686
40
0.6085803
50
143.7803307
51
160.1593517
0
ARC
8
DEFAULT_255_2_778
10
59.2117813
20
28.5029049
40
0.9435497
50
159.3650319
51
163.1798379
0
ARC
8
DEFAULT_255_2_778
10
58.7089853
20
28.7382054
40
0.5213537
50
145.0551106
51
175.8495654
0
ARC
8
DEFAULT_255_2_778
10
58.6703367
20
28.7641238
40
0.4748283
50
90.2701096
51
144.9474696
0
ARC
8
DEFAULT_255_2_778
10
58.6680799
20
28.7760546
40
0.4628923
50
81.4328244
51
89.9977269
0
ARC
8
DEFAULT_255_2_778
10
58.6658057
20
28.7643303
40
0.4748249
50
65.2672636
51
81.3722232
0
ARC
8
DEFAULT_255_2_778
10
58.6574863
20
28.7444296
40
0.4963813
50
63.7025368
51
65.3561268
0
ARC
8
DEFAULT_255_2_778
10
58.6920724
20
28.7503236
40
0.4766213
50
46.2017944
51
67.1180386
0
ARC
8
DEFAULT_255_2_778
10
58.7176282
20
28.7821125
40
0.4360036
50
11.7189718
51
45.7344856
0
ARC
8
DEFAULT_255_2_778
10
58.684306
20
28.7724117
40
0.4706094
50
8.0772875
51
12.0514025
0
ARC
8
DEFAULT_255_2_778
10
58.6753875
20
28.7712177
40
0.4796071
50
359.992443
51
8.0688071
0
ARC
8
DEFAULT_255_2_778
10
58.702705
20
28.7686627
40
0.4522965
50
336.9172504
51
0.3156524
0
ARC
8
DEFAULT_255_2_778
10
58.8081072
20
28.7253507
40
0.3383551
50
322.5992801
51
336.6667063
0
LINE
8
DEFAULT_255_2_778
10
59.1065989
20
27.4368386
11
58.1987989
21
27.4368386
0
LINE
8
DEFAULT_255_2_778
10
58.1987989
20
27.4368386
11
58.1987989
21
27.5352386
0
LINE
8
DEFAULT_255_2_778
10
58.1987989
20
27.5352386
11
58.9668989
21
28.5692386
0
LINE
8
DEFAULT_255_2_778
10
58.3085989
20
28.7759386
11
58.1889989
21
28.7759386
0
LINE
8
DEFAULT_255_2_778
10
59.0768989
20
28.5198386
11
58.3484989
21
27.5350386
0
LINE
8
DEFAULT_255_2_778
10
58.3484989
20
27.5350386
11
59.1067989
21
27.5350386
0
LINE
8
DEFAULT_255_2_778
10
59.1067989
20
27.5350386
11
59.1065989
21
27.4368386
0
ARC
8
DEFAULT_255_2_778
10
68.8954698
20
28.3583124
40
1.600006
50
166.549388
51
180.2336209
0
ARC
8
DEFAULT_255_2_778
10
68.4176854
20
28.4768719
40
1.107757
50
152.0357631
51
166.7651459
0
ARC
8
DEFAULT_255_2_778
10
67.9659741
20
28.7234201
40
0.5932056
50
130.3695565
51
152.6099518
0
ARC
8
DEFAULT_255_2_778
10
67.7731451
20
28.9532468
40
0.2932131
50
91.2639907
51
130.7504323
0
ARC
8
DEFAULT_255_2_778
10
67.7531356
20
28.9279864
40
0.3186899
50
40.1592942
51
87.5646991
0
ARC
8
DEFAULT_255_2_778
10
67.458781
20
28.6461924
40
0.7258339
50
23.0580089
51
42.1748877
0
ARC
8
DEFAULT_255_2_778
10
66.9640828
20
28.4259672
40
1.2672953
50
9.2028598
51
23.4593158
0
ARC
8
DEFAULT_255_2_778
10
66.5818233
20
28.3547096
40
1.6560564
50
359.8989369
51
9.5213493
0
ARC
8
DEFAULT_255_2_778
10
66.6401792
20
28.3450581
40
1.597712
50
346.3562166
51
0.2413629
0
ARC
8
DEFAULT_255_2_778
10
67.1282573
20
28.2219602
40
1.0943794
50
331.4757095
51
346.5914979
0
ARC
8
DEFAULT_255_2_778
10
67.5809195
20
27.9691057
40
0.5759491
50
309.1183873
51
332.0727402
0
ARC
8
DEFAULT_255_2_778
10
67.7610412
20
27.7466464
40
0.2897128
50
271.1146719
51
309.2387702
0
ARC
8
DEFAULT_255_2_778
10
67.7802451
20
27.775337
40
0.3186375
50
220.1530999
51
267.5595329
0
ARC
8
DEFAULT_255_2_778
10
68.0748009
20
28.0573077
40
0.726048
50
203.0584617
51
222.1719896
0
ARC
8
DEFAULT_255_2_778
10
68.5695971
20
28.277582
40
1.2676187
50
189.2035998
51
203.4597779
0
ARC
8
DEFAULT_255_2_778
10
68.9519272
20
28.3488597
40
1.6564527
50
179.8986943
51
189.5221368
0
ARC
8
DEFAULT_255_2_778
10
68.9652029
20
28.3639758
40
1.5707396
50
167.4527266
51
180.2402841
0
ARC
8
DEFAULT_255_2_778
10
68.4375547
20
28.4864023
40
1.0291081
50
153.332137
51
167.7240664
0
ARC
8
DEFAULT_255_2_778
10
67.9632862
20
28.7311044
40
0.4954983
50
131.4954805
51
154.0041356
0
ARC
8
DEFAULT_255_2_778
10
67.7817457
20
28.9384361
40
0.219928
50
91.5030006
51
131.8587926
0
ARC
8
DEFAULT_255_2_778
10
67.7628957
20
28.9137892
40
0.244849
50
37.8996291
51
86.9374374
0
ARC
8
DEFAULT_255_2_778
10
67.4683558
20
28.6500557
40
0.6398506
50
21.3757779
51
40.3341175
0
ARC
8
DEFAULT_255_2_778
10
66.9390335
20
28.4316018
40
1.2124291
50
8.443802
51
21.8718599
0
ARC
8
DEFAULT_255_2_778
10
66.5247145
20
28.3602397
40
1.632765
50
359.8999485
51
8.7859541
0
ARC
8
DEFAULT_255_2_778
10
66.5867513
20
28.3508012
40
1.5707396
50
347.4527266
51
0.2402841
0
ARC
8
DEFAULT_255_2_778
10
67.1143995
20
28.2283748
40
1.0291081
50
333.332137
51
347.7240664
0
ARC
8
DEFAULT_255_2_778
10
67.588668
20
27.9836727
40
0.4954983
50
311.4954805
51
334.0041356
0
ARC
8
DEFAULT_255_2_778
10
67.7702085
20
27.776341
40
0.219928
50
271.5030006
51
311.8587926
0
ARC
8
DEFAULT_255_2_778
10
67.7890585
20
27.8009878
40
0.244849
50
217.8996291
51
266.9374374
0
ARC
8
DEFAULT_255_2_778
10
68.0835984
20
28.0647213
40
0.6398506
50
201.3757779
51
220.3341175
0
ARC
8
DEFAULT_255_2_778
10
68.6129207
20
28.2831752
40
1.2124291
50
188.443802
51
201.8718599
0
ARC
8
DEFAULT_255_2_778
10
69.0272397
20
28.3545373
40
1.632765
50
179.8999485
51
188.7859541
0
LINE
8
DEFAULT_255_2_778
10
67.2954771
20
28.3517885
11
67.2954771
21
28.3517885
0
LINE
8
DEFAULT_255_2_778
10
67.3944771
20
28.3573885
11
67.3944771
21
28.3573885
0
ARC
8
DEFAULT_255_2_778
10
64.2604698
20
28.3583124
40
1.600006
50
166.549388
51
180.2336209
0
ARC
8
DEFAULT_255_2_778
10
63.7826854
20
28.4768719
40
1.107757
50
152.0357631
51
166.7651459
0
ARC
8
DEFAULT_255_2_778
10
63.3309741
20
28.7234201
40
0.5932056
50
130.3695565
51
152.6099518
0
ARC
8
DEFAULT_255_2_778
10
63.1381451
20
28.9532468
40
0.2932131
50
91.2639907
51
130.7504323
0
ARC
8
DEFAULT_255_2_778
10
63.1181356
20
28.9279864
40
0.3186899
50
40.1592942
51
87.5646991
0
ARC
8
DEFAULT_255_2_778
10
62.823781
20
28.6461924
40
0.7258339
50
23.0580089
51
42.1748877
0
ARC
8
DEFAULT_255_2_778
10
62.3290828
20
28.4259672
40
1.2672953
50
9.2028598
51
23.4593158
0
ARC
8
DEFAULT_255_2_778
10
61.9468233
20
28.3547096
40
1.6560564
50
359.8989369
51
9.5213493
0
ARC
8
DEFAULT_255_2_778
10
62.0051792
20
28.3450581
40
1.597712
50
346.3562166
51
0.2413629
0
ARC
8
DEFAULT_255_2_778
10
62.4932573
20
28.2219602
40
1.0943794
50
331.4757095
51
346.5914979
0
ARC
8
DEFAULT_255_2_778
10
62.9459195
20
27.9691057
40
0.5759491
50
309.1183873
51
332.0727402
0
ARC
8
DEFAULT_255_2_778
10
63.1260412
20
27.7466464
40
0.2897128
50
271.1146719
51
309.2387702
0
ARC
8
DEFAULT_255_2_778
10
63.1452451
20
27.775337
40
0.3186375
50
220.1530999
51
267.5595329
0
ARC
8
DEFAULT_255_2_778
10
63.4398009
20
28.0573077
40
0.726048
50
203.0584617
51
222.1719896
0
ARC
8
DEFAULT_255_2_778
10
63.9345971
20
28.277582
40
1.2676187
50
189.2035998
51
203.4597779
0
ARC
8
DEFAULT_255_2_778
10
64.3169272
20
28.3488597
40
1.6564527
50
179.8986943
51
189.5221368
0
ARC
8
DEFAULT_255_2_778
10
64.3302029
20
28.3639758
40
1.5707396
50
167.4527266
51
180.2402841
0
ARC
8
DEFAULT_255_2_778
10
63.8025547
20
28.4864023
40
1.0291081
50
153.332137
51
167.7240664
0
ARC
8
DEFAULT_255_2_778
10
63.3282862
20
28.7311044
40
0.4954983
50
131.4954805
51
154.0041356
0
ARC
8
DEFAULT_255_2_778
10
63.1467457
20
28.9384361
40
0.219928
50
91.5030006
51
131.8587926
0
ARC
8
DEFAULT_255_2_778
10
63.1278957
20
28.9137892
40
0.244849
50
37.8996291
51
86.9374374
0
ARC
8
DEFAULT_255_2_778
10
62.8333558
20
28.6500557
40
0.6398506
50
21.3757779
51
40.3341175
0
ARC
8
DEFAULT_255_2_778
10
62.3040335
20
28.4316018
40
1.2124291
50
8.443802
51
21.8718599
0
ARC
8
DEFAULT_255_2_778
10
61.8897145
20
28.3602397
40
1.632765
50
359.8999485
51
8.7859541
0
ARC
8
DEFAULT_255_2_778
10
61.9517513
20
28.3508012
40
1.5707396
50
347.4527266
51
0.2402841
0
ARC
8
DEFAULT_255_2_778
10
62.4793995
20
28.2283748
40
1.0291081
50
333.332137
51
347.7240664
0
ARC
8
DEFAULT_255_2_778
10
62.953668
20
27.9836727
40
0.4954983
50
311.4954805
51
334.0041356
0
ARC
8
DEFAULT_255_2_778
10
63.1352085
20
27.776341
40
0.219928
50
271.5030006
51
311.8587926
0
ARC
8
DEFAULT_255_2_778
10
63.1540585
20
27.8009878
40
0.244849
50
217.8996291
51
266.9374374
0
ARC
8
DEFAULT_255_2_778
10
63.4485984
20
28.0647213
40
0.6398506
50
201.3757779
51
220.3341175
0
ARC
8
DEFAULT_255_2_778
10
63.9779207
20
28.2831752
40
1.2124291
50
188.443802
51
201.8718599
0
ARC
8
DEFAULT_255_2_778
10
64.3922397
20
28.3545373
40
1.632765
50
179.8999485
51
188.7859541
0
LINE
8
DEFAULT_255_2_778
10
62.6604771
20
28.3517885
11
62.6604771
21
28.3517885
0
LINE
8
DEFAULT_255_2_778
10
62.7594771
20
28.3573885
11
62.7594771
21
28.3573885
0
ARC
8
DEFAULT_255_2_778
10
50.08565
20
28.7408592
40
0.5191728
50
148.2816413
51
173.8999726
0
ARC
8
DEFAULT_255_2_778
10
50.0584797
20
28.7515645
40
0.4904596
50
90.3382341
51
147.6767037
0
ARC
8
DEFAULT_255_2_778
10
50.0587697
20
28.7634462
40
0.4785798
50
89.996438
51
90.3813516
0
ARC
8
DEFAULT_255_2_778
10
50.0618099
20
28.7886806
40
0.4533556
50
50.4939272
51
90.3804672
0
ARC
8
DEFAULT_255_2_778
10
50.059584
20
28.7883128
40
0.4550579
50
45.0430128
51
50.3071462
0
ARC
8
DEFAULT_255_2_778
10
49.8411205
20
28.6424516
40
0.7144964
50
36.0732816
51
40.9071359
0
ARC
8
DEFAULT_255_2_778
10
49.8908758
20
28.6789659
40
0.6527807
50
32.1519366
51
36.0542948
0
ARC
8
DEFAULT_255_2_778
10
49.9561127
20
28.7182318
40
0.5766544
50
20.2267693
51
32.2982754
0
ARC
8
DEFAULT_255_2_778
10
50.0174323
20
28.7411635
40
0.5111882
50
5.2780176
51
20.1912246
0
ARC
8
DEFAULT_255_2_778
10
50.0323026
20
28.7431907
40
0.4961949
50
0.0017092
51
5.2028737
0
ARC
8
DEFAULT_255_2_778
10
50.0290289
20
28.7434875
40
0.4994686
50
337.6849192
51
359.9676544
0
ARC
8
DEFAULT_255_2_778
10
50.0712551
20
28.7234971
40
0.4528211
50
319.5977228
51
337.9961884
0
ARC
8
DEFAULT_255_2_778
10
50.1796372
20
28.6316766
40
0.3107735
50
306.0782894
51
319.5377327
0
ARC
8
DEFAULT_255_2_778
10
50.2515568
20
28.5324591
40
0.1882322
50
290.894912
51
306.170186
0
ARC
8
DEFAULT_255_2_778
10
50.2799037
20
28.4576255
40
0.1082101
50
270.9071237
51
291.0045394
0
ARC
8
DEFAULT_255_2_778
10
50.1337965
20
27.9956265
40
0.3834409
50
41.8061517
51
67.3245979
0
ARC
8
DEFAULT_255_2_778
10
50.0766374
20
27.9644487
40
0.4470782
50
0.1587221
51
39.90102
0
ARC
8
DEFAULT_255_2_778
10
49.9325877
20
27.9467394
40
0.5914297
50
359.9969593
51
1.8359234
0
ARC
8
DEFAULT_255_2_778
10
49.9026972
20
27.9469731
40
0.6213202
50
338.013763
51
359.9755486
0
ARC
8
DEFAULT_255_2_778
10
50.0972653
20
27.8650647
40
0.410249
50
320.197859
51
338.4478822
0
ARC
8
DEFAULT_255_2_778
10
50.2301226
20
27.7588629
40
0.2402212
50
308.9441989
51
319.3734073
0
ARC
8
DEFAULT_255_2_778
10
50.000808
20
28.0387535
40
0.6020522
50
275.9716949
51
309.1747395
0
ARC
8
DEFAULT_255_2_778
10
50.0078561
20
27.9876239
40
0.5504692
50
270.0280889
51
275.7957352
0
ARC
8
DEFAULT_255_2_778
10
49.9929432
20
27.8572784
40
0.4203979
50
211.6908218
51
272.0697042
0
ARC
8
DEFAULT_255_2_778
10
50.0747656
20
27.8962889
40
0.5106076
50
190.9376026
51
210.5921724
0
ARC
8
DEFAULT_255_2_778
10
50.2610303
20
27.9382206
40
0.7014691
50
183.5628564
51
191.4136451
0
ARC
8
DEFAULT_255_2_778
10
50.2534965
20
28.6401038
40
0.6175478
50
151.6639324
51
166.942199
0
ARC
8
DEFAULT_255_2_778
10
50.0989427
20
28.7244043
40
0.4415011
50
129.2048276
51
151.7731627
0
ARC
8
DEFAULT_255_2_778
10
50.0547914
20
28.7758653
40
0.3737203
50
95.2839326
51
128.9466118
0
ARC
8
DEFAULT_255_2_778
10
50.0548968
20
28.7732705
40
0.3763139
50
89.9974244
51
95.2635329
0
ARC
8
DEFAULT_255_2_778
10
50.0566712
20
28.780407
40
0.3691815
50
45.6558419
51
90.2727507
0
ARC
8
DEFAULT_255_2_778
10
49.8788815
20
28.7332094
40
0.5355464
50
6.8728037
51
35.5297065
0
ARC
8
DEFAULT_255_2_778
10
49.8425851
20
28.7237736
40
0.5727333
50
0.0283036
51
7.3754657
0
ARC
8
DEFAULT_255_2_778
10
49.9616948
20
28.715861
40
0.4536977
50
333.4881669
51
1.0350354
0
ARC
8
DEFAULT_255_2_778
10
50.1600609
20
28.6099621
40
0.2290041
50
270.0721861
51
335.0434762
0
ARC
8
DEFAULT_255_2_778
10
50.1604347
20
28.6469095
40
0.2659515
50
266.5902298
51
269.9816161
0
ARC
8
DEFAULT_255_2_778
10
50.251088
20
28.0486517
40
0.6175391
50
193.0577866
51
208.3362201
0
ARC
8
DEFAULT_255_2_778
10
50.0964861
20
27.9643231
40
0.4414367
50
208.2267887
51
230.797833
0
ARC
8
DEFAULT_255_2_778
10
50.0522861
20
27.9127924
40
0.3735712
50
231.0556696
51
264.7301736
0
ARC
8
DEFAULT_255_2_778
10
50.0523826
20
27.9153241
40
0.376101
50
264.7509541
51
270.0026788
0
ARC
8
DEFAULT_255_2_778
10
50.0541377
20
27.9083522
40
0.3691331
50
269.7303046
51
314.380502
0
ARC
8
DEFAULT_255_2_778
10
49.8712163
20
27.9597244
40
0.542142
50
324.4516849
51
352.6558303
0
ARC
8
DEFAULT_255_2_778
10
49.8396452
20
27.9686247
40
0.5746117
50
352.178043
51
359.9634891
0
ARC
8
DEFAULT_255_2_778
10
49.9644792
20
27.9764172
40
0.4498515
50
358.960807
51
26.0450883
0
ARC
8
DEFAULT_255_2_778
10
50.1624321
20
28.080148
40
0.2265422
50
24.4565823
51
90.0327506
0
ARC
8
DEFAULT_255_2_778
10
50.1623841
20
28.0404709
40
0.2662193
50
90.0175519
51
93.3738626
0
LINE
8
DEFAULT_255_2_778
10
61.2190168
20
28.2554288
11
62.0789168
21
28.2554288
0
LINE
8
DEFAULT_255_2_778
10
62.0789168
20
28.2554288
11
62.0789168
21
28.1644288
0
LINE
8
DEFAULT_255_2_778
10
62.0789168
20
28.1644288
11
61.2190168
21
28.1644288
0
LINE
8
DEFAULT_255_2_778
10
61.2190168
20
28.1644288
11
61.2190168
21
28.2554288
0
LINE
8
DEFAULT_255_2_778
10
49.6493168
20
28.7754288
11
49.5694168
21
28.7960288
0
LINE
8
DEFAULT_255_2_778
10
50.1467168
20
28.3062288
11
50.1448168
21
28.3817288
0
LINE
8
DEFAULT_255_2_778
10
49.6519168
20
27.9115288
11
49.5609168
21
27.8951288
0
LINE
8
DEFAULT_255_2_778
10
52.3803168
20
28.2552288
11
53.2402168
21
28.2552288
0
LINE
8
DEFAULT_255_2_778
10
53.2402168
20
28.2552288
11
53.2402168
21
28.1642288
0
LINE
8
DEFAULT_255_2_778
10
53.2402168
20
28.1642288
11
52.3803168
21
28.1642288
0
LINE
8
DEFAULT_255_2_778
10
52.3803168
20
28.1642288
11
52.3803168
21
28.2552288
0
LINE
8
DEFAULT_255_2_778
10
64.187374
20
29.2477031
11
64.592474
21
28.4373031
0
LINE
8
DEFAULT_255_2_778
10
64.592474
20
28.4373031
11
64.997474
21
29.2474031
0
LINE
8
DEFAULT_255_2_778
10
64.997474
20
29.2474031
11
65.080374
21
29.2144031
0
LINE
8
DEFAULT_255_2_778
10
65.080374
20
29.2144031
11
64.642174
21
28.3463031
0
LINE
8
DEFAULT_255_2_778
10
64.642174
20
28.3463031
11
65.072074
21
27.4782031
0
LINE
8
DEFAULT_255_2_778
10
65.072074
20
27.4782031
11
64.997774
21
27.4451031
0
LINE
8
DEFAULT_255_2_778
10
64.997774
20
27.4451031
11
64.600874
21
28.2552031
0
LINE
8
DEFAULT_255_2_778
10
64.600874
20
28.2552031
11
64.187574
21
27.4451031
0
LINE
8
DEFAULT_255_2_778
10
64.187574
20
27.4451031
11
64.113274
21
27.4782031
0
LINE
8
DEFAULT_255_2_778
10
64.113274
20
27.4782031
11
64.551374
21
28.3463031
0
LINE
8
DEFAULT_255_2_778
10
64.551374
20
28.3463031
11
64.121474
21
29.2144031
0
LINE
8
DEFAULT_255_2_778
10
64.121474
20
29.2144031
11
64.187374
21
29.2477031
0
LINE
8
DEFAULT_255_2_778
10
51.8056938
20
27.4847666
11
51.8056938
21
29.2540666
0
LINE
8
DEFAULT_255_2_778
10
51.8056938
20
29.2540666
11
51.7561938
21
29.2540666
0
LINE
8
DEFAULT_255_2_778
10
51.7561938
20
29.2540666
11
51.0452938
21
28.6256666
0
LINE
8
DEFAULT_255_2_778
10
51.0452938
20
28.6256666
11
51.0949938
21
28.5759666
0
LINE
8
DEFAULT_255_2_778
10
51.0949938
20
28.5759666
11
51.7151938
21
29.1132666
0
LINE
8
DEFAULT_255_2_778
10
51.7151938
20
29.1132666
11
51.7151938
21
27.4845666
0
LINE
8
DEFAULT_255_2_778
10
51.7151938
20
27.4845666
11
51.8056938
21
27.4847666
0
ARC
8
DEFAULT_255_2_778
10
55.567346
20
28.946556
40
0.6021462
50
267.6769149
51
306.2922378
0
ARC
8
DEFAULT_255_2_778
10
55.6971877
20
28.7373294
40
0.3571698
50
309.3718785
51
355.1048376
0
ARC
8
DEFAULT_255_2_778
10
55.5752882
20
28.7575629
40
0.4804505
50
353.9411153
51
0.0765325
0
ARC
8
DEFAULT_255_2_778
10
55.5781144
20
28.7430239
40
0.4778652
50
1.8204702
51
69.9118613
0
ARC
8
DEFAULT_255_2_778
10
55.6574525
20
28.9149028
40
0.2896065
50
72.9753313
51
89.6665261
0
LINE
8
DEFAULT_255_2_778
10
55.6591381
20
29.2045045
11
55.6588384
21
29.2045047
0
ARC
8
DEFAULT_255_2_778
10
55.6591841
20
28.8210509
40
0.451023
50
30.0492623
51
85.8735922
0
ARC
8
DEFAULT_255_2_778
10
55.5064445
20
28.6856258
40
0.6523204
50
28.9399397
51
33.6299253
0
ARC
8
DEFAULT_255_2_778
10
55.5808066
20
28.723871
40
0.568743
50
17.7433045
51
29.1931826
0
ARC
8
DEFAULT_255_2_778
10
55.8046211
20
28.7936834
40
0.3343039
50
4.7829306
51
18.0375253
0
ARC
8
DEFAULT_255_2_778
10
55.9358427
20
28.8076598
40
0.2023959
50
0.069322
51
3.9374996
0
ARC
8
DEFAULT_255_2_778
10
55.3306441
20
28.8480074
40
0.8085894
50
343.7562769
51
357.1571995
0
ARC
8
DEFAULT_255_2_778
10
55.6574632
20
28.7496817
40
0.4673223
50
319.1284443
51
344.1218199
0
ARC
8
DEFAULT_255_2_778
10
55.6353987
20
28.8105903
40
0.5248168
50
274.8276826
51
315.6743536
0
ARC
8
DEFAULT_255_2_778
10
55.4764376
20
29.8087987
40
1.534666
50
269.4021396
51
277.6060222
0
ARC
8
DEFAULT_255_2_778
10
55.4832936
20
32.897869
40
4.6237093
50
267.4594174
51
269.7166081
0
ARC
8
DEFAULT_255_2_778
10
57.1251307
20
28.7548494
40
0.5043634
50
4.2018893
51
32.0257032
0
ARC
8
DEFAULT_255_2_778
10
57.1346714
20
28.7598688
40
0.4936135
50
32.1190144
51
83.7619269
0
ARC
8
DEFAULT_255_2_778
10
57.1434193
20
28.8032056
40
0.4496005
50
84.2700506
51
89.9866812
0
ARC
8
DEFAULT_255_2_778
10
57.1435445
20
28.8046822
40
0.448124
50
90.0026352
51
90.5599624
0
ARC
8
DEFAULT_255_2_778
10
57.1417846
20
28.8312536
40
0.4215394
50
90.3560739
51
127.2416355
0
ARC
8
DEFAULT_255_2_778
10
57.1829437
20
28.7801882
40
0.4871039
50
127.4607388
51
146.7218736
0
ARC
8
DEFAULT_255_2_778
10
57.3153834
20
28.6921458
40
0.6461357
50
146.6389849
51
159.9678681
0
ARC
8
DEFAULT_255_2_778
10
57.4689898
20
28.6317742
40
0.8111395
50
159.678137
51
164.3193894
0
ARC
8
DEFAULT_255_2_778
10
57.1364251
20
27.9104876
40
0.4510003
50
186.1712757
51
211.7182097
0
ARC
8
DEFAULT_255_2_778
10
57.156228
20
27.9375624
40
0.4822448
50
213.2177514
51
270.2977337
0
ARC
8
DEFAULT_255_2_778
10
57.1629342
20
27.9565385
40
0.5012321
50
269.5198575
51
269.9999958
0
ARC
8
DEFAULT_255_2_778
10
57.1703367
20
27.9061386
40
0.4508929
50
269.0593072
51
319.8871474
0
ARC
8
DEFAULT_255_2_778
10
57.1418396
20
27.9202994
40
0.4818693
50
320.7826075
51
341.7663458
0
ARC
8
DEFAULT_255_2_778
10
57.003531
20
27.9678818
40
0.6281244
50
341.5914447
51
353.9339361
0
ARC
8
DEFAULT_255_2_778
10
56.9858493
20
28.0324636
40
0.5683817
50
328.5159116
51
346.6789795
0
ARC
8
DEFAULT_255_2_778
10
57.0978175
20
27.9623339
40
0.4362729
50
303.284815
51
328.6904386
0
ARC
8
DEFAULT_255_2_778
10
57.1491326
20
27.8837298
40
0.3424018
50
270.4911787
51
303.3251345
0
ARC
8
DEFAULT_255_2_778
10
57.1518112
20
27.7615515
40
0.2202111
50
269.7993795
51
270.0668038
0
ARC
8
DEFAULT_255_2_778
10
57.1537096
20
27.865476
40
0.3241448
50
231.2264878
51
269.5281286
0
ARC
8
DEFAULT_255_2_778
10
57.2196718
20
27.9496891
40
0.4311102
50
211.6120335
51
231.4008599
0
ARC
8
DEFAULT_255_2_778
10
57.3722947
20
28.0459412
40
0.6115416
50
198.5763596
51
211.7966366
0
ARC
8
DEFAULT_255_2_778
10
57.5269487
20
28.1027713
40
0.7762561
50
195.0272603
51
198.9159894
0
ARC
8
DEFAULT_255_2_778
10
57.3019859
20
28.7100709
40
0.5310286
50
154.3789411
51
171.1788266
0
ARC
8
DEFAULT_255_2_778
10
57.1837455
20
28.7675996
40
0.3995388
50
129.2476233
51
154.4854804
0
ARC
8
DEFAULT_255_2_778
10
57.1507782
20
28.8057061
40
0.3491736
50
90.0188362
51
129.0143643
0
ARC
8
DEFAULT_255_2_778
10
57.150662
20
28.8044974
40
0.3503822
50
88.3481728
51
89.9997673
0
ARC
8
DEFAULT_255_2_778
10
57.1482763
20
28.7897009
40
0.3652467
50
47.4884739
51
88.0409973
0
ARC
8
DEFAULT_255_2_778
10
57.1000365
20
28.7362133
40
0.4372726
50
24.9789057
51
47.5650034
0
ARC
8
DEFAULT_255_2_778
10
56.9878719
20
28.6820027
40
0.5618407
50
11.2387969
51
25.1598679
0
LINE
8
DEFAULT_255_2_778
10
53.7734384
20
27.4519047
11
54.6333384
21
29.1881047
0
LINE
8
DEFAULT_255_2_778
10
54.6333384
20
29.1881047
11
53.8893384
21
29.1881047
0
LINE
8
DEFAULT_255_2_778
10
53.8893384
20
29.1881047
11
53.8893384
21
29.1053047
0
LINE
8
DEFAULT_255_2_778
10
53.8893384
20
29.1053047
11
53.8231384
21
29.1053047
0
LINE
8
DEFAULT_255_2_778
10
53.8231384
20
29.1053047
11
53.8231384
21
29.2540047
0
LINE
8
DEFAULT_255_2_778
10
53.8231384
20
29.2540047
11
54.7161384
21
29.2540047
0
LINE
8
DEFAULT_255_2_778
10
54.7161384
20
29.2540047
11
54.7161384
21
29.2043047
0
LINE
8
DEFAULT_255_2_778
10
54.7161384
20
29.2043047
11
53.8562384
21
27.4514047
0
LINE
8
DEFAULT_255_2_778
10
53.8562384
20
27.4514047
11
53.7734384
21
27.4519047
0
LINE
8
DEFAULT_255_2_778
10
55.2616384
20
29.2048047
11
55.2616384
21
28.3449047
0
LINE
8
DEFAULT_255_2_778
10
55.2616384
20
28.3449047
11
55.5429384
21
28.3449047
0
LINE
8
DEFAULT_255_2_778
10
55.6588384
20
29.2045047
11
55.2616384
21
29.2048047
0
LINE
8
DEFAULT_255_2_778
10
55.2947384
20
27.4850047
11
55.1955384
21
27.4850047
0
LINE
8
DEFAULT_255_2_778
10
55.1955384
20
27.4850047
11
55.1955384
21
29.2709047
0
LINE
8
DEFAULT_255_2_778
10
55.1955384
20
29.2709047
11
55.6916384
21
29.2709047
0
LINE
8
DEFAULT_255_2_778
10
55.2783384
20
28.2787047
11
55.2947384
21
27.4850047
0
LINE
8
DEFAULT_255_2_778
10
56.6880384
20
28.8510047
11
56.6880384
21
27.8620047
0
LINE
8
DEFAULT_255_2_778
10
57.6281384
20
27.9015047
11
57.5389384
21
27.9015047
0
LINE
8
DEFAULT_255_2_778
10
56.7772384
20
27.9015047
11
56.7772384
21
28.7915047
0
LINE
8
DEFAULT_255_2_778
10
57.5389384
20
28.7915047
11
57.6281384
21
28.7915047
0
LINE
8
DEFAULT_255_2_778
10
57.6281384
20
28.7915047
11
57.6281384
21
28.7918047
0
LINE
8
DEFAULT_255_2_778
10
64.1511384
20
46.6467047
11
63.5510384
21
46.6467047
0
LINE
8
DEFAULT_255_2_778
10
63.5510384
20
46.6467047
11
63.5510384
21
49.1467047
0
LINE
8
DEFAULT_255_2_778
10
63.5510384
20
49.1467047
11
64.1511384
21
49.1467047
0
LINE
8
DEFAULT_255_2_778
10
64.1511384
20
49.1467047
11
64.1511384
21
46.6467047
0
LINE
8
DEFAULT_255_2_778
10
65.3510384
20
46.6467047
11
64.7509384
21
46.6467047
0
LINE
8
DEFAULT_255_2_778
10
64.7509384
20
46.6467047
11
64.7509384
21
49.1467047
0
LINE
8
DEFAULT_255_2_778
10
64.7509384
20
49.1467047
11
65.3510384
21
49.1467047
0
LINE
8
DEFAULT_255_2_778
10
65.3510384
20
49.1467047
11
65.3510384
21
46.6467047
0
LINE
8
DEFAULT_255_2_778
10
65.9511384
20
46.6467047
11
68.4511384
21
47.8965047
0
LINE
8
DEFAULT_255_2_778
10
68.4511384
20
47.8965047
11
65.9511384
21
49.1467047
0
LINE
8
DEFAULT_255_2_778
10
65.9511384
20
49.1467047
11
65.9511384
21
46.6467047
0
LINE
8
DEFAULT_255_2_778
10
4.9898384
20
9.2467047
11
2.7863384
21
9.2467047
0
LINE
8
DEFAULT_255_2_778
10
2.7863384
20
9.2467047
11
2.7863384
21
9.2277047
0
LINE
8
DEFAULT_255_2_778
10
2.7863384
20
9.2277047
11
2.3508384
21
9.2277047
0
LINE
8
DEFAULT_255_2_778
10
4.9898384
20
9.3708047
11
41.0379384
21
9.3708047
0
LINE
8
DEFAULT_255_2_778
10
13.6385
20
9.3708406
11
13.6385
21
9.6653406
0
LINE
8
DEFAULT_255_2_778
10
12.3685
20
9.3708406
11
12.3685
21
9.6653406
0
LINE
8
DEFAULT_255_2_778
10
8.5585
20
9.3708406
11
8.5585
21
9.6653406
0
LINE
8
DEFAULT_255_2_778
10
23.7985
20
9.3708406
11
23.7985
21
9.6653406
0
LINE
8
DEFAULT_255_2_778
10
22.5285
20
9.3708406
11
22.5285
21
9.6653406
0
LINE
8
DEFAULT_255_2_778
10
18.7185
20
9.3708406
11
18.7185
21
9.6653406
0
LINE
8
DEFAULT_255_2_778
10
17.4485
20
9.3708406
11
17.4485
21
9.6653406
0
LINE
8
DEFAULT_255_2_778
10
33.9585
20
9.3708406
11
33.9585
21
9.6653406
0
LINE
8
DEFAULT_255_2_778
10
32.6885
20
9.3708406
11
32.6885
21
9.6653406
0
LINE
8
DEFAULT_255_2_778
10
28.8785
20
9.3708406
11
28.8785
21
9.6653406
0
LINE
8
DEFAULT_255_2_778
10
27.6085
20
9.3708406
11
27.6085
21
9.6653406
0
LINE
8
DEFAULT_255_2_778
10
41.0378943
20
9.6653927
11
5.0024943
21
9.6653927
0
LINE
8
DEFAULT_255_2_778
10
2.8124943
20
10.4082927
11
3.1937943
21
10.4082927
0
LINE
8
DEFAULT_255_2_778
10
2.8124943
20
9.2467927
11
2.8124943
21
10.4082927
0
LINE
8
DEFAULT_255_2_778
10
2.8124943
20
10.4082927
11
3.1937943
21
10.7895927
0
LINE
8
DEFAULT_255_2_778
10
37.7619
20
9.3708406
11
37.7619
21
9.6653406
0
LINE
8
DEFAULT_255_2_778
10
39.0353
20
9.3708406
11
39.0353
21
9.6653406
0
LINE
8
DEFAULT_255_2_778
10
3.0162843
20
69.9733906
11
2.9175843
21
69.9760906
0
LINE
8
DEFAULT_255_2_778
10
3.0162843
20
69.9670906
11
2.9175843
21
69.9643906
0
LINE
8
DEFAULT_255_2_778
10
3.0508843
20
69.9702906
11
3.0162843
21
69.9733906
0
LINE
8
DEFAULT_255_2_778
10
71.4509843
20
64.9465906
11
69.1509843
21
64.9465906
0
LINE
8
DEFAULT_255_2_778
10
69.1509843
20
64.9465906
11
69.1509843
21
69.9781906
0
ARC
8
DEFAULT_255_2_778
10
27.5695964
20
72.0223012
40
0.5907464
50
283.4157614
51
297.1069473
0
ARC
8
DEFAULT_255_2_778
10
27.6438701
20
71.8788434
40
0.4292041
50
297.0070443
51
317.1692544
0
ARC
8
DEFAULT_255_2_778
10
27.6869742
20
71.836293
40
0.3686706
50
317.4647382
51
353.0071112
0
ARC
8
DEFAULT_255_2_778
10
27.666623
20
71.8401449
40
0.3893417
50
352.8090922
51
356.2949768
0
ARC
8
DEFAULT_255_2_778
10
27.6603392
20
71.8405472
40
0.3956385
50
356.2956515
51
0.0043968
0
ARC
8
DEFAULT_255_2_778
10
27.6646916
20
71.8438818
40
0.3913
50
359.5161631
51
49.1517807
0
ARC
8
DEFAULT_255_2_778
10
27.7349961
20
71.9163793
40
0.2905337
50
50.2885667
51
77.5445246
0
ARC
8
DEFAULT_255_2_778
10
27.580497
20
72.7250564
40
0.5681238
50
292.4727262
51
304.8288365
0
ARC
8
DEFAULT_255_2_778
10
27.6755256
20
72.5898628
40
0.4028758
50
304.7161077
51
322.7509995
0
ARC
8
DEFAULT_255_2_778
10
27.7347681
20
72.5436881
40
0.3277707
50
322.9078586
51
356.1985548
0
ARC
8
DEFAULT_255_2_778
10
27.7161991
20
72.5456986
40
0.346433
50
356.0703872
51
358.9154401
0
ARC
8
DEFAULT_255_2_778
10
27.7108094
20
72.5458201
40
0.3518239
50
358.9122617
51
0.0016441
0
ARC
8
DEFAULT_255_2_778
10
27.6393832
20
72.5369772
40
0.4233428
50
1.1982672
51
77.8950202
0
ARC
8
DEFAULT_255_2_778
10
27.6829875
20
72.6483936
40
0.3058674
50
81.5071657
51
83.9812828
0
ARC
8
DEFAULT_255_2_778
10
27.6852704
20
72.4162513
40
0.1749687
50
266.1619953
51
270.0122503
0
ARC
8
DEFAULT_255_2_778
10
27.6851331
20
72.4271954
40
0.185913
50
270.0538206
51
277.4592311
0
ARC
8
DEFAULT_255_2_778
10
27.6615265
20
72.5196096
40
0.2808416
50
279.7876035
51
315.7347736
0
ARC
8
DEFAULT_255_2_778
10
27.6060696
20
72.5951726
40
0.3736144
50
313.3717949
51
356.8869817
0
ARC
8
DEFAULT_255_2_778
10
27.6964592
20
72.5809081
40
0.2827377
50
358.7789773
51
0.0018057
0
ARC
8
DEFAULT_255_2_778
10
27.7252229
20
72.5830263
40
0.2539829
50
359.5241604
51
39.9706688
0
ARC
8
DEFAULT_255_2_778
10
27.6695192
20
72.5343605
40
0.3279389
50
40.2349142
51
59.2067804
0
ARC
8
DEFAULT_255_2_778
10
27.5798195
20
72.3867051
40
0.5007009
50
59.0393698
51
71.6089215
0
ARC
8
DEFAULT_255_2_778
10
27.5138329
20
72.202312
40
0.6965091
50
71.2436705
51
76.0487479
0
ARC
8
DEFAULT_255_2_778
10
27.6855656
20
71.7049078
40
0.1748252
50
266.1604144
51
270.0123072
0
ARC
8
DEFAULT_255_2_778
10
27.6854235
20
71.7159417
40
0.1858593
50
270.0553855
51
277.4873181
0
ARC
8
DEFAULT_255_2_778
10
27.6617578
20
71.8083971
40
0.2808423
50
279.8170433
51
315.7504317
0
ARC
8
DEFAULT_255_2_778
10
27.6062342
20
71.8839873
40
0.3736775
50
313.3881417
51
356.8852505
0
ARC
8
DEFAULT_255_2_778
10
27.6951163
20
71.8697436
40
0.284308
50
358.7785804
51
359.9980126
0
ARC
8
DEFAULT_255_2_778
10
27.7254353
20
71.871847
40
0.2539978
50
359.5232938
51
39.9640595
0
ARC
8
DEFAULT_255_2_778
10
27.6697941
20
71.8232379
40
0.3278692
50
40.2292682
51
59.201972
0
ARC
8
DEFAULT_255_2_778
10
27.5801276
20
71.6756609
40
0.500547
50
59.034832
51
71.6056359
0
ARC
8
DEFAULT_255_2_778
10
27.5141725
20
71.4913944
40
0.6962255
50
71.24033
51
76.0463024
0
LINE
8
DEFAULT_255_2_778
10
27.3097587
20
72.952575
11
27.3097587
21
71.447675
0
LINE
8
DEFAULT_255_2_778
10
27.3097587
20
71.447675
11
27.7066587
21
71.447675
0
LINE
8
DEFAULT_255_2_778
10
27.7150587
20
72.952575
11
27.3097587
21
72.952575
0
LINE
8
DEFAULT_255_2_778
10
27.3840587
20
72.878275
11
27.3840587
21
72.241675
0
LINE
8
DEFAULT_255_2_778
10
27.3840587
20
72.241675
11
27.6735587
21
72.241675
0
LINE
8
DEFAULT_255_2_778
10
27.6817587
20
72.878275
11
27.3840587
21
72.878275
0
LINE
8
DEFAULT_255_2_778
10
27.3843587
20
72.167075
11
27.3843587
21
71.530475
0
LINE
8
DEFAULT_255_2_778
10
27.3843587
20
71.530475
11
27.6738587
21
71.530475
0
LINE
8
DEFAULT_255_2_778
10
27.6820587
20
72.167075
11
27.3843587
21
72.167075
0
LINE
8
DEFAULT_255_2_778
10
29.2208438
20
72.1680635
11
28.9216438
21
72.1643635
0
LINE
8
DEFAULT_255_2_778
10
28.9216438
20
72.1643635
11
28.9237438
21
72.4649635
0
LINE
8
DEFAULT_255_2_778
10
28.9237438
20
72.4649635
11
28.8501438
21
72.4641635
0
LINE
8
DEFAULT_255_2_778
10
28.8501438
20
72.4641635
11
28.8501438
21
72.1641635
0
LINE
8
DEFAULT_255_2_778
10
28.8501438
20
72.1641635
11
28.5501438
21
72.1641635
0
LINE
8
DEFAULT_255_2_778
10
28.5501438
20
72.1641635
11
28.5517438
21
72.0844635
0
LINE
8
DEFAULT_255_2_778
10
28.5517438
20
72.0844635
11
28.8467438
21
72.0892635
0
LINE
8
DEFAULT_255_2_778
10
28.8467438
20
72.0892635
11
28.8493438
21
71.7868635
0
LINE
8
DEFAULT_255_2_778
10
28.8493438
20
71.7868635
11
28.9237438
21
71.7868635
0
LINE
8
DEFAULT_255_2_778
10
28.9237438
20
71.7868635
11
28.9216438
21
72.0892635
0
LINE
8
DEFAULT_255_2_778
10
28.9216438
20
72.0892635
11
29.2216438
21
72.0892635
0
LINE
8
DEFAULT_255_2_778
10
29.2216438
20
72.0892635
11
29.2213438
21
72.1672635
0
ARC
8
DEFAULT_255_2_778
10
32.6246964
20
72.0223012
40
0.5907464
50
283.4157614
51
297.1069473
0
ARC
8
DEFAULT_255_2_778
10
32.6989701
20
71.8788434
40
0.4292041
50
297.0070443
51
317.1692544
0
ARC
8
DEFAULT_255_2_778
10
32.7420742
20
71.836293
40
0.3686706
50
317.4647382
51
353.0071112
0
ARC
8
DEFAULT_255_2_778
10
32.721723
20
71.8401449
40
0.3893417
50
352.8090922
51
356.2949768
0
ARC
8
DEFAULT_255_2_778
10
32.7154392
20
71.8405472
40
0.3956385
50
356.2956515
51
0.0043968
0
ARC
8
DEFAULT_255_2_778
10
32.7197916
20
71.8438818
40
0.3913
50
359.5161631
51
49.1517807
0
ARC
8
DEFAULT_255_2_778
10
32.7900961
20
71.9163793
40
0.2905337
50
50.2885667
51
77.5445246
0
ARC
8
DEFAULT_255_2_778
10
32.635597
20
72.7250564
40
0.5681238
50
292.4727262
51
304.8288365
0
ARC
8
DEFAULT_255_2_778
10
32.7306256
20
72.5898628
40
0.4028758
50
304.7161077
51
322.7509995
0
ARC
8
DEFAULT_255_2_778
10
32.7898681
20
72.5436881
40
0.3277707
50
322.9078586
51
356.1985548
0
ARC
8
DEFAULT_255_2_778
10
32.7712991
20
72.5456986
40
0.346433
50
356.0703872
51
358.9154401
0
ARC
8
DEFAULT_255_2_778
10
32.7659094
20
72.5458201
40
0.3518239
50
358.9122617
51
0.0016441
0
ARC
8
DEFAULT_255_2_778
10
32.6944832
20
72.5369772
40
0.4233428
50
1.1982672
51
77.8950202
0
ARC
8
DEFAULT_255_2_778
10
32.7380875
20
72.6483936
40
0.3058674
50
81.5071657
51
83.9812828
0
ARC
8
DEFAULT_255_2_778
10
32.7403704
20
72.4162513
40
0.1749687
50
266.1619953
51
270.0122503
0
ARC
8
DEFAULT_255_2_778
10
32.7402331
20
72.4271954
40
0.185913
50
270.0538206
51
277.4592311
0
ARC
8
DEFAULT_255_2_778
10
32.7166265
20
72.5196096
40
0.2808416
50
279.7876035
51
315.7347736
0
ARC
8
DEFAULT_255_2_778
10
32.6611696
20
72.5951726
40
0.3736144
50
313.3717949
51
356.8869817
0
ARC
8
DEFAULT_255_2_778
10
32.7515592
20
72.5809081
40
0.2827377
50
358.7789773
51
0.0018057
0
ARC
8
DEFAULT_255_2_778
10
32.7803229
20
72.5830263
40
0.2539829
50
359.5241604
51
39.9706688
0
ARC
8
DEFAULT_255_2_778
10
32.7246192
20
72.5343605
40
0.3279389
50
40.2349142
51
59.2067804
0
ARC
8
DEFAULT_255_2_778
10
32.6349195
20
72.3867051
40
0.5007009
50
59.0393698
51
71.6089215
0
ARC
8
DEFAULT_255_2_778
10
32.5689329
20
72.202312
40
0.6965091
50
71.2436705
51
76.0487479
0
ARC
8
DEFAULT_255_2_778
10
32.7406656
20
71.7049078
40
0.1748252
50
266.1604144
51
270.0123072
0
ARC
8
DEFAULT_255_2_778
10
32.7405235
20
71.7159417
40
0.1858593
50
270.0553855
51
277.4873181
0
ARC
8
DEFAULT_255_2_778
10
32.7168578
20
71.8083971
40
0.2808423
50
279.8170433
51
315.7504317
0
ARC
8
DEFAULT_255_2_778
10
32.6613342
20
71.8839873
40
0.3736775
50
313.3881417
51
356.8852505
0
ARC
8
DEFAULT_255_2_778
10
32.7502163
20
71.8697436
40
0.284308
50
358.7785804
51
359.9980126
0
ARC
8
DEFAULT_255_2_778
10
32.7805353
20
71.871847
40
0.2539978
50
359.5232938
51
39.9640595
0
ARC
8
DEFAULT_255_2_778
10
32.7248941
20
71.8232379
40
0.3278692
50
40.2292682
51
59.201972
0
ARC
8
DEFAULT_255_2_778
10
32.6352276
20
71.6756609
40
0.500547
50
59.034832
51
71.6056359
0
ARC
8
DEFAULT_255_2_778
10
32.5692725
20
71.4913944
40
0.6962255
50
71.24033
51
76.0463024
0
LINE
8
DEFAULT_255_2_778
10
32.3648587
20
72.952575
11
32.3648587
21
71.447675
0
LINE
8
DEFAULT_255_2_778
10
32.3648587
20
71.447675
11
32.7617587
21
71.447675
0
LINE
8
DEFAULT_255_2_778
10
32.7701587
20
72.952575
11
32.3648587
21
72.952575
0
LINE
8
DEFAULT_255_2_778
10
32.4391587
20
72.878275
11
32.4391587
21
72.241675
0
LINE
8
DEFAULT_255_2_778
10
32.4391587
20
72.241675
11
32.7286587
21
72.241675
0
LINE
8
DEFAULT_255_2_778
10
32.7368587
20
72.878275
11
32.4391587
21
72.878275
0
LINE
8
DEFAULT_255_2_778
10
32.4394587
20
72.167075
11
32.4394587
21
71.530475
0
LINE
8
DEFAULT_255_2_778
10
32.4394587
20
71.530475
11
32.7289587
21
71.530475
0
LINE
8
DEFAULT_255_2_778
10
32.7371587
20
72.167075
11
32.4394587
21
72.167075
0
LINE
8
DEFAULT_255_2_778
10
12.3578729
20
72.8775083
11
12.6203729
21
71.9400083
0
LINE
8
DEFAULT_255_2_778
10
12.6203729
20
71.9400083
11
12.0953729
21
71.9400083
0
LINE
8
DEFAULT_255_2_778
10
12.0953729
20
71.9400083
11
12.3578729
21
72.8775083
0
LINE
8
DEFAULT_255_2_778
10
12.7695729
20
71.4900083
11
12.8452729
21
71.4900083
0
LINE
8
DEFAULT_255_2_778
10
12.8452729
20
71.4900083
11
12.3951729
21
72.9526083
0
LINE
8
DEFAULT_255_2_778
10
12.3951729
20
72.9526083
11
12.3200729
21
72.9526083
0
LINE
8
DEFAULT_255_2_778
10
12.3200729
20
72.9526083
11
11.8699729
21
71.4900083
0
LINE
8
DEFAULT_255_2_778
10
11.8699729
20
71.4900083
11
11.9424729
21
71.4900083
0
LINE
8
DEFAULT_255_2_778
10
11.9424729
20
71.4900083
11
12.0575729
21
71.8649083
0
LINE
8
DEFAULT_255_2_778
10
12.0575729
20
71.8649083
11
12.6576729
21
71.8649083
0
LINE
8
DEFAULT_255_2_778
10
12.6576729
20
71.8649083
11
12.7695729
21
71.4900083
0
LINE
8
DEFAULT_255_2_778
10
19.0843438
20
72.1649635
11
18.7843438
21
72.1649635
0
LINE
8
DEFAULT_255_2_778
10
18.7843438
20
72.1649635
11
18.7864438
21
72.4655635
0
LINE
8
DEFAULT_255_2_778
10
18.7864438
20
72.4655635
11
18.7128438
21
72.4647635
0
LINE
8
DEFAULT_255_2_778
10
18.7128438
20
72.4647635
11
18.7128438
21
72.1647635
0
LINE
8
DEFAULT_255_2_778
10
18.7128438
20
72.1647635
11
18.4128438
21
72.1647635
0
LINE
8
DEFAULT_255_2_778
10
18.4128438
20
72.1647635
11
18.4144438
21
72.0850635
0
LINE
8
DEFAULT_255_2_778
10
18.4144438
20
72.0850635
11
18.7094438
21
72.0898635
0
LINE
8
DEFAULT_255_2_778
10
18.7094438
20
72.0898635
11
18.7120438
21
71.7874635
0
LINE
8
DEFAULT_255_2_778
10
18.7120438
20
71.7874635
11
18.7864438
21
71.7874635
0
LINE
8
DEFAULT_255_2_778
10
18.7864438
20
71.7874635
11
18.7843438
21
72.0898635
0
LINE
8
DEFAULT_255_2_778
10
18.7843438
20
72.0898635
11
19.0843438
21
72.0898635
0
LINE
8
DEFAULT_255_2_778
10
19.0843438
20
72.0898635
11
19.0840438
21
72.1596635
0
LINE
8
DEFAULT_255_2_778
10
24.1935243
20
72.1276083
11
23.4828243
21
72.1268083
0
LINE
8
DEFAULT_255_2_778
10
23.4828243
20
72.1268083
11
23.4828243
21
72.0525083
0
LINE
8
DEFAULT_255_2_778
10
23.4828243
20
72.0525083
11
24.1935243
21
72.0528083
0
LINE
8
DEFAULT_255_2_778
10
24.1935243
20
72.0528083
11
24.1935243
21
72.1276083
0
LINE
8
DEFAULT_255_2_778
10
34.3141243
20
72.1268083
11
33.6031243
21
72.1268083
0
LINE
8
DEFAULT_255_2_778
10
33.6031243
20
72.1268083
11
33.6031243
21
72.0525083
0
LINE
8
DEFAULT_255_2_778
10
33.6031243
20
72.0525083
11
34.3149243
21
72.0528083
0
LINE
8
DEFAULT_255_2_778
10
34.3149243
20
72.0528083
11
34.3141243
21
72.1268083
0
LINE
8
DEFAULT_255_2_778
10
7.3305243
20
72.8775083
11
7.5930243
21
71.9400083
0
LINE
8
DEFAULT_255_2_778
10
7.5930243
20
71.9400083
11
7.0681243
21
71.9400083
0
LINE
8
DEFAULT_255_2_778
10
7.0681243
20
71.9400083
11
7.3305243
21
72.8775083
0
LINE
8
DEFAULT_255_2_778
10
7.7422243
20
71.4900083
11
7.8179243
21
71.4900083
0
LINE
8
DEFAULT_255_2_778
10
7.8179243
20
71.4900083
11
7.3681243
21
72.9526083
0
LINE
8
DEFAULT_255_2_778
10
7.3681243
20
72.9526083
11
7.2930243
21
72.9526083
0
LINE
8
DEFAULT_255_2_778
10
7.2930243
20
72.9526083
11
6.8429243
21
71.4900083
0
LINE
8
DEFAULT_255_2_778
10
6.8429243
20
71.4900083
11
6.9154243
21
71.4900083
0
LINE
8
DEFAULT_255_2_778
10
6.9154243
20
71.4900083
11
7.0305243
21
71.8649083
0
LINE
8
DEFAULT_255_2_778
10
7.0305243
20
71.8649083
11
7.6306243
21
71.8649083
0
LINE
8
DEFAULT_255_2_778
10
7.6306243
20
71.8649083
11
7.7422243
21
71.4900083
0
LINE
8
DEFAULT_255_2_778
10
8.9812438
20
72.1715635
11
8.6812438
21
72.1715635
0
LINE
8
DEFAULT_255_2_778
10
8.6812438
20
72.1715635
11
8.6833438
21
72.4721635
0
LINE
8
DEFAULT_255_2_778
10
8.6833438
20
72.4721635
11
8.6097438
21
72.4713635
0
LINE
8
DEFAULT_255_2_778
10
8.6097438
20
72.4713635
11
8.6097438
21
72.1713635
0
LINE
8
DEFAULT_255_2_778
10
8.6097438
20
72.1713635
11
8.3097438
21
72.1713635
0
LINE
8
DEFAULT_255_2_778
10
8.3097438
20
72.1713635
11
8.3113438
21
72.0916635
0
LINE
8
DEFAULT_255_2_778
10
8.3113438
20
72.0916635
11
8.6063438
21
72.0964635
0
LINE
8
DEFAULT_255_2_778
10
8.6063438
20
72.0964635
11
8.6089438
21
71.7940635
0
LINE
8
DEFAULT_255_2_778
10
8.6089438
20
71.7940635
11
8.6833438
21
71.7940635
0
LINE
8
DEFAULT_255_2_778
10
8.6833438
20
71.7940635
11
8.6812438
21
72.0964635
0
LINE
8
DEFAULT_255_2_778
10
8.6812438
20
72.0964635
11
8.9812438
21
72.0964635
0
LINE
8
DEFAULT_255_2_778
10
8.9812438
20
72.0964635
11
8.9809438
21
72.1662635
0
LINE
8
DEFAULT_255_2_778
10
14.0694646
20
72.1257708
11
13.3587646
21
72.1249708
0
LINE
8
DEFAULT_255_2_778
10
13.3587646
20
72.1249708
11
13.3587646
21
72.0506708
0
LINE
8
DEFAULT_255_2_778
10
13.3587646
20
72.0506708
11
14.0694646
21
72.0508708
0
LINE
8
DEFAULT_255_2_778
10
14.0694646
20
72.0508708
11
14.0694646
21
72.1257708
0
ARC
8
DEFAULT_255_2_778
10
17.3181053
20
71.9828293
40
0.484049
50
307.4140443
51
315.1388431
0
ARC
8
DEFAULT_255_2_778
10
17.3559151
20
71.9348942
40
0.4230045
50
304.549128
51
307.2911819
0
ARC
8
DEFAULT_255_2_778
10
17.3954238
20
71.8722937
40
0.349051
50
284.9838975
51
305.0351012
0
ARC
8
DEFAULT_255_2_778
10
17.4080143
20
71.8324737
40
0.3073353
50
270.0006966
51
284.6358271
0
ARC
8
DEFAULT_255_2_778
10
17.4110302
20
71.8638817
40
0.3387569
50
241.214525
51
269.490541
0
LINE
8
DEFAULT_255_2_778
10
17.247908
20
71.5669854
11
17.2478158
21
71.5670317
0
ARC
8
DEFAULT_255_2_778
10
17.3163565
20
71.6914327
40
0.1420332
50
182.9708745
51
241.1467589
0
ARC
8
DEFAULT_255_2_778
10
17.2744193
20
71.6840834
40
0.0999051
50
177.4593927
51
180.0069328
0
ARC
8
DEFAULT_255_2_778
10
17.2721121
20
71.6835104
40
0.0976279
50
128.757518
51
177.063409
0
ARC
8
DEFAULT_255_2_778
10
17.327353
20
71.6189062
40
0.1826077
50
110.1969563
51
129.5836986
0
ARC
8
DEFAULT_255_2_778
10
18.9280384
20
66.4289917
40
5.6135077
50
103.0425944
51
107.2402952
0
ARC
8
DEFAULT_255_2_778
10
17.278795
20
72.1443184
40
0.1817802
50
103.8358679
51
171.7235924
0
ARC
8
DEFAULT_255_2_778
10
17.4211886
20
71.7886877
40
0.563662
50
89.1339728
51
109.2532987
0
ARC
8
DEFAULT_255_2_778
10
17.4443885
20
71.9658922
40
0.386672
50
63.2350128
51
92.1758258
0
ARC
8
DEFAULT_255_2_778
10
17.4980842
20
72.0961708
40
0.2464038
50
15.515931
51
60.7401602
0
ARC
8
DEFAULT_255_2_778
10
17.9635188
20
71.7599559
40
0.2360219
50
194.9707419
51
208.8027044
0
ARC
8
DEFAULT_255_2_778
10
17.9678879
20
71.7471376
40
0.2340549
50
205.5359646
51
251.2641169
0
ARC
8
DEFAULT_255_2_778
10
17.9007205
20
71.6455894
40
0.1946689
50
224.500799
51
267.6410753
0
ARC
8
DEFAULT_255_2_778
10
18.0354845
20
71.8115584
40
0.4078208
50
227.2686229
51
227.862914
0
ARC
8
DEFAULT_255_2_778
10
18.0495045
20
71.8267419
40
0.4284871
50
226.860978
51
227.2692469
0
ARC
8
DEFAULT_255_2_778
10
18.0740871
20
71.8529059
40
0.4643876
50
226.4931573
51
226.8550994
0
ARC
8
DEFAULT_255_2_778
10
18.0990551
20
71.8791316
40
0.5005978
50
226.1643978
51
226.4869441
0
ARC
8
DEFAULT_255_2_778
10
18.1146207
20
71.8952323
40
0.5229924
50
225.7121608
51
226.1559926
0
ARC
8
DEFAULT_255_2_778
10
18.1552131
20
71.9367984
40
0.581091
50
225.3331309
51
225.708845
0
ARC
8
DEFAULT_255_2_778
10
18.2009871
20
71.9831613
40
0.6462431
50
224.9662768
51
225.3364648
0
ARC
8
DEFAULT_255_2_778
10
18.2925267
20
72.0746358
40
0.7756536
50
224.6613063
51
224.9685027
0
ARC
8
DEFAULT_255_2_778
10
17.3053218
20
71.1242373
40
0.5948391
50
42.9343245
51
47.7350404
0
ARC
8
DEFAULT_255_2_778
10
17.6545314
20
71.5028204
40
0.079898
50
50.4684026
51
53.1858552
0
ARC
8
DEFAULT_255_2_778
10
17.4193627
20
71.874842
40
0.4183461
50
278.0559592
51
312.5770902
0
ARC
8
DEFAULT_255_2_778
10
17.3791901
20
72.0291683
40
0.5770648
50
277.0869283
51
279.8582281
0
ARC
8
DEFAULT_255_2_778
10
17.3777482
20
72.0405024
40
0.5884901
50
270.0156186
51
277.0900958
0
ARC
8
DEFAULT_255_2_778
10
17.37285
20
71.9318258
40
0.4798402
50
253.3379353
51
270.6040432
0
ARC
8
DEFAULT_255_2_778
10
17.2951906
20
71.6830954
40
0.2193079
50
229.4595359
51
254.1429288
0
ARC
8
DEFAULT_255_2_778
10
17.2252677
20
71.596405
40
0.1080266
50
210.310556
51
227.7568904
0
ARC
8
DEFAULT_255_2_778
10
17.4590542
20
71.7235792
40
0.3741281
50
198.0070173
51
209.0547976
0
ARC
8
DEFAULT_255_2_778
10
17.3217883
20
71.6799274
40
0.2300932
50
180.6457205
51
198.2360794
0
ARC
8
DEFAULT_255_2_778
10
17.2987496
20
71.6632726
40
0.2075171
50
107.2886404
51
176.1145605
0
ARC
8
DEFAULT_255_2_778
10
17.4322026
20
71.4245818
40
0.4784305
50
110.5440765
51
114.0693479
0
ARC
8
DEFAULT_255_2_778
10
15.0403766
20
81.6386878
40
10.0161183
50
282.8286018
51
283.8715823
0
ARC
8
DEFAULT_255_2_778
10
16.9261782
20
74.0377888
40
2.1847978
50
283.6483086
51
287.2437812
0
ARC
8
DEFAULT_255_2_778
10
17.4610096
20
72.3427914
40
0.4075277
50
286.0725042
51
298.7087406
0
ARC
8
DEFAULT_255_2_778
10
17.5901736
20
72.0948947
40
0.1281903
50
301.2987541
51
303.6509919
0
ARC
8
DEFAULT_255_2_778
10
17.0499571
20
72.0204651
40
0.6121027
50
356.9770578
51
359.9605915
0
ARC
8
DEFAULT_255_2_778
10
17.3578383
20
72.0379963
40
0.3047504
50
356.62287
51
33.6201321
0
ARC
8
DEFAULT_255_2_778
10
17.4656279
20
72.0899566
40
0.1869436
50
38.6568816
51
88.8434333
0
ARC
8
DEFAULT_255_2_778
10
17.4466028
20
71.961705
40
0.3159806
50
85.8624321
51
90.0534421
0
ARC
8
DEFAULT_255_2_778
10
17.4361755
20
71.8270677
40
0.4507316
50
88.7118745
51
110.9880538
0
ARC
8
DEFAULT_255_2_778
10
17.3330158
20
72.0836742
40
0.1742563
50
109.539191
51
150.1960905
0
LINE
8
DEFAULT_255_2_778
10
17.661208
20
71.8976854
11
17.661208
21
71.6413854
0
LINE
8
DEFAULT_255_2_778
10
17.661208
20
71.8976854
11
17.661208
21
71.8976854
0
LINE
8
DEFAULT_255_2_778
10
17.735508
20
72.1620854
11
17.735508
21
71.6989854
0
LINE
8
DEFAULT_255_2_778
10
17.892708
20
71.5254854
11
17.892708
21
71.4510854
0
LINE
8
DEFAULT_255_2_778
10
17.181808
20
72.1702854
11
17.099208
21
72.1702854
0
LINE
8
DEFAULT_255_2_778
10
17.099208
20
72.1702854
11
17.098908
21
72.1704854
0
ARC
8
DEFAULT_255_2_778
10
22.3783053
20
71.9992293
40
0.484049
50
307.4140443
51
315.1388431
0
ARC
8
DEFAULT_255_2_778
10
22.4161151
20
71.9512942
40
0.4230045
50
304.549128
51
307.2911819
0
ARC
8
DEFAULT_255_2_778
10
22.4556238
20
71.8886937
40
0.349051
50
284.9838975
51
305.0351012
0
ARC
8
DEFAULT_255_2_778
10
22.4682143
20
71.8488737
40
0.3073353
50
270.0006966
51
284.6358271
0
ARC
8
DEFAULT_255_2_778
10
22.4712302
20
71.8802817
40
0.3387569
50
241.214525
51
269.490541
0
LINE
8
DEFAULT_255_2_778
10
22.308108
20
71.5833854
11
22.3080158
21
71.5834317
0
ARC
8
DEFAULT_255_2_778
10
22.3765565
20
71.7078327
40
0.1420332
50
182.9708745
51
241.1467589
0
ARC
8
DEFAULT_255_2_778
10
22.3346193
20
71.7004834
40
0.0999051
50
177.4593927
51
180.0069328
0
ARC
8
DEFAULT_255_2_778
10
22.3323121
20
71.6999104
40
0.0976279
50
128.757518
51
177.063409
0
ARC
8
DEFAULT_255_2_778
10
22.387553
20
71.6353062
40
0.1826077
50
110.1969563
51
129.5836986
0
ARC
8
DEFAULT_255_2_778
10
23.9882384
20
66.4453917
40
5.6135077
50
103.0425944
51
107.2402952
0
ARC
8
DEFAULT_255_2_778
10
22.338995
20
72.1607184
40
0.1817802
50
103.8358679
51
171.7235924
0
ARC
8
DEFAULT_255_2_778
10
22.4813886
20
71.8050877
40
0.563662
50
89.1339728
51
109.2532987
0
ARC
8
DEFAULT_255_2_778
10
22.5045885
20
71.9822922
40
0.386672
50
63.2350128
51
92.1758258
0
ARC
8
DEFAULT_255_2_778
10
22.5582842
20
72.1125708
40
0.2464038
50
15.515931
51
60.7401602
0
ARC
8
DEFAULT_255_2_778
10
23.0237188
20
71.7763559
40
0.2360219
50
194.9707419
51
208.8027044
0
ARC
8
DEFAULT_255_2_778
10
23.0280879
20
71.7635376
40
0.2340549
50
205.5359646
51
251.2641169
0
ARC
8
DEFAULT_255_2_778
10
22.9609205
20
71.6619894
40
0.1946689
50
224.500799
51
267.6410753
0
ARC
8
DEFAULT_255_2_778
10
23.0956845
20
71.8279584
40
0.4078208
50
227.2686229
51
227.862914
0
ARC
8
DEFAULT_255_2_778
10
23.1097045
20
71.8431419
40
0.4284871
50
226.860978
51
227.2692469
0
ARC
8
DEFAULT_255_2_778
10
23.1342871
20
71.8693059
40
0.4643876
50
226.4931573
51
226.8550994
0
ARC
8
DEFAULT_255_2_778
10
23.1592551
20
71.8955316
40
0.5005978
50
226.1643978
51
226.4869441
0
ARC
8
DEFAULT_255_2_778
10
23.1748207
20
71.9116323
40
0.5229924
50
225.7121608
51
226.1559926
0
ARC
8
DEFAULT_255_2_778
10
23.2154131
20
71.9531984
40
0.581091
50
225.3331309
51
225.708845
0
ARC
8
DEFAULT_255_2_778
10
23.2611871
20
71.9995613
40
0.6462431
50
224.9662768
51
225.3364648
0
ARC
8
DEFAULT_255_2_778
10
23.3527267
20
72.0910358
40
0.7756536
50
224.6613063
51
224.9685027
0
ARC
8
DEFAULT_255_2_778
10
22.3655218
20
71.1406373
40
0.5948391
50
42.9343245
51
47.7350404
0
ARC
8
DEFAULT_255_2_778
10
22.7147314
20
71.5192204
40
0.079898
50
50.4684026
51
53.1858552
0
ARC
8
DEFAULT_255_2_778
10
22.4795627
20
71.891242
40
0.4183461
50
278.0559592
51
312.5770902
0
ARC
8
DEFAULT_255_2_778
10
22.4393901
20
72.0455683
40
0.5770648
50
277.0869283
51
279.8582281
0
ARC
8
DEFAULT_255_2_778
10
22.4379482
20
72.0569024
40
0.5884901
50
270.0156186
51
277.0900958
0
ARC
8
DEFAULT_255_2_778
10
22.43305
20
71.9482258
40
0.4798402
50
253.3379353
51
270.6040432
0
ARC
8
DEFAULT_255_2_778
10
22.3553906
20
71.6994954
40
0.2193079
50
229.4595359
51
254.1429288
0
ARC
8
DEFAULT_255_2_778
10
22.2854677
20
71.612805
40
0.1080266
50
210.310556
51
227.7568904
0
ARC
8
DEFAULT_255_2_778
10
22.5192542
20
71.7399792
40
0.3741281
50
198.0070173
51
209.0547976
0
ARC
8
DEFAULT_255_2_778
10
22.3819883
20
71.6963274
40
0.2300932
50
180.6457205
51
198.2360794
0
ARC
8
DEFAULT_255_2_778
10
22.3589496
20
71.6796726
40
0.2075171
50
107.2886404
51
176.1145605
0
ARC
8
DEFAULT_255_2_778
10
22.4924026
20
71.4409818
40
0.4784305
50
110.5440765
51
114.0693479
0
ARC
8
DEFAULT_255_2_778
10
20.1005766
20
81.6550878
40
10.0161183
50
282.8286018
51
283.8715823
0
ARC
8
DEFAULT_255_2_778
10
21.9863782
20
74.0541888
40
2.1847978
50
283.6483086
51
287.2437812
0
ARC
8
DEFAULT_255_2_778
10
22.5212096
20
72.3591914
40
0.4075277
50
286.0725042
51
298.7087406
0
ARC
8
DEFAULT_255_2_778
10
22.6503736
20
72.1112947
40
0.1281903
50
301.2987541
51
303.6509919
0
ARC
8
DEFAULT_255_2_778
10
22.1101571
20
72.0368651
40
0.6121027
50
356.9770578
51
359.9605915
0
ARC
8
DEFAULT_255_2_778
10
22.4180383
20
72.0543963
40
0.3047504
50
356.62287
51
33.6201321
0
ARC
8
DEFAULT_255_2_778
10
22.5258279
20
72.1063566
40
0.1869436
50
38.6568816
51
88.8434333
0
ARC
8
DEFAULT_255_2_778
10
22.5068028
20
71.978105
40
0.3159806
50
85.8624321
51
90.0534421
0
ARC
8
DEFAULT_255_2_778
10
22.4963755
20
71.8434677
40
0.4507316
50
88.7118745
51
110.9880538
0
ARC
8
DEFAULT_255_2_778
10
22.3932158
20
72.1000742
40
0.1742563
50
109.539191
51
150.1960905
0
LINE
8
DEFAULT_255_2_778
10
22.721408
20
71.9140854
11
22.721408
21
71.6577854
0
LINE
8
DEFAULT_255_2_778
10
22.721408
20
71.9140854
11
22.721408
21
71.9140854
0
LINE
8
DEFAULT_255_2_778
10
22.795708
20
72.1784854
11
22.795708
21
71.7153854
0
LINE
8
DEFAULT_255_2_778
10
22.952908
20
71.5418854
11
22.952908
21
71.4674854
0
LINE
8
DEFAULT_255_2_778
10
22.242008
20
72.1866854
11
22.159408
21
72.1866854
0
LINE
8
DEFAULT_255_2_778
10
22.159408
20
72.1866854
11
22.159108
21
72.1868854
0
LINE
8
DEFAULT_255_2_778
10
39.2750438
20
72.1680635
11
38.9758438
21
72.1643635
0
LINE
8
DEFAULT_255_2_778
10
38.9758438
20
72.1643635
11
38.9779438
21
72.4649635
0
LINE
8
DEFAULT_255_2_778
10
38.9779438
20
72.4649635
11
38.9043438
21
72.4641635
0
LINE
8
DEFAULT_255_2_778
10
38.9043438
20
72.4641635
11
38.9043438
21
72.1641635
0
LINE
8
DEFAULT_255_2_778
10
38.9043438
20
72.1641635
11
38.6043438
21
72.1641635
0
LINE
8
DEFAULT_255_2_778
10
38.6043438
20
72.1641635
11
38.6059438
21
72.0844635
0
LINE
8
DEFAULT_255_2_778
10
38.6059438
20
72.0844635
11
38.9009438
21
72.0892635
0
LINE
8
DEFAULT_255_2_778
10
38.9009438
20
72.0892635
11
38.9035438
21
71.7868635
0
LINE
8
DEFAULT_255_2_778
10
38.9035438
20
71.7868635
11
38.9779438
21
71.7868635
0
LINE
8
DEFAULT_255_2_778
10
38.9779438
20
71.7868635
11
38.9758438
21
72.0892635
0
LINE
8
DEFAULT_255_2_778
10
38.9758438
20
72.0892635
11
39.2758438
21
72.0892635
0
LINE
8
DEFAULT_255_2_778
10
39.2758438
20
72.0892635
11
39.2755438
21
72.1672635
0
LINE
8
DEFAULT_255_2_778
10
44.3684354
20
72.126874
11
43.6575354
21
72.126874
0
LINE
8
DEFAULT_255_2_778
10
43.6575354
20
72.126874
11
43.6575354
21
72.052574
0
LINE
8
DEFAULT_255_2_778
10
43.6575354
20
72.052574
11
44.3692354
21
72.052774
0
LINE
8
DEFAULT_255_2_778
10
44.3692354
20
72.052774
11
44.3684354
21
72.126874
0
LINE
8
DEFAULT_255_2_778
10
49.6606438
20
72.1693635
11
49.3614438
21
72.1656635
0
LINE
8
DEFAULT_255_2_778
10
49.3614438
20
72.1656635
11
49.3635438
21
72.4662635
0
LINE
8
DEFAULT_255_2_778
10
49.3635438
20
72.4662635
11
49.2899438
21
72.4654635
0
LINE
8
DEFAULT_255_2_778
10
49.2899438
20
72.4654635
11
49.2899438
21
72.1654635
0
LINE
8
DEFAULT_255_2_778
10
49.2899438
20
72.1654635
11
48.9899438
21
72.1654635
0
LINE
8
DEFAULT_255_2_778
10
48.9899438
20
72.1654635
11
48.9915438
21
72.0857635
0
LINE
8
DEFAULT_255_2_778
10
48.9915438
20
72.0857635
11
49.2865438
21
72.0905635
0
LINE
8
DEFAULT_255_2_778
10
49.2865438
20
72.0905635
11
49.2891438
21
71.7881635
0
LINE
8
DEFAULT_255_2_778
10
49.2891438
20
71.7881635
11
49.3635438
21
71.7881635
0
LINE
8
DEFAULT_255_2_778
10
49.3635438
20
71.7881635
11
49.3614438
21
72.0905635
0
LINE
8
DEFAULT_255_2_778
10
49.3614438
20
72.0905635
11
49.6614438
21
72.0905635
0
LINE
8
DEFAULT_255_2_778
10
49.6614438
20
72.0905635
11
49.6611438
21
72.1685635
0
LINE
8
DEFAULT_255_2_778
10
54.7541354
20
72.127874
11
54.0432354
21
72.127874
0
LINE
8
DEFAULT_255_2_778
10
54.0432354
20
72.127874
11
54.0432354
21
72.053574
0
LINE
8
DEFAULT_255_2_778
10
54.0432354
20
72.053574
11
54.7549354
21
72.053774
0
LINE
8
DEFAULT_255_2_778
10
54.7549354
20
72.053774
11
54.7541354
21
72.127874
0
ARC
8
DEFAULT_255_2_778
10
48.0875176
20
72.5444204
40
0.4201922
50
4.1410907
51
35.3694858
0
ARC
8
DEFAULT_255_2_778
10
48.0962345
20
72.5510807
40
0.4092291
50
35.3155274
51
89.2336036
0
ARC
8
DEFAULT_255_2_778
10
48.1016885
20
72.5941113
40
0.366162
50
89.9969184
51
90.5775196
0
ARC
8
DEFAULT_255_2_778
10
48.1003163
20
72.607738
40
0.3525242
50
90.3768313
51
129.4379492
0
ARC
8
DEFAULT_255_2_778
10
48.1452586
20
72.5555275
40
0.4213992
50
129.6477698
51
149.6809505
0
ARC
8
DEFAULT_255_2_778
10
48.2812306
20
72.4744859
40
0.5796866
50
149.5508034
51
162.9281152
0
ARC
8
DEFAULT_255_2_778
10
48.4024728
20
72.4324964
40
0.7079282
50
162.5601789
51
164.2830568
0
ARC
8
DEFAULT_255_2_778
10
48.0938752
20
71.8374069
40
0.3749957
50
186.1145574
51
214.8761901
0
ARC
8
DEFAULT_255_2_778
10
48.1131417
20
71.8627545
40
0.4054136
50
216.2582403
51
270.1707793
0
ARC
8
DEFAULT_255_2_778
10
48.1178463
20
71.8817329
40
0.4244048
50
269.5280028
51
269.999996
0
ARC
8
DEFAULT_255_2_778
10
48.1243178
20
71.8328585
40
0.3755863
50
269.0127172
51
322.1148735
0
ARC
8
DEFAULT_255_2_778
10
48.0883547
20
71.8524483
40
0.4160523
50
323.0270106
51
344.7906539
0
ARC
8
DEFAULT_255_2_778
10
47.9677257
20
71.8889303
40
0.5420388
50
344.4145975
51
353.8184089
0
ARC
8
DEFAULT_255_2_778
10
47.9754721
20
71.9381544
40
0.4692418
50
326.5333501
51
346.7449317
0
ARC
8
DEFAULT_255_2_778
10
48.0733977
20
71.871613
40
0.3508605
50
297.3818532
51
326.7796191
0
ARC
8
DEFAULT_255_2_778
10
48.1073096
20
71.8097893
40
0.2803717
50
270.2967692
51
297.03882
0
ARC
8
DEFAULT_255_2_778
10
48.1085817
20
71.6918358
40
0.1624145
50
269.8092439
51
270.0635381
0
ARC
8
DEFAULT_255_2_778
10
48.1104757
20
71.8016111
40
0.2721996
50
229.1302561
51
269.4875024
0
ARC
8
DEFAULT_255_2_778
10
48.1773844
20
71.8811971
40
0.3761665
50
208.7472188
51
229.3557023
0
ARC
8
DEFAULT_255_2_778
10
48.3328748
20
71.9689925
40
0.554722
50
195.4429167
51
208.9736472
0
ARC
8
DEFAULT_255_2_778
10
48.4540755
20
72.0077103
40
0.6818753
50
195.0577992
51
195.8669842
0
ARC
8
DEFAULT_255_2_778
10
48.2273852
20
72.508251
40
0.4368349
50
152.4771488
51
171.2686064
0
ARC
8
DEFAULT_255_2_778
10
48.1266834
20
72.561575
40
0.3228897
50
122.5999079
51
152.611047
0
ARC
8
DEFAULT_255_2_778
10
48.1076973
20
72.5874133
40
0.2909003
50
89.9870976
51
122.1914045
0
ARC
8
DEFAULT_255_2_778
10
48.1077686
20
72.5856128
40
0.2927009
50
88.3634093
51
90.001127
0
ARC
8
DEFAULT_255_2_778
10
48.1054209
20
72.5719062
40
0.306475
50
44.9159542
51
87.9978676
0
ARC
8
DEFAULT_255_2_778
10
48.0552502
20
72.521047
40
0.3779134
50
21.3442906
51
45.0056504
0
ARC
8
DEFAULT_255_2_778
10
47.9576028
20
72.4792597
40
0.4840843
50
11.3542512
51
21.7443788
0
LINE
8
DEFAULT_255_2_778
10
47.7210128
20
72.6242636
11
47.7210128
21
71.7974636
0
LINE
8
DEFAULT_255_2_778
10
48.5066128
20
71.8305636
11
48.4322128
21
71.8305636
0
LINE
8
DEFAULT_255_2_778
10
47.7956128
20
71.8305636
11
47.7956128
21
72.5745636
0
LINE
8
DEFAULT_255_2_778
10
48.4322128
20
72.5745636
11
48.5066128
21
72.5745636
0
LINE
8
DEFAULT_255_2_778
10
48.5066128
20
72.5745636
11
48.5066128
21
72.5747636
0
ARC
8
DEFAULT_255_2_778
10
53.1395176
20
72.5298204
40
0.4201922
50
4.1410907
51
35.3694858
0
ARC
8
DEFAULT_255_2_778
10
53.1482345
20
72.5364807
40
0.4092291
50
35.3155274
51
89.2336036
0
ARC
8
DEFAULT_255_2_778
10
53.1536885
20
72.5795113
40
0.366162
50
89.9969184
51
90.5775196
0
ARC
8
DEFAULT_255_2_778
10
53.1523163
20
72.593138
40
0.3525242
50
90.3768313
51
129.4379492
0
ARC
8
DEFAULT_255_2_778
10
53.1972586
20
72.5409275
40
0.4213992
50
129.6477698
51
149.6809505
0
ARC
8
DEFAULT_255_2_778
10
53.3332306
20
72.4598859
40
0.5796866
50
149.5508034
51
162.9281152
0
ARC
8
DEFAULT_255_2_778
10
53.4544728
20
72.4178964
40
0.7079282
50
162.5601789
51
164.2830568
0
ARC
8
DEFAULT_255_2_778
10
53.1458752
20
71.8228069
40
0.3749957
50
186.1145574
51
214.8761901
0
ARC
8
DEFAULT_255_2_778
10
53.1651417
20
71.8481545
40
0.4054136
50
216.2582403
51
270.1707793
0
ARC
8
DEFAULT_255_2_778
10
53.1698463
20
71.8671329
40
0.4244048
50
269.5280028
51
269.999996
0
ARC
8
DEFAULT_255_2_778
10
53.1763178
20
71.8182585
40
0.3755863
50
269.0127172
51
322.1148735
0
ARC
8
DEFAULT_255_2_778
10
53.1403547
20
71.8378483
40
0.4160523
50
323.0270106
51
344.7906539
0
ARC
8
DEFAULT_255_2_778
10
53.0197257
20
71.8743303
40
0.5420388
50
344.4145975
51
353.8184089
0
ARC
8
DEFAULT_255_2_778
10
53.0274721
20
71.9235544
40
0.4692418
50
326.5333501
51
346.7449317
0
ARC
8
DEFAULT_255_2_778
10
53.1253977
20
71.857013
40
0.3508605
50
297.3818532
51
326.7796191
0
ARC
8
DEFAULT_255_2_778
10
53.1593096
20
71.7951893
40
0.2803717
50
270.2967692
51
297.03882
0
ARC
8
DEFAULT_255_2_778
10
53.1605817
20
71.6772358
40
0.1624145
50
269.8092439
51
270.0635381
0
ARC
8
DEFAULT_255_2_778
10
53.1624757
20
71.7870111
40
0.2721996
50
229.1302561
51
269.4875024
0
ARC
8
DEFAULT_255_2_778
10
53.2293844
20
71.8665971
40
0.3761665
50
208.7472188
51
229.3557023
0
ARC
8
DEFAULT_255_2_778
10
53.3848748
20
71.9543925
40
0.554722
50
195.4429167
51
208.9736472
0
ARC
8
DEFAULT_255_2_778
10
53.5060755
20
71.9931103
40
0.6818753
50
195.0577992
51
195.8669842
0
ARC
8
DEFAULT_255_2_778
10
53.2793852
20
72.493651
40
0.4368349
50
152.4771488
51
171.2686064
0
ARC
8
DEFAULT_255_2_778
10
53.1786834
20
72.546975
40
0.3228897
50
122.5999079
51
152.611047
0
ARC
8
DEFAULT_255_2_778
10
53.1596973
20
72.5728133
40
0.2909003
50
89.9870976
51
122.1914045
0
ARC
8
DEFAULT_255_2_778
10
53.1597686
20
72.5710128
40
0.2927009
50
88.3634093
51
90.001127
0
ARC
8
DEFAULT_255_2_778
10
53.1574209
20
72.5573062
40
0.306475
50
44.9159542
51
87.9978676
0
ARC
8
DEFAULT_255_2_778
10
53.1072502
20
72.506447
40
0.3779134
50
21.3442906
51
45.0056504
0
ARC
8
DEFAULT_255_2_778
10
53.0096028
20
72.4646597
40
0.4840843
50
11.3542512
51
21.7443788
0
LINE
8
DEFAULT_255_2_778
10
52.7730128
20
72.6096636
11
52.7730128
21
71.7828636
0
LINE
8
DEFAULT_255_2_778
10
53.5586128
20
71.8159636
11
53.4842128
21
71.8159636
0
LINE
8
DEFAULT_255_2_778
10
52.8476128
20
71.8159636
11
52.8476128
21
72.5599636
0
LINE
8
DEFAULT_255_2_778
10
53.4842128
20
72.5599636
11
53.5586128
21
72.5599636
0
LINE
8
DEFAULT_255_2_778
10
53.5586128
20
72.5599636
11
53.5586128
21
72.5601636
0
ARC
8
DEFAULT_255_2_778
10
43.0526024
20
71.6666848
40
0.1370692
50
241.1577676
51
268.3732073
0
ARC
8
DEFAULT_255_2_778
10
43.0846896
20
71.7360779
40
0.2134007
50
237.5260117
51
242.599274
0
ARC
8
DEFAULT_255_2_778
10
43.171812
20
71.8539058
40
0.3597277
50
212.6883026
51
235.8954886
0
ARC
8
DEFAULT_255_2_778
10
43.3335315
20
71.9663882
40
0.5566308
50
190.2754003
51
213.4426134
0
ARC
8
DEFAULT_255_2_778
10
43.3494204
20
71.9711272
40
0.5731131
50
189.4660899
51
190.4582282
0
ARC
8
DEFAULT_255_2_778
10
43.2301436
20
71.8727845
40
0.4460512
50
170.7986917
51
179.4751047
0
ARC
8
DEFAULT_255_2_778
10
43.3635236
20
71.854315
40
0.5806766
50
160.4101773
51
171.1041837
0
ARC
8
DEFAULT_255_2_778
10
43.1187721
20
71.9682632
40
0.3129107
50
106.0912104
51
165.0462118
0
ARC
8
DEFAULT_255_2_778
10
43.0849365
20
72.0172638
40
0.2571494
50
94.3546493
51
101.8698667
0
ARC
8
DEFAULT_255_2_778
10
42.9925504
20
71.9698648
40
0.3124208
50
40.6479302
51
76.5136647
0
ARC
8
DEFAULT_255_2_778
10
42.953617
20
71.9408269
40
0.3608916
50
13.966056
51
40.1192886
0
ARC
8
DEFAULT_255_2_778
10
42.9320189
20
71.9320258
40
0.3839897
50
0.177625
51
14.4626828
0
ARC
8
DEFAULT_255_2_778
10
42.9906504
20
71.9326839
40
0.3253568
50
353.0422142
51
0.0937408
0
ARC
8
DEFAULT_255_2_778
10
42.8777549
20
71.8882045
40
0.4358857
50
324.424719
51
0.6659653
0
ARC
8
DEFAULT_255_2_778
10
43.0360224
20
71.7644055
40
0.2352935
50
273.1644809
51
326.5233943
0
ARC
8
DEFAULT_255_2_778
10
43.1604745
20
71.8929044
40
0.466653
50
219.5805248
51
239.6823556
0
ARC
8
DEFAULT_255_2_778
10
43.1038593
20
71.7818137
40
0.3422518
50
238.4760401
51
255.2250662
0
ARC
8
DEFAULT_255_2_778
10
43.0511186
20
71.5900199
40
0.1433646
50
256.0583885
51
269.1577419
0
ARC
8
DEFAULT_255_2_778
10
43.0313442
20
71.7708469
40
0.3246571
50
273.1194254
51
308.5579118
0
ARC
8
DEFAULT_255_2_778
10
42.9547193
20
71.8541322
40
0.4376184
50
309.6062755
51
339.4786375
0
ARC
8
DEFAULT_255_2_778
10
42.8966138
20
71.8855635
40
0.5031369
50
338.4460052
51
350.9855964
0
ARC
8
DEFAULT_255_2_778
10
43.0266727
20
71.8650627
40
0.3714721
50
350.9654845
51
359.6764689
0
ARC
8
DEFAULT_255_2_778
10
43.1498789
20
71.8637909
40
0.2482613
50
359.8094107
51
6.3450818
0
ARC
8
DEFAULT_255_2_778
10
43.2014713
20
71.8688015
40
0.1964325
50
6.5556526
51
7.0676557
0
ARC
8
DEFAULT_255_2_778
10
43.0955783
20
71.9258557
40
0.3026249
50
353.7616102
51
0.1493327
0
ARC
8
DEFAULT_255_2_778
10
42.9595547
20
71.9232809
40
0.4386604
50
0.4393303
51
12.4256186
0
ARC
8
DEFAULT_255_2_778
10
42.8747172
20
71.9071749
40
0.5249823
50
12.1499432
51
19.2674869
0
ARC
8
DEFAULT_255_2_778
10
42.9800051
20
71.9620213
40
0.4078493
50
16.8741425
51
67.6254725
0
ARC
8
DEFAULT_255_2_778
10
43.021837
20
72.0220968
40
0.3367444
50
70.3172058
51
82.5136945
0
ARC
8
DEFAULT_255_2_778
10
43.0690271
20
72.0796341
40
0.2763566
50
90.6875049
51
126.9179528
0
ARC
8
DEFAULT_255_2_778
10
43.1692545
20
71.929425
40
0.4567635
50
125.6515673
51
132.2229927
0
ARC
8
DEFAULT_255_2_778
10
43.5303928
20
71.5396668
40
0.9880999
50
132.5425632
51
136.4526608
0
ARC
8
DEFAULT_255_2_778
10
41.8636812
20
73.1400653
40
1.3225937
50
315.1358706
51
315.9462205
0
LINE
8
DEFAULT_255_2_778
10
43.0490111
20
71.5294708
11
43.0487111
21
71.5296708
0
LINE
8
DEFAULT_255_2_778
10
42.7180111
20
72.9187708
11
42.7180111
21
71.4799708
0
LINE
8
DEFAULT_255_2_778
10
42.7180111
20
71.4799708
11
42.8008111
21
71.4799708
0
LINE
8
DEFAULT_255_2_778
10
42.8008111
20
71.4799708
11
42.8008111
21
71.5955708
0
LINE
8
DEFAULT_255_2_778
10
42.8011111
20
72.2070708
11
42.8011111
21
72.9179708
0
LINE
8
DEFAULT_255_2_778
10
42.8011111
20
72.9179708
11
42.7180111
21
72.9187708
0
ARC
8
DEFAULT_255_2_778
10
38.0015024
20
71.6750848
40
0.1370692
50
241.1577676
51
268.3732073
0
ARC
8
DEFAULT_255_2_778
10
38.0335896
20
71.7444779
40
0.2134007
50
237.5260117
51
242.599274
0
ARC
8
DEFAULT_255_2_778
10
38.120712
20
71.8623058
40
0.3597277
50
212.6883026
51
235.8954886
0
ARC
8
DEFAULT_255_2_778
10
38.2824315
20
71.9747882
40
0.5566308
50
190.2754003
51
213.4426134
0
ARC
8
DEFAULT_255_2_778
10
38.2983204
20
71.9795272
40
0.5731131
50
189.4660899
51
190.4582282
0
ARC
8
DEFAULT_255_2_778
10
38.1790436
20
71.8811845
40
0.4460512
50
170.7986917
51
179.4751047
0
ARC
8
DEFAULT_255_2_778
10
38.3124236
20
71.862715
40
0.5806766
50
160.4101773
51
171.1041837
0
ARC
8
DEFAULT_255_2_778
10
38.0676721
20
71.9766632
40
0.3129107
50
106.0912104
51
165.0462118
0
ARC
8
DEFAULT_255_2_778
10
38.0338365
20
72.0256638
40
0.2571494
50
94.3546493
51
101.8698667
0
ARC
8
DEFAULT_255_2_778
10
37.9414504
20
71.9782648
40
0.3124208
50
40.6479302
51
76.5136647
0
ARC
8
DEFAULT_255_2_778
10
37.902517
20
71.9492269
40
0.3608916
50
13.966056
51
40.1192886
0
ARC
8
DEFAULT_255_2_778
10
37.8809189
20
71.9404258
40
0.3839897
50
0.177625
51
14.4626828
0
ARC
8
DEFAULT_255_2_778
10
37.9395504
20
71.9410839
40
0.3253568
50
353.0422142
51
0.0937408
0
ARC
8
DEFAULT_255_2_778
10
37.8266549
20
71.8966045
40
0.4358857
50
324.424719
51
0.6659653
0
ARC
8
DEFAULT_255_2_778
10
37.9849224
20
71.7728055
40
0.2352935
50
273.1644809
51
326.5233943
0
ARC
8
DEFAULT_255_2_778
10
38.1093745
20
71.9013044
40
0.466653
50
219.5805248
51
239.6823556
0
ARC
8
DEFAULT_255_2_778
10
38.0527593
20
71.7902137
40
0.3422518
50
238.4760401
51
255.2250662
0
ARC
8
DEFAULT_255_2_778
10
38.0000186
20
71.5984199
40
0.1433646
50
256.0583885
51
269.1577419
0
ARC
8
DEFAULT_255_2_778
10
37.9802442
20
71.7792469
40
0.3246571
50
273.1194254
51
308.5579118
0
ARC
8
DEFAULT_255_2_778
10
37.9036193
20
71.8625322
40
0.4376184
50
309.6062755
51
339.4786375
0
ARC
8
DEFAULT_255_2_778
10
37.8455138
20
71.8939635
40
0.5031369
50
338.4460052
51
350.9855964
0
ARC
8
DEFAULT_255_2_778
10
37.9755727
20
71.8734627
40
0.3714721
50
350.9654845
51
359.6764689
0
ARC
8
DEFAULT_255_2_778
10
38.0987789
20
71.8721909
40
0.2482613
50
359.8094107
51
6.3450818
0
ARC
8
DEFAULT_255_2_778
10
38.1503713
20
71.8772015
40
0.1964325
50
6.5556526
51
7.0676557
0
ARC
8
DEFAULT_255_2_778
10
38.0444783
20
71.9342557
40
0.3026249
50
353.7616102
51
0.1493327
0
ARC
8
DEFAULT_255_2_778
10
37.9084547
20
71.9316809
40
0.4386604
50
0.4393303
51
12.4256186
0
ARC
8
DEFAULT_255_2_778
10
37.8236172
20
71.9155749
40
0.5249823
50
12.1499432
51
19.2674869
0
ARC
8
DEFAULT_255_2_778
10
37.9289051
20
71.9704213
40
0.4078493
50
16.8741425
51
67.6254725
0
ARC
8
DEFAULT_255_2_778
10
37.970737
20
72.0304968
40
0.3367444
50
70.3172058
51
82.5136945
0
ARC
8
DEFAULT_255_2_778
10
38.0179271
20
72.0880341
40
0.2763566
50
90.6875049
51
126.9179528
0
ARC
8
DEFAULT_255_2_778
10
38.1181545
20
71.937825
40
0.4567635
50
125.6515673
51
132.2229927
0
ARC
8
DEFAULT_255_2_778
10
38.4792928
20
71.5480668
40
0.9880999
50
132.5425632
51
136.4526608
0
ARC
8
DEFAULT_255_2_778
10
36.8125812
20
73.1484653
40
1.3225937
50
315.1358706
51
315.9462205
0
LINE
8
DEFAULT_255_2_778
10
37.9979111
20
71.5378708
11
37.9976111
21
71.5380708
0
LINE
8
DEFAULT_255_2_778
10
37.6669111
20
72.9271708
11
37.6669111
21
71.4883708
0
LINE
8
DEFAULT_255_2_778
10
37.6669111
20
71.4883708
11
37.7497111
21
71.4883708
0
LINE
8
DEFAULT_255_2_778
10
37.7497111
20
71.4883708
11
37.7497111
21
71.6039708
0
LINE
8
DEFAULT_255_2_778
10
37.7500111
20
72.2154708
11
37.7500111
21
72.9263708
0
LINE
8
DEFAULT_255_2_778
10
37.7500111
20
72.9263708
11
37.6669111
21
72.9271708
0
LINE
8
DEFAULT_255_2_778
10
60.5086438
20
72.1693635
11
60.2094438
21
72.1656635
0
LINE
8
DEFAULT_255_2_778
10
60.2094438
20
72.1656635
11
60.2115438
21
72.4662635
0
LINE
8
DEFAULT_255_2_778
10
60.2115438
20
72.4662635
11
60.1379438
21
72.4654635
0
LINE
8
DEFAULT_255_2_778
10
60.1379438
20
72.4654635
11
60.1379438
21
72.1654635
0
LINE
8
DEFAULT_255_2_778
10
60.1379438
20
72.1654635
11
59.8379438
21
72.1654635
0
LINE
8
DEFAULT_255_2_778
10
59.8379438
20
72.1654635
11
59.8395438
21
72.0857635
0
LINE
8
DEFAULT_255_2_778
10
59.8395438
20
72.0857635
11
60.1345438
21
72.0905635
0
LINE
8
DEFAULT_255_2_778
10
60.1345438
20
72.0905635
11
60.1371438
21
71.7881635
0
LINE
8
DEFAULT_255_2_778
10
60.1371438
20
71.7881635
11
60.2115438
21
71.7881635
0
LINE
8
DEFAULT_255_2_778
10
60.2115438
20
71.7881635
11
60.2094438
21
72.0905635
0
LINE
8
DEFAULT_255_2_778
10
60.2094438
20
72.0905635
11
60.5094438
21
72.0905635
0
LINE
8
DEFAULT_255_2_778
10
60.5094438
20
72.0905635
11
60.5091438
21
72.1685635
0
LINE
8
DEFAULT_255_2_778
10
65.6020354
20
72.127874
11
64.8911354
21
72.127874
0
LINE
8
DEFAULT_255_2_778
10
64.8911354
20
72.127874
11
64.8911354
21
72.053574
0
LINE
8
DEFAULT_255_2_778
10
64.8911354
20
72.053574
11
65.6028354
21
72.053774
0
LINE
8
DEFAULT_255_2_778
10
65.6028354
20
72.053774
11
65.6020354
21
72.127874
0
ARC
8
DEFAULT_255_2_778
10
58.9437738
20
72.1880064
40
0.2981799
50
8.5112314
51
74.0657498
0
ARC
8
DEFAULT_255_2_778
10
58.8927405
20
72.0931685
40
0.4040416
50
70.7972862
51
89.9240182
0
ARC
8
DEFAULT_255_2_778
10
58.8932764
20
72.1069287
40
0.390281
50
90.0000029
51
90.4182729
0
ARC
8
DEFAULT_255_2_778
10
58.8855621
20
72.1645021
40
0.3327327
50
89.1622111
51
139.8574922
0
ARC
8
DEFAULT_255_2_778
10
58.9135159
20
72.1496522
40
0.3637366
50
140.9081559
51
161.3054606
0
ARC
8
DEFAULT_255_2_778
10
58.8334021
20
71.7481708
40
0.2691987
50
190.7978207
51
253.6095954
0
ARC
8
DEFAULT_255_2_778
10
58.90637
20
71.9015976
40
0.437796
50
250.1120034
51
269.7253698
0
ARC
8
DEFAULT_255_2_778
10
58.9072979
20
71.9127242
40
0.4489277
50
269.6137472
51
269.9961732
0
ARC
8
DEFAULT_255_2_778
10
58.9246332
20
71.7969917
40
0.3336473
50
267.0165954
51
325.6661757
0
ARC
8
DEFAULT_255_2_778
10
58.9513505
20
71.757129
40
0.2896524
50
329.1989752
51
352.7226604
0
ARC
8
DEFAULT_255_2_778
10
58.8975394
20
71.8023347
40
0.2894576
50
303.5729134
51
343.5647551
0
ARC
8
DEFAULT_255_2_778
10
58.8985876
20
71.8014932
40
0.2881772
50
270.1326271
51
303.4917974
0
LINE
8
DEFAULT_255_2_778
10
58.8992547
20
71.5133168
11
58.8986542
21
71.5133175
0
ARC
8
DEFAULT_255_2_778
10
58.8978821
20
71.7797471
40
0.2664307
50
221.6072436
51
270.1660347
0
ARC
8
DEFAULT_255_2_778
10
58.9459708
20
71.8200931
40
0.3291825
50
198.437568
51
221.3001099
0
ARC
8
DEFAULT_255_2_778
10
59.0134508
20
71.8476528
40
0.4019437
50
198.4513302
51
199.122252
0
ARC
8
DEFAULT_255_2_778
10
58.8809357
20
72.1853094
40
0.2531351
50
134.3077136
51
169.3391779
0
ARC
8
DEFAULT_255_2_778
10
58.8940752
20
72.1621566
40
0.2789635
50
89.1307385
51
132.9171304
0
ARC
8
DEFAULT_255_2_778
10
58.898298
20
72.1312903
40
0.3097977
50
88.6483519
51
89.9982783
0
ARC
8
DEFAULT_255_2_778
10
58.9052489
20
72.1610625
40
0.2799397
50
26.6062348
51
89.9269813
0
ARC
8
DEFAULT_255_2_778
10
58.8958069
20
72.1618617
40
0.2880665
50
14.1203079
51
25.6229962
0
LINE
8
DEFAULT_255_2_778
10
58.5689698
20
72.266238
11
58.5689698
21
71.697738
0
LINE
8
DEFAULT_255_2_778
10
59.2386698
20
71.720438
11
59.1751698
21
71.720438
0
LINE
8
DEFAULT_255_2_778
10
58.6321698
20
71.720438
11
58.6321698
21
72.232138
0
LINE
8
DEFAULT_255_2_778
10
59.1751698
20
72.232138
11
59.2386698
21
72.232138
0
LINE
8
DEFAULT_255_2_778
10
59.2386698
20
72.232138
11
59.2386698
21
72.232138
0
ARC
8
DEFAULT_255_2_778
10
63.9956738
20
72.1735064
40
0.2981799
50
8.5112314
51
74.0657498
0
ARC
8
DEFAULT_255_2_778
10
63.9446405
20
72.0786685
40
0.4040416
50
70.7972862
51
89.9240182
0
ARC
8
DEFAULT_255_2_778
10
63.9451764
20
72.0924287
40
0.390281
50
90.0000029
51
90.4182729
0
ARC
8
DEFAULT_255_2_778
10
63.9374621
20
72.1500021
40
0.3327327
50
89.1622111
51
139.8574922
0
ARC
8
DEFAULT_255_2_778
10
63.9654159
20
72.1351522
40
0.3637366
50
140.9081559
51
161.3054606
0
ARC
8
DEFAULT_255_2_778
10
63.8853021
20
71.7336708
40
0.2691987
50
190.7978207
51
253.6095954
0
ARC
8
DEFAULT_255_2_778
10
63.95827
20
71.8870976
40
0.437796
50
250.1120034
51
269.7253698
0
ARC
8
DEFAULT_255_2_778
10
63.9591979
20
71.8982242
40
0.4489277
50
269.6137472
51
269.9961732
0
ARC
8
DEFAULT_255_2_778
10
63.9765332
20
71.7824917
40
0.3336473
50
267.0165954
51
325.6661757
0
ARC
8
DEFAULT_255_2_778
10
64.0032505
20
71.742629
40
0.2896524
50
329.1989752
51
352.7226604
0
ARC
8
DEFAULT_255_2_778
10
63.9494394
20
71.7878347
40
0.2894576
50
303.5729134
51
343.5647551
0
ARC
8
DEFAULT_255_2_778
10
63.9504876
20
71.7869932
40
0.2881772
50
270.1326271
51
303.4917974
0
LINE
8
DEFAULT_255_2_778
10
63.9511547
20
71.4988168
11
63.9505542
21
71.4988175
0
ARC
8
DEFAULT_255_2_778
10
63.9497821
20
71.7652471
40
0.2664307
50
221.6072436
51
270.1660347
0
ARC
8
DEFAULT_255_2_778
10
63.9978708
20
71.8055931
40
0.3291825
50
198.437568
51
221.3001099
0
ARC
8
DEFAULT_255_2_778
10
64.0653508
20
71.8331528
40
0.4019437
50
198.4513302
51
199.122252
0
ARC
8
DEFAULT_255_2_778
10
63.9328357
20
72.1708094
40
0.2531351
50
134.3077136
51
169.3391779
0
ARC
8
DEFAULT_255_2_778
10
63.9459752
20
72.1476566
40
0.2789635
50
89.1307385
51
132.9171304
0
ARC
8
DEFAULT_255_2_778
10
63.950198
20
72.1167903
40
0.3097977
50
88.6483519
51
89.9982783
0
ARC
8
DEFAULT_255_2_778
10
63.9571489
20
72.1465625
40
0.2799397
50
26.6062348
51
89.9269813
0
ARC
8
DEFAULT_255_2_778
10
63.9477069
20
72.1473617
40
0.2880665
50
14.1203079
51
25.6229962
0
LINE
8
DEFAULT_255_2_778
10
63.6208698
20
72.251738
11
63.6208698
21
71.683238
0
LINE
8
DEFAULT_255_2_778
10
64.2905698
20
71.705938
11
64.2270698
21
71.705938
0
LINE
8
DEFAULT_255_2_778
10
63.6840698
20
71.705938
11
63.6840698
21
72.217638
0
LINE
8
DEFAULT_255_2_778
10
64.2270698
20
72.217638
11
64.2905698
21
72.217638
0
LINE
8
DEFAULT_255_2_778
10
64.2905698
20
72.217638
11
64.2905698
21
72.217638
0
LINE
8
DEFAULT_255_2_778
10
2.5508395
20
70.6465614
11
69.1509395
21
70.6465614
0
LINE
8
DEFAULT_255_2_778
10
69.1509395
20
70.6465614
11
69.1509395
21
73.7466614
0
LINE
8
DEFAULT_255_2_778
10
69.1509395
20
73.7466614
11
2.5508395
21
73.7466614
0
LINE
8
DEFAULT_255_2_778
10
2.5508395
20
73.7466614
11
2.5508395
21
70.6465614
0
LINE
8
DEFAULT_255_2_778
10
2.650852
20
70.7465489
11
69.050952
21
70.7465489
0
LINE
8
DEFAULT_255_2_778
10
69.050952
20
70.7465489
11
69.050952
21
73.6466489
0
LINE
8
DEFAULT_255_2_778
10
69.050952
20
73.6466489
11
2.650852
21
73.6466489
0
LINE
8
DEFAULT_255_2_778
10
2.650852
20
73.6466489
11
2.650852
21
70.7465489
0
ENDSEC
0
EOF