0
SECTION
2
HEADER
9
$MEASUREMENT
70
1
0
ENDSEC
0
SECTION
2
TABLES
0
TABLE
2
LTYPE
0
LTYPE
72
65
70
64
2
CONTINUOUS
3
______
73
0
40
0
0
ENDTAB
0
TABLE
2
LAYER
0
LAYER
2
DEFAULT_255_2_778
70
0
62
255
6
CONTINUOUS
0
ENDTAB
0
ENDSEC
0
SECTION
2
ENTITIES
0
ARC
8
DEFAULT_255_2_778
10
7.4505756
20
95.0462163
40
0.800141
50
0.0092561
51
45.0044694
0
ARC
8
DEFAULT_255_2_778
10
7.4509497
20
95.0474204
40
0.7990253
50
44.9623894
51
90.002371
0
ARC
8
DEFAULT_255_2_778
10
1.0510459
20
95.0463045
40
0.800141
50
90.0092561
51
135.0044694
0
ARC
8
DEFAULT_255_2_778
10
1.0509576
20
95.0462163
40
0.800141
50
134.9955306
51
179.9907439
0
ARC
8
DEFAULT_255_2_778
10
1.0509576
20
8.6465748
40
0.800141
50
180.0092561
51
225.0044694
0
ARC
8
DEFAULT_255_2_778
10
1.0510459
20
8.6464865
40
0.800141
50
224.9955306
51
269.9907439
0
ARC
8
DEFAULT_255_2_778
10
70.6508184
20
87.0469618
40
0.7995837
50
44.9688628
51
89.9929601
0
ARC
8
DEFAULT_255_2_778
10
70.651432
20
87.0463469
40
0.7995846
50
0.0070665
51
45.0311126
0
ARC
8
DEFAULT_255_2_778
10
70.6511995
20
0.6465405
40
0.7998171
50
314.9757921
51
359.9931946
0
ARC
8
DEFAULT_255_2_778
10
70.6507836
20
0.6462543
40
0.7999088
50
270.00953
51
315.0113601
0
ARC
8
DEFAULT_255_2_778
10
64.2510459
20
0.6464865
40
0.800141
50
224.9955306
51
269.9907439
0
ARC
8
DEFAULT_255_2_778
10
64.2509576
20
0.6465748
40
0.800141
50
180.0092561
51
225.0044694
0
LINE
8
DEFAULT_255_2_778
10
8.2507166
20
87.8465455
11
8.2507166
21
95.0463455
0
LINE
8
DEFAULT_255_2_778
10
7.4509166
20
95.8464455
11
1.0509166
21
95.8464455
0
LINE
8
DEFAULT_255_2_778
10
0.2508166
20
95.0463455
11
0.2508166
21
8.6464455
0
LINE
8
DEFAULT_255_2_778
10
1.0509166
20
7.8463455
11
69.3510166
21
7.8463455
0
LINE
8
DEFAULT_255_2_778
10
69.3510166
20
7.8463455
11
69.3510166
21
21.3463455
0
LINE
8
DEFAULT_255_2_778
10
69.3510166
20
21.3463455
11
2.3508166
21
21.3463455
0
LINE
8
DEFAULT_255_2_778
10
2.3508166
20
21.3463455
11
2.3508166
21
7.8463455
0
LINE
8
DEFAULT_255_2_778
10
71.4510166
20
87.0464455
11
71.4510166
21
0.6464455
0
LINE
8
DEFAULT_255_2_778
10
70.6509166
20
-0.1536545
11
64.2509166
21
-0.1536545
0
LINE
8
DEFAULT_255_2_778
10
63.4508166
20
0.6464455
11
63.4508166
21
7.8465455
0
ARC
8
DEFAULT_255_2_778
10
7.4509079
20
95.0461486
40
0.800141
50
0.0092561
51
45.0044694
0
ARC
8
DEFAULT_255_2_778
10
7.4508196
20
95.0462368
40
0.800141
50
44.9955306
51
89.9907439
0
ARC
8
DEFAULT_255_2_778
10
1.0510782
20
95.0462368
40
0.800141
50
90.0092561
51
135.0044694
0
ARC
8
DEFAULT_255_2_778
10
1.0509899
20
95.0461486
40
0.800141
50
134.9955306
51
179.9907439
0
ARC
8
DEFAULT_255_2_778
10
1.0509899
20
8.6465071
40
0.800141
50
180.0092561
51
225.0044694
0
ARC
8
DEFAULT_255_2_778
10
1.0510782
20
8.6464188
40
0.800141
50
224.9955306
51
269.9907439
0
ARC
8
DEFAULT_255_2_778
10
64.2507577
20
0.6462109
40
0.7999088
50
180.00953
51
225.0113601
0
ARC
8
DEFAULT_255_2_778
10
64.2510443
20
0.6457958
40
0.799818
50
224.9758167
51
269.993168
0
ARC
8
DEFAULT_255_2_778
10
70.6508497
20
0.6455637
40
0.7995859
50
270.0071064
51
315.0310757
0
ARC
8
DEFAULT_255_2_778
10
70.651452
20
0.6457574
40
0.7992969
50
314.9907398
51
0.0229662
0
ARC
8
DEFAULT_255_2_778
10
70.6514531
20
87.0466987
40
0.7992959
50
359.9769969
51
45.0092884
0
ARC
8
DEFAULT_255_2_778
10
70.6508507
20
87.0468941
40
0.7995837
50
44.9688628
51
89.9929601
0
LINE
8
DEFAULT_255_2_778
10
1.0512489
20
88.6462778
11
8.2447489
21
88.6462778
0
LINE
8
DEFAULT_255_2_778
10
8.2447489
20
88.6462778
11
8.2447489
21
87.8524778
0
LINE
8
DEFAULT_255_2_778
10
8.2447489
20
87.8524778
11
1.0512489
21
87.8524778
0
LINE
8
DEFAULT_255_2_778
10
1.0512489
20
87.8524778
11
1.0512489
21
88.6462778
0
LINE
8
DEFAULT_255_2_778
10
8.2507489
20
88.6462778
11
1.0509489
21
88.6462778
0
LINE
8
DEFAULT_255_2_778
10
1.0509489
20
88.6462778
11
1.0509489
21
87.8461778
0
LINE
8
DEFAULT_255_2_778
10
1.0509489
20
87.8461778
11
8.2510489
21
87.8461778
0
LINE
8
DEFAULT_255_2_778
10
8.2510489
20
87.8461778
11
8.2481489
21
88.6536778
0
LINE
8
DEFAULT_255_2_778
10
8.2481489
20
88.6536778
11
8.2510489
21
95.0462778
0
LINE
8
DEFAULT_255_2_778
10
7.4509489
20
95.8463778
11
1.0509489
21
95.8463778
0
LINE
8
DEFAULT_255_2_778
10
0.2508489
20
95.0462778
11
0.2508489
21
8.6463778
0
LINE
8
DEFAULT_255_2_778
10
1.0509489
20
7.8462778
11
2.3508489
21
7.8462778
0
LINE
8
DEFAULT_255_2_778
10
2.3508489
20
7.8462778
11
63.4508489
21
7.8462778
0
LINE
8
DEFAULT_255_2_778
10
63.4508489
20
7.8462778
11
63.4508489
21
0.6460778
0
LINE
8
DEFAULT_255_2_778
10
64.2509489
20
-0.1540222
11
70.6509489
21
-0.1540222
0
LINE
8
DEFAULT_255_2_778
10
71.4507489
20
0.6460778
11
71.4507489
21
33.6462778
0
LINE
8
DEFAULT_255_2_778
10
71.4507489
20
33.6462778
11
71.4507489
21
87.0463778
0
LINE
8
DEFAULT_255_2_778
10
70.6509489
20
87.8464778
11
8.2510489
21
87.8461778
0
LINE
8
DEFAULT_255_2_778
10
2.5508617
20
25.0463291
11
20.1009617
21
25.0463291
0
LINE
8
DEFAULT_255_2_778
10
20.1009617
20
25.0463291
11
20.1009617
21
21.9464291
0
LINE
8
DEFAULT_255_2_778
10
20.1009617
20
21.9464291
11
2.5508617
21
21.9464291
0
LINE
8
DEFAULT_255_2_778
10
2.5508617
20
21.9464291
11
2.5508617
21
25.0463291
0
LINE
8
DEFAULT_255_2_778
10
2.6508742
20
24.9462489
11
20.0009742
21
24.9462489
0
LINE
8
DEFAULT_255_2_778
10
20.0009742
20
24.9462489
11
20.0009742
21
22.0461489
0
LINE
8
DEFAULT_255_2_778
10
20.0009742
20
22.0461489
11
2.6508742
21
22.0461489
0
LINE
8
DEFAULT_255_2_778
10
2.6508742
20
22.0461489
11
2.6508742
21
24.9462489
0
LINE
8
DEFAULT_255_2_778
10
12.1007531
20
24.2139083
11
12.1007531
21
22.7513083
0
LINE
8
DEFAULT_255_2_778
10
12.1007531
20
22.7513083
11
12.8508531
21
22.7513083
0
LINE
8
DEFAULT_255_2_778
10
12.175898
20
24.2138385
11
12.175898
21
22.8264385
0
LINE
8
DEFAULT_255_2_778
10
12.175898
20
22.8264385
11
12.850798
21
22.8264385
0
LINE
8
DEFAULT_255_2_778
10
14.050198
20
23.4632385
11
13.750198
21
23.4632385
0
LINE
8
DEFAULT_255_2_778
10
13.750198
20
23.4632385
11
13.752298
21
23.7641385
0
LINE
8
DEFAULT_255_2_778
10
13.752298
20
23.7641385
11
13.678698
21
23.7633385
0
LINE
8
DEFAULT_255_2_778
10
13.678698
20
23.7633385
11
13.678698
21
23.4632385
0
LINE
8
DEFAULT_255_2_778
10
13.678698
20
23.4632385
11
13.378698
21
23.4632385
0
LINE
8
DEFAULT_255_2_778
10
13.378698
20
23.4632385
11
13.380298
21
23.3836385
0
LINE
8
DEFAULT_255_2_778
10
13.380298
20
23.3836385
11
13.675298
21
23.3883385
0
LINE
8
DEFAULT_255_2_778
10
13.675298
20
23.3883385
11
13.677898
21
23.0859385
0
LINE
8
DEFAULT_255_2_778
10
13.677898
20
23.0859385
11
13.752298
21
23.0859385
0
LINE
8
DEFAULT_255_2_778
10
13.752298
20
23.0859385
11
13.750198
21
23.3883385
0
LINE
8
DEFAULT_255_2_778
10
13.750198
20
23.3883385
11
14.050198
21
23.3883385
0
LINE
8
DEFAULT_255_2_778
10
14.050198
20
23.3883385
11
14.049898
21
23.4664385
0
LINE
8
DEFAULT_255_2_778
10
8.458798
20
22.7830385
11
8.472498
21
24.1511385
0
LINE
8
DEFAULT_255_2_778
10
8.472498
20
24.1511385
11
8.044998
21
23.3058385
0
LINE
8
DEFAULT_255_2_778
10
8.044998
20
23.3058385
11
7.969798
21
23.3058385
0
LINE
8
DEFAULT_255_2_778
10
7.969798
20
23.3058385
11
7.542198
21
24.1511385
0
LINE
8
DEFAULT_255_2_778
10
7.542198
20
24.1511385
11
7.555998
21
22.7830385
0
LINE
8
DEFAULT_255_2_778
10
7.555998
20
22.7830385
11
7.482498
21
22.7814385
0
LINE
8
DEFAULT_255_2_778
10
7.482498
20
22.7814385
11
7.480598
21
24.2530385
0
LINE
8
DEFAULT_255_2_778
10
7.480598
20
24.2530385
11
7.555698
21
24.2530385
0
LINE
8
DEFAULT_255_2_778
10
7.555698
20
24.2530385
11
8.007098
21
23.3939385
0
LINE
8
DEFAULT_255_2_778
10
8.007098
20
23.3939385
11
8.458498
21
24.2530385
0
LINE
8
DEFAULT_255_2_778
10
8.458498
20
24.2530385
11
8.533598
21
24.2530385
0
LINE
8
DEFAULT_255_2_778
10
8.533598
20
24.2530385
11
8.532598
21
22.7811385
0
LINE
8
DEFAULT_255_2_778
10
8.532598
20
22.7811385
11
8.456598
21
22.7811385
0
LINE
8
DEFAULT_255_2_778
10
12.0975615
20
24.2202385
11
12.0975615
21
22.7483385
0
LINE
8
DEFAULT_255_2_778
10
12.0975615
20
22.7483385
11
12.8582615
21
22.7483385
0
LINE
8
DEFAULT_255_2_778
10
12.8582615
20
22.7483385
11
12.8582615
21
22.8309385
0
LINE
8
DEFAULT_255_2_778
10
12.8582615
20
22.8309385
11
12.1803615
21
22.8309385
0
LINE
8
DEFAULT_255_2_778
10
12.1803615
20
22.8309385
11
12.1803615
21
24.2199385
0
LINE
8
DEFAULT_255_2_778
10
12.1803615
20
24.2199385
11
12.0975615
21
24.2202385
0
LINE
8
DEFAULT_255_2_778
10
17.9265677
20
22.6411948
11
18.3977677
21
22.6411948
0
LINE
8
DEFAULT_255_2_778
10
18.3977677
20
22.6411948
11
18.3977677
21
22.5252948
0
LINE
8
DEFAULT_255_2_778
10
18.3977677
20
22.5252948
11
17.9265677
21
22.5252948
0
LINE
8
DEFAULT_255_2_778
10
17.9265677
20
22.5252948
11
17.9265677
21
22.6411948
0
LINE
8
DEFAULT_255_2_778
10
17.7032677
20
23.0298948
11
18.7036677
21
23.0298948
0
LINE
8
DEFAULT_255_2_778
10
18.7036677
20
23.0298948
11
18.7036677
21
22.9306948
0
LINE
8
DEFAULT_255_2_778
10
18.7036677
20
22.9306948
11
17.7032677
21
22.9306948
0
LINE
8
DEFAULT_255_2_778
10
17.7032677
20
22.9306948
11
17.7032677
21
23.0298948
0
LINE
8
DEFAULT_255_2_778
10
18.1249677
20
24.5924948
11
18.1331677
21
23.4100948
0
LINE
8
DEFAULT_255_2_778
10
18.1331677
20
23.4100948
11
17.5214677
21
23.4100948
0
LINE
8
DEFAULT_255_2_778
10
17.5214677
20
23.4100948
11
17.5214677
21
23.3108948
0
LINE
8
DEFAULT_255_2_778
10
17.5214677
20
23.3108948
11
18.9187677
21
23.3108948
0
LINE
8
DEFAULT_255_2_778
10
18.9187677
20
23.3108948
11
18.9187677
21
23.4100948
0
LINE
8
DEFAULT_255_2_778
10
18.9187677
20
23.4100948
11
18.2323677
21
23.4100948
0
LINE
8
DEFAULT_255_2_778
10
18.2323677
20
23.4100948
11
18.2323677
21
24.5924948
0
LINE
8
DEFAULT_255_2_778
10
18.2323677
20
24.5924948
11
18.1249677
21
24.5924948
0
ARC
8
DEFAULT_255_2_778
10
84.6479928
20
47.8969612
40
14.4972831
50
195.093739
51
204.3903933
0
LINE
8
DEFAULT_255_2_778
10
70.65085
20
64.946483
11
70.65085
21
62.246383
0
LINE
8
DEFAULT_255_2_778
10
70.65085
20
62.246383
11
70.89715
21
62.285283
0
LINE
8
DEFAULT_255_2_778
10
70.89715
20
62.285283
11
71.12235
21
62.400183
0
LINE
8
DEFAULT_255_2_778
10
71.12235
20
62.400183
11
71.29725
21
62.574783
0
LINE
8
DEFAULT_255_2_778
10
71.29725
20
62.574783
11
71.41205
21
62.799883
0
LINE
8
DEFAULT_255_2_778
10
71.41205
20
62.799883
11
71.45095
21
63.046483
0
LINE
8
DEFAULT_255_2_778
10
71.45095
20
41.658883
11
71.45015
21
41.740383
0
LINE
8
DEFAULT_255_2_778
10
71.45015
20
41.740383
11
71.44805
21
41.824283
0
LINE
8
DEFAULT_255_2_778
10
71.44805
20
41.824283
11
71.44455
21
41.910283
0
ARC
8
DEFAULT_255_2_778
10
84.6650034
20
47.8890259
40
14.5156687
50
155.6112311
51
164.8951
0
LINE
8
DEFAULT_255_2_778
10
71.4509459
20
54.1343215
11
71.4501459
21
54.0528215
0
LINE
8
DEFAULT_255_2_778
10
71.4501459
20
54.0528215
11
71.4480459
21
53.9689215
0
LINE
8
DEFAULT_255_2_778
10
71.4480459
20
53.9689215
11
71.4446459
21
53.8829215
0
LINE
8
DEFAULT_255_2_778
10
70.6508459
20
30.7465215
11
70.6508459
21
33.4465215
0
LINE
8
DEFAULT_255_2_778
10
70.6508459
20
33.4465215
11
66.3508459
21
33.4465215
0
ARC
8
DEFAULT_255_2_778
10
65.5993909
20
34.1512154
40
0.9052864
50
302.8585221
51
326.1203437
0
LINE
8
DEFAULT_255_2_778
10
66.090569
20
33.3907631
11
66.174669
21
33.3909631
0
LINE
8
DEFAULT_255_2_778
10
66.174669
20
33.3909631
11
66.350969
21
33.3994631
0
LINE
8
DEFAULT_255_2_778
10
66.350969
20
33.3994631
11
66.350969
21
33.6465631
0
LINE
8
DEFAULT_255_2_778
10
66.090569
20
33.3907631
11
66.090569
21
33.3907631
0
LINE
8
DEFAULT_255_2_778
10
54.200969
20
62.2464631
11
52.100969
21
62.2464631
0
LINE
8
DEFAULT_255_2_778
10
52.100969
20
33.4465631
11
52.100969
21
62.2464631
0
LINE
8
DEFAULT_255_2_778
10
52.020269
20
62.3271631
11
52.100969
21
62.2464631
0
LINE
8
DEFAULT_255_2_778
10
52.020269
20
33.3658631
11
52.100769
21
33.4462631
0
LINE
8
DEFAULT_255_2_778
10
54.200969
20
33.4465631
11
52.100969
21
33.4465631
0
LINE
8
DEFAULT_255_2_778
10
52.020269
20
33.3658631
11
51.220469
21
32.5660631
0
LINE
8
DEFAULT_255_2_778
10
51.2204472
20
63.1269808
11
51.2204472
21
32.5659808
0
LINE
8
DEFAULT_255_2_778
10
52.0202472
20
33.3658808
11
70.6509472
21
33.3658808
0
LINE
8
DEFAULT_255_2_778
10
70.6509472
20
33.3658808
11
70.8940472
21
33.3279808
0
LINE
8
DEFAULT_255_2_778
10
70.8940472
20
33.3279808
11
71.1173472
21
33.2158808
0
LINE
8
DEFAULT_255_2_778
10
71.1173472
20
33.2158808
11
71.2967472
21
33.0380808
0
LINE
8
DEFAULT_255_2_778
10
71.2967472
20
33.0380808
11
71.4113472
21
32.8144808
0
LINE
8
DEFAULT_255_2_778
10
71.4113472
20
32.8144808
11
71.4507472
21
32.5659808
0
LINE
8
DEFAULT_255_2_778
10
71.4507472
20
32.5659808
11
51.2204472
21
32.5659808
0
LINE
8
DEFAULT_255_2_778
10
52.0202472
20
62.3271808
11
52.0202472
21
33.3660808
0
LINE
8
DEFAULT_255_2_778
10
52.0202472
20
62.327134
11
51.2204472
21
63.126934
0
LINE
8
DEFAULT_255_2_778
10
52.0202472
20
62.327134
11
70.6509472
21
62.327134
0
LINE
8
DEFAULT_255_2_778
10
70.6509472
20
62.327134
11
70.8980472
21
62.366234
0
LINE
8
DEFAULT_255_2_778
10
70.8980472
20
62.366234
11
71.1210472
21
62.479734
0
LINE
8
DEFAULT_255_2_778
10
71.1210472
20
62.479734
11
71.2980472
21
62.656734
0
LINE
8
DEFAULT_255_2_778
10
71.2980472
20
62.656734
11
71.4115472
21
62.879834
0
LINE
8
DEFAULT_255_2_778
10
71.4115472
20
62.879834
11
71.4507472
21
63.126934
0
LINE
8
DEFAULT_255_2_778
10
71.4507472
20
63.126934
11
51.2204472
21
63.126934
0
LINE
8
DEFAULT_255_2_778
10
56.4009472
20
33.646534
11
56.4009472
21
33.446534
0
LINE
8
DEFAULT_255_2_778
10
64.8509472
20
33.446534
11
56.4009472
21
33.446534
0
LINE
8
DEFAULT_255_2_778
10
56.3009472
20
33.392234
11
56.3475472
21
33.393334
0
LINE
8
DEFAULT_255_2_778
10
56.3475472
20
33.393334
11
56.4009472
21
33.399134
0
LINE
8
DEFAULT_255_2_778
10
56.4009472
20
33.399134
11
56.4009472
21
33.446234
0
LINE
8
DEFAULT_255_2_778
10
56.301
20
33.3922646
11
56.301
21
33.3917646
0
LINE
8
DEFAULT_255_2_778
10
56.3010073
20
33.6466208
11
56.3010073
21
33.3923208
0
LINE
8
DEFAULT_255_2_778
10
54.3010073
20
33.3926208
11
54.9622073
21
33.3810208
0
LINE
8
DEFAULT_255_2_778
10
54.9622073
20
33.3810208
11
55.9494073
21
33.3836208
0
LINE
8
DEFAULT_255_2_778
10
55.9494073
20
33.3836208
11
56.3010073
21
33.3921208
0
LINE
8
DEFAULT_255_2_778
10
54.301
20
33.3925969
11
54.301
21
33.3917969
0
LINE
8
DEFAULT_255_2_778
10
54.3009938
20
33.6465677
11
54.3009938
21
33.3928677
0
LINE
8
DEFAULT_255_2_778
10
54.2009938
20
33.4465677
11
54.2009938
21
33.3994677
0
LINE
8
DEFAULT_255_2_778
10
54.2009938
20
33.3994677
11
54.2543938
21
33.3936677
0
LINE
8
DEFAULT_255_2_778
10
54.2543938
20
33.3936677
11
54.3009938
21
33.3928677
0
LINE
8
DEFAULT_255_2_778
10
54.2009948
20
33.6465558
11
54.2009948
21
33.4465558
0
LINE
8
DEFAULT_255_2_778
10
54.3009948
20
62.3006558
11
54.2543948
21
62.2996558
0
LINE
8
DEFAULT_255_2_778
10
54.2543948
20
62.2996558
11
54.2009948
21
62.2937558
0
LINE
8
DEFAULT_255_2_778
10
54.2009948
20
62.2937558
11
54.2009948
21
62.1466558
0
LINE
8
DEFAULT_255_2_778
10
54.3009948
20
62.1464558
11
54.3009948
21
62.3009558
0
LINE
8
DEFAULT_255_2_778
10
56.3009948
20
62.3004558
11
55.6397948
21
62.3120558
0
LINE
8
DEFAULT_255_2_778
10
55.6397948
20
62.3120558
11
54.6525948
21
62.3094558
0
LINE
8
DEFAULT_255_2_778
10
54.6525948
20
62.3094558
11
54.3009948
21
62.3009558
0
LINE
8
DEFAULT_255_2_778
10
56.3009948
20
62.1464558
11
56.3009948
21
62.3009558
0
LINE
8
DEFAULT_255_2_778
10
56.4009948
20
62.2464558
11
56.4009948
21
62.2935558
0
LINE
8
DEFAULT_255_2_778
10
56.4009948
20
62.2935558
11
56.3475948
21
62.2993558
0
LINE
8
DEFAULT_255_2_778
10
56.3475948
20
62.2993558
11
56.3009948
21
62.3001558
0
LINE
8
DEFAULT_255_2_778
10
56.4009948
20
62.2464558
11
56.4009948
21
62.1464558
0
LINE
8
DEFAULT_255_2_778
10
56.3009949
20
62.1464062
11
56.4009949
21
62.1464062
0
LINE
8
DEFAULT_255_2_778
10
64.8509949
20
62.2464062
11
56.4009949
21
62.2464062
0
ARC
8
DEFAULT_255_2_778
10
65.6047587
20
61.6404504
40
0.9080046
50
133.4263204
51
146.1143378
0
ARC
8
DEFAULT_255_2_778
10
65.5981987
20
61.6412331
40
0.9064787
50
33.8714927
51
46.607846
0
LINE
8
DEFAULT_255_2_778
10
64.8509386
20
62.2464427
11
64.8509386
21
62.1464427
0
LINE
8
DEFAULT_255_2_778
10
64.8509386
20
62.2464427
11
64.8509386
21
62.2935427
0
LINE
8
DEFAULT_255_2_778
10
64.8509386
20
62.2935427
11
64.9805386
21
62.2996427
0
LINE
8
DEFAULT_255_2_778
10
66.2209386
20
62.2999427
11
65.9767386
21
62.3049427
0
LINE
8
DEFAULT_255_2_778
10
65.9767386
20
62.3049427
11
65.0268386
21
62.3020427
0
LINE
8
DEFAULT_255_2_778
10
65.0268386
20
62.3020427
11
64.9803386
21
62.2999427
0
ARC
8
DEFAULT_255_2_778
10
65.5981664
20
34.1469083
40
0.8992484
50
213.8033826
51
237.260493
0
LINE
8
DEFAULT_255_2_778
10
66.3508345
20
62.2465163
11
66.3508345
21
62.2936163
0
LINE
8
DEFAULT_255_2_778
10
66.3508345
20
62.2936163
11
66.3058345
21
62.2980163
0
LINE
8
DEFAULT_255_2_778
10
66.3058345
20
62.2980163
11
66.2212345
21
62.2999163
0
LINE
8
DEFAULT_255_2_778
10
66.3508345
20
62.2465163
11
66.3508345
21
62.1464163
0
LINE
8
DEFAULT_255_2_778
10
70.6508345
20
62.2465163
11
66.3508345
21
62.2465163
0
LINE
8
DEFAULT_255_2_778
10
64.8509345
20
33.6466163
11
64.8509345
21
33.4466163
0
LINE
8
DEFAULT_255_2_778
10
65.1117781
20
33.390424
11
64.8961781
21
33.394924
0
LINE
8
DEFAULT_255_2_778
10
64.8961781
20
33.394924
11
64.8511781
21
33.399424
0
LINE
8
DEFAULT_255_2_778
10
64.8511781
20
33.399424
11
64.8511781
21
33.446524
0
LINE
8
DEFAULT_255_2_778
10
66.0901781
20
33.390724
11
66.0811781
21
33.384924
0
ARC
8
DEFAULT_255_2_778
10
65.600913
20
34.1490588
40
0.9027605
50
302.847762
51
326.1755034
0
LINE
8
DEFAULT_255_2_778
10
66.3508781
20
33.6465365
11
66.3508781
21
33.3994365
0
LINE
8
DEFAULT_255_2_778
10
66.3508781
20
33.3994365
11
66.1746781
21
33.3909365
0
LINE
8
DEFAULT_255_2_778
10
66.1746781
20
33.3909365
11
66.0905781
21
33.3906365
0
LINE
8
DEFAULT_255_2_778
10
65.1118781
20
33.3904365
11
65.2250781
21
33.3880365
0
LINE
8
DEFAULT_255_2_778
10
65.2250781
20
33.3880365
11
66.0905781
21
33.3906365
0
LINE
8
DEFAULT_255_2_778
10
65.1205781
20
33.3848365
11
65.1118781
21
33.3904365
0
LINE
8
DEFAULT_255_2_778
10
71.4510166
20
28.7129525
11
69.1509166
21
28.7129525
0
LINE
8
DEFAULT_255_2_778
10
71.4507166
20
30.7464525
11
69.1507166
21
30.7464525
0
LINE
8
DEFAULT_255_2_778
10
69.1507166
20
30.7464525
11
69.1507166
21
25.7463525
0
LINE
8
DEFAULT_255_2_778
10
69.1507166
20
25.7463525
11
2.5508166
21
25.7463525
0
LINE
8
DEFAULT_255_2_778
10
2.5508166
20
25.7463525
11
2.5508166
21
30.7464525
0
LINE
8
DEFAULT_255_2_778
10
2.5508166
20
30.7464525
11
0.2508166
21
30.7464525
0
LINE
8
DEFAULT_255_2_778
10
69.1509166
20
25.7149525
11
68.6509166
21
25.7231525
0
LINE
8
DEFAULT_255_2_778
10
68.6509166
20
25.7231525
11
68.9313166
21
25.7305525
0
LINE
8
DEFAULT_255_2_778
10
68.9313166
20
25.7305525
11
69.1509166
21
25.7310525
0
LINE
8
DEFAULT_255_2_778
10
69.1509166
20
25.7310525
11
69.1509166
21
25.6556525
0
LINE
8
DEFAULT_255_2_778
10
69.1509166
20
25.6556525
11
2.5508166
21
25.6556525
0
LINE
8
DEFAULT_255_2_778
10
2.5508166
20
25.6556525
11
2.5508166
21
25.7310525
0
LINE
8
DEFAULT_255_2_778
10
2.5508166
20
25.7310525
11
3.0509166
21
25.7228525
0
LINE
8
DEFAULT_255_2_778
10
3.0509166
20
25.7228525
11
2.7704166
21
25.7154525
0
LINE
8
DEFAULT_255_2_778
10
2.7704166
20
25.7154525
11
2.5508166
21
25.7149525
0
LINE
8
DEFAULT_255_2_778
10
69.1509166
20
66.9798525
11
71.4510166
21
66.9798525
0
LINE
8
DEFAULT_255_2_778
10
69.1509166
20
68.8729525
11
71.4510166
21
68.8729525
0
LINE
8
DEFAULT_255_2_778
10
0.2508166
20
66.9798525
11
2.5508166
21
66.9798525
0
LINE
8
DEFAULT_255_2_778
10
0.2508166
20
68.8729525
11
2.5508166
21
68.8729525
0
LINE
8
DEFAULT_255_2_778
10
2.5508166
20
26.8200525
11
0.2508166
21
26.8200525
0
LINE
8
DEFAULT_255_2_778
10
2.5508166
20
28.7129202
11
0.2508166
21
28.7129202
0
LINE
8
DEFAULT_255_2_778
10
71.4510166
20
26.8201202
11
69.1509166
21
26.8201202
0
LINE
8
DEFAULT_255_2_778
10
71.4507166
20
64.9463202
11
69.1507166
21
64.9463202
0
LINE
8
DEFAULT_255_2_778
10
69.1507166
20
64.9463202
11
69.1507166
21
69.9463202
0
LINE
8
DEFAULT_255_2_778
10
69.1507166
20
69.9463202
11
2.5508166
21
69.9463202
0
LINE
8
DEFAULT_255_2_778
10
2.5508166
20
69.9463202
11
2.5508166
21
64.9463202
0
LINE
8
DEFAULT_255_2_778
10
2.5508166
20
64.9463202
11
0.2508166
21
64.9463202
0
LINE
8
DEFAULT_255_2_778
10
2.5508166
20
69.9778202
11
3.0509166
21
69.9696202
0
LINE
8
DEFAULT_255_2_778
10
3.0509166
20
69.9696202
11
2.7704166
21
69.9622202
0
LINE
8
DEFAULT_255_2_778
10
2.7704166
20
69.9622202
11
2.5508166
21
69.9617202
0
LINE
8
DEFAULT_255_2_778
10
2.5508166
20
69.9617202
11
2.5508166
21
70.0371202
0
LINE
8
DEFAULT_255_2_778
10
2.5508166
20
70.0371202
11
69.1509166
21
70.0371202
0
LINE
8
DEFAULT_255_2_778
10
69.1509166
20
70.0371202
11
69.1509166
21
69.9617202
0
LINE
8
DEFAULT_255_2_778
10
69.1509166
20
69.9617202
11
68.6509166
21
69.9699202
0
LINE
8
DEFAULT_255_2_778
10
68.6509166
20
69.9699202
11
68.9313166
21
69.9773202
0
LINE
8
DEFAULT_255_2_778
10
68.9313166
20
69.9773202
11
69.1509166
21
69.9778202
0
LINE
8
DEFAULT_255_2_778
10
1.0509
20
64.9465204
11
1.0509
21
30.7465204
0
LINE
8
DEFAULT_255_2_778
10
1.0509
20
64.9465204
11
1.0509
21
30.7465204
0
LINE
8
DEFAULT_255_2_778
10
41.2554254
20
25.0463291
11
69.1509254
21
25.0463291
0
LINE
8
DEFAULT_255_2_778
10
69.1509254
20
25.0463291
11
69.1509254
21
21.9464291
0
LINE
8
DEFAULT_255_2_778
10
69.1509254
20
21.9464291
11
41.2554254
21
21.9464291
0
LINE
8
DEFAULT_255_2_778
10
41.2554254
20
21.9464291
11
41.2554254
21
25.0463291
0
LINE
8
DEFAULT_255_2_778
10
41.3712754
20
24.9462489
11
69.0508754
21
24.9462489
0
LINE
8
DEFAULT_255_2_778
10
69.0508754
20
24.9462489
11
69.0508754
21
22.0461489
0
LINE
8
DEFAULT_255_2_778
10
69.0508754
20
22.0461489
11
41.3712754
21
22.0461489
0
LINE
8
DEFAULT_255_2_778
10
41.3712754
20
22.0461489
11
41.3712754
21
24.9462489
0
ARC
8
DEFAULT_255_2_778
10
52.1004314
20
23.9231031
40
0.3467258
50
145.4709463
51
177.1065781
0
ARC
8
DEFAULT_255_2_778
10
52.0758615
20
23.9156089
40
0.3313423
50
87.026836
51
141.9929821
0
ARC
8
DEFAULT_255_2_778
10
52.0818234
20
23.9180776
40
0.2543753
50
87.4710212
51
174.9192045
0
LINE
8
DEFAULT_255_2_778
10
51.7541476
20
22.7831052
11
51.7541476
21
23.9406052
0
LINE
8
DEFAULT_255_2_778
10
52.0930476
20
24.2465052
11
52.0930476
21
24.1722052
0
LINE
8
DEFAULT_255_2_778
10
51.8284476
20
23.9406052
11
51.8284476
21
23.6843052
0
LINE
8
DEFAULT_255_2_778
10
51.8284476
20
23.6843052
11
52.0930476
21
23.6843052
0
LINE
8
DEFAULT_255_2_778
10
52.0930476
20
23.6843052
11
52.0930476
21
23.6099052
0
LINE
8
DEFAULT_255_2_778
10
52.0930476
20
23.6099052
11
51.8284476
21
23.6099052
0
LINE
8
DEFAULT_255_2_778
10
51.8284476
20
23.6099052
11
51.8284476
21
22.7831052
0
LINE
8
DEFAULT_255_2_778
10
51.8284476
20
22.7831052
11
51.7541476
21
22.7831052
0
ARC
8
DEFAULT_255_2_778
10
60.4136708
20
23.3561512
40
0.2837551
50
101.6510915
51
140.6502386
0
ARC
8
DEFAULT_255_2_778
10
60.4414291
20
23.2542348
40
0.3892333
50
89.8503345
51
102.6232926
0
ARC
8
DEFAULT_255_2_778
10
60.4876899
20
23.2874285
40
0.3589015
50
90.0858828
51
97.2421196
0
ARC
8
DEFAULT_255_2_778
10
60.4801224
20
23.3360764
40
0.3103329
50
11.0475669
51
88.7020481
0
ARC
8
DEFAULT_255_2_778
10
60.269154
20
23.2462238
40
0.5367386
50
9.8092069
51
16.1526936
0
ARC
8
DEFAULT_255_2_778
10
60.4065447
20
23.2930567
40
0.3134815
50
9.6984864
51
39.6185362
0
ARC
8
DEFAULT_255_2_778
10
60.4679892
20
23.3203243
40
0.2494257
50
43.7977244
51
93.9180958
0
ARC
8
DEFAULT_255_2_778
10
60.4507962
20
23.4201833
40
0.1489836
50
89.9424551
51
90.1724813
0
ARC
8
DEFAULT_255_2_778
10
60.4443818
20
23.318681
40
0.2505561
50
88.635615
51
175.6542644
0
LINE
8
DEFAULT_255_2_778
10
60.1199458
20
23.6104669
11
60.1942458
21
23.6104669
0
LINE
8
DEFAULT_255_2_778
10
60.1942458
20
23.6104669
11
60.1942458
21
23.5360669
0
LINE
8
DEFAULT_255_2_778
10
60.7980458
20
23.3376669
11
60.7980458
21
22.7835669
0
LINE
8
DEFAULT_255_2_778
10
60.7980458
20
22.7835669
11
60.7155458
21
22.7835669
0
LINE
8
DEFAULT_255_2_778
10
60.7155458
20
22.7835669
11
60.7155458
21
23.3458669
0
LINE
8
DEFAULT_255_2_778
10
60.1945458
20
23.3376669
11
60.1945458
21
22.7835669
0
LINE
8
DEFAULT_255_2_778
10
60.1945458
20
22.7835669
11
60.1175458
21
22.7812669
0
LINE
8
DEFAULT_255_2_778
10
60.1175458
20
22.7812669
11
60.1201458
21
23.6104669
0
LINE
8
DEFAULT_255_2_778
10
60.1201458
20
23.6104669
11
60.1199458
21
23.6104669
0
ARC
8
DEFAULT_255_2_778
10
50.9344708
20
23.3561512
40
0.2837551
50
101.6510915
51
140.6502386
0
ARC
8
DEFAULT_255_2_778
10
50.9622291
20
23.2542348
40
0.3892333
50
89.8503345
51
102.6232926
0
ARC
8
DEFAULT_255_2_778
10
51.0084899
20
23.2874285
40
0.3589015
50
90.0858828
51
97.2421196
0
ARC
8
DEFAULT_255_2_778
10
51.0009224
20
23.3360764
40
0.3103329
50
11.0475669
51
88.7020481
0
ARC
8
DEFAULT_255_2_778
10
50.789954
20
23.2462238
40
0.5367386
50
9.8092069
51
16.1526936
0
ARC
8
DEFAULT_255_2_778
10
50.9273447
20
23.2930567
40
0.3134815
50
9.6984864
51
39.6185362
0
ARC
8
DEFAULT_255_2_778
10
50.9887892
20
23.3203243
40
0.2494257
50
43.7977244
51
93.9180958
0
ARC
8
DEFAULT_255_2_778
10
50.9715962
20
23.4201833
40
0.1489836
50
89.9424551
51
90.1724813
0
ARC
8
DEFAULT_255_2_778
10
50.9651818
20
23.318681
40
0.2505561
50
88.635615
51
175.6542644
0
LINE
8
DEFAULT_255_2_778
10
50.6407458
20
23.6104669
11
50.7150458
21
23.6104669
0
LINE
8
DEFAULT_255_2_778
10
50.7150458
20
23.6104669
11
50.7150458
21
23.5360669
0
LINE
8
DEFAULT_255_2_778
10
51.3188458
20
23.3376669
11
51.3188458
21
22.7835669
0
LINE
8
DEFAULT_255_2_778
10
51.3188458
20
22.7835669
11
51.2363458
21
22.7835669
0
LINE
8
DEFAULT_255_2_778
10
51.2363458
20
22.7835669
11
51.2363458
21
23.3458669
0
LINE
8
DEFAULT_255_2_778
10
50.7153458
20
23.3376669
11
50.7153458
21
22.7835669
0
LINE
8
DEFAULT_255_2_778
10
50.7153458
20
22.7835669
11
50.6383458
21
22.7812669
0
LINE
8
DEFAULT_255_2_778
10
50.6383458
20
22.7812669
11
50.6409458
21
23.6104669
0
LINE
8
DEFAULT_255_2_778
10
50.6409458
20
23.6104669
11
50.6407458
21
23.6104669
0
ARC
8
DEFAULT_255_2_778
10
59.5428837
20
23.2122294
40
0.4771429
50
149.985277
51
180.8373726
0
ARC
8
DEFAULT_255_2_778
10
59.3424004
20
23.3415144
40
0.2391583
50
93.3820356
51
152.7801139
0
ARC
8
DEFAULT_255_2_778
10
59.313735
20
23.3403256
40
0.2403718
50
26.5906102
51
86.5280953
0
ARC
8
DEFAULT_255_2_778
10
59.1120455
20
23.2120009
40
0.4787937
50
359.1928578
51
29.5204628
0
ARC
8
DEFAULT_255_2_778
10
59.1134516
20
23.1981629
40
0.4773928
50
330.0252169
51
0.8513598
0
ARC
8
DEFAULT_255_2_778
10
59.3144605
20
23.0689414
40
0.2389857
50
273.3178246
51
332.7856824
0
ARC
8
DEFAULT_255_2_778
10
59.3427614
20
23.0703743
40
0.2404538
50
206.5053097
51
266.5500396
0
ARC
8
DEFAULT_255_2_778
10
59.5447857
20
23.1984817
40
0.4790418
50
179.1896992
51
209.4348584
0
ARC
8
DEFAULT_255_2_778
10
59.5389056
20
23.2030444
40
0.547456
50
149.3250708
51
180.7104559
0
ARC
8
DEFAULT_255_2_778
10
59.3434585
20
23.3337555
40
0.3129307
50
92.6314074
51
151.6529876
0
ARC
8
DEFAULT_255_2_778
10
59.3139178
20
23.3317396
40
0.3149823
50
27.3733643
51
87.2387852
0
ARC
8
DEFAULT_255_2_778
10
59.1169849
20
23.2026547
40
0.5497439
50
359.3331159
51
29.8842602
0
ARC
8
DEFAULT_255_2_778
10
59.1196563
20
23.1894616
40
0.5470776
50
329.2647454
51
0.7116293
0
ARC
8
DEFAULT_255_2_778
10
59.3147775
20
23.0587389
40
0.3128103
50
272.6227751
51
331.5806065
0
ARC
8
DEFAULT_255_2_778
10
59.3442668
20
23.0608912
40
0.3150007
50
207.3792701
51
267.2387047
0
ARC
8
DEFAULT_255_2_778
10
59.5409712
20
23.1898777
40
0.5495163
50
179.3349175
51
209.8905429
0
LINE
8
DEFAULT_255_2_778
10
59.0657917
20
23.2052562
11
59.0657917
21
23.2052562
0
LINE
8
DEFAULT_255_2_778
10
58.9914917
20
23.1962562
11
58.9914917
21
23.1962562
0
ARC
8
DEFAULT_255_2_778
10
48.6331274
20
23.8307316
40
0.4200879
50
4.1269062
51
35.3609686
0
ARC
8
DEFAULT_255_2_778
10
48.641848
20
23.8373819
40
0.4091277
50
35.3082192
51
89.2347052
0
ARC
8
DEFAULT_255_2_778
10
48.6473126
20
23.8791386
40
0.3673347
50
90.0000071
51
90.5858244
0
ARC
8
DEFAULT_255_2_778
10
48.6459203
20
23.8939684
40
0.3524937
50
90.3841826
51
129.362315
0
ARC
8
DEFAULT_255_2_778
10
48.6904857
20
23.8420724
40
0.4208844
50
129.5722523
51
149.5783908
0
ARC
8
DEFAULT_255_2_778
10
48.8261643
20
23.7609632
40
0.5789549
50
149.4556557
51
162.9221147
0
ARC
8
DEFAULT_255_2_778
10
48.9479983
20
23.7187237
40
0.7078362
50
162.5499403
51
164.2832638
0
ARC
8
DEFAULT_255_2_778
10
48.6394905
20
23.123607
40
0.3749979
50
186.1145365
51
214.8738032
0
ARC
8
DEFAULT_255_2_778
10
48.6587459
20
23.1489375
40
0.4053962
50
216.2550164
51
270.1640038
0
ARC
8
DEFAULT_255_2_778
10
48.6634705
20
23.1669821
40
0.4234542
50
269.5177391
51
269.9967591
0
ARC
8
DEFAULT_255_2_778
10
48.6699231
20
23.1189627
40
0.3754906
50
269.0116903
51
322.1220283
0
ARC
8
DEFAULT_255_2_778
10
48.6339475
20
23.1385507
40
0.4159663
50
323.034912
51
344.801361
0
ARC
8
DEFAULT_255_2_778
10
48.5132861
20
23.1750195
40
0.5419798
50
344.4250182
51
353.8295165
0
ARC
8
DEFAULT_255_2_778
10
48.521164
20
23.2243365
40
0.4691611
50
326.5294623
51
346.7448627
0
ARC
8
DEFAULT_255_2_778
10
48.6189916
20
23.157852
40
0.3508929
50
297.3781584
51
326.7754617
0
ARC
8
DEFAULT_255_2_778
10
48.6528831
20
23.0960529
40
0.2804352
50
270.2969065
51
297.0356794
0
ARC
8
DEFAULT_255_2_778
10
48.6541732
20
22.9932067
40
0.1775853
50
269.8420316
51
270.052613
0
ARC
8
DEFAULT_255_2_778
10
48.6560379
20
23.0877876
40
0.2721756
50
229.1369714
51
269.504388
0
ARC
8
DEFAULT_255_2_778
10
48.7228515
20
23.1672661
40
0.3759991
50
208.7418868
51
229.3609071
0
ARC
8
DEFAULT_255_2_778
10
48.8782899
20
23.2550127
40
0.5544852
50
195.4305699
51
208.9682768
0
ARC
8
DEFAULT_255_2_778
10
48.9999989
20
23.2938508
40
0.6821596
50
195.0462088
51
195.8551509
0
ARC
8
DEFAULT_255_2_778
10
48.7729984
20
23.794451
40
0.4368349
50
152.4771488
51
171.2686064
0
ARC
8
DEFAULT_255_2_778
10
48.6722967
20
23.847775
40
0.3228897
50
122.5999079
51
152.611047
0
ARC
8
DEFAULT_255_2_778
10
48.6533105
20
23.8736133
40
0.2909003
50
89.9870976
51
122.1914045
0
ARC
8
DEFAULT_255_2_778
10
48.6533818
20
23.8718128
40
0.2927009
50
88.3634093
51
90.001127
0
ARC
8
DEFAULT_255_2_778
10
48.6510341
20
23.8581062
40
0.306475
50
44.9159542
51
87.9978676
0
ARC
8
DEFAULT_255_2_778
10
48.6008634
20
23.807247
40
0.3779134
50
21.3442906
51
45.0056504
0
ARC
8
DEFAULT_255_2_778
10
48.503216
20
23.7654597
40
0.4840843
50
11.3542512
51
21.7443788
0
LINE
8
DEFAULT_255_2_778
10
48.2666261
20
23.9104636
11
48.2666261
21
23.0836636
0
LINE
8
DEFAULT_255_2_778
10
49.0521261
20
23.1167636
11
48.9778261
21
23.1167636
0
LINE
8
DEFAULT_255_2_778
10
48.3412261
20
23.1167636
11
48.3412261
21
23.8607636
0
LINE
8
DEFAULT_255_2_778
10
48.9778261
20
23.8607636
11
49.0521261
21
23.8607636
0
LINE
8
DEFAULT_255_2_778
10
49.0521261
20
23.8607636
11
49.0521261
21
23.8609636
0
ARC
8
DEFAULT_255_2_778
10
56.2928053
20
23.2766293
40
0.484049
50
307.4140443
51
315.1388431
0
ARC
8
DEFAULT_255_2_778
10
56.3306151
20
23.2286942
40
0.4230045
50
304.549128
51
307.2911819
0
ARC
8
DEFAULT_255_2_778
10
56.3701238
20
23.1660937
40
0.349051
50
284.9838975
51
305.0351012
0
ARC
8
DEFAULT_255_2_778
10
56.3827143
20
23.1262737
40
0.3073353
50
270.0006966
51
284.6358271
0
ARC
8
DEFAULT_255_2_778
10
56.3857302
20
23.1576817
40
0.3387569
50
241.214525
51
269.490541
0
ARC
8
DEFAULT_255_2_778
10
56.2908934
20
22.9851773
40
0.1419022
50
182.9647299
51
241.235251
0
ARC
8
DEFAULT_255_2_778
10
56.2493836
20
22.9778454
40
0.1002023
50
177.4451984
51
180.0043037
0
ARC
8
DEFAULT_255_2_778
10
56.2468211
20
22.9772677
40
0.0976705
50
128.7485965
51
177.0396196
0
ARC
8
DEFAULT_255_2_778
10
56.3020848
20
22.9126288
40
0.1826913
50
110.1979476
51
129.5773266
0
ARC
8
DEFAULT_255_2_778
10
57.8989601
20
17.7367582
40
5.5990489
50
103.0371819
51
107.2457276
0
ARC
8
DEFAULT_255_2_778
10
56.253495
20
23.4381184
40
0.1817802
50
103.8358679
51
171.7235924
0
ARC
8
DEFAULT_255_2_778
10
56.3958886
20
23.0824877
40
0.563662
50
89.1339728
51
109.2532987
0
ARC
8
DEFAULT_255_2_778
10
56.4190885
20
23.2596922
40
0.386672
50
63.2350128
51
92.1758258
0
ARC
8
DEFAULT_255_2_778
10
56.4727842
20
23.3899708
40
0.2464038
50
15.515931
51
60.7401602
0
ARC
8
DEFAULT_255_2_778
10
56.9385102
20
23.0538181
40
0.2363194
50
194.9670409
51
208.7802174
0
ARC
8
DEFAULT_255_2_778
10
56.9423842
20
23.0407326
40
0.2337955
50
205.510669
51
251.2952567
0
ARC
8
DEFAULT_255_2_778
10
56.8754205
20
22.9393894
40
0.1946689
50
224.500799
51
267.6410753
0
ARC
8
DEFAULT_255_2_778
10
57.0101845
20
23.1053584
40
0.4078208
50
227.2686229
51
227.862914
0
ARC
8
DEFAULT_255_2_778
10
57.0242045
20
23.1205419
40
0.4284871
50
226.860978
51
227.2692469
0
ARC
8
DEFAULT_255_2_778
10
57.0487871
20
23.1467059
40
0.4643876
50
226.4931573
51
226.8550994
0
ARC
8
DEFAULT_255_2_778
10
57.0737551
20
23.1729316
40
0.5005978
50
226.1643978
51
226.4869441
0
ARC
8
DEFAULT_255_2_778
10
57.0893207
20
23.1890323
40
0.5229924
50
225.7121608
51
226.1559926
0
ARC
8
DEFAULT_255_2_778
10
57.1299131
20
23.2305984
40
0.581091
50
225.3331309
51
225.708845
0
ARC
8
DEFAULT_255_2_778
10
57.1756871
20
23.2769613
40
0.6462431
50
224.9662768
51
225.3364648
0
ARC
8
DEFAULT_255_2_778
10
57.2672267
20
23.3684358
40
0.7756536
50
224.6613063
51
224.9685027
0
ARC
8
DEFAULT_255_2_778
10
56.2800218
20
22.4180373
40
0.5948391
50
42.9343245
51
47.7350404
0
ARC
8
DEFAULT_255_2_778
10
56.6292314
20
22.7966204
40
0.079898
50
50.4684026
51
53.1858552
0
ARC
8
DEFAULT_255_2_778
10
56.3940627
20
23.168642
40
0.4183461
50
278.0559592
51
312.5770902
0
ARC
8
DEFAULT_255_2_778
10
56.3538901
20
23.3229683
40
0.5770648
50
277.0869283
51
279.8582281
0
ARC
8
DEFAULT_255_2_778
10
56.3524482
20
23.3343024
40
0.5884901
50
270.0156186
51
277.0900958
0
ARC
8
DEFAULT_255_2_778
10
56.34755
20
23.2256258
40
0.4798402
50
253.3379353
51
270.6040432
0
ARC
8
DEFAULT_255_2_778
10
56.2698906
20
22.9768954
40
0.2193079
50
229.4595359
51
254.1429288
0
ARC
8
DEFAULT_255_2_778
10
56.1999677
20
22.890205
40
0.1080266
50
210.310556
51
227.7568904
0
ARC
8
DEFAULT_255_2_778
10
56.4337542
20
23.0173792
40
0.3741281
50
198.0070173
51
209.0547976
0
ARC
8
DEFAULT_255_2_778
10
56.2964883
20
22.9737274
40
0.2300932
50
180.6457205
51
198.2360794
0
ARC
8
DEFAULT_255_2_778
10
56.2734496
20
22.9570726
40
0.2075171
50
107.2886404
51
176.1145605
0
ARC
8
DEFAULT_255_2_778
10
56.4069026
20
22.7183818
40
0.4784305
50
110.5440765
51
114.0693479
0
ARC
8
DEFAULT_255_2_778
10
54.0150766
20
32.9324878
40
10.0161183
50
282.8286018
51
283.8715823
0
ARC
8
DEFAULT_255_2_778
10
55.9008782
20
25.3315888
40
2.1847978
50
283.6483086
51
287.2437812
0
ARC
8
DEFAULT_255_2_778
10
56.4357096
20
23.6365914
40
0.4075277
50
286.0725042
51
298.7087406
0
ARC
8
DEFAULT_255_2_778
10
56.5648736
20
23.3886947
40
0.1281903
50
301.2987541
51
303.6509919
0
ARC
8
DEFAULT_255_2_778
10
56.0246571
20
23.3142651
40
0.6121027
50
356.9770578
51
359.9605915
0
ARC
8
DEFAULT_255_2_778
10
56.3325383
20
23.3317963
40
0.3047504
50
356.62287
51
33.6201321
0
ARC
8
DEFAULT_255_2_778
10
56.4403279
20
23.3837566
40
0.1869436
50
38.6568816
51
88.8434333
0
ARC
8
DEFAULT_255_2_778
10
56.4213028
20
23.255505
40
0.3159806
50
85.8624321
51
90.0534421
0
ARC
8
DEFAULT_255_2_778
10
56.411159
20
23.1179228
40
0.4536695
50
88.7560262
51
110.6041957
0
ARC
8
DEFAULT_255_2_778
10
56.3088492
20
23.3762371
40
0.1759421
50
109.0206746
51
150.0461476
0
LINE
8
DEFAULT_255_2_778
10
56.635908
20
23.1914854
11
56.635908
21
22.9351854
0
LINE
8
DEFAULT_255_2_778
10
56.635908
20
23.1914854
11
56.635908
21
23.1914854
0
LINE
8
DEFAULT_255_2_778
10
56.710208
20
23.4558854
11
56.710208
21
22.9927854
0
LINE
8
DEFAULT_255_2_778
10
56.867408
20
22.8192854
11
56.867408
21
22.7448854
0
LINE
8
DEFAULT_255_2_778
10
56.156408
20
23.4640854
11
56.073908
21
23.4640854
0
LINE
8
DEFAULT_255_2_778
10
56.073908
20
23.4640854
11
56.073608
21
23.4642854
0
LINE
8
DEFAULT_255_2_778
10
52.579026
20
23.607951
11
52.653326
21
23.607951
0
LINE
8
DEFAULT_255_2_778
10
52.653326
20
23.607951
11
52.653326
21
22.781151
0
LINE
8
DEFAULT_255_2_778
10
52.653326
20
22.781151
11
52.579026
21
22.781151
0
LINE
8
DEFAULT_255_2_778
10
52.579026
20
22.781151
11
52.579026
21
23.607951
0
LINE
8
DEFAULT_255_2_778
10
52.579026
20
24.021251
11
52.653326
21
24.021251
0
LINE
8
DEFAULT_255_2_778
10
52.653326
20
24.021251
11
52.653326
21
23.930251
0
LINE
8
DEFAULT_255_2_778
10
52.653326
20
23.930251
11
52.579026
21
23.930251
0
LINE
8
DEFAULT_255_2_778
10
52.579026
20
23.930251
11
52.579026
21
24.021251
0
LINE
8
DEFAULT_255_2_778
10
58.466526
20
23.607951
11
58.540826
21
23.607951
0
LINE
8
DEFAULT_255_2_778
10
58.540826
20
23.607951
11
58.540826
21
22.781151
0
LINE
8
DEFAULT_255_2_778
10
58.540826
20
22.781151
11
58.466526
21
22.781151
0
LINE
8
DEFAULT_255_2_778
10
58.466526
20
22.781151
11
58.466526
21
23.607951
0
LINE
8
DEFAULT_255_2_778
10
58.466526
20
24.021251
11
58.540826
21
24.021251
0
LINE
8
DEFAULT_255_2_778
10
58.540826
20
24.021251
11
58.540826
21
23.930251
0
LINE
8
DEFAULT_255_2_778
10
58.540826
20
23.930251
11
58.466526
21
23.930251
0
LINE
8
DEFAULT_255_2_778
10
58.466526
20
23.930251
11
58.466526
21
24.021251
0
ARC
8
DEFAULT_255_2_778
10
58.0216435
20
23.0994645
40
0.3745106
50
180.3917135
51
220.1597414
0
ARC
8
DEFAULT_255_2_778
10
57.9659737
20
23.0873149
40
0.3252206
50
224.8542922
51
256.711925
0
ARC
8
DEFAULT_255_2_778
10
58.0480814
20
23.3614877
40
0.6111584
50
255.1281457
51
263.9758381
0
ARC
8
DEFAULT_255_2_778
10
58.0956934
20
23.280828
40
0.4720427
50
236.8672777
51
256.3057514
0
ARC
8
DEFAULT_255_2_778
10
57.9869119
20
23.1038378
40
0.2644325
50
182.9987749
51
235.6440403
0
LINE
8
DEFAULT_255_2_778
10
57.6471417
20
24.2089041
11
57.6471417
21
23.6871041
0
LINE
8
DEFAULT_255_2_778
10
57.6471417
20
23.6871041
11
57.3791417
21
23.6871041
0
LINE
8
DEFAULT_255_2_778
10
57.3791417
20
23.6871041
11
57.3791417
21
23.6117041
0
LINE
8
DEFAULT_255_2_778
10
57.3791417
20
23.6117041
11
57.6471417
21
23.6117041
0
LINE
8
DEFAULT_255_2_778
10
57.6471417
20
23.6117041
11
57.6471417
21
23.0969041
0
LINE
8
DEFAULT_255_2_778
10
57.9839417
20
22.7537041
11
57.9839417
21
22.8222041
0
LINE
8
DEFAULT_255_2_778
10
57.7228417
20
23.0900041
11
57.7228417
21
23.6117041
0
LINE
8
DEFAULT_255_2_778
10
57.7228417
20
23.6117041
11
57.9908417
21
23.6117041
0
LINE
8
DEFAULT_255_2_778
10
57.9908417
20
23.6117041
11
57.9908417
21
23.6871041
0
LINE
8
DEFAULT_255_2_778
10
57.9908417
20
23.6871041
11
57.7228417
21
23.6871041
0
LINE
8
DEFAULT_255_2_778
10
57.7228417
20
23.6871041
11
57.7159417
21
24.2089041
0
LINE
8
DEFAULT_255_2_778
10
57.7159417
20
24.2089041
11
57.6471417
21
24.2089041
0
ARC
8
DEFAULT_255_2_778
10
50.0543837
20
23.2075294
40
0.4771429
50
149.985277
51
180.8373726
0
ARC
8
DEFAULT_255_2_778
10
49.8539004
20
23.3368144
40
0.2391583
50
93.3820356
51
152.7801139
0
ARC
8
DEFAULT_255_2_778
10
49.825235
20
23.3356256
40
0.2403718
50
26.5906102
51
86.5280953
0
ARC
8
DEFAULT_255_2_778
10
49.6235455
20
23.2073009
40
0.4787937
50
359.1928578
51
29.5204628
0
ARC
8
DEFAULT_255_2_778
10
49.6250712
20
23.1934884
40
0.4772729
50
330.013377
51
0.8485145
0
ARC
8
DEFAULT_255_2_778
10
49.8258999
20
23.0642791
40
0.2390269
50
273.3318011
51
332.7806049
0
ARC
8
DEFAULT_255_2_778
10
49.8542614
20
23.0656743
40
0.2404538
50
206.5053097
51
266.5500396
0
ARC
8
DEFAULT_255_2_778
10
50.0562857
20
23.1937817
40
0.4790418
50
179.1896992
51
209.4348584
0
ARC
8
DEFAULT_255_2_778
10
50.0504056
20
23.1983444
40
0.547456
50
149.3250708
51
180.7104559
0
ARC
8
DEFAULT_255_2_778
10
49.8549585
20
23.3290555
40
0.3129307
50
92.6314074
51
151.6529876
0
ARC
8
DEFAULT_255_2_778
10
49.8254178
20
23.3270396
40
0.3149823
50
27.3733643
51
87.2387852
0
ARC
8
DEFAULT_255_2_778
10
49.6284849
20
23.1979547
40
0.5497439
50
359.3331159
51
29.8842602
0
ARC
8
DEFAULT_255_2_778
10
49.6311563
20
23.1847616
40
0.5470776
50
329.2647454
51
0.7116293
0
ARC
8
DEFAULT_255_2_778
10
49.8262775
20
23.0540389
40
0.3128103
50
272.6227751
51
331.5806065
0
ARC
8
DEFAULT_255_2_778
10
49.8557668
20
23.0561912
40
0.3150007
50
207.3792701
51
267.2387047
0
ARC
8
DEFAULT_255_2_778
10
50.0524712
20
23.1851777
40
0.5495163
50
179.3349175
51
209.8905429
0
LINE
8
DEFAULT_255_2_778
10
49.5772917
20
23.2005562
11
49.5772917
21
23.2005562
0
LINE
8
DEFAULT_255_2_778
10
49.5029917
20
23.1915562
11
49.5029917
21
23.1915562
0
ARC
8
DEFAULT_255_2_778
10
53.6509441
20
23.2073162
40
0.4769213
50
149.9780729
51
180.8396777
0
ARC
8
DEFAULT_255_2_778
10
53.4506475
20
23.3364913
40
0.2391502
50
93.3736822
51
152.7653844
0
ARC
8
DEFAULT_255_2_778
10
53.4220174
20
23.335217
40
0.2404511
50
26.5606493
51
86.5292545
0
ARC
8
DEFAULT_255_2_778
10
53.2204374
20
23.207069
40
0.4786841
50
359.1929988
51
29.4930044
0
ARC
8
DEFAULT_255_2_778
10
53.2218535
20
23.1932592
40
0.4772729
50
330.013377
51
0.8485145
0
ARC
8
DEFAULT_255_2_778
10
53.4226822
20
23.0640499
40
0.2390269
50
273.3318011
51
332.7806049
0
ARC
8
DEFAULT_255_2_778
10
53.4510437
20
23.0654451
40
0.2404538
50
206.5053097
51
266.5500396
0
ARC
8
DEFAULT_255_2_778
10
53.653068
20
23.1935525
40
0.4790418
50
179.1896992
51
209.4348584
0
ARC
8
DEFAULT_255_2_778
10
53.4713881
20
23.3008356
40
0.3513815
50
96.6865634
51
168.1581071
0
ARC
8
DEFAULT_255_2_778
10
53.8051714
20
23.1777958
40
0.7052244
50
163.9356497
51
178.5432377
0
ARC
8
DEFAULT_255_2_778
10
53.9140317
20
23.170173
40
0.8142576
50
178.201764
51
180.0032325
0
LINE
8
DEFAULT_255_2_778
10
53.099774
20
23.1701271
11
53.0997741
21
23.1697846
0
ARC
8
DEFAULT_255_2_778
10
53.4998279
20
23.1437081
40
0.4009027
50
176.2705927
51
258.143864
0
ARC
8
DEFAULT_255_2_778
10
53.4828977
20
23.1467376
40
0.400758
50
260.6024485
51
263.6644979
0
ARC
8
DEFAULT_255_2_778
10
53.4388319
20
23.0172999
40
0.2688729
50
269.9663556
51
305.5960153
0
ARC
8
DEFAULT_255_2_778
10
53.3283417
20
23.1787647
40
0.4644975
50
305.0854527
51
314.2375131
0
ARC
8
DEFAULT_255_2_778
10
51.4767845
20
25.0609635
40
3.1047454
50
314.4860758
51
315.8175964
0
ARC
8
DEFAULT_255_2_778
10
53.4526727
20
22.6216258
40
0.250992
50
315.0608269
51
356.802757
0
ARC
8
DEFAULT_255_2_778
10
53.4226868
20
22.686399
40
0.3189261
50
266.9421627
51
310.6244619
0
ARC
8
DEFAULT_255_2_778
10
53.5617438
20
22.9135086
40
0.5674654
50
242.4705328
51
254.036223
0
ARC
8
DEFAULT_255_2_778
10
53.3890449
20
22.5917943
40
0.2024044
50
209.420833
51
243.7294412
0
ARC
8
DEFAULT_255_2_778
10
53.5395065
20
22.6608214
40
0.3676277
50
195.528523
51
207.2719338
0
ARC
8
DEFAULT_255_2_778
10
22.2803129
20
13.2140131
40
32.2879307
50
16.829937
51
16.8985936
0
ARC
8
DEFAULT_255_2_778
10
53.4141557
20
22.6177504
40
0.3149152
50
183.3356416
51
244.3730627
0
ARC
8
DEFAULT_255_2_778
10
53.4731168
20
22.8080556
40
0.5128302
50
247.6313373
51
264.9343079
0
ARC
8
DEFAULT_255_2_778
10
53.5252713
20
23.1912367
40
0.8993022
50
263.7799925
51
266.5896028
0
ARC
8
DEFAULT_255_2_778
10
53.4622871
20
22.6060555
40
0.3126724
50
271.7387051
51
340.5443883
0
ARC
8
DEFAULT_255_2_778
10
53.3417373
20
22.6343875
40
0.4359826
50
342.3106557
51
0.833153
0
ARC
8
DEFAULT_255_2_778
10
53.3191152
20
23.2474442
40
0.4590711
50
2.7072061
51
6.0868994
0
ARC
8
DEFAULT_255_2_778
10
53.3924841
20
23.2685451
40
0.3841055
50
4.1171862
51
66.9535022
0
ARC
8
DEFAULT_255_2_778
10
53.3887171
20
23.2329562
40
0.4184595
50
68.3866531
51
84.2730804
0
ARC
8
DEFAULT_255_2_778
10
54.6082554
20
23.0422732
40
0.2839737
50
281.8994048
51
320.6262644
0
ARC
8
DEFAULT_255_2_778
10
54.5808422
20
23.1414519
40
0.3867261
50
269.8565613
51
282.8438106
0
ARC
8
DEFAULT_255_2_778
10
54.5346097
20
23.1110855
40
0.3592217
50
270.0860515
51
277.2388833
0
ARC
8
DEFAULT_255_2_778
10
54.542144
20
23.0620401
40
0.3102546
50
191.0223149
51
268.7081476
0
ARC
8
DEFAULT_255_2_778
10
54.753943
20
23.152151
40
0.5375183
50
189.8035924
51
196.1407437
0
ARC
8
DEFAULT_255_2_778
10
54.616045
20
23.1051647
40
0.3134395
50
189.686355
51
219.6179176
0
ARC
8
DEFAULT_255_2_778
10
54.5545916
20
23.0779667
40
0.2494253
50
223.8105831
51
273.9270819
0
ARC
8
DEFAULT_255_2_778
10
54.5716314
20
23.0830594
40
0.2539323
50
270.0096109
51
270.2786936
0
ARC
8
DEFAULT_255_2_778
10
54.5782277
20
23.0796415
40
0.2505689
50
268.774004
51
355.6479216
0
ARC
8
DEFAULT_255_2_778
10
55.6345257
20
23.3053351
40
0.2041667
50
180.0281175
51
185.4265634
0
ARC
8
DEFAULT_255_2_778
10
55.665203
20
23.2907141
40
0.2352926
50
113.4215202
51
176.4618221
0
ARC
8
DEFAULT_255_2_778
10
55.8585453
20
22.9452932
40
0.6303821
50
91.2426863
51
117.0695736
0
ARC
8
DEFAULT_255_2_778
10
56.027644
20
21.9646067
40
1.6951026
50
96.1898008
51
103.9511182
0
ARC
8
DEFAULT_255_2_778
10
55.7248797
20
23.153407
40
0.4684308
50
103.0678938
51
121.245304
0
ARC
8
DEFAULT_255_2_778
10
55.5562158
20
23.4330151
40
0.1418947
50
121.5819317
51
151.451387
0
LINE
8
DEFAULT_255_2_778
10
53.174074
20
23.2003271
11
53.174074
21
23.2003271
0
LINE
8
DEFAULT_255_2_778
10
53.703274
20
22.8971271
11
53.703274
21
22.6076271
0
LINE
8
DEFAULT_255_2_778
10
53.174074
20
22.5994271
11
53.099774
21
22.5994271
0
LINE
8
DEFAULT_255_2_778
10
53.777674
20
22.6407271
11
53.777674
21
23.2691271
0
LINE
8
DEFAULT_255_2_778
10
53.430474
20
23.6493271
11
53.430474
21
23.6498271
0
LINE
8
DEFAULT_255_2_778
10
54.902074
20
22.7878271
11
54.827774
21
22.7878271
0
LINE
8
DEFAULT_255_2_778
10
54.827774
20
22.7878271
11
54.827774
21
22.8621271
0
LINE
8
DEFAULT_255_2_778
10
54.224274
20
23.0606271
11
54.224274
21
23.6146271
0
LINE
8
DEFAULT_255_2_778
10
54.224274
20
23.6146271
11
54.307074
21
23.6146271
0
LINE
8
DEFAULT_255_2_778
10
54.307074
20
23.6146271
11
54.307074
21
23.0524271
0
LINE
8
DEFAULT_255_2_778
10
54.828074
20
23.0606271
11
54.828074
21
23.6146271
0
LINE
8
DEFAULT_255_2_778
10
54.828074
20
23.6146271
11
54.905074
21
23.6170271
0
LINE
8
DEFAULT_255_2_778
10
54.905074
20
23.6170271
11
54.902374
21
22.7878271
0
LINE
8
DEFAULT_255_2_778
10
54.902374
20
22.7878271
11
54.902074
21
22.7878271
0
LINE
8
DEFAULT_255_2_778
10
55.356974
20
23.6167271
11
55.356974
21
22.7817271
0
LINE
8
DEFAULT_255_2_778
10
55.356974
20
22.7817271
11
55.431274
21
22.7817271
0
LINE
8
DEFAULT_255_2_778
10
55.431274
20
22.7817271
11
55.431274
21
23.2860271
0
LINE
8
DEFAULT_255_2_778
10
55.844874
20
23.5755271
11
55.844874
21
23.6498271
0
LINE
8
DEFAULT_255_2_778
10
55.431574
20
23.5008271
11
55.431574
21
23.6165271
0
LINE
8
DEFAULT_255_2_778
10
55.431574
20
23.6165271
11
55.356974
21
23.6167271
0
ARC
8
DEFAULT_255_2_778
10
1.0509416
20
87.0455808
40
1.6006867
50
89.9993249
51
119.9891629
0
ARC
8
DEFAULT_255_2_778
10
1.0510553
20
87.0466508
40
0.7998167
50
90.0067922
51
135.0242202
0
ARC
8
DEFAULT_255_2_778
10
1.0507692
20
87.0462345
40
0.7999088
50
134.9886399
51
179.99047
0
LINE
8
DEFAULT_255_2_778
10
4.9567605
20
74.3463675
11
4.9567605
21
74.6992675
0
LINE
8
DEFAULT_255_2_778
10
21.1092096
20
25.0449291
11
40.2632096
21
25.0449291
0
LINE
8
DEFAULT_255_2_778
10
40.2632096
20
25.0449291
11
40.2632096
21
21.9450291
0
LINE
8
DEFAULT_255_2_778
10
40.2632096
20
21.9450291
11
21.1092096
21
21.9450291
0
LINE
8
DEFAULT_255_2_778
10
21.1092096
20
21.9450291
11
21.1092096
21
25.0449291
0
LINE
8
DEFAULT_255_2_778
10
21.2092253
20
24.9449489
11
40.1639253
21
24.9449489
0
LINE
8
DEFAULT_255_2_778
10
40.1639253
20
24.9449489
11
40.1639253
21
22.0448489
0
LINE
8
DEFAULT_255_2_778
10
40.1639253
20
22.0448489
11
21.2092253
21
22.0448489
0
LINE
8
DEFAULT_255_2_778
10
21.2092253
20
22.0448489
11
21.2092253
21
24.9449489
0
LINE
8
DEFAULT_255_2_778
10
23.0073677
20
22.6396948
11
23.4785677
21
22.6396948
0
LINE
8
DEFAULT_255_2_778
10
23.4785677
20
22.6396948
11
23.4785677
21
22.5237948
0
LINE
8
DEFAULT_255_2_778
10
23.4785677
20
22.5237948
11
23.0073677
21
22.5237948
0
LINE
8
DEFAULT_255_2_778
10
23.0073677
20
22.5237948
11
23.0073677
21
22.6396948
0
LINE
8
DEFAULT_255_2_778
10
22.7840677
20
23.0283948
11
23.7844677
21
23.0283948
0
LINE
8
DEFAULT_255_2_778
10
23.7844677
20
23.0283948
11
23.7844677
21
22.9291948
0
LINE
8
DEFAULT_255_2_778
10
23.7844677
20
22.9291948
11
22.7840677
21
22.9291948
0
LINE
8
DEFAULT_255_2_778
10
22.7840677
20
22.9291948
11
22.7840677
21
23.0283948
0
LINE
8
DEFAULT_255_2_778
10
23.2057677
20
24.5909948
11
23.2139677
21
23.4085948
0
LINE
8
DEFAULT_255_2_778
10
23.2139677
20
23.4085948
11
22.6022677
21
23.4085948
0
LINE
8
DEFAULT_255_2_778
10
22.6022677
20
23.4085948
11
22.6022677
21
23.3093948
0
LINE
8
DEFAULT_255_2_778
10
22.6022677
20
23.3093948
11
23.9995677
21
23.3093948
0
LINE
8
DEFAULT_255_2_778
10
23.9995677
20
23.3093948
11
23.9995677
21
23.4085948
0
LINE
8
DEFAULT_255_2_778
10
23.9995677
20
23.4085948
11
23.3131677
21
23.4085948
0
LINE
8
DEFAULT_255_2_778
10
23.3131677
20
23.4085948
11
23.3131677
21
24.5909948
0
LINE
8
DEFAULT_255_2_778
10
23.3131677
20
24.5909948
11
23.2057677
21
24.5909948
0
LINE
8
DEFAULT_255_2_778
10
28.0633677
20
22.6478948
11
28.5345677
21
22.6478948
0
LINE
8
DEFAULT_255_2_778
10
28.5345677
20
22.6478948
11
28.5345677
21
22.5319948
0
LINE
8
DEFAULT_255_2_778
10
28.5345677
20
22.5319948
11
28.0633677
21
22.5319948
0
LINE
8
DEFAULT_255_2_778
10
28.0633677
20
22.5319948
11
28.0633677
21
22.6478948
0
LINE
8
DEFAULT_255_2_778
10
27.8400677
20
23.0365948
11
28.8404677
21
23.0365948
0
LINE
8
DEFAULT_255_2_778
10
28.8404677
20
23.0365948
11
28.8404677
21
22.9373948
0
LINE
8
DEFAULT_255_2_778
10
28.8404677
20
22.9373948
11
27.8400677
21
22.9373948
0
LINE
8
DEFAULT_255_2_778
10
27.8400677
20
22.9373948
11
27.8400677
21
23.0365948
0
LINE
8
DEFAULT_255_2_778
10
28.2617677
20
24.5991948
11
28.2699677
21
23.4167948
0
LINE
8
DEFAULT_255_2_778
10
28.2699677
20
23.4167948
11
27.6582677
21
23.4167948
0
LINE
8
DEFAULT_255_2_778
10
27.6582677
20
23.4167948
11
27.6582677
21
23.3175948
0
LINE
8
DEFAULT_255_2_778
10
27.6582677
20
23.3175948
11
29.0555677
21
23.3175948
0
LINE
8
DEFAULT_255_2_778
10
29.0555677
20
23.3175948
11
29.0555677
21
23.4167948
0
LINE
8
DEFAULT_255_2_778
10
29.0555677
20
23.4167948
11
28.3691677
21
23.4167948
0
LINE
8
DEFAULT_255_2_778
10
28.3691677
20
23.4167948
11
28.3691677
21
24.5991948
0
LINE
8
DEFAULT_255_2_778
10
28.3691677
20
24.5991948
11
28.2617677
21
24.5991948
0
LINE
8
DEFAULT_255_2_778
10
33.1358677
20
22.6396948
11
33.6070677
21
22.6396948
0
LINE
8
DEFAULT_255_2_778
10
33.6070677
20
22.6396948
11
33.6070677
21
22.5237948
0
LINE
8
DEFAULT_255_2_778
10
33.6070677
20
22.5237948
11
33.1358677
21
22.5237948
0
LINE
8
DEFAULT_255_2_778
10
33.1358677
20
22.5237948
11
33.1358677
21
22.6396948
0
LINE
8
DEFAULT_255_2_778
10
32.9125677
20
23.0283948
11
33.9129677
21
23.0283948
0
LINE
8
DEFAULT_255_2_778
10
33.9129677
20
23.0283948
11
33.9129677
21
22.9291948
0
LINE
8
DEFAULT_255_2_778
10
33.9129677
20
22.9291948
11
32.9125677
21
22.9291948
0
LINE
8
DEFAULT_255_2_778
10
32.9125677
20
22.9291948
11
32.9125677
21
23.0283948
0
LINE
8
DEFAULT_255_2_778
10
33.3342677
20
24.5909948
11
33.3424677
21
23.4085948
0
LINE
8
DEFAULT_255_2_778
10
33.3424677
20
23.4085948
11
32.7307677
21
23.4085948
0
LINE
8
DEFAULT_255_2_778
10
32.7307677
20
23.4085948
11
32.7307677
21
23.3093948
0
LINE
8
DEFAULT_255_2_778
10
32.7307677
20
23.3093948
11
34.1280677
21
23.3093948
0
LINE
8
DEFAULT_255_2_778
10
34.1280677
20
23.3093948
11
34.1280677
21
23.4085948
0
LINE
8
DEFAULT_255_2_778
10
34.1280677
20
23.4085948
11
33.4416677
21
23.4085948
0
LINE
8
DEFAULT_255_2_778
10
33.4416677
20
23.4085948
11
33.4416677
21
24.5909948
0
LINE
8
DEFAULT_255_2_778
10
33.4416677
20
24.5909948
11
33.3342677
21
24.5909948
0
LINE
8
DEFAULT_255_2_778
10
38.229181
20
22.6396948
11
38.700381
21
22.6396948
0
LINE
8
DEFAULT_255_2_778
10
38.700381
20
22.6396948
11
38.700381
21
22.5237948
0
LINE
8
DEFAULT_255_2_778
10
38.700381
20
22.5237948
11
38.229181
21
22.5237948
0
LINE
8
DEFAULT_255_2_778
10
38.229181
20
22.5237948
11
38.229181
21
22.6396948
0
LINE
8
DEFAULT_255_2_778
10
38.005881
20
23.0283948
11
39.006281
21
23.0283948
0
LINE
8
DEFAULT_255_2_778
10
39.006281
20
23.0283948
11
39.006281
21
22.9291948
0
LINE
8
DEFAULT_255_2_778
10
39.006281
20
22.9291948
11
38.005881
21
22.9291948
0
LINE
8
DEFAULT_255_2_778
10
38.005881
20
22.9291948
11
38.005881
21
23.0283948
0
LINE
8
DEFAULT_255_2_778
10
38.427581
20
24.5909948
11
38.435781
21
23.4085948
0
LINE
8
DEFAULT_255_2_778
10
38.435781
20
23.4085948
11
37.824081
21
23.4085948
0
LINE
8
DEFAULT_255_2_778
10
37.824081
20
23.4085948
11
37.824081
21
23.3093948
0
LINE
8
DEFAULT_255_2_778
10
37.824081
20
23.3093948
11
39.221281
21
23.3093948
0
LINE
8
DEFAULT_255_2_778
10
39.221281
20
23.3093948
11
39.221281
21
23.4085948
0
LINE
8
DEFAULT_255_2_778
10
39.221281
20
23.4085948
11
38.534981
21
23.4085948
0
LINE
8
DEFAULT_255_2_778
10
38.534981
20
23.4085948
11
38.534981
21
24.5909948
0
LINE
8
DEFAULT_255_2_778
10
38.534981
20
24.5909948
11
38.427581
21
24.5909948
0
LINE
8
DEFAULT_255_2_778
10
60.6319115
20
67.2464802
11
59.7318115
21
67.2464802
0
LINE
8
DEFAULT_255_2_778
10
59.7318115
20
67.2464802
11
59.7318115
21
69.0464802
0
LINE
8
DEFAULT_255_2_778
10
59.7318115
20
69.0464802
11
60.6319115
21
69.0464802
0
LINE
8
DEFAULT_255_2_778
10
60.6319115
20
69.0464802
11
60.6319115
21
68.9514802
0
LINE
8
DEFAULT_255_2_778
10
60.6319115
20
68.9514802
11
59.8218115
21
68.9514802
0
LINE
8
DEFAULT_255_2_778
10
59.8218115
20
68.9514802
11
59.8218115
21
68.1907802
0
LINE
8
DEFAULT_255_2_778
10
59.8218115
20
68.1907802
11
60.4583115
21
68.1907802
0
LINE
8
DEFAULT_255_2_778
10
60.4583115
20
68.1907802
11
60.4583115
21
68.0997802
0
LINE
8
DEFAULT_255_2_778
10
60.4583115
20
68.0997802
11
59.8218115
21
68.0997802
0
LINE
8
DEFAULT_255_2_778
10
59.8218115
20
68.0997802
11
59.8218115
21
67.3390802
0
LINE
8
DEFAULT_255_2_778
10
59.8218115
20
67.3390802
11
60.6322115
21
67.3390802
0
LINE
8
DEFAULT_255_2_778
10
60.6322115
20
67.3390802
11
60.6322115
21
67.2480802
0
LINE
8
DEFAULT_255_2_778
10
57.6804219
20
65.6452323
11
57.9966219
21
64.5216323
0
LINE
8
DEFAULT_255_2_778
10
57.9966219
20
64.5216323
11
57.3645219
21
64.5216323
0
LINE
8
DEFAULT_255_2_778
10
57.3645219
20
64.5216323
11
57.6804219
21
65.6452323
0
LINE
8
DEFAULT_255_2_778
10
58.1763219
20
63.9823323
11
58.2676219
21
63.9823323
0
LINE
8
DEFAULT_255_2_778
10
58.2676219
20
63.9823323
11
57.7257219
21
65.7352323
0
LINE
8
DEFAULT_255_2_778
10
57.7257219
20
65.7352323
11
57.6355219
21
65.7352323
0
LINE
8
DEFAULT_255_2_778
10
57.6355219
20
65.7352323
11
57.0936219
21
63.9823323
0
LINE
8
DEFAULT_255_2_778
10
57.0936219
20
63.9823323
11
57.1806219
21
63.9823323
0
LINE
8
DEFAULT_255_2_778
10
57.1806219
20
63.9823323
11
57.3193219
21
64.4319323
0
LINE
8
DEFAULT_255_2_778
10
57.3193219
20
64.4319323
11
58.0419219
21
64.4319323
0
LINE
8
DEFAULT_255_2_778
10
58.0419219
20
64.4319323
11
58.1763219
21
63.9823323
0
ARC
8
DEFAULT_255_2_778
10
64.8561663
20
68.6542106
40
0.4843284
50
325.7089514
51
335.3872823
0
ARC
8
DEFAULT_255_2_778
10
64.9694079
20
68.6027172
40
0.3599295
50
335.3318453
51
348.4847259
0
ARC
8
DEFAULT_255_2_778
10
65.028378
20
68.5898125
40
0.2995716
50
348.6516526
51
359.9130538
0
ARC
8
DEFAULT_255_2_778
10
65.0238735
20
68.5862499
40
0.3040916
50
0.5856031
51
34.85697
0
ARC
8
DEFAULT_255_2_778
10
64.9106956
20
68.5127094
40
0.4390153
50
34.2907434
51
49.949895
0
ARC
8
DEFAULT_255_2_778
10
64.8775315
20
68.4779722
40
0.4869552
50
49.5928327
51
58.6702485
0
ARC
8
DEFAULT_255_2_778
10
64.9570038
20
68.611563
40
0.3315245
50
58.3975588
51
66.5925056
0
ARC
8
DEFAULT_255_2_778
10
65.0459579
20
68.820675
40
0.1042932
50
65.8013568
51
78.4096733
0
ARC
8
DEFAULT_255_2_778
10
64.9582158
20
68.4728136
40
0.4629686
50
76.4213189
51
88.2525159
0
ARC
8
DEFAULT_255_2_778
10
64.9628809
20
68.5491297
40
0.3865529
50
88.5987288
51
89.9948025
0
ARC
8
DEFAULT_255_2_778
10
64.959197
20
68.6190063
40
0.3166982
50
89.3271631
51
145.2310936
0
ARC
8
DEFAULT_255_2_778
10
65.1919556
20
68.4404004
40
0.6099132
50
143.9174316
51
160.1877975
0
ARC
8
DEFAULT_255_2_778
10
65.5015403
20
68.315125
40
0.9437224
50
159.4027575
51
163.1967837
0
ARC
8
DEFAULT_255_2_778
10
64.9984081
20
68.5502209
40
0.521263
50
145.0505799
51
175.8502356
0
ARC
8
DEFAULT_255_2_778
10
64.9598588
20
68.5760358
40
0.4748784
50
90.2667345
51
144.9391281
0
ARC
8
DEFAULT_255_2_778
10
64.9576303
20
68.5878077
40
0.4631013
50
81.4414226
51
89.9978099
0
ARC
8
DEFAULT_255_2_778
10
64.9553622
20
68.5761204
40
0.4749961
50
65.2825691
51
81.380681
0
ARC
8
DEFAULT_255_2_778
10
64.9471955
20
68.5565227
40
0.4962137
50
63.7182518
51
65.3721929
0
ARC
8
DEFAULT_255_2_778
10
64.9816032
20
68.5623817
40
0.4765635
50
46.2032784
51
67.1174551
0
ARC
8
DEFAULT_255_2_778
10
65.0070702
20
68.5940809
40
0.4360719
50
11.7304877
51
45.7359125
0
ARC
8
DEFAULT_255_2_778
10
64.9739412
20
68.584406
40
0.4704837
50
8.089263
51
12.0638531
0
ARC
8
DEFAULT_255_2_778
10
64.9648756
20
68.5831785
40
0.4796318
50
359.9922292
51
8.0820449
0
ARC
8
DEFAULT_255_2_778
10
64.9923497
20
68.5806101
40
0.4521647
50
336.9138094
51
0.317213
0
ARC
8
DEFAULT_255_2_778
10
65.0979641
20
68.5372064
40
0.3379923
50
322.5836768
51
336.6620369
0
ARC
8
DEFAULT_255_2_778
10
66.5067266
20
68.5493137
40
0.5198568
50
148.462717
51
173.9015836
0
ARC
8
DEFAULT_255_2_778
10
66.4787101
20
68.5605338
40
0.4901361
50
91.1976478
51
147.8675623
0
ARC
8
DEFAULT_255_2_778
10
66.4791191
20
68.5672178
40
0.4834624
50
90.3721139
51
91.2626627
0
ARC
8
DEFAULT_255_2_778
10
66.4791485
20
68.5583449
40
0.4923355
50
90.0036536
51
90.3688233
0
ARC
8
DEFAULT_255_2_778
10
66.4821134
20
68.5972174
40
0.4534729
50
50.4923346
51
90.3785789
0
ARC
8
DEFAULT_255_2_778
10
66.479828
20
68.5967698
40
0.4552746
50
45.0434252
51
50.30627
0
ARC
8
DEFAULT_255_2_778
10
66.2611996
20
68.4509201
40
0.7148295
50
36.0800722
51
40.8992909
0
ARC
8
DEFAULT_255_2_778
10
66.3108402
20
68.4873603
40
0.65325
50
32.1709524
51
36.0610716
0
ARC
8
DEFAULT_255_2_778
10
66.3761364
20
68.5266836
40
0.5770436
50
20.2403387
51
32.3180029
0
ARC
8
DEFAULT_255_2_778
10
66.4376322
20
68.5496968
40
0.5113837
50
5.2817362
51
20.2048171
0
ARC
8
DEFAULT_255_2_778
10
66.4526022
20
68.5517334
40
0.4962902
50
0.0015439
51
5.2067027
0
ARC
8
DEFAULT_255_2_778
10
66.4493409
20
68.5520257
40
0.4995515
50
337.6868048
51
359.9680073
0
ARC
8
DEFAULT_255_2_778
10
66.4916406
20
68.5320078
40
0.4528256
50
319.5988879
51
337.9979622
0
ARC
8
DEFAULT_255_2_778
10
66.6000343
20
68.4401808
40
0.3107651
50
306.0789272
51
319.5389405
0
ARC
8
DEFAULT_255_2_778
10
66.6719494
20
68.3409734
40
0.1882345
50
290.8953828
51
306.1705305
0
ARC
8
DEFAULT_255_2_778
10
66.7002986
20
68.2661382
40
0.1082101
50
270.9071253
51
291.0045428
0
ARC
8
DEFAULT_255_2_778
10
66.5543167
20
67.8043077
40
0.3832371
50
41.8043836
51
67.3321677
0
ARC
8
DEFAULT_255_2_778
10
66.4969954
20
67.7730062
40
0.4470787
50
0.1552595
51
39.8974667
0
ARC
8
DEFAULT_255_2_778
10
66.3527573
20
67.7552917
40
0.591618
50
359.996954
51
1.8332205
0
ARC
8
DEFAULT_255_2_778
10
66.3230844
20
67.7555182
40
0.621291
50
338.0173792
51
359.97621
0
ARC
8
DEFAULT_255_2_778
10
66.5177426
20
67.6735908
40
0.4101293
50
320.1990087
51
338.451235
0
ARC
8
DEFAULT_255_2_778
10
66.6505548
20
67.5674294
40
0.240162
50
308.9442074
51
319.3746554
0
ARC
8
DEFAULT_255_2_778
10
66.4209597
20
67.8476506
40
0.6024262
50
275.9912213
51
309.1755766
0
ARC
8
DEFAULT_255_2_778
10
66.4280792
20
67.7961298
40
0.5504464
50
270.0281778
51
275.8139552
0
ARC
8
DEFAULT_255_2_778
10
66.4131565
20
67.6655709
40
0.4201622
50
211.6777293
51
272.0723176
0
ARC
8
DEFAULT_255_2_778
10
66.4952794
20
67.704759
40
0.510723
50
190.9313925
51
210.5808778
0
ARC
8
DEFAULT_255_2_778
10
66.6818541
20
67.7467415
40
0.7018978
50
183.5613544
51
191.4081141
0
ARC
8
DEFAULT_255_2_778
10
66.6741295
20
68.4485968
40
0.6177842
50
151.6697992
51
166.9454082
0
ARC
8
DEFAULT_255_2_778
10
66.5194329
20
68.5329573
40
0.4415834
50
129.2120677
51
151.7794118
0
ARC
8
DEFAULT_255_2_778
10
66.4752115
20
68.5844944
40
0.3736992
50
95.2881139
51
128.9542057
0
ARC
8
DEFAULT_255_2_778
10
66.4753073
20
68.5820092
40
0.3761828
50
89.9968032
51
95.26775
0
ARC
8
DEFAULT_255_2_778
10
66.4770824
20
68.5890417
40
0.3691544
50
45.6552586
51
90.272252
0
ARC
8
DEFAULT_255_2_778
10
66.2991368
20
68.5418207
40
0.5356608
50
6.8794092
51
35.5211466
0
ARC
8
DEFAULT_255_2_778
10
66.2629052
20
68.5323997
40
0.572782
50
0.0282185
51
7.3809084
0
ARC
8
DEFAULT_255_2_778
10
66.3819383
20
68.5244886
40
0.4538229
50
333.4862103
51
1.0344565
0
ARC
8
DEFAULT_255_2_778
10
66.5803481
20
68.4185474
40
0.2290715
50
270.0759436
51
335.043744
0
ARC
8
DEFAULT_255_2_778
10
66.5807319
20
68.4551978
40
0.2657216
50
266.6083831
51
269.9827052
0
ARC
8
DEFAULT_255_2_778
10
66.6717106
20
67.8572809
40
0.6177646
50
193.0545089
51
208.3305283
0
ARC
8
DEFAULT_255_2_778
10
66.5169496
20
67.7728814
40
0.4414887
50
208.2205409
51
230.7918507
0
ARC
8
DEFAULT_255_2_778
10
66.4726529
20
67.7212376
40
0.3734743
50
231.0491882
51
264.733121
0
ARC
8
DEFAULT_255_2_778
10
66.4727379
20
67.7237166
40
0.3759506
50
264.7549047
51
270.0030583
0
ARC
8
DEFAULT_255_2_778
10
66.4744817
20
67.7168444
40
0.3690825
50
269.7324069
51
314.3992296
0
ARC
8
DEFAULT_255_2_778
10
66.2916416
20
67.7683293
40
0.5421127
50
324.4504752
51
352.652333
0
ARC
8
DEFAULT_255_2_778
10
66.2601419
20
67.777211
40
0.5745096
50
352.17559
51
359.9634672
0
ARC
8
DEFAULT_255_2_778
10
66.384951
20
67.7850019
40
0.4497746
50
358.9608154
51
26.0519426
0
ARC
8
DEFAULT_255_2_778
10
66.5827544
20
67.888673
40
0.2266245
50
24.4677333
51
90.0364989
0
ARC
8
DEFAULT_255_2_778
10
66.58269
20
67.8488592
40
0.2664383
50
90.0171975
51
93.3519104
0
LINE
8
DEFAULT_255_2_778
10
62.3869117
20
67.2750415
11
62.4036117
21
68.9234415
0
LINE
8
DEFAULT_255_2_778
10
62.4036117
20
68.9234415
11
61.8922117
21
67.9050415
0
LINE
8
DEFAULT_255_2_778
10
61.8922117
20
67.9050415
11
61.8022117
21
67.9050415
0
LINE
8
DEFAULT_255_2_778
10
61.8022117
20
67.9050415
11
61.2908117
21
68.9234415
0
LINE
8
DEFAULT_255_2_778
10
61.2908117
20
68.9234415
11
61.3074117
21
67.2750415
0
LINE
8
DEFAULT_255_2_778
10
61.3074117
20
67.2750415
11
61.2196117
21
67.2732415
0
LINE
8
DEFAULT_255_2_778
10
61.2196117
20
67.2732415
11
61.2175117
21
69.0464415
0
LINE
8
DEFAULT_255_2_778
10
61.2175117
20
69.0464415
11
61.3074117
21
69.0464415
0
LINE
8
DEFAULT_255_2_778
10
61.3074117
20
69.0464415
11
61.8474117
21
68.0114415
0
LINE
8
DEFAULT_255_2_778
10
61.8474117
20
68.0114415
11
62.3875117
21
69.0464415
0
LINE
8
DEFAULT_255_2_778
10
62.3875117
20
69.0464415
11
62.4774117
21
69.0464415
0
LINE
8
DEFAULT_255_2_778
10
62.4774117
20
69.0464415
11
62.4764117
21
67.2732415
0
LINE
8
DEFAULT_255_2_778
10
62.4764117
20
67.2732415
11
62.3853117
21
67.2732415
0
LINE
8
DEFAULT_255_2_778
10
65.3960117
20
67.2486415
11
64.4883117
21
67.2486415
0
LINE
8
DEFAULT_255_2_778
10
64.4883117
20
67.2486415
11
64.4883117
21
67.3470415
0
LINE
8
DEFAULT_255_2_778
10
64.4883117
20
67.3470415
11
65.2563117
21
68.3813415
0
LINE
8
DEFAULT_255_2_778
10
64.5981117
20
68.5879415
11
64.4785117
21
68.5879415
0
LINE
8
DEFAULT_255_2_778
10
65.3664117
20
68.3318415
11
64.6380117
21
67.3470415
0
LINE
8
DEFAULT_255_2_778
10
64.6380117
20
67.3470415
11
65.3963117
21
67.3470415
0
LINE
8
DEFAULT_255_2_778
10
65.3963117
20
67.3470415
11
65.3960117
21
67.2486415
0
LINE
8
DEFAULT_255_2_778
10
58.8545117
20
64.0236415
11
58.8524117
21
63.9376415
0
LINE
8
DEFAULT_255_2_778
10
58.8524117
20
63.9376415
11
59.5723117
21
63.9376415
0
LINE
8
DEFAULT_255_2_778
10
59.5723117
20
63.9376415
11
59.5736117
21
64.0236415
0
LINE
8
DEFAULT_255_2_778
10
58.8521117
20
65.7373415
11
59.5720117
21
65.7373415
0
LINE
8
DEFAULT_255_2_778
10
58.8521117
20
64.0273415
11
59.1670117
21
64.0273415
0
LINE
8
DEFAULT_255_2_778
10
59.1670117
20
64.0273415
11
59.1670117
21
65.6473415
0
LINE
8
DEFAULT_255_2_778
10
59.1670117
20
65.6473415
11
58.8521117
21
65.6473415
0
LINE
8
DEFAULT_255_2_778
10
58.8521117
20
65.6473415
11
58.8542117
21
65.7351415
0
LINE
8
DEFAULT_255_2_778
10
59.5720117
20
64.0273415
11
59.2569117
21
64.0273415
0
LINE
8
DEFAULT_255_2_778
10
59.2569117
20
64.0273415
11
59.2569117
21
65.6473415
0
LINE
8
DEFAULT_255_2_778
10
59.2569117
20
65.6473415
11
59.5720117
21
65.6473415
0
LINE
8
DEFAULT_255_2_778
10
59.5720117
20
65.6473415
11
59.5734117
21
65.7351415
0
LINE
8
DEFAULT_255_2_778
10
66.0697117
20
68.5839415
11
65.9898117
21
68.6045415
0
LINE
8
DEFAULT_255_2_778
10
66.5671117
20
68.1148415
11
66.5652117
21
68.1902415
0
LINE
8
DEFAULT_255_2_778
10
66.0723117
20
67.7200415
11
65.9813117
21
67.7036415
0
LINE
8
DEFAULT_255_2_778
10
63.1291117
20
65.0237415
11
63.4847117
21
64.5276415
0
LINE
8
DEFAULT_255_2_778
10
63.4847117
20
64.5276415
11
63.8485117
21
65.0237415
0
LINE
8
DEFAULT_255_2_778
10
63.8485117
20
65.0237415
11
63.9064117
21
64.9906415
0
LINE
8
DEFAULT_255_2_778
10
63.9064117
20
64.9906415
11
63.5344117
21
64.4779415
0
LINE
8
DEFAULT_255_2_778
10
63.5344117
20
64.4779415
11
63.8982117
21
63.9651415
0
LINE
8
DEFAULT_255_2_778
10
63.8982117
20
63.9651415
11
63.8488117
21
63.9320415
0
LINE
8
DEFAULT_255_2_778
10
63.8488117
20
63.9320415
11
63.4850117
21
64.4363415
0
LINE
8
DEFAULT_255_2_778
10
63.4850117
20
64.4363415
11
63.1212117
21
63.9320415
0
LINE
8
DEFAULT_255_2_778
10
63.1212117
20
63.9320415
11
63.0717117
21
63.9733415
0
LINE
8
DEFAULT_255_2_778
10
63.0717117
20
63.9733415
11
63.4355117
21
64.4776415
0
LINE
8
DEFAULT_255_2_778
10
63.4355117
20
64.4776415
11
63.0717117
21
64.9819415
0
LINE
8
DEFAULT_255_2_778
10
63.0717117
20
64.9819415
11
63.1291117
21
65.0237415
0
LINE
8
DEFAULT_255_2_778
10
68.2261938
20
67.2877666
11
68.2261938
21
69.0570666
0
LINE
8
DEFAULT_255_2_778
10
68.2261938
20
69.0570666
11
68.1766938
21
69.0570666
0
LINE
8
DEFAULT_255_2_778
10
68.1766938
20
69.0570666
11
67.4657938
21
68.4286666
0
LINE
8
DEFAULT_255_2_778
10
67.4657938
20
68.4286666
11
67.5154938
21
68.3789666
0
LINE
8
DEFAULT_255_2_778
10
67.5154938
20
68.3789666
11
68.1356938
21
68.9162666
0
LINE
8
DEFAULT_255_2_778
10
68.1356938
20
68.9162666
11
68.1356938
21
67.2875666
0
LINE
8
DEFAULT_255_2_778
10
68.1356938
20
67.2875666
11
68.2261938
21
67.2877666
0
ARC
8
DEFAULT_255_2_778
10
67.7337861
20
65.238913
40
0.4931117
50
4.3084654
51
33.8436321
0
ARC
8
DEFAULT_255_2_778
10
67.7280581
20
65.2330091
40
0.5011601
50
34.0395208
51
89.4165985
0
ARC
8
DEFAULT_255_2_778
10
67.733161
20
65.2718847
40
0.4622585
50
90.0000054
51
90.532977
0
ARC
8
DEFAULT_255_2_778
10
67.7309173
20
65.2997743
40
0.4343536
50
90.2712405
51
127.4851985
0
ARC
8
DEFAULT_255_2_778
10
67.7689806
20
65.2539754
40
0.4938648
50
127.7558009
51
147.1535719
0
ARC
8
DEFAULT_255_2_778
10
67.9006053
20
65.1680347
40
0.6510601
50
147.0823474
51
160.5798711
0
ARC
8
DEFAULT_255_2_778
10
68.0438508
20
65.1128931
40
0.8045019
50
160.2681907
51
163.9766861
0
ARC
8
DEFAULT_255_2_778
10
67.7088931
20
64.4008666
40
0.440976
50
186.3284809
51
213.403738
0
ARC
8
DEFAULT_255_2_778
10
67.7449327
20
64.4421414
40
0.4940019
50
215.0991544
51
270.4377321
0
ARC
8
DEFAULT_255_2_778
10
67.7529093
20
64.4676035
40
0.5194666
50
269.5364604
51
270.0026908
0
ARC
8
DEFAULT_255_2_778
10
67.7619967
20
64.4085471
40
0.4604994
50
268.872297
51
321.4240274
0
ARC
8
DEFAULT_255_2_778
10
67.7367014
20
64.4173247
40
0.4858299
50
322.4749686
51
342.9530618
0
ARC
8
DEFAULT_255_2_778
10
67.6068709
20
64.4595952
40
0.6223526
50
342.7364488
51
353.7330436
0
ARC
8
DEFAULT_255_2_778
10
67.5942534
20
64.5228687
40
0.5564419
50
327.4333096
51
346.3610882
0
ARC
8
DEFAULT_255_2_778
10
67.696483
20
64.4561603
40
0.4343801
50
301.0580142
51
327.5904481
0
ARC
8
DEFAULT_255_2_778
10
67.7393863
20
64.3856837
40
0.3518729
50
270.388553
51
300.9939137
0
ARC
8
DEFAULT_255_2_778
10
67.7415686
20
64.2421208
40
0.2083018
50
269.8315795
51
270.0561033
0
ARC
8
DEFAULT_255_2_778
10
67.7431408
20
64.3681902
40
0.3343772
50
231.2258194
51
269.6256725
0
ARC
8
DEFAULT_255_2_778
10
67.8065478
20
64.4486429
40
0.4368096
50
211.3475329
51
231.3504751
0
ARC
8
DEFAULT_255_2_778
10
67.9598705
20
64.54399
40
0.6173557
50
197.792567
51
211.5021872
0
ARC
8
DEFAULT_255_2_778
10
68.1053517
20
64.596049
40
0.771803
50
195.3563871
51
198.1722152
0
ARC
8
DEFAULT_255_2_778
10
67.8729072
20
65.1947215
40
0.5182101
50
153.5675633
51
170.9808443
0
ARC
8
DEFAULT_255_2_778
10
67.7635324
20
65.2497752
40
0.3957631
50
126.8827325
51
153.6560197
0
ARC
8
DEFAULT_255_2_778
10
67.7401992
20
65.2774754
40
0.3596083
50
89.9494054
51
126.5579798
0
ARC
8
DEFAULT_255_2_778
10
67.7405081
20
65.2729139
40
0.3641696
50
88.3853351
51
89.998638
0
ARC
8
DEFAULT_255_2_778
10
67.7385725
20
65.260904
40
0.3762329
50
46.7347101
51
88.1422103
0
ARC
8
DEFAULT_255_2_778
10
67.6936752
20
65.2130446
40
0.4418551
50
23.8333158
51
46.7487198
0
ARC
8
DEFAULT_255_2_778
10
67.5890922
20
65.1643344
40
0.5572072
50
11.55613
51
24.069498
0
LINE
8
DEFAULT_255_2_778
10
65.9609043
20
65.7500585
11
66.6885043
21
65.7500585
0
LINE
8
DEFAULT_255_2_778
10
66.6885043
20
65.7500585
11
66.6885043
21
65.6508585
0
LINE
8
DEFAULT_255_2_778
10
66.6885043
20
65.6508585
11
66.3745043
21
65.6508585
0
LINE
8
DEFAULT_255_2_778
10
66.3745043
20
65.6508585
11
66.3745043
21
63.9805585
0
LINE
8
DEFAULT_255_2_778
10
66.3745043
20
63.9805585
11
66.2752043
21
63.9805585
0
LINE
8
DEFAULT_255_2_778
10
66.2752043
20
63.9805585
11
66.2752043
21
65.6505585
0
LINE
8
DEFAULT_255_2_778
10
66.2752043
20
65.6505585
11
65.9612043
21
65.6505585
0
LINE
8
DEFAULT_255_2_778
10
65.9612043
20
65.6505585
11
65.9612043
21
65.7497585
0
LINE
8
DEFAULT_255_2_778
10
65.9612043
20
65.7497585
11
65.9609043
21
65.7500585
0
LINE
8
DEFAULT_255_2_778
10
60.9283043
20
65.7341585
11
60.8688043
21
65.7341585
0
LINE
8
DEFAULT_255_2_778
10
60.8688043
20
65.7341585
11
60.1557043
21
64.3982585
0
LINE
8
DEFAULT_255_2_778
10
60.1557043
20
64.3982585
11
60.1557043
21
64.3390585
0
LINE
8
DEFAULT_255_2_778
10
60.1557043
20
64.3390585
11
60.8291043
21
64.3390585
0
LINE
8
DEFAULT_255_2_778
10
60.8291043
20
64.3390585
11
60.8291043
21
63.9828585
0
LINE
8
DEFAULT_255_2_778
10
60.8291043
20
63.9828585
11
60.9182043
21
63.9828585
0
LINE
8
DEFAULT_255_2_778
10
60.9182043
20
63.9828585
11
60.9182043
21
64.3390585
0
LINE
8
DEFAULT_255_2_778
10
60.9182043
20
64.3390585
11
61.0569043
21
64.3390585
0
LINE
8
DEFAULT_255_2_778
10
61.0569043
20
64.3390585
11
61.0569043
21
64.4281585
0
LINE
8
DEFAULT_255_2_778
10
61.0569043
20
64.4281585
11
60.9280043
21
64.4281585
0
LINE
8
DEFAULT_255_2_778
10
60.9280043
20
64.4281585
11
60.9283043
21
65.7341585
0
LINE
8
DEFAULT_255_2_778
10
60.8383043
20
64.4202585
11
60.2544043
21
64.4202585
0
LINE
8
DEFAULT_255_2_778
10
60.2544043
20
64.4202585
11
60.8383043
21
65.4973585
0
LINE
8
DEFAULT_255_2_778
10
60.8383043
20
65.4973585
11
60.8383043
21
64.4202585
0
LINE
8
DEFAULT_255_2_778
10
61.0529043
20
64.3403585
11
60.9182043
21
64.3403585
0
LINE
8
DEFAULT_255_2_778
10
60.9182043
20
64.3403585
11
60.9182043
21
63.9813585
0
LINE
8
DEFAULT_255_2_778
10
67.2706043
20
65.3349585
11
67.2706043
21
64.3522585
0
LINE
8
DEFAULT_255_2_778
10
68.2255043
20
64.3916585
11
68.1350043
21
64.3916585
0
LINE
8
DEFAULT_255_2_778
10
67.3611043
20
64.3916585
11
67.3611043
21
65.2759585
0
LINE
8
DEFAULT_255_2_778
10
68.1350043
20
65.2759585
11
68.2255043
21
65.2759585
0
LINE
8
DEFAULT_255_2_778
10
68.2255043
20
65.2759585
11
68.2255043
21
65.2759585
0
LINE
8
DEFAULT_255_2_778
10
66.1725219
20
29.1565323
11
66.4887219
21
28.0329323
0
LINE
8
DEFAULT_255_2_778
10
66.4887219
20
28.0329323
11
65.8566219
21
28.0329323
0
LINE
8
DEFAULT_255_2_778
10
65.8566219
20
28.0329323
11
66.1725219
21
29.1565323
0
LINE
8
DEFAULT_255_2_778
10
66.6684219
20
27.4936323
11
66.7597219
21
27.4936323
0
LINE
8
DEFAULT_255_2_778
10
66.7597219
20
27.4936323
11
66.2178219
21
29.2465323
0
LINE
8
DEFAULT_255_2_778
10
66.2178219
20
29.2465323
11
66.1276219
21
29.2465323
0
LINE
8
DEFAULT_255_2_778
10
66.1276219
20
29.2465323
11
65.5857219
21
27.4936323
0
LINE
8
DEFAULT_255_2_778
10
65.5857219
20
27.4936323
11
65.6727219
21
27.4936323
0
LINE
8
DEFAULT_255_2_778
10
65.6727219
20
27.4936323
11
65.8114219
21
27.9432323
0
LINE
8
DEFAULT_255_2_778
10
65.8114219
20
27.9432323
11
66.5340219
21
27.9432323
0
LINE
8
DEFAULT_255_2_778
10
66.5340219
20
27.9432323
11
66.6684219
21
27.4936323
0
ARC
8
DEFAULT_255_2_778
10
48.4431009
20
28.8581337
40
0.4842016
50
325.7209802
51
335.397579
0
ARC
8
DEFAULT_255_2_778
10
48.5562254
20
28.8067199
40
0.3599424
50
335.3419362
51
348.4897384
0
ARC
8
DEFAULT_255_2_778
10
48.6151645
20
28.7938271
40
0.2996172
50
348.6566037
51
359.9131369
0
ARC
8
DEFAULT_255_2_778
10
48.6106442
20
28.7902636
40
0.3041529
50
0.5857379
51
34.8563271
0
ARC
8
DEFAULT_255_2_778
10
48.4974407
20
28.7167058
40
0.4391075
50
34.290347
51
49.9490141
0
ARC
8
DEFAULT_255_2_778
10
48.4642549
20
28.6819397
40
0.4870835
50
49.5923713
51
58.6691889
0
ARC
8
DEFAULT_255_2_778
10
48.5437386
20
28.8155337
40
0.3316442
50
58.3974871
51
66.5909876
0
ARC
8
DEFAULT_255_2_778
10
48.6327445
20
29.0247501
40
0.1042966
50
65.799866
51
78.4097069
0
ARC
8
DEFAULT_255_2_778
10
48.5450525
20
28.6773047
40
0.4625558
50
76.4152879
51
88.2522243
0
ARC
8
DEFAULT_255_2_778
10
48.5497109
20
28.7534967
40
0.3862644
50
88.598188
51
89.9948234
0
ARC
8
DEFAULT_255_2_778
10
48.546013
20
28.8232475
40
0.3165356
50
89.3243305
51
145.0564069
0
ARC
8
DEFAULT_255_2_778
10
48.7775204
20
28.64495
40
0.6085803
50
143.7803307
51
160.1593517
0
ARC
8
DEFAULT_255_2_778
10
49.0880813
20
28.5189863
40
0.9435497
50
159.3650319
51
163.1798379
0
ARC
8
DEFAULT_255_2_778
10
48.5851953
20
28.7542994
40
0.521263
50
145.0505799
51
175.8502356
0
ARC
8
DEFAULT_255_2_778
10
48.5466459
20
28.7801143
40
0.4748784
50
90.2667345
51
144.9391281
0
ARC
8
DEFAULT_255_2_778
10
48.5444175
20
28.7918862
40
0.4631013
50
81.4414226
51
89.9978099
0
ARC
8
DEFAULT_255_2_778
10
48.5421494
20
28.7801989
40
0.4749961
50
65.2825691
51
81.380681
0
ARC
8
DEFAULT_255_2_778
10
48.5339827
20
28.7606012
40
0.4962137
50
63.7182518
51
65.3721929
0
ARC
8
DEFAULT_255_2_778
10
48.5683724
20
28.766405
40
0.4766213
50
46.2017944
51
67.1180386
0
ARC
8
DEFAULT_255_2_778
10
48.5939282
20
28.7981939
40
0.4360036
50
11.7189718
51
45.7344856
0
ARC
8
DEFAULT_255_2_778
10
48.560606
20
28.7884931
40
0.4706094
50
8.0772875
51
12.0514025
0
ARC
8
DEFAULT_255_2_778
10
48.5516875
20
28.7872991
40
0.4796071
50
359.992443
51
8.0688071
0
ARC
8
DEFAULT_255_2_778
10
48.579005
20
28.7847441
40
0.4522965
50
336.9172504
51
0.3156524
0
ARC
8
DEFAULT_255_2_778
10
48.6844072
20
28.7414321
40
0.3383551
50
322.5992801
51
336.6667063
0
LINE
8
DEFAULT_255_2_778
10
48.9828989
20
27.45292
11
48.0750989
21
27.45292
0
LINE
8
DEFAULT_255_2_778
10
48.0750989
20
27.45292
11
48.0750989
21
27.55142
0
LINE
8
DEFAULT_255_2_778
10
48.0750989
20
27.55142
11
48.8431989
21
28.58542
0
LINE
8
DEFAULT_255_2_778
10
48.1848989
20
28.79202
11
48.0652989
21
28.79202
0
LINE
8
DEFAULT_255_2_778
10
48.9531989
20
28.53592
11
48.2247989
21
27.55112
0
LINE
8
DEFAULT_255_2_778
10
48.2247989
20
27.55112
11
48.9830989
21
27.55112
0
LINE
8
DEFAULT_255_2_778
10
48.9830989
20
27.55112
11
48.9828989
21
27.45292
0
ARC
8
DEFAULT_255_2_778
10
60.0516709
20
28.8417225
40
0.4844311
50
325.7294432
51
335.4036029
0
ARC
8
DEFAULT_255_2_778
10
60.1648497
20
28.7902979
40
0.3601181
50
335.3480342
51
348.4925267
0
ARC
8
DEFAULT_255_2_778
10
60.2238255
20
28.7774011
40
0.2997562
50
348.6592269
51
359.9131347
0
ARC
8
DEFAULT_255_2_778
10
60.2194061
20
28.773852
40
0.3041909
50
0.582908
51
34.8273111
0
ARC
8
DEFAULT_255_2_778
10
60.1062901
20
28.7003983
40
0.4390161
50
34.265502
51
49.947425
0
ARC
8
DEFAULT_255_2_778
10
60.0730757
20
28.6656127
40
0.4870257
50
49.5897997
51
58.6679078
0
ARC
8
DEFAULT_255_2_778
10
60.1525583
20
28.7992004
40
0.3315922
50
58.3959585
51
66.5908056
0
ARC
8
DEFAULT_255_2_778
10
60.2415445
20
29.0083686
40
0.1042967
50
65.799862
51
78.4097046
0
ARC
8
DEFAULT_255_2_778
10
60.1538525
20
28.6609233
40
0.4625558
50
76.4152879
51
88.2522243
0
ARC
8
DEFAULT_255_2_778
10
60.1585109
20
28.7371154
40
0.3862644
50
88.598188
51
89.9948234
0
ARC
8
DEFAULT_255_2_778
10
60.154813
20
28.8068662
40
0.3165356
50
89.3243305
51
145.0564069
0
ARC
8
DEFAULT_255_2_778
10
60.3863204
20
28.6285686
40
0.6085803
50
143.7803307
51
160.1593517
0
ARC
8
DEFAULT_255_2_778
10
60.6968813
20
28.5026049
40
0.9435497
50
159.3650319
51
163.1798379
0
ARC
8
DEFAULT_255_2_778
10
60.1940853
20
28.7379054
40
0.5213537
50
145.0551106
51
175.8495654
0
ARC
8
DEFAULT_255_2_778
10
60.1554367
20
28.7638238
40
0.4748283
50
90.2701096
51
144.9474696
0
ARC
8
DEFAULT_255_2_778
10
60.1531799
20
28.7757546
40
0.4628923
50
81.4328244
51
89.9977269
0
ARC
8
DEFAULT_255_2_778
10
60.1509057
20
28.7640303
40
0.4748249
50
65.2672636
51
81.3722232
0
ARC
8
DEFAULT_255_2_778
10
60.1425863
20
28.7441296
40
0.4963813
50
63.7025368
51
65.3561268
0
ARC
8
DEFAULT_255_2_778
10
60.1771724
20
28.7500236
40
0.4766213
50
46.2017944
51
67.1180386
0
ARC
8
DEFAULT_255_2_778
10
60.2027282
20
28.7818125
40
0.4360036
50
11.7189718
51
45.7344856
0
ARC
8
DEFAULT_255_2_778
10
60.169406
20
28.7721117
40
0.4706094
50
8.0772875
51
12.0514025
0
ARC
8
DEFAULT_255_2_778
10
60.1604875
20
28.7709177
40
0.4796071
50
359.992443
51
8.0688071
0
ARC
8
DEFAULT_255_2_778
10
60.187805
20
28.7683627
40
0.4522965
50
336.9172504
51
0.3156524
0
ARC
8
DEFAULT_255_2_778
10
60.2932072
20
28.7250507
40
0.3383551
50
322.5992801
51
336.6667063
0
LINE
8
DEFAULT_255_2_778
10
60.5916989
20
27.4365386
11
59.6838989
21
27.4365386
0
LINE
8
DEFAULT_255_2_778
10
59.6838989
20
27.4365386
11
59.6838989
21
27.5349386
0
LINE
8
DEFAULT_255_2_778
10
59.6838989
20
27.5349386
11
60.4519989
21
28.5689386
0
LINE
8
DEFAULT_255_2_778
10
59.7936989
20
28.7756386
11
59.6740989
21
28.7756386
0
LINE
8
DEFAULT_255_2_778
10
60.5619989
20
28.5195386
11
59.8335989
21
27.5347386
0
LINE
8
DEFAULT_255_2_778
10
59.8335989
20
27.5347386
11
60.5918989
21
27.5347386
0
LINE
8
DEFAULT_255_2_778
10
60.5918989
20
27.5347386
11
60.5916989
21
27.4365386
0
ARC
8
DEFAULT_255_2_778
10
58.5668709
20
28.8417225
40
0.4844311
50
325.7294432
51
335.4036029
0
ARC
8
DEFAULT_255_2_778
10
58.6800497
20
28.7902979
40
0.3601181
50
335.3480342
51
348.4925267
0
ARC
8
DEFAULT_255_2_778
10
58.7390255
20
28.7774011
40
0.2997562
50
348.6592269
51
359.9131347
0
ARC
8
DEFAULT_255_2_778
10
58.7346061
20
28.773852
40
0.3041909
50
0.582908
51
34.8273111
0
ARC
8
DEFAULT_255_2_778
10
58.6214901
20
28.7003983
40
0.4390161
50
34.265502
51
49.947425
0
ARC
8
DEFAULT_255_2_778
10
58.5882757
20
28.6656127
40
0.4870257
50
49.5897997
51
58.6679078
0
ARC
8
DEFAULT_255_2_778
10
58.6677583
20
28.7992004
40
0.3315922
50
58.3959585
51
66.5908056
0
ARC
8
DEFAULT_255_2_778
10
58.7567445
20
29.0083686
40
0.1042967
50
65.799862
51
78.4097046
0
ARC
8
DEFAULT_255_2_778
10
58.6690525
20
28.6609233
40
0.4625558
50
76.4152879
51
88.2522243
0
ARC
8
DEFAULT_255_2_778
10
58.6737109
20
28.7371154
40
0.3862644
50
88.598188
51
89.9948234
0
ARC
8
DEFAULT_255_2_778
10
58.670013
20
28.8068662
40
0.3165356
50
89.3243305
51
145.0564069
0
ARC
8
DEFAULT_255_2_778
10
58.9015204
20
28.6285686
40
0.6085803
50
143.7803307
51
160.1593517
0
ARC
8
DEFAULT_255_2_778
10
59.2120813
20
28.5026049
40
0.9435497
50
159.3650319
51
163.1798379
0
ARC
8
DEFAULT_255_2_778
10
58.7092853
20
28.7379054
40
0.5213537
50
145.0551106
51
175.8495654
0
ARC
8
DEFAULT_255_2_778
10
58.6706367
20
28.7638238
40
0.4748283
50
90.2701096
51
144.9474696
0
ARC
8
DEFAULT_255_2_778
10
58.6683799
20
28.7757546
40
0.4628923
50
81.4328244
51
89.9977269
0
ARC
8
DEFAULT_255_2_778
10
58.6661057
20
28.7640303
40
0.4748249
50
65.2672636
51
81.3722232
0
ARC
8
DEFAULT_255_2_778
10
58.6577863
20
28.7441296
40
0.4963813
50
63.7025368
51
65.3561268
0
ARC
8
DEFAULT_255_2_778
10
58.6923724
20
28.7500236
40
0.4766213
50
46.2017944
51
67.1180386
0
ARC
8
DEFAULT_255_2_778
10
58.7179282
20
28.7818125
40
0.4360036
50
11.7189718
51
45.7344856
0
ARC
8
DEFAULT_255_2_778
10
58.684606
20
28.7721117
40
0.4706094
50
8.0772875
51
12.0514025
0
ARC
8
DEFAULT_255_2_778
10
58.6756875
20
28.7709177
40
0.4796071
50
359.992443
51
8.0688071
0
ARC
8
DEFAULT_255_2_778
10
58.703005
20
28.7683627
40
0.4522965
50
336.9172504
51
0.3156524
0
ARC
8
DEFAULT_255_2_778
10
58.8084072
20
28.7250507
40
0.3383551
50
322.5992801
51
336.6667063
0
LINE
8
DEFAULT_255_2_778
10
59.1068989
20
27.4365386
11
58.1990989
21
27.4365386
0
LINE
8
DEFAULT_255_2_778
10
58.1990989
20
27.4365386
11
58.1990989
21
27.5349386
0
LINE
8
DEFAULT_255_2_778
10
58.1990989
20
27.5349386
11
58.9671989
21
28.5689386
0
LINE
8
DEFAULT_255_2_778
10
58.3088989
20
28.7756386
11
58.1892989
21
28.7756386
0
LINE
8
DEFAULT_255_2_778
10
59.0771989
20
28.5195386
11
58.3487989
21
27.5347386
0
LINE
8
DEFAULT_255_2_778
10
58.3487989
20
27.5347386
11
59.1070989
21
27.5347386
0
LINE
8
DEFAULT_255_2_778
10
59.1070989
20
27.5347386
11
59.1068989
21
27.4365386
0
ARC
8
DEFAULT_255_2_778
10
68.8954698
20
28.3579124
40
1.600006
50
166.549388
51
180.2336209
0
ARC
8
DEFAULT_255_2_778
10
68.4176854
20
28.4764719
40
1.107757
50
152.0357631
51
166.7651459
0
ARC
8
DEFAULT_255_2_778
10
67.9659741
20
28.7230201
40
0.5932056
50
130.3695565
51
152.6099518
0
ARC
8
DEFAULT_255_2_778
10
67.7731451
20
28.9528468
40
0.2932131
50
91.2639907
51
130.7504323
0
ARC
8
DEFAULT_255_2_778
10
67.7531356
20
28.9275864
40
0.3186899
50
40.1592942
51
87.5646991
0
ARC
8
DEFAULT_255_2_778
10
67.458781
20
28.6457924
40
0.7258339
50
23.0580089
51
42.1748877
0
ARC
8
DEFAULT_255_2_778
10
66.9640828
20
28.4255672
40
1.2672953
50
9.2028598
51
23.4593158
0
ARC
8
DEFAULT_255_2_778
10
66.5818233
20
28.3543096
40
1.6560564
50
359.8989369
51
9.5213493
0
ARC
8
DEFAULT_255_2_778
10
66.6401792
20
28.3446581
40
1.597712
50
346.3562166
51
0.2413629
0
ARC
8
DEFAULT_255_2_778
10
67.1282573
20
28.2215602
40
1.0943794
50
331.4757095
51
346.5914979
0
ARC
8
DEFAULT_255_2_778
10
67.5809195
20
27.9687057
40
0.5759491
50
309.1183873
51
332.0727402
0
ARC
8
DEFAULT_255_2_778
10
67.7610412
20
27.7462464
40
0.2897128
50
271.1146719
51
309.2387702
0
ARC
8
DEFAULT_255_2_778
10
67.7802451
20
27.774937
40
0.3186375
50
220.1530999
51
267.5595329
0
ARC
8
DEFAULT_255_2_778
10
68.0748009
20
28.0569077
40
0.726048
50
203.0584617
51
222.1719896
0
ARC
8
DEFAULT_255_2_778
10
68.5695971
20
28.277182
40
1.2676187
50
189.2035998
51
203.4597779
0
ARC
8
DEFAULT_255_2_778
10
68.9519272
20
28.3484597
40
1.6564527
50
179.8986943
51
189.5221368
0
ARC
8
DEFAULT_255_2_778
10
68.9652029
20
28.3635758
40
1.5707396
50
167.4527266
51
180.2402841
0
ARC
8
DEFAULT_255_2_778
10
68.4375547
20
28.4860023
40
1.0291081
50
153.332137
51
167.7240664
0
ARC
8
DEFAULT_255_2_778
10
67.9632862
20
28.7307044
40
0.4954983
50
131.4954805
51
154.0041356
0
ARC
8
DEFAULT_255_2_778
10
67.7817457
20
28.9380361
40
0.219928
50
91.5030006
51
131.8587926
0
ARC
8
DEFAULT_255_2_778
10
67.7628957
20
28.9133892
40
0.244849
50
37.8996291
51
86.9374374
0
ARC
8
DEFAULT_255_2_778
10
67.4683558
20
28.6496557
40
0.6398506
50
21.3757779
51
40.3341175
0
ARC
8
DEFAULT_255_2_778
10
66.9390335
20
28.4312018
40
1.2124291
50
8.443802
51
21.8718599
0
ARC
8
DEFAULT_255_2_778
10
66.5247145
20
28.3598397
40
1.632765
50
359.8999485
51
8.7859541
0
ARC
8
DEFAULT_255_2_778
10
66.5867513
20
28.3504012
40
1.5707396
50
347.4527266
51
0.2402841
0
ARC
8
DEFAULT_255_2_778
10
67.1143995
20
28.2279748
40
1.0291081
50
333.332137
51
347.7240664
0
ARC
8
DEFAULT_255_2_778
10
67.588668
20
27.9832727
40
0.4954983
50
311.4954805
51
334.0041356
0
ARC
8
DEFAULT_255_2_778
10
67.7702085
20
27.775941
40
0.219928
50
271.5030006
51
311.8587926
0
ARC
8
DEFAULT_255_2_778
10
67.7890585
20
27.8005878
40
0.244849
50
217.8996291
51
266.9374374
0
ARC
8
DEFAULT_255_2_778
10
68.0835984
20
28.0643213
40
0.6398506
50
201.3757779
51
220.3341175
0
ARC
8
DEFAULT_255_2_778
10
68.6129207
20
28.2827752
40
1.2124291
50
188.443802
51
201.8718599
0
ARC
8
DEFAULT_255_2_778
10
69.0272397
20
28.3541373
40
1.632765
50
179.8999485
51
188.7859541
0
LINE
8
DEFAULT_255_2_778
10
67.2954771
20
28.3513885
11
67.2954771
21
28.3513885
0
LINE
8
DEFAULT_255_2_778
10
67.3944771
20
28.3569885
11
67.3944771
21
28.3569885
0
ARC
8
DEFAULT_255_2_778
10
64.2604698
20
28.3579124
40
1.600006
50
166.549388
51
180.2336209
0
ARC
8
DEFAULT_255_2_778
10
63.7826854
20
28.4764719
40
1.107757
50
152.0357631
51
166.7651459
0
ARC
8
DEFAULT_255_2_778
10
63.3309741
20
28.7230201
40
0.5932056
50
130.3695565
51
152.6099518
0
ARC
8
DEFAULT_255_2_778
10
63.1381451
20
28.9528468
40
0.2932131
50
91.2639907
51
130.7504323
0
ARC
8
DEFAULT_255_2_778
10
63.1181356
20
28.9275864
40
0.3186899
50
40.1592942
51
87.5646991
0
ARC
8
DEFAULT_255_2_778
10
62.823781
20
28.6457924
40
0.7258339
50
23.0580089
51
42.1748877
0
ARC
8
DEFAULT_255_2_778
10
62.3290828
20
28.4255672
40
1.2672953
50
9.2028598
51
23.4593158
0
ARC
8
DEFAULT_255_2_778
10
61.9468233
20
28.3543096
40
1.6560564
50
359.8989369
51
9.5213493
0
ARC
8
DEFAULT_255_2_778
10
62.0051792
20
28.3446581
40
1.597712
50
346.3562166
51
0.2413629
0
ARC
8
DEFAULT_255_2_778
10
62.4932573
20
28.2215602
40
1.0943794
50
331.4757095
51
346.5914979
0
ARC
8
DEFAULT_255_2_778
10
62.9459195
20
27.9687057
40
0.5759491
50
309.1183873
51
332.0727402
0
ARC
8
DEFAULT_255_2_778
10
63.1260412
20
27.7462464
40
0.2897128
50
271.1146719
51
309.2387702
0
ARC
8
DEFAULT_255_2_778
10
63.1452451
20
27.774937
40
0.3186375
50
220.1530999
51
267.5595329
0
ARC
8
DEFAULT_255_2_778
10
63.4398009
20
28.0569077
40
0.726048
50
203.0584617
51
222.1719896
0
ARC
8
DEFAULT_255_2_778
10
63.9345971
20
28.277182
40
1.2676187
50
189.2035998
51
203.4597779
0
ARC
8
DEFAULT_255_2_778
10
64.3169272
20
28.3484597
40
1.6564527
50
179.8986943
51
189.5221368
0
ARC
8
DEFAULT_255_2_778
10
64.3302029
20
28.3635758
40
1.5707396
50
167.4527266
51
180.2402841
0
ARC
8
DEFAULT_255_2_778
10
63.8025547
20
28.4860023
40
1.0291081
50
153.332137
51
167.7240664
0
ARC
8
DEFAULT_255_2_778
10
63.3282862
20
28.7307044
40
0.4954983
50
131.4954805
51
154.0041356
0
ARC
8
DEFAULT_255_2_778
10
63.1467457
20
28.9380361
40
0.219928
50
91.5030006
51
131.8587926
0
ARC
8
DEFAULT_255_2_778
10
63.1278957
20
28.9133892
40
0.244849
50
37.8996291
51
86.9374374
0
ARC
8
DEFAULT_255_2_778
10
62.8333558
20
28.6496557
40
0.6398506
50
21.3757779
51
40.3341175
0
ARC
8
DEFAULT_255_2_778
10
62.3040335
20
28.4312018
40
1.2124291
50
8.443802
51
21.8718599
0
ARC
8
DEFAULT_255_2_778
10
61.8897145
20
28.3598397
40
1.632765
50
359.8999485
51
8.7859541
0
ARC
8
DEFAULT_255_2_778
10
61.9517513
20
28.3504012
40
1.5707396
50
347.4527266
51
0.2402841
0
ARC
8
DEFAULT_255_2_778
10
62.4793995
20
28.2279748
40
1.0291081
50
333.332137
51
347.7240664
0
ARC
8
DEFAULT_255_2_778
10
62.953668
20
27.9832727
40
0.4954983
50
311.4954805
51
334.0041356
0
ARC
8
DEFAULT_255_2_778
10
63.1352085
20
27.775941
40
0.219928
50
271.5030006
51
311.8587926
0
ARC
8
DEFAULT_255_2_778
10
63.1540585
20
27.8005878
40
0.244849
50
217.8996291
51
266.9374374
0
ARC
8
DEFAULT_255_2_778
10
63.4485984
20
28.0643213
40
0.6398506
50
201.3757779
51
220.3341175
0
ARC
8
DEFAULT_255_2_778
10
63.9779207
20
28.2827752
40
1.2124291
50
188.443802
51
201.8718599
0
ARC
8
DEFAULT_255_2_778
10
64.3922397
20
28.3541373
40
1.632765
50
179.8999485
51
188.7859541
0
LINE
8
DEFAULT_255_2_778
10
62.6604771
20
28.3513885
11
62.6604771
21
28.3513885
0
LINE
8
DEFAULT_255_2_778
10
62.7594771
20
28.3569885
11
62.7594771
21
28.3569885
0
ARC
8
DEFAULT_255_2_778
10
50.0858593
20
28.7405684
40
0.5190682
50
148.2779947
51
173.8975271
0
ARC
8
DEFAULT_255_2_778
10
50.0588532
20
28.7511742
40
0.4905473
50
90.3449363
51
147.6731506
0
ARC
8
DEFAULT_255_2_778
10
50.059192
20
28.7491885
40
0.4925351
50
90.0035154
51
90.382953
0
ARC
8
DEFAULT_255_2_778
10
50.0621784
20
28.7884498
40
0.4532838
50
50.4944064
51
90.3813118
0
ARC
8
DEFAULT_255_2_778
10
50.0599877
20
28.7881255
40
0.4549301
50
45.0426294
51
50.3075111
0
ARC
8
DEFAULT_255_2_778
10
49.8411204
20
28.6420276
40
0.7148295
50
36.0800722
51
40.8992909
0
ARC
8
DEFAULT_255_2_778
10
49.890761
20
28.6784678
40
0.65325
50
32.1709524
51
36.0610716
0
ARC
8
DEFAULT_255_2_778
10
49.9560571
20
28.7177911
40
0.5770436
50
20.2403387
51
32.3180029
0
ARC
8
DEFAULT_255_2_778
10
50.017553
20
28.7408042
40
0.5113837
50
5.2817362
51
20.2048171
0
ARC
8
DEFAULT_255_2_778
10
50.032523
20
28.7428409
40
0.4962902
50
0.0015439
51
5.2067027
0
ARC
8
DEFAULT_255_2_778
10
50.0292617
20
28.7431332
40
0.4995515
50
337.6868048
51
359.9680073
0
ARC
8
DEFAULT_255_2_778
10
50.0715614
20
28.7231152
40
0.4528256
50
319.5988879
51
337.9979622
0
ARC
8
DEFAULT_255_2_778
10
50.1799551
20
28.6312883
40
0.3107651
50
306.0789272
51
319.5389405
0
ARC
8
DEFAULT_255_2_778
10
50.2518702
20
28.5320808
40
0.1882345
50
290.8953828
51
306.1705305
0
ARC
8
DEFAULT_255_2_778
10
50.2802194
20
28.4572457
40
0.1082101
50
270.9071253
51
291.0045428
0
ARC
8
DEFAULT_255_2_778
10
50.134256
20
27.995341
40
0.3832984
50
41.8110663
51
67.3389946
0
ARC
8
DEFAULT_255_2_778
10
50.0770693
20
27.9641507
40
0.4469639
50
0.1505562
51
39.903588
0
ARC
8
DEFAULT_255_2_778
10
49.9334027
20
27.946454
40
0.5909303
50
359.9963371
51
1.8300373
0
ARC
8
DEFAULT_255_2_778
10
49.9030486
20
27.946685
40
0.6212845
50
338.0131271
51
359.9752112
0
ARC
8
DEFAULT_255_2_778
10
50.0975816
20
27.8647861
40
0.4102494
50
320.1976661
51
338.4475225
0
ARC
8
DEFAULT_255_2_778
10
50.2304383
20
27.758583
40
0.2402211
50
308.944198
51
319.3734062
0
ARC
8
DEFAULT_255_2_778
10
50.0011071
20
28.0384988
40
0.6020821
50
275.9729755
51
309.1744438
0
ARC
8
DEFAULT_255_2_778
10
50.0081524
20
27.9873743
40
0.5505046
50
270.0278982
51
275.7973897
0
ARC
8
DEFAULT_255_2_778
10
49.9932308
20
27.8569919
40
0.4203967
50
211.6968426
51
272.0706388
0
ARC
8
DEFAULT_255_2_778
10
50.0749337
20
27.8959219
40
0.5104619
50
190.9397943
51
210.5961713
0
ARC
8
DEFAULT_255_2_778
10
50.261089
20
27.9378336
40
0.7012122
50
183.5635797
51
191.41551
0
ARC
8
DEFAULT_255_2_778
10
50.2538121
20
28.639824
40
0.6175478
50
151.6639324
51
166.942199
0
ARC
8
DEFAULT_255_2_778
10
50.0992584
20
28.7241244
40
0.4415011
50
129.2048276
51
151.7731627
0
ARC
8
DEFAULT_255_2_778
10
50.0551071
20
28.7755854
40
0.3737203
50
95.2839326
51
128.9466118
0
ARC
8
DEFAULT_255_2_778
10
50.0552125
20
28.7729906
40
0.3763139
50
89.9974244
51
95.2635329
0
ARC
8
DEFAULT_255_2_778
10
50.0569869
20
28.7801271
40
0.3691815
50
45.6558419
51
90.2727507
0
ARC
8
DEFAULT_255_2_778
10
49.8789601
20
28.7328517
40
0.5357846
50
6.8907965
51
35.5217465
0
ARC
8
DEFAULT_255_2_778
10
49.8428927
20
28.7234488
40
0.5727414
50
0.0283883
51
7.3917611
0
ARC
8
DEFAULT_255_2_778
10
49.962108
20
28.7155328
40
0.4536002
50
333.4854135
51
1.0358084
0
ARC
8
DEFAULT_255_2_778
10
50.1603916
20
28.609677
40
0.2289992
50
270.0692881
51
335.0376072
0
ARC
8
DEFAULT_255_2_778
10
50.160754
20
28.6467512
40
0.2660731
50
266.5910112
51
269.9815905
0
ARC
8
DEFAULT_255_2_778
10
50.2515495
20
28.048367
40
0.61768
50
193.0542953
51
208.3319672
0
ARC
8
DEFAULT_255_2_778
10
50.0967766
20
27.9639578
40
0.441389
50
208.2221488
51
230.7969984
0
ARC
8
DEFAULT_255_2_778
10
50.0525452
20
27.9123946
40
0.3734784
50
231.0553311
51
264.7375776
0
ARC
8
DEFAULT_255_2_778
10
50.052653
20
27.9150292
40
0.3761118
50
264.7580295
51
270.0024049
0
ARC
8
DEFAULT_255_2_778
10
50.0543946
20
27.9081256
40
0.3692122
50
269.7321783
51
314.3812394
0
ARC
8
DEFAULT_255_2_778
10
49.8715624
20
27.9594368
40
0.5421127
50
324.4504752
51
352.652333
0
ARC
8
DEFAULT_255_2_778
10
49.8400627
20
27.9683185
40
0.5745096
50
352.17559
51
359.9634672
0
ARC
8
DEFAULT_255_2_778
10
49.9648718
20
27.9761094
40
0.4497746
50
358.9608154
51
26.0519426
0
ARC
8
DEFAULT_255_2_778
10
50.1626751
20
28.0797805
40
0.2266245
50
24.4677333
51
90.0364989
0
ARC
8
DEFAULT_255_2_778
10
50.1626107
20
28.0399667
40
0.2664383
50
90.0171975
51
93.3519104
0
LINE
8
DEFAULT_255_2_778
10
61.2193325
20
28.2554489
11
62.0792325
21
28.2554489
0
LINE
8
DEFAULT_255_2_778
10
62.0792325
20
28.2554489
11
62.0792325
21
28.1644489
0
LINE
8
DEFAULT_255_2_778
10
62.0792325
20
28.1644489
11
61.2193325
21
28.1644489
0
LINE
8
DEFAULT_255_2_778
10
61.2193325
20
28.1644489
11
61.2193325
21
28.2554489
0
LINE
8
DEFAULT_255_2_778
10
49.6496325
20
28.7750489
11
49.5697325
21
28.7957489
0
LINE
8
DEFAULT_255_2_778
10
50.1470325
20
28.3059489
11
50.1451325
21
28.3813489
0
LINE
8
DEFAULT_255_2_778
10
49.6522325
20
27.9112489
11
49.5612325
21
27.8948489
0
LINE
8
DEFAULT_255_2_778
10
52.3803325
20
28.2548489
11
53.2402325
21
28.2548489
0
LINE
8
DEFAULT_255_2_778
10
53.2402325
20
28.2548489
11
53.2402325
21
28.1638489
0
LINE
8
DEFAULT_255_2_778
10
53.2402325
20
28.1638489
11
52.3803325
21
28.1638489
0
LINE
8
DEFAULT_255_2_778
10
52.3803325
20
28.1638489
11
52.3803325
21
28.2548489
0
LINE
8
DEFAULT_255_2_778
10
64.1874325
20
29.2473489
11
64.5924325
21
28.4369489
0
LINE
8
DEFAULT_255_2_778
10
64.5924325
20
28.4369489
11
64.9975325
21
29.2470489
0
LINE
8
DEFAULT_255_2_778
10
64.9975325
20
29.2470489
11
65.0803325
21
29.2140489
0
LINE
8
DEFAULT_255_2_778
10
65.0803325
20
29.2140489
11
64.6422325
21
28.3459489
0
LINE
8
DEFAULT_255_2_778
10
64.6422325
20
28.3459489
11
65.0721325
21
27.4778489
0
LINE
8
DEFAULT_255_2_778
10
65.0721325
20
27.4778489
11
64.9978325
21
27.4447489
0
LINE
8
DEFAULT_255_2_778
10
64.9978325
20
27.4447489
11
64.6009325
21
28.2548489
0
LINE
8
DEFAULT_255_2_778
10
64.6009325
20
28.2548489
11
64.1876325
21
27.4447489
0
LINE
8
DEFAULT_255_2_778
10
64.1876325
20
27.4447489
11
64.1133325
21
27.4778489
0
LINE
8
DEFAULT_255_2_778
10
64.1133325
20
27.4778489
11
64.5514325
21
28.3459489
0
LINE
8
DEFAULT_255_2_778
10
64.5514325
20
28.3459489
11
64.1215325
21
29.2140489
0
LINE
8
DEFAULT_255_2_778
10
64.1215325
20
29.2140489
11
64.1874325
21
29.2473489
0
LINE
8
DEFAULT_255_2_778
10
51.8056938
20
27.4843666
11
51.8056938
21
29.2536666
0
LINE
8
DEFAULT_255_2_778
10
51.8056938
20
29.2536666
11
51.7561938
21
29.2536666
0
LINE
8
DEFAULT_255_2_778
10
51.7561938
20
29.2536666
11
51.0452938
21
28.6252666
0
LINE
8
DEFAULT_255_2_778
10
51.0452938
20
28.6252666
11
51.0949938
21
28.5755666
0
LINE
8
DEFAULT_255_2_778
10
51.0949938
20
28.5755666
11
51.7151938
21
29.1128666
0
LINE
8
DEFAULT_255_2_778
10
51.7151938
20
29.1128666
11
51.7151938
21
27.4841666
0
LINE
8
DEFAULT_255_2_778
10
51.7151938
20
27.4841666
11
51.8056938
21
27.4843666
0
LINE
8
DEFAULT_255_2_778
10
55.6424803
20
28.3446083
11
55.6427801
21
28.3446084
0
ARC
8
DEFAULT_255_2_778
10
55.6671237
20
28.9449097
40
0.6007948
50
267.6777898
51
306.4831006
0
ARC
8
DEFAULT_255_2_778
10
55.7966757
20
28.7370057
40
0.3571336
50
309.6055001
51
355.133055
0
ARC
8
DEFAULT_255_2_778
10
55.6748661
20
28.7571761
40
0.4803148
50
353.9683548
51
0.0754154
0
ARC
8
DEFAULT_255_2_778
10
55.6775436
20
28.7427112
40
0.4778752
50
1.8103967
51
69.9389356
0
ARC
8
DEFAULT_255_2_778
10
55.7569276
20
28.9147333
40
0.2894781
50
73.0202316
51
89.7322717
0
ARC
8
DEFAULT_255_2_778
10
55.7586563
20
28.8206967
40
0.4510857
50
30.0531431
51
85.8653001
0
ARC
8
DEFAULT_255_2_778
10
55.6058912
20
28.6852001
40
0.6524458
50
28.9468281
51
33.6362419
0
ARC
8
DEFAULT_255_2_778
10
55.6803359
20
28.7234971
40
0.5687714
50
17.7505878
51
29.2005363
0
ARC
8
DEFAULT_255_2_778
10
55.9042823
20
28.7933818
40
0.334185
50
4.7855362
51
18.04511
0
ARC
8
DEFAULT_255_2_778
10
56.0355567
20
28.8073665
40
0.2022237
50
0.0685116
51
3.9399866
0
ARC
8
DEFAULT_255_2_778
10
55.4291958
20
28.8477613
40
0.8095808
50
343.7809704
51
357.1571219
0
ARC
8
DEFAULT_255_2_778
10
55.7564674
20
28.7494433
40
0.4678828
50
319.1980594
51
344.1477082
0
ARC
8
DEFAULT_255_2_778
10
55.7354853
20
28.8090146
40
0.5236336
50
274.8796872
51
315.7620621
0
ARC
8
DEFAULT_255_2_778
10
55.5771876
20
29.7981077
40
1.5243844
50
269.4021999
51
277.6466573
0
ARC
8
DEFAULT_255_2_778
10
55.5842681
20
32.8464889
40
4.5727404
50
267.4131113
51
269.7119995
0
ARC
8
DEFAULT_255_2_778
10
57.0798446
20
28.1059042
40
0.5716044
50
278.9814306
51
294.2876055
0
ARC
8
DEFAULT_255_2_778
10
57.1629654
20
27.9230936
40
0.3707852
50
294.1994001
51
319.3736289
0
ARC
8
DEFAULT_255_2_778
10
57.1547724
20
27.9229309
40
0.3769371
50
320.2033221
51
341.1637688
0
ARC
8
DEFAULT_255_2_778
10
56.9554951
20
27.990996
40
0.5875181
50
341.1559245
51
352.1379318
0
ARC
8
DEFAULT_255_2_778
10
56.6637208
20
28.0398793
40
0.8832773
50
351.585747
51
352.0365106
0
ARC
8
DEFAULT_255_2_778
10
57.1343625
20
28.7600284
40
0.4070631
50
6.8966859
51
85.1073948
0
ARC
8
DEFAULT_255_2_778
10
57.1838233
20
27.8820554
40
0.4303256
50
273.2180807
51
295.2529852
0
ARC
8
DEFAULT_255_2_778
10
57.1803301
20
27.8739265
40
0.4245157
50
296.1474847
51
326.222051
0
ARC
8
DEFAULT_255_2_778
10
57.092309
20
27.9407618
40
0.5348784
50
325.5133496
51
331.6167268
0
ARC
8
DEFAULT_255_2_778
10
57.028974
20
27.9740603
40
0.6064291
50
331.6934293
51
342.497427
0
ARC
8
DEFAULT_255_2_778
10
57.0644719
20
27.9647236
40
0.5697694
50
342.3192785
51
349.419241
0
ARC
8
DEFAULT_255_2_778
10
57.1840678
20
27.9409031
40
0.4478355
50
349.6054179
51
350.6711081
0
ARC
8
DEFAULT_255_2_778
10
57.1262523
20
28.7552879
40
0.5084219
50
10.6109469
51
61.8077511
0
ARC
8
DEFAULT_255_2_778
10
57.1171194
20
28.7614538
40
0.5074206
50
60.5698276
51
62.8847691
0
ARC
8
DEFAULT_255_2_778
10
57.1611484
20
28.8551602
40
0.403961
50
62.385529
51
77.0249442
0
ARC
8
DEFAULT_255_2_778
10
57.1961714
20
29.0022862
40
0.2527301
50
77.2731993
51
89.5445607
0
LINE
8
DEFAULT_255_2_778
10
53.8125803
20
27.4622083
11
54.6724803
21
29.1984083
0
LINE
8
DEFAULT_255_2_778
10
54.6724803
20
29.1984083
11
53.9284803
21
29.1984083
0
LINE
8
DEFAULT_255_2_778
10
53.9284803
20
29.1984083
11
53.9284803
21
29.1156083
0
LINE
8
DEFAULT_255_2_778
10
53.9284803
20
29.1156083
11
53.8622803
21
29.1156083
0
LINE
8
DEFAULT_255_2_778
10
53.8622803
20
29.1156083
11
53.8622803
21
29.2643083
0
LINE
8
DEFAULT_255_2_778
10
53.8622803
20
29.2643083
11
54.7552803
21
29.2643083
0
LINE
8
DEFAULT_255_2_778
10
54.7552803
20
29.2643083
11
54.7552803
21
29.2145083
0
LINE
8
DEFAULT_255_2_778
10
54.7552803
20
29.2145083
11
53.8953803
21
27.4616083
0
LINE
8
DEFAULT_255_2_778
10
53.8953803
20
27.4616083
11
53.8125803
21
27.4622083
0
LINE
8
DEFAULT_255_2_778
10
55.3611803
20
29.2045083
11
55.3611803
21
28.3446083
0
LINE
8
DEFAULT_255_2_778
10
55.3611803
20
28.3446083
11
55.6424803
21
28.3446083
0
LINE
8
DEFAULT_255_2_778
10
55.7582803
20
29.2042083
11
55.3611803
21
29.2045083
0
LINE
8
DEFAULT_255_2_778
10
55.3942803
20
27.4847083
11
55.2950803
21
27.4847083
0
LINE
8
DEFAULT_255_2_778
10
55.2950803
20
27.4847083
11
55.2950803
21
29.2706083
0
LINE
8
DEFAULT_255_2_778
10
55.2950803
20
29.2706083
11
55.7911803
21
29.2706083
0
LINE
8
DEFAULT_255_2_778
10
55.3778803
20
28.2784083
11
55.3942803
21
27.4847083
0
LINE
8
DEFAULT_255_2_778
10
56.8287803
20
29.1656083
11
56.8287803
21
27.5413083
0
LINE
8
DEFAULT_255_2_778
10
56.8287803
20
27.5413083
11
57.1690803
21
27.5413083
0
LINE
8
DEFAULT_255_2_778
10
57.5384803
20
27.9175083
11
57.5384803
21
28.8089083
0
LINE
8
DEFAULT_255_2_778
10
57.1690803
20
29.1656083
11
56.8287803
21
29.1656083
0
LINE
8
DEFAULT_255_2_778
10
56.7412803
20
29.2547083
11
56.7412803
21
27.4524083
0
LINE
8
DEFAULT_255_2_778
10
56.7412803
20
27.4524083
11
57.2079803
21
27.4524083
0
LINE
8
DEFAULT_255_2_778
10
57.6259803
20
27.8683083
11
57.6259803
21
28.8489083
0
LINE
8
DEFAULT_255_2_778
10
57.1981803
20
29.2550083
11
56.7412803
21
29.2547083
0
ARC
8
DEFAULT_255_2_778
10
4.257459
20
91.8500004
40
2.4066969
50
159.2976576
51
180.084873
0
ARC
8
DEFAULT_255_2_778
10
4.2453294
20
91.8514615
40
2.3948358
50
100.6121045
51
159.2277679
0
ARC
8
DEFAULT_255_2_778
10
4.2494609
20
91.8149835
40
2.4314521
50
89.9692772
51
100.5494958
0
ARC
8
DEFAULT_255_2_778
10
4.2543238
20
91.8396362
40
2.4068017
50
69.2981156
51
90.0847272
0
ARC
8
DEFAULT_255_2_778
10
4.2558215
20
91.8517763
40
2.3949178
50
10.6140344
51
69.2289625
0
ARC
8
DEFAULT_255_2_778
10
4.2196228
20
91.8477381
40
2.4312423
50
359.9692987
51
10.5504412
0
ARC
8
DEFAULT_255_2_778
10
4.2442411
20
91.8428786
40
2.4066262
50
339.2964768
51
0.0846785
0
ARC
8
DEFAULT_255_2_778
10
4.2560964
20
91.8415179
40
2.3950571
50
280.6137206
51
339.2266602
0
ARC
8
DEFAULT_255_2_778
10
4.2520656
20
91.8776372
40
2.4313023
50
269.9693418
51
280.5503085
0
ARC
8
DEFAULT_255_2_778
10
4.2472019
20
91.8528541
40
2.4065214
50
249.2960188
51
270.0848243
0
ARC
8
DEFAULT_255_2_778
10
4.2458779
20
91.8410092
40
2.3949751
50
190.6117907
51
249.2254656
0
ARC
8
DEFAULT_255_2_778
10
4.2822765
20
91.8451334
40
2.4315121
50
179.9693203
51
190.5493631
0
LINE
8
DEFAULT_255_2_778
10
1.8507647
20
91.8464353
11
1.8507647
21
91.8464353
0
ARC
8
DEFAULT_255_2_778
10
84.647705
20
47.8956924
40
14.4966462
50
182.3585991
51
195.0897235
0
ARC
8
DEFAULT_255_2_778
10
84.6566154
20
47.896389
40
14.5055776
50
180.0112118
51
182.3599
0
ARC
8
DEFAULT_255_2_778
10
80.2015737
20
47.8956772
40
10.0505359
50
179.9959588
51
180.0121235
0
ARC
8
DEFAULT_255_2_778
10
84.6484276
20
47.8967904
40
14.4973898
50
165.8584311
51
180.0015979
0
ARC
8
DEFAULT_255_2_778
10
84.6387646
20
47.8987079
40
14.4875511
50
164.9078616
51
165.8564482
0
LINE
8
DEFAULT_255_2_778
10
70.6512128
20
34.4464611
11
71.4513128
21
33.6463611
0
LINE
8
DEFAULT_255_2_778
10
53.3829128
20
33.6463611
11
53.5980128
21
33.6704611
0
LINE
8
DEFAULT_255_2_778
10
53.5980128
20
33.6704611
11
53.8546128
21
33.7421611
0
LINE
8
DEFAULT_255_2_778
10
53.8546128
20
33.7421611
11
54.1523128
21
33.8590611
0
LINE
8
DEFAULT_255_2_778
10
54.1523128
20
33.8590611
11
54.4923128
21
34.0183611
0
LINE
8
DEFAULT_255_2_778
10
54.4923128
20
34.0183611
11
54.8807128
21
34.2188611
0
LINE
8
DEFAULT_255_2_778
10
54.8807128
20
34.2188611
11
55.3014128
21
34.4461611
0
LINE
8
DEFAULT_255_2_778
10
53.3829128
20
62.1461611
11
53.5980128
21
62.1221611
0
LINE
8
DEFAULT_255_2_778
10
53.5980128
20
62.1221611
11
53.8546128
21
62.0504611
0
LINE
8
DEFAULT_255_2_778
10
53.8546128
20
62.0504611
11
54.1523128
21
61.9334611
0
LINE
8
DEFAULT_255_2_778
10
54.1523128
20
61.9334611
11
54.4923128
21
61.7741611
0
LINE
8
DEFAULT_255_2_778
10
54.4923128
20
61.7741611
11
54.8807128
21
61.5736611
0
LINE
8
DEFAULT_255_2_778
10
54.8807128
20
61.5736611
11
55.3014128
21
61.3463611
0
LINE
8
DEFAULT_255_2_778
10
54.3012128
20
62.1464611
11
54.2012128
21
62.1464611
0
LINE
8
DEFAULT_255_2_778
10
54.2012128
20
62.1464611
11
53.3829128
21
62.1464611
0
LINE
8
DEFAULT_255_2_778
10
71.4513128
20
33.6463611
11
52.6013128
21
33.6463611
0
LINE
8
DEFAULT_255_2_778
10
52.6013128
20
33.6463611
11
52.6013128
21
62.1464611
0
LINE
8
DEFAULT_255_2_778
10
52.6013128
20
62.1464611
11
53.3829128
21
62.1464611
0
LINE
8
DEFAULT_255_2_778
10
56.3012128
20
62.1464611
11
54.3012128
21
62.1464611
0
LINE
8
DEFAULT_255_2_778
10
56.4012128
20
62.1464611
11
64.8512128
21
62.1464611
0
LINE
8
DEFAULT_255_2_778
10
64.8512128
20
62.1464611
11
66.3512128
21
62.1464611
0
LINE
8
DEFAULT_255_2_778
10
66.3512128
20
62.1464611
11
71.4513128
21
62.1464611
0
LINE
8
DEFAULT_255_2_778
10
71.4513128
20
62.1464611
11
70.6512128
21
61.3463611
0
LINE
8
DEFAULT_255_2_778
10
70.6509128
20
51.6708611
11
70.6509128
21
61.3463611
0
LINE
8
DEFAULT_255_2_778
10
70.6509128
20
61.3463611
11
55.3008128
21
61.3463611
0
LINE
8
DEFAULT_255_2_778
10
55.3008128
20
61.3463611
11
55.3008128
21
34.4464611
0
LINE
8
DEFAULT_255_2_778
10
55.3008128
20
34.4464611
11
70.6509128
21
34.4464611
0
LINE
8
DEFAULT_255_2_778
10
70.6509128
20
34.4464611
11
70.6509128
21
44.1217611
0
LINE
8
DEFAULT_255_2_778
10
64.1512128
20
46.6463611
11
63.5511128
21
46.6463611
0
LINE
8
DEFAULT_255_2_778
10
63.5511128
20
46.6463611
11
63.5511128
21
49.1464611
0
LINE
8
DEFAULT_255_2_778
10
63.5511128
20
49.1464611
11
64.1512128
21
49.1464611
0
LINE
8
DEFAULT_255_2_778
10
64.1512128
20
49.1464611
11
64.1512128
21
46.6463611
0
LINE
8
DEFAULT_255_2_778
10
65.3510128
20
46.6463611
11
64.7510128
21
46.6463611
0
LINE
8
DEFAULT_255_2_778
10
64.7510128
20
46.6463611
11
64.7510128
21
49.1464611
0
LINE
8
DEFAULT_255_2_778
10
64.7510128
20
49.1464611
11
65.3510128
21
49.1464611
0
LINE
8
DEFAULT_255_2_778
10
65.3510128
20
49.1464611
11
65.3510128
21
46.6463611
0
LINE
8
DEFAULT_255_2_778
10
65.9511128
20
46.6463611
11
68.4512128
21
47.8962611
0
LINE
8
DEFAULT_255_2_778
10
68.4512128
20
47.8962611
11
65.9511128
21
49.1464611
0
LINE
8
DEFAULT_255_2_778
10
65.9511128
20
49.1464611
11
65.9511128
21
46.6463611
0
LINE
8
DEFAULT_255_2_778
10
6.6420438
20
64.3080635
11
6.3420438
21
64.3080635
0
LINE
8
DEFAULT_255_2_778
10
6.3420438
20
64.3080635
11
6.3441438
21
64.6086635
0
LINE
8
DEFAULT_255_2_778
10
6.3441438
20
64.6086635
11
6.2705438
21
64.6078635
0
LINE
8
DEFAULT_255_2_778
10
6.2705438
20
64.6078635
11
6.2705438
21
64.3078635
0
LINE
8
DEFAULT_255_2_778
10
6.2705438
20
64.3078635
11
5.9705438
21
64.3078635
0
LINE
8
DEFAULT_255_2_778
10
5.9705438
20
64.3078635
11
5.9721438
21
64.2281635
0
LINE
8
DEFAULT_255_2_778
10
5.9721438
20
64.2281635
11
6.2671438
21
64.2329635
0
LINE
8
DEFAULT_255_2_778
10
6.2671438
20
64.2329635
11
6.2697438
21
63.9305635
0
LINE
8
DEFAULT_255_2_778
10
6.2697438
20
63.9305635
11
6.3441438
21
63.9305635
0
LINE
8
DEFAULT_255_2_778
10
6.3441438
20
63.9305635
11
6.3420438
21
64.2329635
0
LINE
8
DEFAULT_255_2_778
10
6.3420438
20
64.2329635
11
6.6420438
21
64.2329635
0
LINE
8
DEFAULT_255_2_778
10
6.6420438
20
64.2329635
11
6.6417438
21
64.3109635
0
ARC
8
DEFAULT_255_2_778
10
9.2589274
20
61.9592316
40
0.4200879
50
4.1269062
51
35.3609686
0
ARC
8
DEFAULT_255_2_778
10
9.267648
20
61.9658819
40
0.4091277
50
35.3082192
51
89.2347052
0
ARC
8
DEFAULT_255_2_778
10
9.2731126
20
62.0076386
40
0.3673347
50
90.0000071
51
90.5858244
0
ARC
8
DEFAULT_255_2_778
10
9.2717203
20
62.0224684
40
0.3524937
50
90.3841826
51
129.362315
0
ARC
8
DEFAULT_255_2_778
10
9.3162857
20
61.9705724
40
0.4208844
50
129.5722523
51
149.5783908
0
ARC
8
DEFAULT_255_2_778
10
9.4519643
20
61.8894632
40
0.5789549
50
149.4556557
51
162.9221147
0
ARC
8
DEFAULT_255_2_778
10
9.5737983
20
61.8472237
40
0.7078362
50
162.5499403
51
164.2832638
0
ARC
8
DEFAULT_255_2_778
10
9.2652905
20
61.252107
40
0.3749979
50
186.1145365
51
214.8738032
0
ARC
8
DEFAULT_255_2_778
10
9.2845459
20
61.2774375
40
0.4053962
50
216.2550164
51
270.1640038
0
ARC
8
DEFAULT_255_2_778
10
9.2892705
20
61.2954821
40
0.4234542
50
269.5177391
51
269.9967591
0
ARC
8
DEFAULT_255_2_778
10
9.2957231
20
61.2474627
40
0.3754906
50
269.0116903
51
322.1220283
0
ARC
8
DEFAULT_255_2_778
10
9.2597475
20
61.2670507
40
0.4159663
50
323.034912
51
344.801361
0
ARC
8
DEFAULT_255_2_778
10
9.1390861
20
61.3035195
40
0.5419798
50
344.4250182
51
353.8295165
0
ARC
8
DEFAULT_255_2_778
10
9.146964
20
61.3528365
40
0.4691611
50
326.5294623
51
346.7448627
0
ARC
8
DEFAULT_255_2_778
10
9.2447916
20
61.286352
40
0.3508929
50
297.3781584
51
326.7754617
0
ARC
8
DEFAULT_255_2_778
10
9.2786831
20
61.2245529
40
0.2804352
50
270.2969065
51
297.0356794
0
ARC
8
DEFAULT_255_2_778
10
9.2799732
20
61.1217067
40
0.1775853
50
269.8420316
51
270.052613
0
ARC
8
DEFAULT_255_2_778
10
9.2818379
20
61.2162876
40
0.2721756
50
229.1369714
51
269.504388
0
ARC
8
DEFAULT_255_2_778
10
9.3486515
20
61.2957661
40
0.3759991
50
208.7418868
51
229.3609071
0
ARC
8
DEFAULT_255_2_778
10
9.5040899
20
61.3835127
40
0.5544852
50
195.4305699
51
208.9682768
0
ARC
8
DEFAULT_255_2_778
10
9.6257989
20
61.4223508
40
0.6821596
50
195.0462088
51
195.8551509
0
ARC
8
DEFAULT_255_2_778
10
9.3987984
20
61.922951
40
0.4368349
50
152.4771488
51
171.2686064
0
ARC
8
DEFAULT_255_2_778
10
9.2980967
20
61.976275
40
0.3228897
50
122.5999079
51
152.611047
0
ARC
8
DEFAULT_255_2_778
10
9.2791105
20
62.0021133
40
0.2909003
50
89.9870976
51
122.1914045
0
ARC
8
DEFAULT_255_2_778
10
9.2791818
20
62.0003128
40
0.2927009
50
88.3634093
51
90.001127
0
ARC
8
DEFAULT_255_2_778
10
9.2768341
20
61.9866062
40
0.306475
50
44.9159542
51
87.9978676
0
ARC
8
DEFAULT_255_2_778
10
9.2266634
20
61.935747
40
0.3779134
50
21.3442906
51
45.0056504
0
ARC
8
DEFAULT_255_2_778
10
9.129016
20
61.8939597
40
0.4840843
50
11.3542512
51
21.7443788
0
LINE
8
DEFAULT_255_2_778
10
8.8924261
20
62.0389636
11
8.8924261
21
61.2121636
0
LINE
8
DEFAULT_255_2_778
10
9.6779261
20
61.2452636
11
9.6036261
21
61.2452636
0
LINE
8
DEFAULT_255_2_778
10
8.9670261
20
61.2452636
11
8.9670261
21
61.9892636
0
LINE
8
DEFAULT_255_2_778
10
9.6036261
20
61.9892636
11
9.6779261
21
61.9892636
0
LINE
8
DEFAULT_255_2_778
10
9.6779261
20
61.9892636
11
9.6779261
21
61.9894636
0
ARC
8
DEFAULT_255_2_778
10
7.983489
20
61.4051307
40
0.4822798
50
278.654749
51
295.2346676
0
ARC
8
DEFAULT_255_2_778
10
8.0590025
20
61.245533
40
0.3057193
50
295.1847459
51
323.3097105
0
ARC
8
DEFAULT_255_2_778
10
8.0445986
20
61.2515886
40
0.3209096
50
323.979311
51
340.6018379
0
ARC
8
DEFAULT_255_2_778
10
7.8804554
20
61.3070589
40
0.4941631
50
340.8564039
51
352.4748543
0
ARC
8
DEFAULT_255_2_778
10
8.0298706
20
61.9416541
40
0.3434121
50
7.4771628
51
85.575614
0
ARC
8
DEFAULT_255_2_778
10
8.0697317
20
61.2210727
40
0.3676438
50
273.0296222
51
296.8326353
0
ARC
8
DEFAULT_255_2_778
10
8.0627726
20
61.21929
40
0.3692609
50
297.9210942
51
329.3921793
0
ARC
8
DEFAULT_255_2_778
10
7.9903352
20
61.2702569
40
0.4576095
50
328.5177424
51
331.1329721
0
ARC
8
DEFAULT_255_2_778
10
7.9501327
20
61.2911993
40
0.5029283
50
331.25473
51
342.7485136
0
ARC
8
DEFAULT_255_2_778
10
7.9958391
20
61.2788271
40
0.4556123
50
342.5297825
51
350.170033
0
ARC
8
DEFAULT_255_2_778
10
8.0237132
20
61.9363545
40
0.4292273
50
11.202375
51
64.4743092
0
ARC
8
DEFAULT_255_2_778
10
8.052905
20
62.0215515
40
0.3399252
50
62.7260878
51
78.6880903
0
ARC
8
DEFAULT_255_2_778
10
8.0797353
20
62.1463532
40
0.2122931
50
79.1817738
51
89.6687768
0
LINE
8
DEFAULT_255_2_778
10
7.7665625
20
62.2843427
11
7.7665625
21
60.9283427
0
LINE
8
DEFAULT_255_2_778
10
7.7665625
20
60.9283427
11
8.0560625
21
60.9283427
0
LINE
8
DEFAULT_255_2_778
10
8.3703625
20
61.2423427
11
8.3703625
21
61.9863427
0
LINE
8
DEFAULT_255_2_778
10
8.0563625
20
62.2840427
11
7.7665625
21
62.2843427
0
LINE
8
DEFAULT_255_2_778
10
7.6922625
20
62.3586427
11
7.6922625
21
60.8539427
0
LINE
8
DEFAULT_255_2_778
10
7.6922625
20
60.8539427
11
8.0891625
21
60.8539427
0
LINE
8
DEFAULT_255_2_778
10
8.4447625
20
61.2010427
11
8.4447625
21
62.0197427
0
LINE
8
DEFAULT_255_2_778
10
8.0809625
20
62.3586427
11
7.6922625
21
62.3586427
0
LINE
8
DEFAULT_255_2_778
10
13.7509073
20
68.3463927
11
15.7509073
21
68.3463927
0
LINE
8
DEFAULT_255_2_778
10
15.7509073
20
68.3463927
11
15.7509073
21
66.3463927
0
LINE
8
DEFAULT_255_2_778
10
15.7509073
20
66.3463927
11
13.7509073
21
66.3463927
0
LINE
8
DEFAULT_255_2_778
10
13.7509073
20
66.3463927
11
13.7509073
21
68.3463927
0
LINE
8
DEFAULT_255_2_778
10
10.4508073
20
68.3463927
11
12.4508073
21
68.3463927
0
LINE
8
DEFAULT_255_2_778
10
12.4508073
20
68.3463927
11
12.4508073
21
66.3463927
0
LINE
8
DEFAULT_255_2_778
10
12.4508073
20
66.3463927
11
10.4508073
21
66.3463927
0
LINE
8
DEFAULT_255_2_778
10
10.4508073
20
66.3463927
11
10.4508073
21
68.3463927
0
LINE
8
DEFAULT_255_2_778
10
7.1509073
20
68.3463927
11
9.1509073
21
68.3463927
0
LINE
8
DEFAULT_255_2_778
10
9.1509073
20
68.3463927
11
9.1509073
21
66.3463927
0
LINE
8
DEFAULT_255_2_778
10
9.1509073
20
66.3463927
11
7.1509073
21
66.3463927
0
LINE
8
DEFAULT_255_2_778
10
7.1509073
20
66.3463927
11
7.1509073
21
68.3463927
0
LINE
8
DEFAULT_255_2_778
10
23.6508073
20
68.3463927
11
25.6508073
21
68.3463927
0
LINE
8
DEFAULT_255_2_778
10
25.6508073
20
68.3463927
11
25.6508073
21
66.3463927
0
LINE
8
DEFAULT_255_2_778
10
25.6508073
20
66.3463927
11
23.6508073
21
66.3463927
0
LINE
8
DEFAULT_255_2_778
10
23.6508073
20
66.3463927
11
23.6508073
21
68.3463927
0
LINE
8
DEFAULT_255_2_778
10
20.3509073
20
68.3463927
11
22.3509073
21
68.3463927
0
LINE
8
DEFAULT_255_2_778
10
22.3509073
20
68.3463927
11
22.3509073
21
66.3463927
0
LINE
8
DEFAULT_255_2_778
10
22.3509073
20
66.3463927
11
20.3509073
21
66.3463927
0
LINE
8
DEFAULT_255_2_778
10
20.3509073
20
66.3463927
11
20.3509073
21
68.3463927
0
LINE
8
DEFAULT_255_2_778
10
17.0508073
20
68.3463927
11
19.0508073
21
68.3463927
0
LINE
8
DEFAULT_255_2_778
10
19.0508073
20
68.3463927
11
19.0508073
21
66.3463927
0
LINE
8
DEFAULT_255_2_778
10
19.0508073
20
66.3463927
11
17.0508073
21
66.3463927
0
LINE
8
DEFAULT_255_2_778
10
17.0508073
20
66.3463927
11
17.0508073
21
68.3463927
0
LINE
8
DEFAULT_255_2_778
10
30.2509073
20
68.3463927
11
32.2509073
21
68.3463927
0
LINE
8
DEFAULT_255_2_778
10
32.2509073
20
68.3463927
11
32.2509073
21
66.3463927
0
LINE
8
DEFAULT_255_2_778
10
32.2509073
20
66.3463927
11
30.2509073
21
66.3463927
0
LINE
8
DEFAULT_255_2_778
10
30.2509073
20
66.3463927
11
30.2509073
21
68.3463927
0
LINE
8
DEFAULT_255_2_778
10
26.9510073
20
68.3463927
11
28.9510073
21
68.3463927
0
LINE
8
DEFAULT_255_2_778
10
28.9510073
20
68.3463927
11
28.9510073
21
66.3463927
0
LINE
8
DEFAULT_255_2_778
10
28.9510073
20
66.3463927
11
26.9510073
21
66.3463927
0
LINE
8
DEFAULT_255_2_778
10
26.9510073
20
66.3463927
11
26.9510073
21
68.3463927
0
ARC
8
DEFAULT_255_2_778
10
7.4312585
20
64.769504
40
0.4025703
50
325.9933618
51
336.622165
0
ARC
8
DEFAULT_255_2_778
10
7.5309678
20
64.7267874
40
0.2940971
50
336.5531889
51
351.4794572
0
ARC
8
DEFAULT_255_2_778
10
7.5734958
20
64.7192347
40
0.2509221
50
351.7462208
51
359.9590726
0
ARC
8
DEFAULT_255_2_778
10
7.5631469
20
64.7157183
40
0.2612922
50
0.7317869
51
37.1456885
0
ARC
8
DEFAULT_255_2_778
10
7.4693757
20
64.6519577
40
0.3745839
50
36.2585721
51
49.5078901
0
ARC
8
DEFAULT_255_2_778
10
7.4493357
20
64.6314854
40
0.4031707
50
49.2312304
51
58.9717198
0
ARC
8
DEFAULT_255_2_778
10
7.5274377
20
64.7646718
40
0.248789
50
58.5742668
51
67.8716986
0
ARC
8
DEFAULT_255_2_778
10
7.5935114
20
64.9277073
40
0.0728738
50
67.7100177
51
78.6297882
0
ARC
8
DEFAULT_255_2_778
10
7.5190293
20
64.6376299
40
0.3722789
50
76.1923956
51
89.5701222
0
ARC
8
DEFAULT_255_2_778
10
7.5195885
20
64.7469493
40
0.2629584
50
89.5132529
51
146.9014998
0
ARC
8
DEFAULT_255_2_778
10
7.7460395
20
64.58114
40
0.5434228
50
145.2940838
51
161.850839
0
ARC
8
DEFAULT_255_2_778
10
8.0164089
20
64.4786237
40
0.8323786
50
160.9423243
51
163.2903392
0
ARC
8
DEFAULT_255_2_778
10
7.5565469
20
64.6875198
40
0.4376279
50
142.4619643
51
176.0126356
0
ARC
8
DEFAULT_255_2_778
10
7.5194356
20
64.7152652
40
0.3912962
50
90.3400632
51
142.3725339
0
ARC
8
DEFAULT_255_2_778
10
7.5170997
20
64.7279425
40
0.378612
50
81.4733523
51
89.9979664
0
ARC
8
DEFAULT_255_2_778
10
7.5148528
20
64.7166932
40
0.3900703
50
63.8463056
51
81.391954
0
ARC
8
DEFAULT_255_2_778
10
7.5048391
20
64.6943514
40
0.4145395
50
63.4115373
51
63.9650864
0
ARC
8
DEFAULT_255_2_778
10
7.5372625
20
64.7063767
40
0.3899892
50
42.8009377
51
66.8826731
0
ARC
8
DEFAULT_255_2_778
10
7.5469465
20
64.7213355
40
0.372746
50
7.5777171
51
42.1252496
0
ARC
8
DEFAULT_255_2_778
10
7.5123595
20
64.7136666
40
0.4080537
50
359.992397
51
8.004694
0
ARC
8
DEFAULT_255_2_778
10
7.5398229
20
64.7110107
40
0.3805991
50
335.6759909
51
0.3916827
0
ARC
8
DEFAULT_255_2_778
10
7.632767
20
64.671388
40
0.2795935
50
322.9040853
51
335.2296825
0
LINE
8
DEFAULT_255_2_778
10
6.7563783
20
60.8486509
11
6.2769783
21
62.3617509
0
LINE
8
DEFAULT_255_2_778
10
6.2769783
20
62.3617509
11
6.3430783
21
62.3617509
0
LINE
8
DEFAULT_255_2_778
10
6.3430783
20
62.3617509
11
6.7566783
21
61.0388509
0
LINE
8
DEFAULT_255_2_778
10
6.7566783
20
61.0388509
11
7.2032783
21
62.3617509
0
LINE
8
DEFAULT_255_2_778
10
7.2032783
20
62.3617509
11
7.2694783
21
62.3617509
0
LINE
8
DEFAULT_255_2_778
10
7.2694783
20
62.3617509
11
6.7563783
21
60.8486509
0
LINE
8
DEFAULT_255_2_778
10
7.8808783
20
63.5936509
11
7.1283783
21
63.5936509
0
LINE
8
DEFAULT_255_2_778
10
7.1283783
20
63.5936509
11
7.1283783
21
63.6762509
0
LINE
8
DEFAULT_255_2_778
10
7.1283783
20
63.6762509
11
7.7649783
21
64.5443509
0
LINE
8
DEFAULT_255_2_778
10
7.2191783
20
64.7179509
11
7.1199783
21
64.7179509
0
LINE
8
DEFAULT_255_2_778
10
7.8557783
20
64.5027509
11
7.2522783
21
63.6759509
0
LINE
8
DEFAULT_255_2_778
10
7.2522783
20
63.6759509
11
7.8805783
21
63.6759509
0
LINE
8
DEFAULT_255_2_778
10
7.8805783
20
63.6759509
11
7.8808783
21
63.5936509
0
LINE
8
DEFAULT_255_2_778
10
9.0137783
20
65.0983509
11
8.9643783
21
65.0983509
0
LINE
8
DEFAULT_255_2_778
10
8.9643783
20
65.0983509
11
8.3690783
21
63.9820509
0
LINE
8
DEFAULT_255_2_778
10
8.3690783
20
63.9820509
11
8.3690783
21
63.9323509
0
LINE
8
DEFAULT_255_2_778
10
8.3690783
20
63.9323509
11
8.9312783
21
63.9323509
0
LINE
8
DEFAULT_255_2_778
10
8.9312783
20
63.9323509
11
8.9312783
21
63.6346509
0
LINE
8
DEFAULT_255_2_778
10
8.9312783
20
63.6346509
11
9.0055783
21
63.6346509
0
LINE
8
DEFAULT_255_2_778
10
9.0055783
20
63.6346509
11
9.0055783
21
63.9323509
0
LINE
8
DEFAULT_255_2_778
10
9.0055783
20
63.9323509
11
9.1214783
21
63.9323509
0
LINE
8
DEFAULT_255_2_778
10
9.1214783
20
63.9323509
11
9.1214783
21
64.0067509
0
LINE
8
DEFAULT_255_2_778
10
9.1214783
20
64.0067509
11
9.0140783
21
64.0067509
0
LINE
8
DEFAULT_255_2_778
10
9.0140783
20
64.0067509
11
9.0137783
21
65.0983509
0
LINE
8
DEFAULT_255_2_778
10
8.9386783
20
64.0006509
11
8.4510783
21
64.0006509
0
LINE
8
DEFAULT_255_2_778
10
8.4510783
20
64.0006509
11
8.9386783
21
64.9007509
0
LINE
8
DEFAULT_255_2_778
10
8.9386783
20
64.9007509
11
8.9386783
21
64.0006509
0
LINE
8
DEFAULT_255_2_778
10
9.1177783
20
63.9339509
11
9.0053783
21
63.9339509
0
LINE
8
DEFAULT_255_2_778
10
9.0053783
20
63.9339509
11
9.0053783
21
63.6339509
0
LINE
8
DEFAULT_255_2_778
10
15.0013783
20
63.6272509
11
15.0013783
21
65.0989509
0
LINE
8
DEFAULT_255_2_778
10
15.0013783
20
65.0989509
11
15.7455783
21
65.0989509
0
LINE
8
DEFAULT_255_2_778
10
15.7455783
20
65.0989509
11
15.7455783
21
65.0160509
0
LINE
8
DEFAULT_255_2_778
10
15.7455783
20
65.0160509
11
15.0674783
21
65.0160509
0
LINE
8
DEFAULT_255_2_778
10
15.0674783
20
65.0160509
11
15.0674783
21
64.3877509
0
LINE
8
DEFAULT_255_2_778
10
15.0674783
20
64.3877509
11
15.5966783
21
64.3877509
0
LINE
8
DEFAULT_255_2_778
10
15.5966783
20
64.3877509
11
15.5966783
21
64.3048509
0
LINE
8
DEFAULT_255_2_778
10
15.5966783
20
64.3048509
11
15.0674783
21
64.3048509
0
LINE
8
DEFAULT_255_2_778
10
15.0674783
20
64.3048509
11
15.0674783
21
63.6267509
0
LINE
8
DEFAULT_255_2_778
10
15.0674783
20
63.6267509
11
15.0013783
21
63.6272509
0
ARC
8
DEFAULT_255_2_778
10
14.1242926
20
64.665596
40
0.4339696
50
7.0705375
51
87.69294
0
ARC
8
DEFAULT_255_2_778
10
14.1805287
20
64.6798208
40
0.421181
50
95.2811417
51
152.4043774
0
ARC
8
DEFAULT_255_2_778
10
14.1495534
20
64.6726441
40
0.3975934
50
149.4187415
51
162.2826501
0
ARC
8
DEFAULT_255_2_778
10
14.0047766
20
64.7199292
40
0.2452957
50
162.5124103
51
172.5313008
0
ARC
8
DEFAULT_255_2_778
10
14.1968861
20
64.722839
40
0.4362873
50
176.1920559
51
179.9967234
0
ARC
8
DEFAULT_255_2_778
10
14.1995856
20
64.7243306
40
0.4389893
50
180.1914251
51
225.2784281
0
ARC
8
DEFAULT_255_2_778
10
14.1501702
20
64.6636962
40
0.3612136
50
224.0799881
51
259.7473575
0
ARC
8
DEFAULT_255_2_778
10
14.1256986
20
64.5678231
40
0.2626095
50
261.2783903
51
269.9265452
0
ARC
8
DEFAULT_255_2_778
10
14.1303568
20
63.952077
40
0.3531721
50
50.2582936
51
90.8103555
0
ARC
8
DEFAULT_255_2_778
10
14.1646918
20
63.9914148
40
0.3009753
50
0.8908932
51
50.4965655
0
ARC
8
DEFAULT_255_2_778
10
14.1944041
20
63.9960714
40
0.2712267
50
353.8066861
51
0.0048769
0
ARC
8
DEFAULT_255_2_778
10
14.1950241
20
63.99604
40
0.270607
50
344.7175047
51
353.799129
0
ARC
8
DEFAULT_255_2_778
10
14.097607
20
64.0186411
40
0.3705568
50
313.4788002
51
345.3166998
0
ARC
8
DEFAULT_255_2_778
10
14.1538538
20
63.9817793
40
0.3054971
50
267.7691394
51
310.5798882
0
ARC
8
DEFAULT_255_2_778
10
14.170207
20
64.0023494
40
0.3270574
50
184.935042
51
265.0457069
0
ARC
8
DEFAULT_255_2_778
10
13.8630552
20
63.9603029
40
0.102244
50
172.1803086
51
180.219817
0
ARC
8
DEFAULT_255_2_778
10
13.9582948
20
63.964928
40
0.1975466
50
181.4553784
51
198.1928362
0
ARC
8
DEFAULT_255_2_778
10
14.1647881
20
64.029288
40
0.4138251
50
197.7320687
51
209.714285
0
ARC
8
DEFAULT_255_2_778
10
14.2702144
20
64.0845888
40
0.5328167
50
209.2596313
51
211.6300841
0
ARC
8
DEFAULT_255_2_778
10
14.2001876
20
64.0184025
40
0.4389212
50
209.0667602
51
254.9770618
0
ARC
8
DEFAULT_255_2_778
10
14.1254955
20
63.8227347
40
0.2315733
50
260.2846385
51
269.9334142
0
ARC
8
DEFAULT_255_2_778
10
14.125303
20
63.8104489
40
0.2192873
50
269.979986
51
278.7500639
0
LINE
8
DEFAULT_255_2_778
10
14.158662
20
63.5937138
11
14.1589617
21
63.593714
0
ARC
8
DEFAULT_255_2_778
10
14.1154975
20
64.0437784
40
0.4521583
50
275.5161267
51
338.1876846
0
ARC
8
DEFAULT_255_2_778
10
14.2045432
20
64.005504
40
0.3552747
50
338.5824352
51
338.8699569
0
ARC
8
DEFAULT_255_2_778
10
14.2763185
20
63.9811409
40
0.2795603
50
338.224571
51
356.1174325
0
ARC
8
DEFAULT_255_2_778
10
14.3422773
20
63.9739742
40
0.2132846
50
356.8384973
51
359.9837987
0
ARC
8
DEFAULT_255_2_778
10
14.1074356
20
63.9990287
40
0.4488296
50
356.7922629
51
359.984345
0
ARC
8
DEFAULT_255_2_778
10
14.1846228
20
64.0032452
40
0.3716677
50
359.3310693
51
28.7259752
0
ARC
8
DEFAULT_255_2_778
10
14.1544893
20
63.9739233
40
0.4123384
50
30.2866679
51
71.8926531
0
ARC
8
DEFAULT_255_2_778
10
14.1451427
20
63.9706582
40
0.4184207
50
70.8150817
51
84.8223869
0
ARC
8
DEFAULT_255_2_778
10
14.1539427
20
64.0507971
40
0.337818
50
85.0822272
51
89.9400539
0
ARC
8
DEFAULT_255_2_778
10
14.1538582
20
64.1022302
40
0.2863849
50
89.9123944
51
95.6703632
0
ARC
8
DEFAULT_255_2_778
10
14.2472832
20
64.8600801
40
0.4882812
50
236.9887412
51
255.5647848
0
ARC
8
DEFAULT_255_2_778
10
14.1772635
20
64.7536745
40
0.3609071
50
212.1825685
51
237.1071503
0
ARC
8
DEFAULT_255_2_778
10
14.1230469
20
64.7165504
40
0.2952584
50
201.3005725
51
211.6889969
0
ARC
8
DEFAULT_255_2_778
10
14.0760235
20
64.6996279
40
0.2453036
50
181.8962735
51
201.6077903
0
ARC
8
DEFAULT_255_2_778
10
14.0418509
20
64.6967966
40
0.2110628
50
180.0049918
51
181.4350516
0
ARC
8
DEFAULT_255_2_778
10
14.0093936
20
64.6986112
40
0.1786147
50
157.3437811
51
180.5880113
0
ARC
8
DEFAULT_255_2_778
10
14.2897008
20
64.5929406
40
0.4781103
50
130.4162566
51
158.597184
0
ARC
8
DEFAULT_255_2_778
10
14.1521422
20
64.731846
40
0.2835498
50
88.6218249
51
127.4499253
0
ARC
8
DEFAULT_255_2_778
10
14.1227104
20
64.6627945
40
0.3543784
50
20.2742422
51
84.1285935
0
ARC
8
DEFAULT_255_2_778
10
14.1965663
20
64.6801745
40
0.2792303
50
7.7261472
51
22.1805893
0
LINE
8
DEFAULT_255_2_778
10
13.844362
20
63.9742138
11
13.761762
21
63.9742138
0
LINE
8
DEFAULT_255_2_778
10
14.473262
20
64.7177138
11
14.554962
21
64.7190138
0
LINE
8
DEFAULT_255_2_778
10
13.7509073
20
29.3462927
11
15.7509073
21
29.3462927
0
LINE
8
DEFAULT_255_2_778
10
15.7509073
20
29.3462927
11
15.7509073
21
27.3462927
0
LINE
8
DEFAULT_255_2_778
10
15.7509073
20
27.3462927
11
13.7509073
21
27.3462927
0
LINE
8
DEFAULT_255_2_778
10
13.7509073
20
27.3462927
11
13.7509073
21
29.3462927
0
LINE
8
DEFAULT_255_2_778
10
10.4508073
20
29.3462927
11
12.4508073
21
29.3462927
0
LINE
8
DEFAULT_255_2_778
10
12.4508073
20
29.3462927
11
12.4508073
21
27.3462927
0
LINE
8
DEFAULT_255_2_778
10
12.4508073
20
27.3462927
11
10.4508073
21
27.3462927
0
LINE
8
DEFAULT_255_2_778
10
10.4508073
20
27.3462927
11
10.4508073
21
29.3462927
0
LINE
8
DEFAULT_255_2_778
10
7.1509073
20
29.3462927
11
9.1509073
21
29.3462927
0
LINE
8
DEFAULT_255_2_778
10
9.1509073
20
29.3462927
11
9.1509073
21
27.3462927
0
LINE
8
DEFAULT_255_2_778
10
9.1509073
20
27.3462927
11
7.1509073
21
27.3462927
0
LINE
8
DEFAULT_255_2_778
10
7.1509073
20
27.3462927
11
7.1509073
21
29.3462927
0
LINE
8
DEFAULT_255_2_778
10
23.6508073
20
29.3462927
11
25.6508073
21
29.3462927
0
LINE
8
DEFAULT_255_2_778
10
25.6508073
20
29.3462927
11
25.6508073
21
27.3462927
0
LINE
8
DEFAULT_255_2_778
10
25.6508073
20
27.3462927
11
23.6508073
21
27.3462927
0
LINE
8
DEFAULT_255_2_778
10
23.6508073
20
27.3462927
11
23.6508073
21
29.3462927
0
LINE
8
DEFAULT_255_2_778
10
20.3509073
20
29.3462927
11
22.3509073
21
29.3462927
0
LINE
8
DEFAULT_255_2_778
10
22.3509073
20
29.3462927
11
22.3509073
21
27.3462927
0
LINE
8
DEFAULT_255_2_778
10
22.3509073
20
27.3462927
11
20.3509073
21
27.3462927
0
LINE
8
DEFAULT_255_2_778
10
20.3509073
20
27.3462927
11
20.3509073
21
29.3462927
0
LINE
8
DEFAULT_255_2_778
10
17.0508073
20
29.3462927
11
19.0508073
21
29.3462927
0
LINE
8
DEFAULT_255_2_778
10
19.0508073
20
29.3462927
11
19.0508073
21
27.3462927
0
LINE
8
DEFAULT_255_2_778
10
19.0508073
20
27.3462927
11
17.0508073
21
27.3462927
0
LINE
8
DEFAULT_255_2_778
10
17.0508073
20
27.3462927
11
17.0508073
21
29.3462927
0
LINE
8
DEFAULT_255_2_778
10
30.2509073
20
29.3462927
11
32.2509073
21
29.3462927
0
LINE
8
DEFAULT_255_2_778
10
32.2509073
20
29.3462927
11
32.2509073
21
27.3462927
0
LINE
8
DEFAULT_255_2_778
10
32.2509073
20
27.3462927
11
30.2509073
21
27.3462927
0
LINE
8
DEFAULT_255_2_778
10
30.2509073
20
27.3462927
11
30.2509073
21
29.3462927
0
LINE
8
DEFAULT_255_2_778
10
26.9510073
20
29.3462927
11
28.9510073
21
29.3462927
0
LINE
8
DEFAULT_255_2_778
10
28.9510073
20
29.3462927
11
28.9510073
21
27.3462927
0
LINE
8
DEFAULT_255_2_778
10
28.9510073
20
27.3462927
11
26.9510073
21
27.3462927
0
LINE
8
DEFAULT_255_2_778
10
26.9510073
20
27.3462927
11
26.9510073
21
29.3462927
0
ARC
8
DEFAULT_255_2_778
10
70.6506237
20
8.6465292
40
0.800141
50
314.9955306
51
359.9907439
0
ARC
8
DEFAULT_255_2_778
10
70.6505354
20
8.646441
40
0.800141
50
270.0092561
51
315.0044694
0
ARC
8
DEFAULT_255_2_778
10
70.651258
20
8.6461613
40
1.5996614
50
269.9894938
51
299.9990056
0
LINE
8
DEFAULT_255_2_778
10
70.6506647
20
7.8463
11
70.6506647
21
7.0462
0
LINE
8
DEFAULT_255_2_778
10
70.6506647
20
7.0462
11
63.4505647
21
7.0462
0
LINE
8
DEFAULT_255_2_778
10
69.3332573
20
7.8520604
11
71.4425573
21
7.8520604
0
LINE
8
DEFAULT_255_2_778
10
71.4158573
20
9.3945604
11
71.4158573
21
7.8943604
0
LINE
8
DEFAULT_255_2_778
10
71.4158573
20
7.8943604
11
69.3028573
21
7.8943604
0
ARC
8
DEFAULT_255_2_778
10
67.457459
20
3.8499004
40
2.4066969
50
159.2976576
51
180.084873
0
ARC
8
DEFAULT_255_2_778
10
67.4453294
20
3.8513615
40
2.3948358
50
100.6121045
51
159.2277679
0
ARC
8
DEFAULT_255_2_778
10
67.4494609
20
3.8148835
40
2.4314521
50
89.9692772
51
100.5494958
0
ARC
8
DEFAULT_255_2_778
10
67.4543363
20
3.8393835
40
2.4069545
50
69.2987756
51
90.0850211
0
ARC
8
DEFAULT_255_2_778
10
67.4559114
20
3.8517661
40
2.3948164
50
10.6123017
51
69.2293012
0
ARC
8
DEFAULT_255_2_778
10
67.4194361
20
3.8476402
40
2.4314289
50
359.9692516
51
10.5495722
0
ARC
8
DEFAULT_255_2_778
10
67.4440943
20
3.8427736
40
2.406773
50
339.2979222
51
0.0847906
0
ARC
8
DEFAULT_255_2_778
10
67.4561939
20
3.841311
40
2.3949392
50
280.612534
51
339.228324
0
ARC
8
DEFAULT_255_2_778
10
67.4520691
20
3.8777908
40
2.4315559
50
269.9692631
51
280.5497591
0
ARC
8
DEFAULT_255_2_778
10
67.4472019
20
3.8527541
40
2.4065214
50
249.2960188
51
270.0848243
0
ARC
8
DEFAULT_255_2_778
10
67.4458779
20
3.8409092
40
2.3949751
50
190.6117907
51
249.2254656
0
ARC
8
DEFAULT_255_2_778
10
67.4822765
20
3.8450334
40
2.4315121
50
179.9693203
51
190.5493631
0
LINE
8
DEFAULT_255_2_778
10
65.0507647
20
3.8463353
11
65.0507647
21
3.8463353
0
LINE
8
DEFAULT_255_2_778
10
2.3508468
20
7.8462498
11
2.3508468
21
21.3463498
0
LINE
8
DEFAULT_255_2_778
10
2.3508468
20
21.3463498
11
69.3507468
21
21.3463498
0
LINE
8
DEFAULT_255_2_778
10
69.3507468
20
21.3463498
11
69.3507468
21
7.8462498
0
LINE
8
DEFAULT_255_2_778
10
69.3507468
20
7.8462498
11
2.3508468
21
7.8462498
0
LINE
8
DEFAULT_255_2_778
10
66.7118395
20
9.6253498
11
68.5077395
21
9.6253498
0
LINE
8
DEFAULT_255_2_778
10
68.5077395
20
9.6253498
11
68.5077395
21
21.3463498
0
LINE
8
DEFAULT_255_2_778
10
68.9509395
20
21.3463498
11
68.9509395
21
9.2273498
0
LINE
8
DEFAULT_255_2_778
10
3.1938395
20
21.3463498
11
3.1938395
21
9.6253498
0
LINE
8
DEFAULT_255_2_778
10
3.1938395
20
9.6253498
11
4.9898395
21
9.6253498
0
LINE
8
DEFAULT_255_2_778
10
2.7508395
20
9.2273498
11
2.7508395
21
21.3463498
0
LINE
8
DEFAULT_255_2_778
10
4.9898395
20
9.2464498
11
2.7863395
21
9.2464498
0
LINE
8
DEFAULT_255_2_778
10
2.7863395
20
9.2464498
11
2.7863395
21
9.2273498
0
LINE
8
DEFAULT_255_2_778
10
2.7863395
20
9.2273498
11
2.3508395
21
9.2273498
0
LINE
8
DEFAULT_255_2_778
10
4.9898395
20
21.3463498
11
4.9898395
21
7.8462498
0
LINE
8
DEFAULT_255_2_778
10
2.8125677
20
10.4079927
11
3.1938677
21
10.4079927
0
LINE
8
DEFAULT_255_2_778
10
2.8125677
20
9.2461927
11
2.8125677
21
10.4076927
0
LINE
8
DEFAULT_255_2_778
10
2.8125677
20
10.4076927
11
3.1938677
21
10.7889927
0
LINE
8
DEFAULT_255_2_778
10
43.2066993
20
21.1383811
11
65.1096993
21
21.1383811
0
LINE
8
DEFAULT_255_2_778
10
65.1096993
20
21.1383811
11
65.1096993
21
10.3385811
0
LINE
8
DEFAULT_255_2_778
10
65.1096993
20
10.3385811
11
43.2066993
21
10.3385811
0
LINE
8
DEFAULT_255_2_778
10
43.2066993
20
10.3385811
11
43.2066993
21
21.1383811
0
LINE
8
DEFAULT_255_2_778
10
45.8797993
20
12.5759613
11
62.1079993
21
12.5759613
0
LINE
8
DEFAULT_255_2_778
10
62.1079993
20
12.5759613
11
62.1079993
21
10.3385613
0
LINE
8
DEFAULT_255_2_778
10
47.3304993
20
12.5759613
11
47.3304993
21
10.3385613
0
LINE
8
DEFAULT_255_2_778
10
43.2066993
20
19.2804613
11
65.1096993
21
19.2804613
0
LINE
8
DEFAULT_255_2_778
10
58.8464993
20
12.5759613
11
58.8464993
21
10.3385613
0
LINE
8
DEFAULT_255_2_778
10
58.1238993
20
12.5740613
11
58.1238993
21
10.3383613
0
LINE
8
DEFAULT_255_2_778
10
55.9728367
20
12.5907573
11
55.9728367
21
10.3386573
0
LINE
8
DEFAULT_255_2_778
10
52.3666367
20
12.5907573
11
52.3666367
21
10.3386573
0
LINE
8
DEFAULT_255_2_778
10
50.2155367
20
12.5907573
11
50.2155367
21
10.3386573
0
LINE
8
DEFAULT_255_2_778
10
48.0480367
20
12.5907573
11
48.0480367
21
10.3386573
0
LINE
8
DEFAULT_255_2_778
10
53.8168367
20
12.5759573
11
53.8168367
21
10.3386573
0
LINE
8
DEFAULT_255_2_778
10
51.6493367
20
12.5759573
11
51.6493367
21
10.3386573
0
LINE
8
DEFAULT_255_2_778
10
49.4982367
20
12.5759573
11
49.4982367
21
10.3386573
0
LINE
8
DEFAULT_255_2_778
10
56.6954367
20
12.5759573
11
56.6954367
21
10.3386573
0
LINE
8
DEFAULT_255_2_778
10
45.8692367
20
12.5851573
11
45.8692367
21
10.3478573
0
LINE
8
DEFAULT_255_2_778
10
54.5343367
20
12.5902573
11
54.5343367
21
10.3529573
0
LINE
8
DEFAULT_255_2_778
10
60.2890367
20
12.5685573
11
60.2890367
21
10.3362573
0
LINE
8
DEFAULT_255_2_778
10
60.9999367
20
12.5851573
11
60.9999367
21
10.3362573
0
LINE
8
DEFAULT_255_2_778
10
5.3700224
20
9.4697
11
41.4182224
21
9.4697
0
LINE
8
DEFAULT_255_2_778
10
14.0023
20
9.4697406
11
14.0023
21
9.7642406
0
LINE
8
DEFAULT_255_2_778
10
12.7323
20
9.4697406
11
12.7323
21
9.7642406
0
LINE
8
DEFAULT_255_2_778
10
8.9223
20
9.4697406
11
8.9223
21
9.7642406
0
LINE
8
DEFAULT_255_2_778
10
24.1623
20
9.4697406
11
24.1623
21
9.7642406
0
LINE
8
DEFAULT_255_2_778
10
22.8923
20
9.4697406
11
22.8923
21
9.7642406
0
LINE
8
DEFAULT_255_2_778
10
19.0823
20
9.4697406
11
19.0823
21
9.7642406
0
LINE
8
DEFAULT_255_2_778
10
17.8123
20
9.4697406
11
17.8123
21
9.7642406
0
LINE
8
DEFAULT_255_2_778
10
34.3223
20
9.4697406
11
34.3223
21
9.7642406
0
LINE
8
DEFAULT_255_2_778
10
33.0523
20
9.4697406
11
33.0523
21
9.7642406
0
LINE
8
DEFAULT_255_2_778
10
29.2423
20
9.4697406
11
29.2423
21
9.7642406
0
LINE
8
DEFAULT_255_2_778
10
27.9723
20
9.4697406
11
27.9723
21
9.7642406
0
LINE
8
DEFAULT_255_2_778
10
41.401737
20
9.7642332
11
5.366237
21
9.7642332
0
LINE
8
DEFAULT_255_2_778
10
5.366237
20
9.4763332
11
5.366237
21
21.0926332
0
LINE
8
DEFAULT_255_2_778
10
5.366237
20
21.0926332
11
41.426537
21
21.0926332
0
LINE
8
DEFAULT_255_2_778
10
41.426537
20
21.0926332
11
41.426537
21
9.4872332
0
LINE
8
DEFAULT_255_2_778
10
38.1257
20
9.4697406
11
38.1257
21
9.7642406
0
LINE
8
DEFAULT_255_2_778
10
39.3991
20
9.4697406
11
39.3991
21
9.7642406
0
ARC
8
DEFAULT_255_2_778
10
8.2894172
20
15.0508518
40
2.0087201
50
156.5711449
51
180.098458
0
ARC
8
DEFAULT_255_2_778
10
8.2826786
20
15.0516356
40
2.0022264
50
100.1969768
51
156.5150524
0
ARC
8
DEFAULT_255_2_778
10
8.2862784
20
15.0199707
40
2.0340295
50
89.9712226
51
100.1388726
0
ARC
8
DEFAULT_255_2_778
10
8.2907442
20
15.0454106
40
2.0085923
50
66.5693287
51
90.0982465
0
ARC
8
DEFAULT_255_2_778
10
8.2914278
20
15.0519241
40
2.0023451
50
10.1984339
51
66.5131642
0
ARC
8
DEFAULT_255_2_778
10
8.2601291
20
15.0484183
40
2.0337712
50
359.9713109
51
10.1395175
0
ARC
8
DEFAULT_255_2_778
10
8.2851822
20
15.04394
40
2.0087208
50
336.5700845
51
0.0986899
0
ARC
8
DEFAULT_255_2_778
10
8.2919108
20
15.0431861
40
2.0022483
50
280.1964141
51
336.5133195
0
ARC
8
DEFAULT_255_2_778
10
8.2883184
20
15.0747731
40
2.0339734
50
269.9713149
51
280.1385001
0
ARC
8
DEFAULT_255_2_778
10
8.2838325
20
15.0496456
40
2.0088486
50
246.5719007
51
270.0989013
0
ARC
8
DEFAULT_255_2_778
10
8.2829783
20
15.0426919
40
2.0021296
50
190.194957
51
246.5152077
0
ARC
8
DEFAULT_255_2_778
10
8.3149315
20
15.0463784
40
2.0342317
50
179.9712266
51
190.1378553
0
LINE
8
DEFAULT_255_2_778
10
6.2807001
20
15.0473999
11
6.2807001
21
15.0473999
0
ARC
8
DEFAULT_255_2_778
10
28.6092894
20
15.0508441
40
2.0085923
50
156.5693287
51
180.0982465
0
ARC
8
DEFAULT_255_2_778
10
28.6027759
20
15.0515277
40
2.0023451
50
100.1984339
51
156.5131642
0
ARC
8
DEFAULT_255_2_778
10
28.6062817
20
15.020229
40
2.0337712
50
89.9713109
51
100.1395175
0
ARC
8
DEFAULT_255_2_778
10
28.61076
20
15.0452821
40
2.0087208
50
66.5700845
51
90.0986899
0
ARC
8
DEFAULT_255_2_778
10
28.6115139
20
15.0520107
40
2.0022483
50
10.1964141
51
66.5133195
0
ARC
8
DEFAULT_255_2_778
10
28.5799269
20
15.0484183
40
2.0339734
50
359.9713149
51
10.1385001
0
ARC
8
DEFAULT_255_2_778
10
28.6050544
20
15.0439324
40
2.0088486
50
336.5719007
51
0.0989013
0
ARC
8
DEFAULT_255_2_778
10
28.6120081
20
15.0430782
40
2.0021296
50
280.194957
51
336.5152077
0
ARC
8
DEFAULT_255_2_778
10
28.6083216
20
15.0750314
40
2.0342317
50
269.9712266
51
280.1378553
0
ARC
8
DEFAULT_255_2_778
10
28.6038482
20
15.0495171
40
2.0087201
50
246.5711449
51
270.098458
0
ARC
8
DEFAULT_255_2_778
10
28.6030644
20
15.0427785
40
2.0022264
50
190.1969768
51
246.5150524
0
ARC
8
DEFAULT_255_2_778
10
28.6347293
20
15.0463783
40
2.0340295
50
179.9712226
51
190.1388726
0
LINE
8
DEFAULT_255_2_778
10
26.6007001
20
15.0473999
11
26.6007001
21
15.0473999
0
ARC
8
DEFAULT_255_2_778
10
33.6894172
20
15.0508518
40
2.0087201
50
156.5711449
51
180.098458
0
ARC
8
DEFAULT_255_2_778
10
33.6826786
20
15.0516356
40
2.0022264
50
100.1969768
51
156.5150524
0
ARC
8
DEFAULT_255_2_778
10
33.6862784
20
15.0199707
40
2.0340295
50
89.9712226
51
100.1388726
0
ARC
8
DEFAULT_255_2_778
10
33.69076
20
15.0452821
40
2.0087208
50
66.5700845
51
90.0986899
0
ARC
8
DEFAULT_255_2_778
10
33.6915139
20
15.0520107
40
2.0022483
50
10.1964141
51
66.5133195
0
ARC
8
DEFAULT_255_2_778
10
33.6599269
20
15.0484183
40
2.0339734
50
359.9713149
51
10.1385001
0
ARC
8
DEFAULT_255_2_778
10
33.6850544
20
15.0439324
40
2.0088486
50
336.5719007
51
0.0989013
0
ARC
8
DEFAULT_255_2_778
10
33.6920081
20
15.0430782
40
2.0021296
50
280.194957
51
336.5152077
0
ARC
8
DEFAULT_255_2_778
10
33.6883216
20
15.0750314
40
2.0342317
50
269.9712266
51
280.1378553
0
ARC
8
DEFAULT_255_2_778
10
33.6838325
20
15.0496456
40
2.0088486
50
246.5719007
51
270.0989013
0
ARC
8
DEFAULT_255_2_778
10
33.6829783
20
15.0426919
40
2.0021296
50
190.194957
51
246.5152077
0
ARC
8
DEFAULT_255_2_778
10
33.7149315
20
15.0463784
40
2.0342317
50
179.9712266
51
190.1378553
0
LINE
8
DEFAULT_255_2_778
10
31.6807001
20
15.0473999
11
31.6807001
21
15.0473999
0
ARC
8
DEFAULT_255_2_778
10
18.4494172
20
15.0508518
40
2.0087201
50
156.5711449
51
180.098458
0
ARC
8
DEFAULT_255_2_778
10
18.4426786
20
15.0516356
40
2.0022264
50
100.1969768
51
156.5150524
0
ARC
8
DEFAULT_255_2_778
10
18.4462784
20
15.0199707
40
2.0340295
50
89.9712226
51
100.1388726
0
ARC
8
DEFAULT_255_2_778
10
18.4507442
20
15.0454106
40
2.0085923
50
66.5693287
51
90.0982465
0
ARC
8
DEFAULT_255_2_778
10
18.4514278
20
15.0519241
40
2.0023451
50
10.1984339
51
66.5131642
0
ARC
8
DEFAULT_255_2_778
10
18.4201291
20
15.0484183
40
2.0337712
50
359.9713109
51
10.1395175
0
ARC
8
DEFAULT_255_2_778
10
18.4451822
20
15.04394
40
2.0087208
50
336.5700845
51
0.0986899
0
ARC
8
DEFAULT_255_2_778
10
18.4519108
20
15.0431861
40
2.0022483
50
280.1964141
51
336.5133195
0
ARC
8
DEFAULT_255_2_778
10
18.4483184
20
15.0747731
40
2.0339734
50
269.9713149
51
280.1385001
0
ARC
8
DEFAULT_255_2_778
10
18.4438325
20
15.0496456
40
2.0088486
50
246.5719007
51
270.0989013
0
ARC
8
DEFAULT_255_2_778
10
18.4429783
20
15.0426919
40
2.0021296
50
190.194957
51
246.5152077
0
ARC
8
DEFAULT_255_2_778
10
18.4749315
20
15.0463784
40
2.0342317
50
179.9712266
51
190.1378553
0
LINE
8
DEFAULT_255_2_778
10
16.4407001
20
15.0473999
11
16.4407001
21
15.0473999
0
ARC
8
DEFAULT_255_2_778
10
23.5294172
20
15.0508518
40
2.0087201
50
156.5711449
51
180.098458
0
ARC
8
DEFAULT_255_2_778
10
23.5226786
20
15.0516356
40
2.0022264
50
100.1969768
51
156.5150524
0
ARC
8
DEFAULT_255_2_778
10
23.5262784
20
15.0199707
40
2.0340295
50
89.9712226
51
100.1388726
0
ARC
8
DEFAULT_255_2_778
10
23.5307442
20
15.0454106
40
2.0085923
50
66.5693287
51
90.0982465
0
ARC
8
DEFAULT_255_2_778
10
23.5314278
20
15.0519241
40
2.0023451
50
10.1984339
51
66.5131642
0
ARC
8
DEFAULT_255_2_778
10
23.5001291
20
15.0484183
40
2.0337712
50
359.9713109
51
10.1395175
0
ARC
8
DEFAULT_255_2_778
10
23.5251822
20
15.04394
40
2.0087208
50
336.5700845
51
0.0986899
0
ARC
8
DEFAULT_255_2_778
10
23.5319108
20
15.0431861
40
2.0022483
50
280.1964141
51
336.5133195
0
ARC
8
DEFAULT_255_2_778
10
23.5283184
20
15.0747731
40
2.0339734
50
269.9713149
51
280.1385001
0
ARC
8
DEFAULT_255_2_778
10
23.5238325
20
15.0496456
40
2.0088486
50
246.5719007
51
270.0989013
0
ARC
8
DEFAULT_255_2_778
10
23.5229783
20
15.0426919
40
2.0021296
50
190.194957
51
246.5152077
0
ARC
8
DEFAULT_255_2_778
10
23.5549315
20
15.0463784
40
2.0342317
50
179.9712266
51
190.1378553
0
LINE
8
DEFAULT_255_2_778
10
21.5207001
20
15.0473999
11
21.5207001
21
15.0473999
0
ARC
8
DEFAULT_255_2_778
10
13.3692894
20
15.0508441
40
2.0085923
50
156.5693287
51
180.0982465
0
ARC
8
DEFAULT_255_2_778
10
13.3627759
20
15.0515277
40
2.0023451
50
100.1984339
51
156.5131642
0
ARC
8
DEFAULT_255_2_778
10
13.3662817
20
15.020229
40
2.0337712
50
89.9713109
51
100.1395175
0
ARC
8
DEFAULT_255_2_778
10
13.37076
20
15.0452821
40
2.0087208
50
66.5700845
51
90.0986899
0
ARC
8
DEFAULT_255_2_778
10
13.3715139
20
15.0520107
40
2.0022483
50
10.1964141
51
66.5133195
0
ARC
8
DEFAULT_255_2_778
10
13.3399269
20
15.0484183
40
2.0339734
50
359.9713149
51
10.1385001
0
ARC
8
DEFAULT_255_2_778
10
13.3650544
20
15.0439324
40
2.0088486
50
336.5719007
51
0.0989013
0
ARC
8
DEFAULT_255_2_778
10
13.3720081
20
15.0430782
40
2.0021296
50
280.194957
51
336.5152077
0
ARC
8
DEFAULT_255_2_778
10
13.3683216
20
15.0750314
40
2.0342317
50
269.9712266
51
280.1378553
0
ARC
8
DEFAULT_255_2_778
10
13.3638482
20
15.0495171
40
2.0087201
50
246.5711449
51
270.098458
0
ARC
8
DEFAULT_255_2_778
10
13.3630644
20
15.0427785
40
2.0022264
50
190.1969768
51
246.5150524
0
ARC
8
DEFAULT_255_2_778
10
13.3947293
20
15.0463783
40
2.0340295
50
179.9712226
51
190.1388726
0
LINE
8
DEFAULT_255_2_778
10
11.3607001
20
15.0473999
11
11.3607001
21
15.0473999
0
ARC
8
DEFAULT_255_2_778
10
38.7824894
20
15.0508441
40
2.0085923
50
156.5693287
51
180.0982465
0
ARC
8
DEFAULT_255_2_778
10
38.7759759
20
15.0515277
40
2.0023451
50
100.1984339
51
156.5131642
0
ARC
8
DEFAULT_255_2_778
10
38.7794817
20
15.020229
40
2.0337712
50
89.9713109
51
100.1395175
0
ARC
8
DEFAULT_255_2_778
10
38.78396
20
15.0452821
40
2.0087208
50
66.5700845
51
90.0986899
0
ARC
8
DEFAULT_255_2_778
10
38.7847139
20
15.0520107
40
2.0022483
50
10.1964141
51
66.5133195
0
ARC
8
DEFAULT_255_2_778
10
38.7531269
20
15.0484183
40
2.0339734
50
359.9713149
51
10.1385001
0
ARC
8
DEFAULT_255_2_778
10
38.7782544
20
15.0439324
40
2.0088486
50
336.5719007
51
0.0989013
0
ARC
8
DEFAULT_255_2_778
10
38.7852081
20
15.0430782
40
2.0021296
50
280.194957
51
336.5152077
0
ARC
8
DEFAULT_255_2_778
10
38.7815216
20
15.0750314
40
2.0342317
50
269.9712266
51
280.1378553
0
ARC
8
DEFAULT_255_2_778
10
38.7770482
20
15.0495171
40
2.0087201
50
246.5711449
51
270.098458
0
ARC
8
DEFAULT_255_2_778
10
38.7762644
20
15.0427785
40
2.0022264
50
190.1969768
51
246.5150524
0
ARC
8
DEFAULT_255_2_778
10
38.8079293
20
15.0463783
40
2.0340295
50
179.9712226
51
190.1388726
0
LINE
8
DEFAULT_255_2_778
10
36.7739001
20
15.0473999
11
36.7739001
21
15.0473999
0
LINE
8
DEFAULT_255_2_778
10
66.7118097
20
9.6649802
11
66.7118097
21
7.8464802
0
LINE
8
DEFAULT_255_2_778
10
66.7118097
20
9.2464802
11
68.9153097
21
9.2464802
0
LINE
8
DEFAULT_255_2_778
10
68.9153097
20
9.2464802
11
68.9153097
21
9.2273802
0
LINE
8
DEFAULT_255_2_778
10
68.9153097
20
9.2273802
11
69.3508097
21
9.2273802
0
LINE
8
DEFAULT_255_2_778
10
68.8891097
20
10.4081802
11
68.5078097
21
10.7894802
0
LINE
8
DEFAULT_255_2_778
10
68.8890468
20
9.2465166
11
68.8890468
21
10.4080166
0
LINE
8
DEFAULT_255_2_778
10
68.8890468
20
10.4080166
11
68.5077468
21
10.4080166
0
LINE
8
DEFAULT_255_2_778
10
2.3508468
20
87.8465166
11
2.3508468
21
74.3464166
0
LINE
8
DEFAULT_255_2_778
10
2.3508468
20
74.3464166
11
69.3507468
21
74.3464166
0
LINE
8
DEFAULT_255_2_778
10
69.3507468
20
74.3464166
11
69.3507468
21
87.8465166
0
LINE
8
DEFAULT_255_2_778
10
66.7118097
20
74.3463498
11
66.7118097
21
87.8464498
0
LINE
8
DEFAULT_255_2_778
10
66.7118097
20
86.4462498
11
68.9153097
21
86.4462498
0
LINE
8
DEFAULT_255_2_778
10
68.9153097
20
86.4462498
11
68.9153097
21
86.4653498
0
LINE
8
DEFAULT_255_2_778
10
68.9153097
20
86.4653498
11
69.3508097
21
86.4653498
0
LINE
8
DEFAULT_255_2_778
10
68.9510097
20
86.4653498
11
68.9510097
21
74.3463498
0
LINE
8
DEFAULT_255_2_778
10
13.6131
20
86.3224406
11
13.6131
21
86.0279406
0
LINE
8
DEFAULT_255_2_778
10
12.3431
20
86.3224406
11
12.3431
21
86.0279406
0
LINE
8
DEFAULT_255_2_778
10
8.5331
20
86.3224406
11
8.5331
21
86.0279406
0
LINE
8
DEFAULT_255_2_778
10
7.2631
20
86.3224406
11
7.2631
21
86.0279406
0
LINE
8
DEFAULT_255_2_778
10
23.7731
20
86.3224406
11
23.7731
21
86.0279406
0
LINE
8
DEFAULT_255_2_778
10
22.5031
20
86.3224406
11
22.5031
21
86.0279406
0
LINE
8
DEFAULT_255_2_778
10
18.6931
20
86.3224406
11
18.6931
21
86.0279406
0
LINE
8
DEFAULT_255_2_778
10
17.4231
20
86.3224406
11
17.4231
21
86.0279406
0
LINE
8
DEFAULT_255_2_778
10
33.9331
20
86.3224406
11
33.9331
21
86.0279406
0
LINE
8
DEFAULT_255_2_778
10
32.6631
20
86.3224406
11
32.6631
21
86.0279406
0
LINE
8
DEFAULT_255_2_778
10
28.8531
20
86.3224406
11
28.8531
21
86.0279406
0
LINE
8
DEFAULT_255_2_778
10
27.5831
20
86.3224406
11
27.5831
21
86.0279406
0
LINE
8
DEFAULT_255_2_778
10
44.0931
20
86.3224406
11
44.0931
21
86.0279406
0
LINE
8
DEFAULT_255_2_778
10
42.8231
20
86.3224406
11
42.8231
21
86.0279406
0
LINE
8
DEFAULT_255_2_778
10
39.0131
20
86.3224406
11
39.0131
21
86.0279406
0
LINE
8
DEFAULT_255_2_778
10
37.7431
20
86.3224406
11
37.7431
21
86.0279406
0
LINE
8
DEFAULT_255_2_778
10
54.2531
20
86.3224406
11
54.2531
21
86.0279406
0
LINE
8
DEFAULT_255_2_778
10
52.9831
20
86.3224406
11
52.9831
21
86.0279406
0
LINE
8
DEFAULT_255_2_778
10
49.1731
20
86.3224406
11
49.1731
21
86.0279406
0
LINE
8
DEFAULT_255_2_778
10
47.9031
20
86.3224406
11
47.9031
21
86.0279406
0
LINE
8
DEFAULT_255_2_778
10
63.1431
20
86.3224406
11
63.1431
21
86.0279406
0
LINE
8
DEFAULT_255_2_778
10
59.3331
20
86.3224406
11
59.3331
21
86.0279406
0
LINE
8
DEFAULT_255_2_778
10
58.0631
20
86.3224406
11
58.0631
21
86.0279406
0
LINE
8
DEFAULT_255_2_778
10
68.5080677
20
85.2848
11
68.8893677
21
85.2848
0
LINE
8
DEFAULT_255_2_778
10
68.8893634
20
86.4465498
11
68.8893634
21
85.2847498
0
LINE
8
DEFAULT_255_2_778
10
68.8893634
20
85.2847498
11
68.5080634
21
84.9034498
0
LINE
8
DEFAULT_255_2_778
10
66.7118634
20
86.3224498
11
4.9898634
21
86.3224498
0
LINE
8
DEFAULT_255_2_778
10
2.7508634
20
74.3463498
11
2.7508634
21
86.4653498
0
LINE
8
DEFAULT_255_2_778
10
4.9898634
20
86.0673498
11
3.1938634
21
86.0673498
0
LINE
8
DEFAULT_255_2_778
10
3.1938634
20
86.0673498
11
3.1938634
21
74.3463498
0
LINE
8
DEFAULT_255_2_778
10
4.9898634
20
86.4462498
11
2.7863634
21
86.4462498
0
LINE
8
DEFAULT_255_2_778
10
2.7863634
20
86.4462498
11
2.7863634
21
86.4653498
0
LINE
8
DEFAULT_255_2_778
10
2.7863634
20
86.4653498
11
2.3508634
21
86.4653498
0
LINE
8
DEFAULT_255_2_778
10
4.9898634
20
86.0279498
11
4.9898634
21
87.8464498
0
LINE
8
DEFAULT_255_2_778
10
2.8125634
20
85.2847498
11
3.1938634
21
84.9034498
0
LINE
8
DEFAULT_255_2_778
10
2.8125228
20
86.446253
11
2.8125228
21
85.284753
0
LINE
8
DEFAULT_255_2_778
10
2.8125228
20
85.284753
11
3.1938228
21
85.284753
0
LINE
8
DEFAULT_255_2_778
10
66.6991228
20
86.322453
11
66.6991228
21
74.699553
0
LINE
8
DEFAULT_255_2_778
10
66.6991228
20
74.699553
11
4.9771228
21
74.699553
0
LINE
8
DEFAULT_255_2_778
10
4.9771228
20
74.699553
11
4.9771228
21
86.027953
0
LINE
8
DEFAULT_255_2_778
10
4.9771228
20
86.027953
11
66.6991228
21
86.027953
0
ARC
8
DEFAULT_255_2_778
10
12.9802172
20
80.7482518
40
2.0087201
50
156.5711449
51
180.098458
0
ARC
8
DEFAULT_255_2_778
10
12.9734786
20
80.7490356
40
2.0022264
50
100.1969768
51
156.5150524
0
ARC
8
DEFAULT_255_2_778
10
12.9770784
20
80.7173707
40
2.0340295
50
89.9712226
51
100.1388726
0
ARC
8
DEFAULT_255_2_778
10
12.9815442
20
80.7428106
40
2.0085923
50
66.5693287
51
90.0982465
0
ARC
8
DEFAULT_255_2_778
10
12.9822278
20
80.7493241
40
2.0023451
50
10.1984339
51
66.5131642
0
ARC
8
DEFAULT_255_2_778
10
12.9509291
20
80.7458183
40
2.0337712
50
359.9713109
51
10.1395175
0
ARC
8
DEFAULT_255_2_778
10
12.9761107
20
80.7413558
40
2.0085923
50
336.5693287
51
0.0982465
0
ARC
8
DEFAULT_255_2_778
10
12.9826242
20
80.7406722
40
2.0023451
50
280.1984339
51
336.5131642
0
ARC
8
DEFAULT_255_2_778
10
12.9791184
20
80.7719709
40
2.0337712
50
269.9713109
51
280.1395175
0
ARC
8
DEFAULT_255_2_778
10
12.9746401
20
80.7469178
40
2.0087208
50
246.5700845
51
270.0986899
0
ARC
8
DEFAULT_255_2_778
10
12.9738862
20
80.7401892
40
2.0022483
50
190.1964141
51
246.5133195
0
ARC
8
DEFAULT_255_2_778
10
13.0054732
20
80.7437816
40
2.0339734
50
179.9713149
51
190.1385001
0
LINE
8
DEFAULT_255_2_778
10
10.9715001
20
80.7447999
11
10.9715001
21
80.7447999
0
ARC
8
DEFAULT_255_2_778
10
7.9000894
20
80.7482441
40
2.0085923
50
156.5693287
51
180.0982465
0
ARC
8
DEFAULT_255_2_778
10
7.8935759
20
80.7489277
40
2.0023451
50
100.1984339
51
156.5131642
0
ARC
8
DEFAULT_255_2_778
10
7.8970817
20
80.717629
40
2.0337712
50
89.9713109
51
100.1395175
0
ARC
8
DEFAULT_255_2_778
10
7.9015442
20
80.7428106
40
2.0085923
50
66.5693287
51
90.0982465
0
ARC
8
DEFAULT_255_2_778
10
7.9022278
20
80.7493241
40
2.0023451
50
10.1984339
51
66.5131642
0
ARC
8
DEFAULT_255_2_778
10
7.8709291
20
80.7458183
40
2.0337712
50
359.9713109
51
10.1395175
0
ARC
8
DEFAULT_255_2_778
10
7.8961107
20
80.7413558
40
2.0085923
50
336.5693287
51
0.0982465
0
ARC
8
DEFAULT_255_2_778
10
7.9026242
20
80.7406722
40
2.0023451
50
280.1984339
51
336.5131642
0
ARC
8
DEFAULT_255_2_778
10
7.8991184
20
80.7719709
40
2.0337712
50
269.9713109
51
280.1395175
0
ARC
8
DEFAULT_255_2_778
10
7.8946559
20
80.7467893
40
2.0085923
50
246.5693287
51
270.0982465
0
ARC
8
DEFAULT_255_2_778
10
7.8939723
20
80.7402758
40
2.0023451
50
190.1984339
51
246.5131642
0
ARC
8
DEFAULT_255_2_778
10
7.925271
20
80.7437816
40
2.0337712
50
179.9713109
51
190.1395175
0
LINE
8
DEFAULT_255_2_778
10
5.8915001
20
80.7447999
11
5.8915001
21
80.7447999
0
ARC
8
DEFAULT_255_2_778
10
23.1402172
20
80.7482518
40
2.0087201
50
156.5711449
51
180.098458
0
ARC
8
DEFAULT_255_2_778
10
23.1334786
20
80.7490356
40
2.0022264
50
100.1969768
51
156.5150524
0
ARC
8
DEFAULT_255_2_778
10
23.1370784
20
80.7173707
40
2.0340295
50
89.9712226
51
100.1388726
0
ARC
8
DEFAULT_255_2_778
10
23.1415442
20
80.7428106
40
2.0085923
50
66.5693287
51
90.0982465
0
ARC
8
DEFAULT_255_2_778
10
23.1422278
20
80.7493241
40
2.0023451
50
10.1984339
51
66.5131642
0
ARC
8
DEFAULT_255_2_778
10
23.1109291
20
80.7458183
40
2.0337712
50
359.9713109
51
10.1395175
0
ARC
8
DEFAULT_255_2_778
10
23.1361107
20
80.7413558
40
2.0085923
50
336.5693287
51
0.0982465
0
ARC
8
DEFAULT_255_2_778
10
23.1426242
20
80.7406722
40
2.0023451
50
280.1984339
51
336.5131642
0
ARC
8
DEFAULT_255_2_778
10
23.1391184
20
80.7719709
40
2.0337712
50
269.9713109
51
280.1395175
0
ARC
8
DEFAULT_255_2_778
10
23.1346401
20
80.7469178
40
2.0087208
50
246.5700845
51
270.0986899
0
ARC
8
DEFAULT_255_2_778
10
23.1338862
20
80.7401892
40
2.0022483
50
190.1964141
51
246.5133195
0
ARC
8
DEFAULT_255_2_778
10
23.1654732
20
80.7437816
40
2.0339734
50
179.9713149
51
190.1385001
0
LINE
8
DEFAULT_255_2_778
10
21.1315001
20
80.7447999
11
21.1315001
21
80.7447999
0
ARC
8
DEFAULT_255_2_778
10
18.0600894
20
80.7482441
40
2.0085923
50
156.5693287
51
180.0982465
0
ARC
8
DEFAULT_255_2_778
10
18.0535759
20
80.7489277
40
2.0023451
50
100.1984339
51
156.5131642
0
ARC
8
DEFAULT_255_2_778
10
18.0570817
20
80.717629
40
2.0337712
50
89.9713109
51
100.1395175
0
ARC
8
DEFAULT_255_2_778
10
18.06156
20
80.7426821
40
2.0087208
50
66.5700845
51
90.0986899
0
ARC
8
DEFAULT_255_2_778
10
18.0623139
20
80.7494107
40
2.0022483
50
10.1964141
51
66.5133195
0
ARC
8
DEFAULT_255_2_778
10
18.0307269
20
80.7458183
40
2.0339734
50
359.9713149
51
10.1385001
0
ARC
8
DEFAULT_255_2_778
10
18.0559829
20
80.7413481
40
2.0087201
50
336.5711449
51
0.098458
0
ARC
8
DEFAULT_255_2_778
10
18.0627215
20
80.7405643
40
2.0022264
50
280.1969768
51
336.5150524
0
ARC
8
DEFAULT_255_2_778
10
18.0591217
20
80.7722292
40
2.0340295
50
269.9712226
51
280.1388726
0
ARC
8
DEFAULT_255_2_778
10
18.0546559
20
80.7467893
40
2.0085923
50
246.5693287
51
270.0982465
0
ARC
8
DEFAULT_255_2_778
10
18.0539723
20
80.7402758
40
2.0023451
50
190.1984339
51
246.5131642
0
ARC
8
DEFAULT_255_2_778
10
18.085271
20
80.7437816
40
2.0337712
50
179.9713109
51
190.1395175
0
LINE
8
DEFAULT_255_2_778
10
16.0515001
20
80.7447999
11
16.0515001
21
80.7447999
0
ARC
8
DEFAULT_255_2_778
10
33.3000894
20
80.7482441
40
2.0085923
50
156.5693287
51
180.0982465
0
ARC
8
DEFAULT_255_2_778
10
33.2935759
20
80.7489277
40
2.0023451
50
100.1984339
51
156.5131642
0
ARC
8
DEFAULT_255_2_778
10
33.2970817
20
80.717629
40
2.0337712
50
89.9713109
51
100.1395175
0
ARC
8
DEFAULT_255_2_778
10
33.30156
20
80.7426821
40
2.0087208
50
66.5700845
51
90.0986899
0
ARC
8
DEFAULT_255_2_778
10
33.3023139
20
80.7494107
40
2.0022483
50
10.1964141
51
66.5133195
0
ARC
8
DEFAULT_255_2_778
10
33.2707269
20
80.7458183
40
2.0339734
50
359.9713149
51
10.1385001
0
ARC
8
DEFAULT_255_2_778
10
33.2959829
20
80.7413481
40
2.0087201
50
336.5711449
51
0.098458
0
ARC
8
DEFAULT_255_2_778
10
33.3027215
20
80.7405643
40
2.0022264
50
280.1969768
51
336.5150524
0
ARC
8
DEFAULT_255_2_778
10
33.2991217
20
80.7722292
40
2.0340295
50
269.9712226
51
280.1388726
0
ARC
8
DEFAULT_255_2_778
10
33.2946559
20
80.7467893
40
2.0085923
50
246.5693287
51
270.0982465
0
ARC
8
DEFAULT_255_2_778
10
33.2939723
20
80.7402758
40
2.0023451
50
190.1984339
51
246.5131642
0
ARC
8
DEFAULT_255_2_778
10
33.325271
20
80.7437816
40
2.0337712
50
179.9713109
51
190.1395175
0
LINE
8
DEFAULT_255_2_778
10
31.2915001
20
80.7447999
11
31.2915001
21
80.7447999
0
ARC
8
DEFAULT_255_2_778
10
28.2202172
20
80.7482518
40
2.0087201
50
156.5711449
51
180.098458
0
ARC
8
DEFAULT_255_2_778
10
28.2134786
20
80.7490356
40
2.0022264
50
100.1969768
51
156.5150524
0
ARC
8
DEFAULT_255_2_778
10
28.2170784
20
80.7173707
40
2.0340295
50
89.9712226
51
100.1388726
0
ARC
8
DEFAULT_255_2_778
10
28.2215442
20
80.7428106
40
2.0085923
50
66.5693287
51
90.0982465
0
ARC
8
DEFAULT_255_2_778
10
28.2222278
20
80.7493241
40
2.0023451
50
10.1984339
51
66.5131642
0
ARC
8
DEFAULT_255_2_778
10
28.1909291
20
80.7458183
40
2.0337712
50
359.9713109
51
10.1395175
0
ARC
8
DEFAULT_255_2_778
10
28.2161107
20
80.7413558
40
2.0085923
50
336.5693287
51
0.0982465
0
ARC
8
DEFAULT_255_2_778
10
28.2226242
20
80.7406722
40
2.0023451
50
280.1984339
51
336.5131642
0
ARC
8
DEFAULT_255_2_778
10
28.2191184
20
80.7719709
40
2.0337712
50
269.9713109
51
280.1395175
0
ARC
8
DEFAULT_255_2_778
10
28.2146401
20
80.7469178
40
2.0087208
50
246.5700845
51
270.0986899
0
ARC
8
DEFAULT_255_2_778
10
28.2138862
20
80.7401892
40
2.0022483
50
190.1964141
51
246.5133195
0
ARC
8
DEFAULT_255_2_778
10
28.2454732
20
80.7437816
40
2.0339734
50
179.9713149
51
190.1385001
0
LINE
8
DEFAULT_255_2_778
10
26.2115001
20
80.7447999
11
26.2115001
21
80.7447999
0
ARC
8
DEFAULT_255_2_778
10
43.4602172
20
80.7482518
40
2.0087201
50
156.5711449
51
180.098458
0
ARC
8
DEFAULT_255_2_778
10
43.4534786
20
80.7490356
40
2.0022264
50
100.1969768
51
156.5150524
0
ARC
8
DEFAULT_255_2_778
10
43.4570784
20
80.7173707
40
2.0340295
50
89.9712226
51
100.1388726
0
ARC
8
DEFAULT_255_2_778
10
43.4615442
20
80.7428106
40
2.0085923
50
66.5693287
51
90.0982465
0
ARC
8
DEFAULT_255_2_778
10
43.4622278
20
80.7493241
40
2.0023451
50
10.1984339
51
66.5131642
0
ARC
8
DEFAULT_255_2_778
10
43.4309291
20
80.7458183
40
2.0337712
50
359.9713109
51
10.1395175
0
ARC
8
DEFAULT_255_2_778
10
43.4561107
20
80.7413558
40
2.0085923
50
336.5693287
51
0.0982465
0
ARC
8
DEFAULT_255_2_778
10
43.4626242
20
80.7406722
40
2.0023451
50
280.1984339
51
336.5131642
0
ARC
8
DEFAULT_255_2_778
10
43.4591184
20
80.7719709
40
2.0337712
50
269.9713109
51
280.1395175
0
ARC
8
DEFAULT_255_2_778
10
43.4546401
20
80.7469178
40
2.0087208
50
246.5700845
51
270.0986899
0
ARC
8
DEFAULT_255_2_778
10
43.4538862
20
80.7401892
40
2.0022483
50
190.1964141
51
246.5133195
0
ARC
8
DEFAULT_255_2_778
10
43.4854732
20
80.7437816
40
2.0339734
50
179.9713149
51
190.1385001
0
LINE
8
DEFAULT_255_2_778
10
41.4515001
20
80.7447999
11
41.4515001
21
80.7447999
0
ARC
8
DEFAULT_255_2_778
10
38.3800894
20
80.7482441
40
2.0085923
50
156.5693287
51
180.0982465
0
ARC
8
DEFAULT_255_2_778
10
38.3735759
20
80.7489277
40
2.0023451
50
100.1984339
51
156.5131642
0
ARC
8
DEFAULT_255_2_778
10
38.3770817
20
80.717629
40
2.0337712
50
89.9713109
51
100.1395175
0
ARC
8
DEFAULT_255_2_778
10
38.38156
20
80.7426821
40
2.0087208
50
66.5700845
51
90.0986899
0
ARC
8
DEFAULT_255_2_778
10
38.3823139
20
80.7494107
40
2.0022483
50
10.1964141
51
66.5133195
0
ARC
8
DEFAULT_255_2_778
10
38.3507269
20
80.7458183
40
2.0339734
50
359.9713149
51
10.1385001
0
ARC
8
DEFAULT_255_2_778
10
38.3759829
20
80.7413481
40
2.0087201
50
336.5711449
51
0.098458
0
ARC
8
DEFAULT_255_2_778
10
38.3827215
20
80.7405643
40
2.0022264
50
280.1969768
51
336.5150524
0
ARC
8
DEFAULT_255_2_778
10
38.3791217
20
80.7722292
40
2.0340295
50
269.9712226
51
280.1388726
0
ARC
8
DEFAULT_255_2_778
10
38.3746559
20
80.7467893
40
2.0085923
50
246.5693287
51
270.0982465
0
ARC
8
DEFAULT_255_2_778
10
38.3739723
20
80.7402758
40
2.0023451
50
190.1984339
51
246.5131642
0
ARC
8
DEFAULT_255_2_778
10
38.405271
20
80.7437816
40
2.0337712
50
179.9713109
51
190.1395175
0
LINE
8
DEFAULT_255_2_778
10
36.3715001
20
80.7447999
11
36.3715001
21
80.7447999
0
ARC
8
DEFAULT_255_2_778
10
53.6202172
20
80.7482518
40
2.0087201
50
156.5711449
51
180.098458
0
ARC
8
DEFAULT_255_2_778
10
53.6134786
20
80.7490356
40
2.0022264
50
100.1969768
51
156.5150524
0
ARC
8
DEFAULT_255_2_778
10
53.6170784
20
80.7173707
40
2.0340295
50
89.9712226
51
100.1388726
0
ARC
8
DEFAULT_255_2_778
10
53.6215442
20
80.7428106
40
2.0085923
50
66.5693287
51
90.0982465
0
ARC
8
DEFAULT_255_2_778
10
53.6222278
20
80.7493241
40
2.0023451
50
10.1984339
51
66.5131642
0
ARC
8
DEFAULT_255_2_778
10
53.5909291
20
80.7458183
40
2.0337712
50
359.9713109
51
10.1395175
0
ARC
8
DEFAULT_255_2_778
10
53.6161107
20
80.7413558
40
2.0085923
50
336.5693287
51
0.0982465
0
ARC
8
DEFAULT_255_2_778
10
53.6226242
20
80.7406722
40
2.0023451
50
280.1984339
51
336.5131642
0
ARC
8
DEFAULT_255_2_778
10
53.6191184
20
80.7719709
40
2.0337712
50
269.9713109
51
280.1395175
0
ARC
8
DEFAULT_255_2_778
10
53.6146401
20
80.7469178
40
2.0087208
50
246.5700845
51
270.0986899
0
ARC
8
DEFAULT_255_2_778
10
53.6138862
20
80.7401892
40
2.0022483
50
190.1964141
51
246.5133195
0
ARC
8
DEFAULT_255_2_778
10
53.6454732
20
80.7437816
40
2.0339734
50
179.9713149
51
190.1385001
0
LINE
8
DEFAULT_255_2_778
10
51.6115001
20
80.7447999
11
51.6115001
21
80.7447999
0
ARC
8
DEFAULT_255_2_778
10
48.5402172
20
80.7482518
40
2.0087201
50
156.5711449
51
180.098458
0
ARC
8
DEFAULT_255_2_778
10
48.5334786
20
80.7490356
40
2.0022264
50
100.1969768
51
156.5150524
0
ARC
8
DEFAULT_255_2_778
10
48.5370784
20
80.7173707
40
2.0340295
50
89.9712226
51
100.1388726
0
ARC
8
DEFAULT_255_2_778
10
48.5415442
20
80.7428106
40
2.0085923
50
66.5693287
51
90.0982465
0
ARC
8
DEFAULT_255_2_778
10
48.5422278
20
80.7493241
40
2.0023451
50
10.1984339
51
66.5131642
0
ARC
8
DEFAULT_255_2_778
10
48.5109291
20
80.7458183
40
2.0337712
50
359.9713109
51
10.1395175
0
ARC
8
DEFAULT_255_2_778
10
48.5361107
20
80.7413558
40
2.0085923
50
336.5693287
51
0.0982465
0
ARC
8
DEFAULT_255_2_778
10
48.5426242
20
80.7406722
40
2.0023451
50
280.1984339
51
336.5131642
0
ARC
8
DEFAULT_255_2_778
10
48.5391184
20
80.7719709
40
2.0337712
50
269.9713109
51
280.1395175
0
ARC
8
DEFAULT_255_2_778
10
48.5346401
20
80.7469178
40
2.0087208
50
246.5700845
51
270.0986899
0
ARC
8
DEFAULT_255_2_778
10
48.5338862
20
80.7401892
40
2.0022483
50
190.1964141
51
246.5133195
0
ARC
8
DEFAULT_255_2_778
10
48.5654732
20
80.7437816
40
2.0339734
50
179.9713149
51
190.1385001
0
LINE
8
DEFAULT_255_2_778
10
46.5315001
20
80.7447999
11
46.5315001
21
80.7447999
0
ARC
8
DEFAULT_255_2_778
10
63.7800894
20
80.7482441
40
2.0085923
50
156.5693287
51
180.0982465
0
ARC
8
DEFAULT_255_2_778
10
63.7735759
20
80.7489277
40
2.0023451
50
100.1984339
51
156.5131642
0
ARC
8
DEFAULT_255_2_778
10
63.7770817
20
80.717629
40
2.0337712
50
89.9713109
51
100.1395175
0
ARC
8
DEFAULT_255_2_778
10
63.78156
20
80.7426821
40
2.0087208
50
66.5700845
51
90.0986899
0
ARC
8
DEFAULT_255_2_778
10
63.7823139
20
80.7494107
40
2.0022483
50
10.1964141
51
66.5133195
0
ARC
8
DEFAULT_255_2_778
10
63.7507269
20
80.7458183
40
2.0339734
50
359.9713149
51
10.1385001
0
ARC
8
DEFAULT_255_2_778
10
63.7759829
20
80.7413481
40
2.0087201
50
336.5711449
51
0.098458
0
ARC
8
DEFAULT_255_2_778
10
63.7827215
20
80.7405643
40
2.0022264
50
280.1969768
51
336.5150524
0
ARC
8
DEFAULT_255_2_778
10
63.7791217
20
80.7722292
40
2.0340295
50
269.9712226
51
280.1388726
0
ARC
8
DEFAULT_255_2_778
10
63.7746559
20
80.7467893
40
2.0085923
50
246.5693287
51
270.0982465
0
ARC
8
DEFAULT_255_2_778
10
63.7739723
20
80.7402758
40
2.0023451
50
190.1984339
51
246.5131642
0
ARC
8
DEFAULT_255_2_778
10
63.805271
20
80.7437816
40
2.0337712
50
179.9713109
51
190.1395175
0
LINE
8
DEFAULT_255_2_778
10
61.7715001
20
80.7447999
11
61.7715001
21
80.7447999
0
ARC
8
DEFAULT_255_2_778
10
58.7000894
20
80.7482441
40
2.0085923
50
156.5693287
51
180.0982465
0
ARC
8
DEFAULT_255_2_778
10
58.6935759
20
80.7489277
40
2.0023451
50
100.1984339
51
156.5131642
0
ARC
8
DEFAULT_255_2_778
10
58.6970817
20
80.717629
40
2.0337712
50
89.9713109
51
100.1395175
0
ARC
8
DEFAULT_255_2_778
10
58.70156
20
80.7426821
40
2.0087208
50
66.5700845
51
90.0986899
0
ARC
8
DEFAULT_255_2_778
10
58.7023139
20
80.7494107
40
2.0022483
50
10.1964141
51
66.5133195
0
ARC
8
DEFAULT_255_2_778
10
58.6707269
20
80.7458183
40
2.0339734
50
359.9713149
51
10.1385001
0
ARC
8
DEFAULT_255_2_778
10
58.6959829
20
80.7413481
40
2.0087201
50
336.5711449
51
0.098458
0
ARC
8
DEFAULT_255_2_778
10
58.7027215
20
80.7405643
40
2.0022264
50
280.1969768
51
336.5150524
0
ARC
8
DEFAULT_255_2_778
10
58.6991217
20
80.7722292
40
2.0340295
50
269.9712226
51
280.1388726
0
ARC
8
DEFAULT_255_2_778
10
58.6946559
20
80.7467893
40
2.0085923
50
246.5693287
51
270.0982465
0
ARC
8
DEFAULT_255_2_778
10
58.6939723
20
80.7402758
40
2.0023451
50
190.1984339
51
246.5131642
0
ARC
8
DEFAULT_255_2_778
10
58.725271
20
80.7437816
40
2.0337712
50
179.9713109
51
190.1395175
0
LINE
8
DEFAULT_255_2_778
10
56.6915001
20
80.7447999
11
56.6915001
21
80.7447999
0
LINE
8
DEFAULT_255_2_778
10
68.5077395
20
74.3463873
11
68.5077395
21
86.0673873
0
LINE
8
DEFAULT_255_2_778
10
68.5077395
20
86.0673873
11
66.7117395
21
86.0673873
0
LINE
8
DEFAULT_255_2_778
10
2.5177395
20
73.7462873
11
69.1178395
21
73.7462873
0
LINE
8
DEFAULT_255_2_778
10
69.1178395
20
73.7462873
11
69.1178395
21
70.6463873
0
LINE
8
DEFAULT_255_2_778
10
69.1178395
20
70.6463873
11
2.5177395
21
70.6463873
0
LINE
8
DEFAULT_255_2_778
10
2.5177395
20
70.6463873
11
2.5177395
21
73.7462873
0
LINE
8
DEFAULT_255_2_778
10
2.617752
20
73.6462489
11
69.017852
21
73.6462489
0
LINE
8
DEFAULT_255_2_778
10
69.017852
20
73.6462489
11
69.017852
21
70.7461489
0
LINE
8
DEFAULT_255_2_778
10
69.017852
20
70.7461489
11
2.617752
21
70.7461489
0
LINE
8
DEFAULT_255_2_778
10
2.617752
20
70.7461489
11
2.617752
21
73.6462489
0
LINE
8
DEFAULT_255_2_778
10
29.4526438
20
72.1677635
11
29.1534438
21
72.1640635
0
LINE
8
DEFAULT_255_2_778
10
29.1534438
20
72.1640635
11
29.1555438
21
72.4646635
0
LINE
8
DEFAULT_255_2_778
10
29.1555438
20
72.4646635
11
29.0819438
21
72.4638635
0
LINE
8
DEFAULT_255_2_778
10
29.0819438
20
72.4638635
11
29.0819438
21
72.1638635
0
LINE
8
DEFAULT_255_2_778
10
29.0819438
20
72.1638635
11
28.7819438
21
72.1638635
0
LINE
8
DEFAULT_255_2_778
10
28.7819438
20
72.1638635
11
28.7835438
21
72.0841635
0
LINE
8
DEFAULT_255_2_778
10
28.7835438
20
72.0841635
11
29.0785438
21
72.0889635
0
LINE
8
DEFAULT_255_2_778
10
29.0785438
20
72.0889635
11
29.0811438
21
71.7865635
0
LINE
8
DEFAULT_255_2_778
10
29.0811438
20
71.7865635
11
29.1555438
21
71.7865635
0
LINE
8
DEFAULT_255_2_778
10
29.1555438
20
71.7865635
11
29.1534438
21
72.0889635
0
LINE
8
DEFAULT_255_2_778
10
29.1534438
20
72.0889635
11
29.4534438
21
72.0889635
0
LINE
8
DEFAULT_255_2_778
10
29.4534438
20
72.0889635
11
29.4531438
21
72.1669635
0
LINE
8
DEFAULT_255_2_778
10
12.6060729
20
72.8772083
11
12.8685729
21
71.9397083
0
LINE
8
DEFAULT_255_2_778
10
12.8685729
20
71.9397083
11
12.3435729
21
71.9397083
0
LINE
8
DEFAULT_255_2_778
10
12.3435729
20
71.9397083
11
12.6060729
21
72.8772083
0
LINE
8
DEFAULT_255_2_778
10
13.0177729
20
71.4897083
11
13.0934729
21
71.4897083
0
LINE
8
DEFAULT_255_2_778
10
13.0934729
20
71.4897083
11
12.6433729
21
72.9523083
0
LINE
8
DEFAULT_255_2_778
10
12.6433729
20
72.9523083
11
12.5682729
21
72.9523083
0
LINE
8
DEFAULT_255_2_778
10
12.5682729
20
72.9523083
11
12.1181729
21
71.4897083
0
LINE
8
DEFAULT_255_2_778
10
12.1181729
20
71.4897083
11
12.1906729
21
71.4897083
0
LINE
8
DEFAULT_255_2_778
10
12.1906729
20
71.4897083
11
12.3057729
21
71.8646083
0
LINE
8
DEFAULT_255_2_778
10
12.3057729
20
71.8646083
11
12.9058729
21
71.8646083
0
LINE
8
DEFAULT_255_2_778
10
12.9058729
20
71.8646083
11
13.0177729
21
71.4897083
0
LINE
8
DEFAULT_255_2_778
10
19.2830438
20
72.1645635
11
18.9830438
21
72.1645635
0
LINE
8
DEFAULT_255_2_778
10
18.9830438
20
72.1645635
11
18.9851438
21
72.4651635
0
LINE
8
DEFAULT_255_2_778
10
18.9851438
20
72.4651635
11
18.9115438
21
72.4643635
0
LINE
8
DEFAULT_255_2_778
10
18.9115438
20
72.4643635
11
18.9115438
21
72.1643635
0
LINE
8
DEFAULT_255_2_778
10
18.9115438
20
72.1643635
11
18.6115438
21
72.1643635
0
LINE
8
DEFAULT_255_2_778
10
18.6115438
20
72.1643635
11
18.6131438
21
72.0846635
0
LINE
8
DEFAULT_255_2_778
10
18.6131438
20
72.0846635
11
18.9081438
21
72.0894635
0
LINE
8
DEFAULT_255_2_778
10
18.9081438
20
72.0894635
11
18.9107438
21
71.7870635
0
LINE
8
DEFAULT_255_2_778
10
18.9107438
20
71.7870635
11
18.9851438
21
71.7870635
0
LINE
8
DEFAULT_255_2_778
10
18.9851438
20
71.7870635
11
18.9830438
21
72.0894635
0
LINE
8
DEFAULT_255_2_778
10
18.9830438
20
72.0894635
11
19.2830438
21
72.0894635
0
LINE
8
DEFAULT_255_2_778
10
19.2830438
20
72.0894635
11
19.2827438
21
72.1592635
0
LINE
8
DEFAULT_255_2_778
10
24.3589064
20
72.1272708
11
23.6482064
21
72.1264708
0
LINE
8
DEFAULT_255_2_778
10
23.6482064
20
72.1264708
11
23.6482064
21
72.0521708
0
LINE
8
DEFAULT_255_2_778
10
23.6482064
20
72.0521708
11
24.3589064
21
72.0523708
0
LINE
8
DEFAULT_255_2_778
10
24.3589064
20
72.0523708
11
24.3589064
21
72.1272708
0
LINE
8
DEFAULT_255_2_778
10
34.5456064
20
72.1264708
11
33.8347064
21
72.1264708
0
LINE
8
DEFAULT_255_2_778
10
33.8347064
20
72.1264708
11
33.8347064
21
72.0521708
0
LINE
8
DEFAULT_255_2_778
10
33.8347064
20
72.0521708
11
34.5464064
21
72.0523708
0
LINE
8
DEFAULT_255_2_778
10
34.5464064
20
72.0523708
11
34.5456064
21
72.1264708
0
LINE
8
DEFAULT_255_2_778
10
63.6166677
20
71.2813948
11
64.0878677
21
71.2813948
0
LINE
8
DEFAULT_255_2_778
10
64.0878677
20
71.2813948
11
64.0878677
21
71.1654948
0
LINE
8
DEFAULT_255_2_778
10
64.0878677
20
71.1654948
11
63.6166677
21
71.1654948
0
LINE
8
DEFAULT_255_2_778
10
63.6166677
20
71.1654948
11
63.6166677
21
71.2813948
0
LINE
8
DEFAULT_255_2_778
10
63.3933677
20
71.6700948
11
64.3937677
21
71.6700948
0
LINE
8
DEFAULT_255_2_778
10
64.3937677
20
71.6700948
11
64.3937677
21
71.5708948
0
LINE
8
DEFAULT_255_2_778
10
64.3937677
20
71.5708948
11
63.3933677
21
71.5708948
0
LINE
8
DEFAULT_255_2_778
10
63.3933677
20
71.5708948
11
63.3933677
21
71.6700948
0
LINE
8
DEFAULT_255_2_778
10
63.8150677
20
73.2326948
11
63.8232677
21
72.0502948
0
LINE
8
DEFAULT_255_2_778
10
63.8232677
20
72.0502948
11
63.2115677
21
72.0502948
0
LINE
8
DEFAULT_255_2_778
10
63.2115677
20
72.0502948
11
63.2115677
21
71.9510948
0
LINE
8
DEFAULT_255_2_778
10
63.2115677
20
71.9510948
11
64.6088677
21
71.9510948
0
LINE
8
DEFAULT_255_2_778
10
64.6088677
20
71.9510948
11
64.6088677
21
72.0502948
0
LINE
8
DEFAULT_255_2_778
10
64.6088677
20
72.0502948
11
63.9224677
21
72.0502948
0
LINE
8
DEFAULT_255_2_778
10
63.9224677
20
72.0502948
11
63.9224677
21
73.2326948
0
LINE
8
DEFAULT_255_2_778
10
63.9224677
20
73.2326948
11
63.8150677
21
73.2326948
0
LINE
8
DEFAULT_255_2_778
10
58.523481
20
71.2813948
11
58.994681
21
71.2813948
0
LINE
8
DEFAULT_255_2_778
10
58.994681
20
71.2813948
11
58.994681
21
71.1654948
0
LINE
8
DEFAULT_255_2_778
10
58.994681
20
71.1654948
11
58.523481
21
71.1654948
0
LINE
8
DEFAULT_255_2_778
10
58.523481
20
71.1654948
11
58.523481
21
71.2813948
0
LINE
8
DEFAULT_255_2_778
10
58.300181
20
71.6700948
11
59.300581
21
71.6700948
0
LINE
8
DEFAULT_255_2_778
10
59.300581
20
71.6700948
11
59.300581
21
71.5708948
0
LINE
8
DEFAULT_255_2_778
10
59.300581
20
71.5708948
11
58.300381
21
71.5708948
0
LINE
8
DEFAULT_255_2_778
10
58.300381
20
71.5708948
11
58.300181
21
71.6700948
0
LINE
8
DEFAULT_255_2_778
10
58.721881
20
73.2326948
11
58.730081
21
72.0502948
0
LINE
8
DEFAULT_255_2_778
10
58.730081
20
72.0502948
11
58.118381
21
72.0502948
0
LINE
8
DEFAULT_255_2_778
10
58.118381
20
72.0502948
11
58.118381
21
71.9510948
0
LINE
8
DEFAULT_255_2_778
10
58.118381
20
71.9510948
11
59.515581
21
71.9510948
0
LINE
8
DEFAULT_255_2_778
10
59.515581
20
71.9510948
11
59.515581
21
72.0502948
0
LINE
8
DEFAULT_255_2_778
10
59.515581
20
72.0502948
11
58.829581
21
72.0502948
0
LINE
8
DEFAULT_255_2_778
10
58.829581
20
72.0502948
11
58.829581
21
73.2326948
0
LINE
8
DEFAULT_255_2_778
10
58.829581
20
73.2326948
11
58.721881
21
73.2326948
0
LINE
8
DEFAULT_255_2_778
10
53.4468677
20
71.2813948
11
53.9180677
21
71.2813948
0
LINE
8
DEFAULT_255_2_778
10
53.9180677
20
71.2813948
11
53.9180677
21
71.1654948
0
LINE
8
DEFAULT_255_2_778
10
53.9180677
20
71.1654948
11
53.4468677
21
71.1654948
0
LINE
8
DEFAULT_255_2_778
10
53.4468677
20
71.1654948
11
53.4468677
21
71.2813948
0
LINE
8
DEFAULT_255_2_778
10
53.2235677
20
71.6700948
11
54.2239677
21
71.6700948
0
LINE
8
DEFAULT_255_2_778
10
54.2239677
20
71.6700948
11
54.2239677
21
71.5708948
0
LINE
8
DEFAULT_255_2_778
10
54.2239677
20
71.5708948
11
53.2235677
21
71.5708948
0
LINE
8
DEFAULT_255_2_778
10
53.2235677
20
71.5708948
11
53.2235677
21
71.6700948
0
LINE
8
DEFAULT_255_2_778
10
53.6452677
20
73.2326948
11
53.6534677
21
72.0502948
0
LINE
8
DEFAULT_255_2_778
10
53.6534677
20
72.0502948
11
53.0417677
21
72.0502948
0
LINE
8
DEFAULT_255_2_778
10
53.0417677
20
72.0502948
11
53.0417677
21
71.9510948
0
LINE
8
DEFAULT_255_2_778
10
53.0417677
20
71.9510948
11
54.4390677
21
71.9510948
0
LINE
8
DEFAULT_255_2_778
10
54.4390677
20
71.9510948
11
54.4390677
21
72.0502948
0
LINE
8
DEFAULT_255_2_778
10
54.4390677
20
72.0502948
11
53.7526677
21
72.0502948
0
LINE
8
DEFAULT_255_2_778
10
53.7526677
20
72.0502948
11
53.7526677
21
73.2326948
0
LINE
8
DEFAULT_255_2_778
10
53.7526677
20
73.2326948
11
53.6452677
21
73.2326948
0
LINE
8
DEFAULT_255_2_778
10
48.3867677
20
71.2813948
11
48.8579677
21
71.2813948
0
LINE
8
DEFAULT_255_2_778
10
48.8579677
20
71.2813948
11
48.8579677
21
71.1654948
0
LINE
8
DEFAULT_255_2_778
10
48.8579677
20
71.1654948
11
48.3867677
21
71.1654948
0
LINE
8
DEFAULT_255_2_778
10
48.3867677
20
71.1654948
11
48.3867677
21
71.2813948
0
LINE
8
DEFAULT_255_2_778
10
48.1634677
20
71.6700948
11
49.1638677
21
71.6700948
0
LINE
8
DEFAULT_255_2_778
10
49.1638677
20
71.6700948
11
49.1638677
21
71.5708948
0
LINE
8
DEFAULT_255_2_778
10
49.1638677
20
71.5708948
11
48.1634677
21
71.5708948
0
LINE
8
DEFAULT_255_2_778
10
48.1634677
20
71.5708948
11
48.1634677
21
71.6700948
0
LINE
8
DEFAULT_255_2_778
10
48.5851677
20
73.2326948
11
48.5933677
21
72.0502948
0
LINE
8
DEFAULT_255_2_778
10
48.5933677
20
72.0502948
11
47.9816677
21
72.0502948
0
LINE
8
DEFAULT_255_2_778
10
47.9816677
20
72.0502948
11
47.9816677
21
71.9510948
0
LINE
8
DEFAULT_255_2_778
10
47.9816677
20
71.9510948
11
49.3789677
21
71.9510948
0
LINE
8
DEFAULT_255_2_778
10
49.3789677
20
71.9510948
11
49.3789677
21
72.0502948
0
LINE
8
DEFAULT_255_2_778
10
49.3789677
20
72.0502948
11
48.6925677
21
72.0502948
0
LINE
8
DEFAULT_255_2_778
10
48.6925677
20
72.0502948
11
48.6925677
21
73.2326948
0
LINE
8
DEFAULT_255_2_778
10
48.6925677
20
73.2326948
11
48.5851677
21
73.2326948
0
LINE
8
DEFAULT_255_2_778
10
7.2977729
20
72.8772083
11
7.5602729
21
71.9397083
0
LINE
8
DEFAULT_255_2_778
10
7.5602729
20
71.9397083
11
7.0352729
21
71.9397083
0
LINE
8
DEFAULT_255_2_778
10
7.0352729
20
71.9397083
11
7.2977729
21
72.8772083
0
LINE
8
DEFAULT_255_2_778
10
7.7094729
20
71.4897083
11
7.7851729
21
71.4897083
0
LINE
8
DEFAULT_255_2_778
10
7.7851729
20
71.4897083
11
7.3350729
21
72.9523083
0
LINE
8
DEFAULT_255_2_778
10
7.3350729
20
72.9523083
11
7.2599729
21
72.9523083
0
LINE
8
DEFAULT_255_2_778
10
7.2599729
20
72.9523083
11
6.8098729
21
71.4897083
0
LINE
8
DEFAULT_255_2_778
10
6.8098729
20
71.4897083
11
6.8823729
21
71.4897083
0
LINE
8
DEFAULT_255_2_778
10
6.8823729
20
71.4897083
11
6.9974729
21
71.8646083
0
LINE
8
DEFAULT_255_2_778
10
6.9974729
20
71.8646083
11
7.5975729
21
71.8646083
0
LINE
8
DEFAULT_255_2_778
10
7.5975729
20
71.8646083
11
7.7094729
21
71.4897083
0
LINE
8
DEFAULT_255_2_778
10
8.9482438
20
72.1545635
11
8.6482438
21
72.1545635
0
LINE
8
DEFAULT_255_2_778
10
8.6482438
20
72.1545635
11
8.6503438
21
72.4551635
0
LINE
8
DEFAULT_255_2_778
10
8.6503438
20
72.4551635
11
8.5767438
21
72.4543635
0
LINE
8
DEFAULT_255_2_778
10
8.5767438
20
72.4543635
11
8.5767438
21
72.1543635
0
LINE
8
DEFAULT_255_2_778
10
8.5767438
20
72.1543635
11
8.2767438
21
72.1543635
0
LINE
8
DEFAULT_255_2_778
10
8.2767438
20
72.1543635
11
8.2783438
21
72.0746635
0
LINE
8
DEFAULT_255_2_778
10
8.2783438
20
72.0746635
11
8.5733438
21
72.0794635
0
LINE
8
DEFAULT_255_2_778
10
8.5733438
20
72.0794635
11
8.5759438
21
71.7770635
0
LINE
8
DEFAULT_255_2_778
10
8.5759438
20
71.7770635
11
8.6503438
21
71.7770635
0
LINE
8
DEFAULT_255_2_778
10
8.6503438
20
71.7770635
11
8.6482438
21
72.0794635
0
LINE
8
DEFAULT_255_2_778
10
8.6482438
20
72.0794635
11
8.9482438
21
72.0794635
0
LINE
8
DEFAULT_255_2_778
10
8.9482438
20
72.0794635
11
8.9479438
21
72.1492635
0
LINE
8
DEFAULT_255_2_778
10
14.2846646
20
72.1254708
11
13.5739646
21
72.1246708
0
LINE
8
DEFAULT_255_2_778
10
13.5739646
20
72.1246708
11
13.5739646
21
72.0503708
0
LINE
8
DEFAULT_255_2_778
10
13.5739646
20
72.0503708
11
14.2846646
21
72.0505708
0
LINE
8
DEFAULT_255_2_778
10
14.2846646
20
72.0505708
11
14.2846646
21
72.1254708
0
LINE
8
DEFAULT_255_2_778
10
39.6062438
20
72.1677635
11
39.3070438
21
72.1640635
0
LINE
8
DEFAULT_255_2_778
10
39.3070438
20
72.1640635
11
39.3091438
21
72.4646635
0
LINE
8
DEFAULT_255_2_778
10
39.3091438
20
72.4646635
11
39.2355438
21
72.4638635
0
LINE
8
DEFAULT_255_2_778
10
39.2355438
20
72.4638635
11
39.2355438
21
72.1638635
0
LINE
8
DEFAULT_255_2_778
10
39.2355438
20
72.1638635
11
38.9355438
21
72.1638635
0
LINE
8
DEFAULT_255_2_778
10
38.9355438
20
72.1638635
11
38.9371438
21
72.0841635
0
LINE
8
DEFAULT_255_2_778
10
38.9371438
20
72.0841635
11
39.2321438
21
72.0889635
0
LINE
8
DEFAULT_255_2_778
10
39.2321438
20
72.0889635
11
39.2347438
21
71.7865635
0
LINE
8
DEFAULT_255_2_778
10
39.2347438
20
71.7865635
11
39.3091438
21
71.7865635
0
LINE
8
DEFAULT_255_2_778
10
39.3091438
20
71.7865635
11
39.3070438
21
72.0889635
0
LINE
8
DEFAULT_255_2_778
10
39.3070438
20
72.0889635
11
39.6070438
21
72.0889635
0
LINE
8
DEFAULT_255_2_778
10
39.6070438
20
72.0889635
11
39.6067438
21
72.1669635
0
LINE
8
DEFAULT_255_2_778
10
44.6989487
20
72.126474
11
43.9880487
21
72.126474
0
LINE
8
DEFAULT_255_2_778
10
43.9880487
20
72.126474
11
43.9880487
21
72.052174
0
LINE
8
DEFAULT_255_2_778
10
43.9880487
20
72.052174
11
44.6997487
21
72.052374
0
LINE
8
DEFAULT_255_2_778
10
44.6997487
20
72.052374
11
44.6989487
21
72.126474
0
ARC
8
DEFAULT_255_2_778
10
17.6397964
20
72.0220012
40
0.5907464
50
283.4157614
51
297.1069473
0
ARC
8
DEFAULT_255_2_778
10
17.7140701
20
71.8785434
40
0.4292041
50
297.0070443
51
317.1692544
0
ARC
8
DEFAULT_255_2_778
10
17.7571742
20
71.835993
40
0.3686706
50
317.4647382
51
353.0071112
0
ARC
8
DEFAULT_255_2_778
10
17.736823
20
71.8398449
40
0.3893417
50
352.8090922
51
356.2949768
0
ARC
8
DEFAULT_255_2_778
10
17.7305392
20
71.8402472
40
0.3956385
50
356.2956515
51
0.0043968
0
ARC
8
DEFAULT_255_2_778
10
17.7348916
20
71.8435818
40
0.3913
50
359.5161631
51
49.1517807
0
ARC
8
DEFAULT_255_2_778
10
17.8051961
20
71.9160793
40
0.2905337
50
50.2885667
51
77.5445246
0
ARC
8
DEFAULT_255_2_778
10
17.650697
20
72.7247564
40
0.5681238
50
292.4727262
51
304.8288365
0
ARC
8
DEFAULT_255_2_778
10
17.7457256
20
72.5895628
40
0.4028758
50
304.7161077
51
322.7509995
0
ARC
8
DEFAULT_255_2_778
10
17.8049681
20
72.5433881
40
0.3277707
50
322.9078586
51
356.1985548
0
ARC
8
DEFAULT_255_2_778
10
17.7863991
20
72.5453986
40
0.346433
50
356.0703872
51
358.9154401
0
ARC
8
DEFAULT_255_2_778
10
17.7810094
20
72.5455201
40
0.3518239
50
358.9122617
51
0.0016441
0
ARC
8
DEFAULT_255_2_778
10
17.7095832
20
72.5366772
40
0.4233428
50
1.1982672
51
77.8950202
0
ARC
8
DEFAULT_255_2_778
10
17.7531875
20
72.6480936
40
0.3058674
50
81.5071657
51
83.9812828
0
ARC
8
DEFAULT_255_2_778
10
17.7554704
20
72.4159513
40
0.1749687
50
266.1619953
51
270.0122503
0
ARC
8
DEFAULT_255_2_778
10
17.7553331
20
72.4268954
40
0.185913
50
270.0538206
51
277.4592311
0
ARC
8
DEFAULT_255_2_778
10
17.7317265
20
72.5193096
40
0.2808416
50
279.7876035
51
315.7347736
0
ARC
8
DEFAULT_255_2_778
10
17.6762696
20
72.5948726
40
0.3736144
50
313.3717949
51
356.8869817
0
ARC
8
DEFAULT_255_2_778
10
17.7666592
20
72.5806081
40
0.2827377
50
358.7789773
51
0.0018057
0
ARC
8
DEFAULT_255_2_778
10
17.7954229
20
72.5827263
40
0.2539829
50
359.5241604
51
39.9706688
0
ARC
8
DEFAULT_255_2_778
10
17.7397192
20
72.5340605
40
0.3279389
50
40.2349142
51
59.2067804
0
ARC
8
DEFAULT_255_2_778
10
17.6500195
20
72.3864051
40
0.5007009
50
59.0393698
51
71.6089215
0
ARC
8
DEFAULT_255_2_778
10
17.5840329
20
72.202012
40
0.6965091
50
71.2436705
51
76.0487479
0
ARC
8
DEFAULT_255_2_778
10
17.7557656
20
71.7046078
40
0.1748252
50
266.1604144
51
270.0123072
0
ARC
8
DEFAULT_255_2_778
10
17.7556235
20
71.7156417
40
0.1858593
50
270.0553855
51
277.4873181
0
ARC
8
DEFAULT_255_2_778
10
17.7319578
20
71.8080971
40
0.2808423
50
279.8170433
51
315.7504317
0
ARC
8
DEFAULT_255_2_778
10
17.6764342
20
71.8836873
40
0.3736775
50
313.3881417
51
356.8852505
0
ARC
8
DEFAULT_255_2_778
10
17.7653163
20
71.8694436
40
0.284308
50
358.7785804
51
359.9980126
0
ARC
8
DEFAULT_255_2_778
10
17.7956353
20
71.871547
40
0.2539978
50
359.5232938
51
39.9640595
0
ARC
8
DEFAULT_255_2_778
10
17.7399941
20
71.8229379
40
0.3278692
50
40.2292682
51
59.201972
0
ARC
8
DEFAULT_255_2_778
10
17.6503276
20
71.6753609
40
0.500547
50
59.034832
51
71.6056359
0
ARC
8
DEFAULT_255_2_778
10
17.5843725
20
71.4910944
40
0.6962255
50
71.24033
51
76.0463024
0
LINE
8
DEFAULT_255_2_778
10
17.3799587
20
72.952275
11
17.3799587
21
71.447375
0
LINE
8
DEFAULT_255_2_778
10
17.3799587
20
71.447375
11
17.7768587
21
71.447375
0
LINE
8
DEFAULT_255_2_778
10
17.7852587
20
72.952275
11
17.3799587
21
72.952275
0
LINE
8
DEFAULT_255_2_778
10
17.4542587
20
72.877975
11
17.4542587
21
72.241375
0
LINE
8
DEFAULT_255_2_778
10
17.4542587
20
72.241375
11
17.7437587
21
72.241375
0
LINE
8
DEFAULT_255_2_778
10
17.7519587
20
72.877975
11
17.4542587
21
72.877975
0
LINE
8
DEFAULT_255_2_778
10
17.4545587
20
72.166775
11
17.4545587
21
71.530175
0
LINE
8
DEFAULT_255_2_778
10
17.4545587
20
71.530175
11
17.7440587
21
71.530175
0
LINE
8
DEFAULT_255_2_778
10
17.7522587
20
72.166775
11
17.4545587
21
72.166775
0
ARC
8
DEFAULT_255_2_778
10
22.6999964
20
72.0220012
40
0.5907464
50
283.4157614
51
297.1069473
0
ARC
8
DEFAULT_255_2_778
10
22.7742701
20
71.8785434
40
0.4292041
50
297.0070443
51
317.1692544
0
ARC
8
DEFAULT_255_2_778
10
22.8173742
20
71.835993
40
0.3686706
50
317.4647382
51
353.0071112
0
ARC
8
DEFAULT_255_2_778
10
22.797023
20
71.8398449
40
0.3893417
50
352.8090922
51
356.2949768
0
ARC
8
DEFAULT_255_2_778
10
22.7907392
20
71.8402472
40
0.3956385
50
356.2956515
51
0.0043968
0
ARC
8
DEFAULT_255_2_778
10
22.7950916
20
71.8435818
40
0.3913
50
359.5161631
51
49.1517807
0
ARC
8
DEFAULT_255_2_778
10
22.8653961
20
71.9160793
40
0.2905337
50
50.2885667
51
77.5445246
0
ARC
8
DEFAULT_255_2_778
10
22.710897
20
72.7247564
40
0.5681238
50
292.4727262
51
304.8288365
0
ARC
8
DEFAULT_255_2_778
10
22.8059256
20
72.5895628
40
0.4028758
50
304.7161077
51
322.7509995
0
ARC
8
DEFAULT_255_2_778
10
22.8651681
20
72.5433881
40
0.3277707
50
322.9078586
51
356.1985548
0
ARC
8
DEFAULT_255_2_778
10
22.8465991
20
72.5453986
40
0.346433
50
356.0703872
51
358.9154401
0
ARC
8
DEFAULT_255_2_778
10
22.8412094
20
72.5455201
40
0.3518239
50
358.9122617
51
0.0016441
0
ARC
8
DEFAULT_255_2_778
10
22.7697832
20
72.5366772
40
0.4233428
50
1.1982672
51
77.8950202
0
ARC
8
DEFAULT_255_2_778
10
22.8133875
20
72.6480936
40
0.3058674
50
81.5071657
51
83.9812828
0
ARC
8
DEFAULT_255_2_778
10
22.8156704
20
72.4159513
40
0.1749687
50
266.1619953
51
270.0122503
0
ARC
8
DEFAULT_255_2_778
10
22.8155331
20
72.4268954
40
0.185913
50
270.0538206
51
277.4592311
0
ARC
8
DEFAULT_255_2_778
10
22.7919265
20
72.5193096
40
0.2808416
50
279.7876035
51
315.7347736
0
ARC
8
DEFAULT_255_2_778
10
22.7364696
20
72.5948726
40
0.3736144
50
313.3717949
51
356.8869817
0
ARC
8
DEFAULT_255_2_778
10
22.8268592
20
72.5806081
40
0.2827377
50
358.7789773
51
0.0018057
0
ARC
8
DEFAULT_255_2_778
10
22.8556229
20
72.5827263
40
0.2539829
50
359.5241604
51
39.9706688
0
ARC
8
DEFAULT_255_2_778
10
22.7999192
20
72.5340605
40
0.3279389
50
40.2349142
51
59.2067804
0
ARC
8
DEFAULT_255_2_778
10
22.7102195
20
72.3864051
40
0.5007009
50
59.0393698
51
71.6089215
0
ARC
8
DEFAULT_255_2_778
10
22.6442329
20
72.202012
40
0.6965091
50
71.2436705
51
76.0487479
0
ARC
8
DEFAULT_255_2_778
10
22.8159656
20
71.7046078
40
0.1748252
50
266.1604144
51
270.0123072
0
ARC
8
DEFAULT_255_2_778
10
22.8158235
20
71.7156417
40
0.1858593
50
270.0553855
51
277.4873181
0
ARC
8
DEFAULT_255_2_778
10
22.7921578
20
71.8080971
40
0.2808423
50
279.8170433
51
315.7504317
0
ARC
8
DEFAULT_255_2_778
10
22.7366342
20
71.8836873
40
0.3736775
50
313.3881417
51
356.8852505
0
ARC
8
DEFAULT_255_2_778
10
22.8255163
20
71.8694436
40
0.284308
50
358.7785804
51
359.9980126
0
ARC
8
DEFAULT_255_2_778
10
22.8558353
20
71.871547
40
0.2539978
50
359.5232938
51
39.9640595
0
ARC
8
DEFAULT_255_2_778
10
22.8001941
20
71.8229379
40
0.3278692
50
40.2292682
51
59.201972
0
ARC
8
DEFAULT_255_2_778
10
22.7105276
20
71.6753609
40
0.500547
50
59.034832
51
71.6056359
0
ARC
8
DEFAULT_255_2_778
10
22.6445725
20
71.4910944
40
0.6962255
50
71.24033
51
76.0463024
0
LINE
8
DEFAULT_255_2_778
10
22.4401587
20
72.952275
11
22.4401587
21
71.447375
0
LINE
8
DEFAULT_255_2_778
10
22.4401587
20
71.447375
11
22.8370587
21
71.447375
0
LINE
8
DEFAULT_255_2_778
10
22.8454587
20
72.952275
11
22.4401587
21
72.952275
0
LINE
8
DEFAULT_255_2_778
10
22.5144587
20
72.877975
11
22.5144587
21
72.241375
0
LINE
8
DEFAULT_255_2_778
10
22.5144587
20
72.241375
11
22.8039587
21
72.241375
0
LINE
8
DEFAULT_255_2_778
10
22.8121587
20
72.877975
11
22.5144587
21
72.877975
0
LINE
8
DEFAULT_255_2_778
10
22.5147587
20
72.166775
11
22.5147587
21
71.530175
0
LINE
8
DEFAULT_255_2_778
10
22.5147587
20
71.530175
11
22.8042587
21
71.530175
0
LINE
8
DEFAULT_255_2_778
10
22.8124587
20
72.166775
11
22.5147587
21
72.166775
0
ARC
8
DEFAULT_255_2_778
10
27.8794274
20
72.5428316
40
0.4200879
50
4.1269062
51
35.3609686
0
ARC
8
DEFAULT_255_2_778
10
27.888148
20
72.5494819
40
0.4091277
50
35.3082192
51
89.2347052
0
ARC
8
DEFAULT_255_2_778
10
27.8936126
20
72.5912386
40
0.3673347
50
90.0000071
51
90.5858244
0
ARC
8
DEFAULT_255_2_778
10
27.8922203
20
72.6060684
40
0.3524937
50
90.3841826
51
129.362315
0
ARC
8
DEFAULT_255_2_778
10
27.9367857
20
72.5541724
40
0.4208844
50
129.5722523
51
149.5783908
0
ARC
8
DEFAULT_255_2_778
10
28.0724643
20
72.4730632
40
0.5789549
50
149.4556557
51
162.9221147
0
ARC
8
DEFAULT_255_2_778
10
28.1942983
20
72.4308237
40
0.7078362
50
162.5499403
51
164.2832638
0
ARC
8
DEFAULT_255_2_778
10
27.8857905
20
71.835707
40
0.3749979
50
186.1145365
51
214.8738032
0
ARC
8
DEFAULT_255_2_778
10
27.9050459
20
71.8610375
40
0.4053962
50
216.2550164
51
270.1640038
0
ARC
8
DEFAULT_255_2_778
10
27.9097705
20
71.8790821
40
0.4234542
50
269.5177391
51
269.9967591
0
ARC
8
DEFAULT_255_2_778
10
27.9162231
20
71.8310627
40
0.3754906
50
269.0116903
51
322.1220283
0
ARC
8
DEFAULT_255_2_778
10
27.8802475
20
71.8506507
40
0.4159663
50
323.034912
51
344.801361
0
ARC
8
DEFAULT_255_2_778
10
27.7595861
20
71.8871195
40
0.5419798
50
344.4250182
51
353.8295165
0
ARC
8
DEFAULT_255_2_778
10
27.767464
20
71.9364365
40
0.4691611
50
326.5294623
51
346.7448627
0
ARC
8
DEFAULT_255_2_778
10
27.8652916
20
71.869952
40
0.3508929
50
297.3781584
51
326.7754617
0
ARC
8
DEFAULT_255_2_778
10
27.8991831
20
71.8081529
40
0.2804352
50
270.2969065
51
297.0356794
0
ARC
8
DEFAULT_255_2_778
10
27.9004732
20
71.7053067
40
0.1775853
50
269.8420316
51
270.052613
0
ARC
8
DEFAULT_255_2_778
10
27.9023379
20
71.7998876
40
0.2721756
50
229.1369714
51
269.504388
0
ARC
8
DEFAULT_255_2_778
10
27.9691515
20
71.8793661
40
0.3759991
50
208.7418868
51
229.3609071
0
ARC
8
DEFAULT_255_2_778
10
28.1245899
20
71.9671127
40
0.5544852
50
195.4305699
51
208.9682768
0
ARC
8
DEFAULT_255_2_778
10
28.2462989
20
72.0059508
40
0.6821596
50
195.0462088
51
195.8551509
0
ARC
8
DEFAULT_255_2_778
10
28.0192984
20
72.506551
40
0.4368349
50
152.4771488
51
171.2686064
0
ARC
8
DEFAULT_255_2_778
10
27.9185967
20
72.559875
40
0.3228897
50
122.5999079
51
152.611047
0
ARC
8
DEFAULT_255_2_778
10
27.8996105
20
72.5857133
40
0.2909003
50
89.9870976
51
122.1914045
0
ARC
8
DEFAULT_255_2_778
10
27.8996818
20
72.5839128
40
0.2927009
50
88.3634093
51
90.001127
0
ARC
8
DEFAULT_255_2_778
10
27.8973341
20
72.5702062
40
0.306475
50
44.9159542
51
87.9978676
0
ARC
8
DEFAULT_255_2_778
10
27.8471634
20
72.519347
40
0.3779134
50
21.3442906
51
45.0056504
0
ARC
8
DEFAULT_255_2_778
10
27.749516
20
72.4775597
40
0.4840843
50
11.3542512
51
21.7443788
0
LINE
8
DEFAULT_255_2_778
10
27.5129261
20
72.6225636
11
27.5129261
21
71.7957636
0
LINE
8
DEFAULT_255_2_778
10
28.2984261
20
71.8288636
11
28.2241261
21
71.8288636
0
LINE
8
DEFAULT_255_2_778
10
27.5875261
20
71.8288636
11
27.5875261
21
72.5728636
0
LINE
8
DEFAULT_255_2_778
10
28.2241261
20
72.5728636
11
28.2984261
21
72.5728636
0
LINE
8
DEFAULT_255_2_778
10
28.2984261
20
72.5728636
11
28.2984261
21
72.5730636
0
ARC
8
DEFAULT_255_2_778
10
32.9311274
20
72.5283316
40
0.4200879
50
4.1269062
51
35.3609686
0
ARC
8
DEFAULT_255_2_778
10
32.939848
20
72.5349819
40
0.4091277
50
35.3082192
51
89.2347052
0
ARC
8
DEFAULT_255_2_778
10
32.9453126
20
72.5767386
40
0.3673347
50
90.0000071
51
90.5858244
0
ARC
8
DEFAULT_255_2_778
10
32.9439203
20
72.5915684
40
0.3524937
50
90.3841826
51
129.362315
0
ARC
8
DEFAULT_255_2_778
10
32.9884857
20
72.5396724
40
0.4208844
50
129.5722523
51
149.5783908
0
ARC
8
DEFAULT_255_2_778
10
33.1241643
20
72.4585632
40
0.5789549
50
149.4556557
51
162.9221147
0
ARC
8
DEFAULT_255_2_778
10
33.2459983
20
72.4163237
40
0.7078362
50
162.5499403
51
164.2832638
0
ARC
8
DEFAULT_255_2_778
10
32.9374905
20
71.821207
40
0.3749979
50
186.1145365
51
214.8738032
0
ARC
8
DEFAULT_255_2_778
10
32.9567459
20
71.8465375
40
0.4053962
50
216.2550164
51
270.1640038
0
ARC
8
DEFAULT_255_2_778
10
32.9614705
20
71.8645821
40
0.4234542
50
269.5177391
51
269.9967591
0
ARC
8
DEFAULT_255_2_778
10
32.9679231
20
71.8165627
40
0.3754906
50
269.0116903
51
322.1220283
0
ARC
8
DEFAULT_255_2_778
10
32.9319475
20
71.8361507
40
0.4159663
50
323.034912
51
344.801361
0
ARC
8
DEFAULT_255_2_778
10
32.8112861
20
71.8726195
40
0.5419798
50
344.4250182
51
353.8295165
0
ARC
8
DEFAULT_255_2_778
10
32.819164
20
71.9219365
40
0.4691611
50
326.5294623
51
346.7448627
0
ARC
8
DEFAULT_255_2_778
10
32.9169916
20
71.855452
40
0.3508929
50
297.3781584
51
326.7754617
0
ARC
8
DEFAULT_255_2_778
10
32.9508831
20
71.7936529
40
0.2804352
50
270.2969065
51
297.0356794
0
ARC
8
DEFAULT_255_2_778
10
32.9521732
20
71.6908067
40
0.1775853
50
269.8420316
51
270.052613
0
ARC
8
DEFAULT_255_2_778
10
32.9540379
20
71.7853876
40
0.2721756
50
229.1369714
51
269.504388
0
ARC
8
DEFAULT_255_2_778
10
33.0208515
20
71.8648661
40
0.3759991
50
208.7418868
51
229.3609071
0
ARC
8
DEFAULT_255_2_778
10
33.1762899
20
71.9526127
40
0.5544852
50
195.4305699
51
208.9682768
0
ARC
8
DEFAULT_255_2_778
10
33.2979989
20
71.9914508
40
0.6821596
50
195.0462088
51
195.8551509
0
ARC
8
DEFAULT_255_2_778
10
33.0709984
20
72.492051
40
0.4368349
50
152.4771488
51
171.2686064
0
ARC
8
DEFAULT_255_2_778
10
32.9702967
20
72.545375
40
0.3228897
50
122.5999079
51
152.611047
0
ARC
8
DEFAULT_255_2_778
10
32.9513105
20
72.5712133
40
0.2909003
50
89.9870976
51
122.1914045
0
ARC
8
DEFAULT_255_2_778
10
32.9513818
20
72.5694128
40
0.2927009
50
88.3634093
51
90.001127
0
ARC
8
DEFAULT_255_2_778
10
32.9490341
20
72.5557062
40
0.306475
50
44.9159542
51
87.9978676
0
ARC
8
DEFAULT_255_2_778
10
32.8988634
20
72.504847
40
0.3779134
50
21.3442906
51
45.0056504
0
ARC
8
DEFAULT_255_2_778
10
32.801216
20
72.4630597
40
0.4840843
50
11.3542512
51
21.7443788
0
LINE
8
DEFAULT_255_2_778
10
32.5646261
20
72.6080636
11
32.5646261
21
71.7812636
0
LINE
8
DEFAULT_255_2_778
10
33.3501261
20
71.8143636
11
33.2758261
21
71.8143636
0
LINE
8
DEFAULT_255_2_778
10
32.6392261
20
71.8143636
11
32.6392261
21
72.5583636
0
LINE
8
DEFAULT_255_2_778
10
33.2758261
20
72.5583636
11
33.3501261
21
72.5583636
0
LINE
8
DEFAULT_255_2_778
10
33.3501261
20
72.5583636
11
33.3501261
21
72.5585636
0
ARC
8
DEFAULT_255_2_778
10
37.982489
20
71.990563
40
0.4822798
50
278.654749
51
295.2346676
0
ARC
8
DEFAULT_255_2_778
10
38.0580025
20
71.8309653
40
0.3057193
50
295.1847459
51
323.3097105
0
ARC
8
DEFAULT_255_2_778
10
38.0435986
20
71.8370209
40
0.3209096
50
323.979311
51
340.6018379
0
ARC
8
DEFAULT_255_2_778
10
37.8794554
20
71.8924912
40
0.4941631
50
340.8564039
51
352.4748543
0
ARC
8
DEFAULT_255_2_778
10
38.0288706
20
72.5270864
40
0.3434121
50
7.4771628
51
85.575614
0
ARC
8
DEFAULT_255_2_778
10
38.0687317
20
71.806305
40
0.3676438
50
273.0296222
51
296.8326353
0
ARC
8
DEFAULT_255_2_778
10
38.0617726
20
71.8045223
40
0.3692609
50
297.9210942
51
329.3921793
0
ARC
8
DEFAULT_255_2_778
10
37.9893352
20
71.8554892
40
0.4576095
50
328.5177424
51
331.1329721
0
ARC
8
DEFAULT_255_2_778
10
37.9491327
20
71.8764316
40
0.5029283
50
331.25473
51
342.7485136
0
ARC
8
DEFAULT_255_2_778
10
37.9948391
20
71.8640593
40
0.4556123
50
342.5297825
51
350.170033
0
ARC
8
DEFAULT_255_2_778
10
38.0227132
20
72.5214868
40
0.4292273
50
11.202375
51
64.4743092
0
ARC
8
DEFAULT_255_2_778
10
38.051905
20
72.6066838
40
0.3399252
50
62.7260878
51
78.6880903
0
ARC
8
DEFAULT_255_2_778
10
38.0787353
20
72.7314855
40
0.2122931
50
79.1817738
51
89.6687768
0
LINE
8
DEFAULT_255_2_778
10
37.7655625
20
72.869775
11
37.7655625
21
71.513775
0
LINE
8
DEFAULT_255_2_778
10
37.7655625
20
71.513775
11
38.0550625
21
71.513775
0
LINE
8
DEFAULT_255_2_778
10
38.3693625
20
71.827775
11
38.3693625
21
72.571775
0
LINE
8
DEFAULT_255_2_778
10
38.0553625
20
72.869475
11
37.7655625
21
72.869775
0
LINE
8
DEFAULT_255_2_778
10
37.6912625
20
72.944075
11
37.6912625
21
71.439175
0
LINE
8
DEFAULT_255_2_778
10
37.6912625
20
71.439175
11
38.0881625
21
71.439175
0
LINE
8
DEFAULT_255_2_778
10
38.4437625
20
71.786275
11
38.4437625
21
72.604875
0
LINE
8
DEFAULT_255_2_778
10
38.0799625
20
72.943775
11
37.6912625
21
72.944075
0
ARC
8
DEFAULT_255_2_778
10
43.034089
20
71.990563
40
0.4822798
50
278.654749
51
295.2346676
0
ARC
8
DEFAULT_255_2_778
10
43.1096025
20
71.8309653
40
0.3057193
50
295.1847459
51
323.3097105
0
ARC
8
DEFAULT_255_2_778
10
43.0951986
20
71.8370209
40
0.3209096
50
323.979311
51
340.6018379
0
ARC
8
DEFAULT_255_2_778
10
42.9310554
20
71.8924912
40
0.4941631
50
340.8564039
51
352.4748543
0
ARC
8
DEFAULT_255_2_778
10
43.0804706
20
72.5270864
40
0.3434121
50
7.4771628
51
85.575614
0
ARC
8
DEFAULT_255_2_778
10
43.1203317
20
71.806305
40
0.3676438
50
273.0296222
51
296.8326353
0
ARC
8
DEFAULT_255_2_778
10
43.1133726
20
71.8045223
40
0.3692609
50
297.9210942
51
329.3921793
0
ARC
8
DEFAULT_255_2_778
10
43.0409352
20
71.8554892
40
0.4576095
50
328.5177424
51
331.1329721
0
ARC
8
DEFAULT_255_2_778
10
43.0007327
20
71.8764316
40
0.5029283
50
331.25473
51
342.7485136
0
ARC
8
DEFAULT_255_2_778
10
43.0464391
20
71.8640593
40
0.4556123
50
342.5297825
51
350.170033
0
ARC
8
DEFAULT_255_2_778
10
43.0743132
20
72.5214868
40
0.4292273
50
11.202375
51
64.4743092
0
ARC
8
DEFAULT_255_2_778
10
43.103505
20
72.6066838
40
0.3399252
50
62.7260878
51
78.6880903
0
ARC
8
DEFAULT_255_2_778
10
43.1303353
20
72.7314855
40
0.2122931
50
79.1817738
51
89.6687768
0
LINE
8
DEFAULT_255_2_778
10
42.8171625
20
72.869775
11
42.8171625
21
71.513775
0
LINE
8
DEFAULT_255_2_778
10
42.8171625
20
71.513775
11
43.1066625
21
71.513775
0
LINE
8
DEFAULT_255_2_778
10
43.4209625
20
71.827775
11
43.4209625
21
72.571775
0
LINE
8
DEFAULT_255_2_778
10
43.1069625
20
72.869475
11
42.8171625
21
72.869775
0
LINE
8
DEFAULT_255_2_778
10
42.7428625
20
72.944075
11
42.7428625
21
71.439175
0
LINE
8
DEFAULT_255_2_778
10
42.7428625
20
71.439175
11
43.1397625
21
71.439175
0
LINE
8
DEFAULT_255_2_778
10
43.4953625
20
71.786275
11
43.4953625
21
72.604875
0
LINE
8
DEFAULT_255_2_778
10
43.1315625
20
72.943775
11
42.7428625
21
72.944075
0
ENDSEC
0
EOF