0
SECTION
2
HEADER
9
$MEASUREMENT
70
1
0
ENDSEC
0
SECTION
2
TABLES
0
TABLE
2
LTYPE
0
LTYPE
72
65
70
64
2
CONTINUOUS
3
______
73
0
40
0
0
ENDTAB
0
TABLE
2
LAYER
0
LAYER
2
DEFAULT_255_2_778
70
0
62
255
6
CONTINUOUS
0
LAYER
2
DEFAULT_255_1_388
70
0
62
255
6
CONTINUOUS
0
LAYER
2
DEFAULT_255_2_778_1
70
0
62
255
6
CONTINUOUS
0
ENDTAB
0
ENDSEC
0
SECTION
2
ENTITIES
0
ARC
8
DEFAULT_255_2_778
10
3.5700693
20
155.1802019
40
0.7914215
50
129.1312896
51
180.1450914
0
ARC
8
DEFAULT_255_2_778
10
3.5703345
20
155.180689
40
0.7912112
50
89.854026
51
129.1684493
0
ARC
8
DEFAULT_255_2_778
10
25.7993937
20
155.1803756
40
0.7915249
50
39.4792447
51
90.147911
0
ARC
8
DEFAULT_255_2_778
10
25.7999935
20
155.1802222
40
0.7911595
50
359.8533901
51
39.5154338
0
ARC
8
DEFAULT_255_2_778
10
25.7996693
20
-1.9863503
40
0.7914836
50
309.4761667
51
0.1482649
0
ARC
8
DEFAULT_255_2_778
10
25.799398
20
-1.9867814
40
0.7913235
50
269.8517415
51
309.511178
0
ARC
8
DEFAULT_255_2_778
10
3.570342
20
-1.9867233
40
0.7913815
50
219.1282118
51
270.1454017
0
ARC
8
DEFAULT_255_2_778
10
3.5700247
20
-1.9863408
40
0.7913769
50
179.8524075
51
219.1641908
0
LINE
8
DEFAULT_255_2_778
10
3.5723503
20
155.9718978
11
25.7973503
21
155.9718978
0
LINE
8
DEFAULT_255_2_778
10
26.5911503
20
155.1781978
11
26.5911503
21
-1.9843022
0
LINE
8
DEFAULT_255_2_778
10
25.7973503
20
-2.7781022
11
3.5723503
21
-2.7781022
0
LINE
8
DEFAULT_255_2_778
10
2.7786503
20
-1.9843022
11
2.7786503
21
155.1781978
0
LINE
8
DEFAULT_255_1_388
10
5.7617015
20
0.6766934
11
5.7915191
21
0.6766934
0
LINE
8
DEFAULT_255_1_388
10
5.7915191
20
0.6766934
11
5.7915191
21
0.5348338
0
LINE
8
DEFAULT_255_1_388
10
5.7915191
20
0.5348338
11
5.7607979
21
0.5348338
0
LINE
8
DEFAULT_255_1_388
10
5.1454705
20
-0.1392253
11
5.1454705
21
-0.0750722
0
LINE
8
DEFAULT_255_1_388
10
5.3135335
20
-0.0967578
11
5.3135335
21
-0.1582001
0
ARC
8
DEFAULT_255_1_388
10
5.7666871
20
-0.0274174
40
0.562282
50
90.6001079
51
104.5146616
0
ARC
8
DEFAULT_255_1_388
10
5.722983
20
0.13511
40
0.3939917
50
104.2855758
51
133.8630124
0
ARC
8
DEFAULT_255_1_388
10
5.7414083
20
0.1229243
40
0.4155734
50
134.5304124
51
161.6210222
0
ARC
8
DEFAULT_255_1_388
10
5.9274015
20
0.0573421
40
0.6127682
50
161.2850533
51
174.2074364
0
ARC
8
DEFAULT_255_1_388
10
6.0863582
20
0.0354437
40
0.7731446
50
173.7817938
51
174.9251711
0
ARC
8
DEFAULT_255_1_388
10
5.5737775
20
-0.120073
40
0.3412588
50
95.8332067
51
138.995412
0
ARC
8
DEFAULT_255_1_388
10
5.5989056
20
-0.2639305
40
0.4870358
50
89.8755506
51
97.0540979
0
ARC
8
DEFAULT_255_1_388
10
5.6042445
20
-0.1699159
40
0.3930432
50
71.6407016
51
90.6240821
0
ARC
8
DEFAULT_255_1_388
10
5.6211838
20
-0.1075567
40
0.3285421
50
39.6368051
51
71.0190743
0
ARC
8
DEFAULT_255_1_388
10
5.5495746
20
-0.1694414
40
0.4231706
50
10.6588054
51
39.9044509
0
ARC
8
DEFAULT_255_1_388
10
5.3754291
20
-0.2072777
40
0.60133
50
359.6827842
51
11.1326896
0
ARC
8
DEFAULT_255_1_388
10
5.3709627
20
-0.2152285
40
0.6058047
50
347.2485908
51
0.4371098
0
ARC
8
DEFAULT_255_1_388
10
5.5585413
20
-0.2603621
40
0.4128987
50
318.1408565
51
347.6118497
0
ARC
8
DEFAULT_255_1_388
10
5.5951009
20
-0.2904097
40
0.3656244
50
275.6342406
51
317.824739
0
ARC
8
DEFAULT_255_1_388
10
5.570253
20
-0.1442173
40
0.513655
50
269.8872513
51
276.7916069
0
ARC
8
DEFAULT_255_1_388
10
5.5640723
20
-0.2595819
40
0.398323
50
246.9139443
51
270.7436787
0
ARC
8
DEFAULT_255_1_388
10
5.5647919
20
-0.2755956
40
0.3839368
50
218.1665534
51
245.8780431
0
ARC
8
DEFAULT_255_1_388
10
5.6637291
20
-0.1928097
40
0.5128958
50
191.4115343
51
218.6077624
0
ARC
8
DEFAULT_255_1_388
10
5.8817607
20
-0.1439223
40
0.7363054
50
179.6344971
51
191.7836758
0
ARC
8
DEFAULT_255_1_388
10
6.5097482
20
-0.0675505
40
1.3642984
50
171.4523743
51
180.3158856
0
ARC
8
DEFAULT_255_1_388
10
6.0153209
20
0.0093895
40
0.8639311
50
157.9802296
51
171.6246761
0
ARC
8
DEFAULT_255_1_388
10
5.7662559
20
0.1087038
40
0.5958004
50
141.4299236
51
157.8541251
0
ARC
8
DEFAULT_255_1_388
10
5.6940643
20
0.1597746
40
0.5075416
50
102.871586
51
140.8564533
0
ARC
8
DEFAULT_255_1_388
10
5.7669195
20
-0.1147057
40
0.7914163
50
90.377773
51
103.5868422
0
ARC
8
DEFAULT_255_1_388
10
5.5713717
20
-0.1827457
40
0.2667015
50
89.8751238
51
126.2072139
0
ARC
8
DEFAULT_255_1_388
10
5.5765188
20
-0.2001153
40
0.2838229
50
124.9742447
51
144.8960197
0
ARC
8
DEFAULT_255_1_388
10
5.5567433
20
-0.1840019
40
0.2583845
50
145.2974778
51
160.2660922
0
ARC
8
DEFAULT_255_1_388
10
5.9023921
20
-0.1617849
40
0.5888695
50
179.6512124
51
190.285571
0
ARC
8
DEFAULT_255_1_388
10
5.7118401
20
-0.1977032
40
0.3949683
50
190.0944895
51
207.5099647
0
ARC
8
DEFAULT_255_1_388
10
5.6481982
20
-0.2279823
40
0.3245464
50
207.9585471
51
216.325377
0
ARC
8
DEFAULT_255_1_388
10
5.6099619
20
-0.2594288
40
0.2751259
50
215.7661336
51
232.5457193
0
ARC
8
DEFAULT_255_1_388
10
5.5668735
20
-0.3141727
40
0.2054668
50
232.8005815
51
270.6605497
0
ARC
8
DEFAULT_255_1_388
10
5.572016
20
-0.2732147
40
0.2464268
50
269.3550767
51
288.474612
0
ARC
8
DEFAULT_255_1_388
10
5.5824667
20
-0.3125279
40
0.2058436
50
289.1831976
51
322.9685307
0
ARC
8
DEFAULT_255_1_388
10
5.5136768
20
-0.2582721
40
0.2934408
50
322.6007085
51
346.5183319
0
ARC
8
DEFAULT_255_1_388
10
5.3834524
20
-0.2250566
40
0.4278249
50
346.2584622
51
358.7739592
0
ARC
8
DEFAULT_255_1_388
10
5.26831
20
-0.2188171
40
0.5430876
50
358.3757628
51
0.0082477
0
ARC
8
DEFAULT_255_1_388
10
5.3539918
20
-0.2157144
40
0.4574157
50
359.6211417
51
11.28403
0
ARC
8
DEFAULT_255_1_388
10
5.4976524
20
-0.1857465
40
0.3106708
50
11.0483152
51
31.8145585
0
ARC
8
DEFAULT_255_1_388
10
5.5324229
20
-0.1668955
40
0.2711963
50
32.3028554
51
38.0820598
0
ARC
8
DEFAULT_255_1_388
10
5.5797462
20
-0.1240283
40
0.2075566
50
36.8249851
51
85.741667
0
ARC
8
DEFAULT_255_1_388
10
5.5721875
20
-0.1803935
40
0.2643487
50
85.0150021
51
90.050843
0
LINE
8
DEFAULT_255_1_388
10
6.9616351
20
0.1101585
11
6.9616351
21
-0.0317011
0
LINE
8
DEFAULT_255_1_388
10
6.9616351
20
-0.0317011
11
6.3914859
21
-0.0317011
0
LINE
8
DEFAULT_255_1_388
10
6.3914859
20
-0.0317011
11
6.3914859
21
-0.4979404
0
LINE
8
DEFAULT_255_1_388
10
6.3914859
20
-0.4979404
11
7.0537986
21
-0.4979404
0
LINE
8
DEFAULT_255_1_388
10
7.0537986
20
-0.4979404
11
7.0537986
21
-0.6398
0
LINE
8
DEFAULT_255_1_388
10
7.0537986
20
-0.6398
11
6.2180015
21
-0.6398
0
LINE
8
DEFAULT_255_1_388
10
6.2180015
20
-0.6398
11
6.2180015
21
0.6757898
0
LINE
8
DEFAULT_255_1_388
10
6.2180015
20
0.6757898
11
7.044763
21
0.6757898
0
LINE
8
DEFAULT_255_1_388
10
7.044763
20
0.6757898
11
7.044763
21
0.5330267
0
LINE
8
DEFAULT_255_1_388
10
7.044763
20
0.5330267
11
6.3914859
21
0.5330267
0
LINE
8
DEFAULT_255_1_388
10
6.3914859
20
0.5330267
11
6.3914859
21
0.1101585
0
LINE
8
DEFAULT_255_1_388
10
6.3914859
20
0.1101585
11
6.9616351
21
0.1101585
0
LINE
8
DEFAULT_255_1_388
10
8.1425938
20
0.2953892
11
7.9682059
21
0.2953892
0
LINE
8
DEFAULT_255_1_388
10
7.1893333
20
-0.2584958
11
7.3637212
21
-0.2584958
0
ARC
8
DEFAULT_255_1_388
10
8.0422786
20
1.3017821
40
1.4087688
50
248.9196578
51
254.1442424
0
ARC
8
DEFAULT_255_1_388
10
7.8532666
20
0.8151805
40
0.8867498
50
241.6337352
51
249.0064643
0
ARC
8
DEFAULT_255_1_388
10
7.6812979
20
0.5000764
40
0.5277799
50
230.4982261
51
241.8087583
0
ARC
8
DEFAULT_255_1_388
10
7.593075
20
0.3876686
40
0.3849419
50
227.4062979
51
229.9877433
0
ARC
8
DEFAULT_255_1_388
10
7.5382097
20
0.3341155
40
0.3084129
50
200.6782127
51
228.1765252
0
ARC
8
DEFAULT_255_1_388
10
7.5463466
20
0.3324277
40
0.315461
50
179.506278
51
199.8695278
0
ARC
8
DEFAULT_255_1_388
10
7.5453054
20
0.3407671
40
0.3144584
50
132.4834401
51
181.0242352
0
ARC
8
DEFAULT_255_1_388
10
7.6122259
20
0.2775788
40
0.4063094
50
129.2526113
51
133.4249077
0
ARC
8
DEFAULT_255_1_388
10
7.6287851
20
0.2527619
40
0.436014
50
101.9878945
51
128.8741833
0
ARC
8
DEFAULT_255_1_388
10
7.6736267
20
0.059136
40
0.6347415
50
89.5906376
51
102.3170567
0
ARC
8
DEFAULT_255_1_388
10
7.6815578
20
0.0949586
40
0.5989122
50
77.2359491
51
90.3248968
0
ARC
8
DEFAULT_255_1_388
10
7.7048509
20
0.2037554
40
0.4876594
50
63.8379856
51
77.0808925
0
ARC
8
DEFAULT_255_1_388
10
7.7361043
20
0.2619882
40
0.4216191
50
45.9863127
51
64.1608798
0
ARC
8
DEFAULT_255_1_388
10
7.7654436
20
0.295499
40
0.3771394
50
32.2747934
51
45.6544796
0
ARC
8
DEFAULT_255_1_388
10
7.7729243
20
0.2976426
40
0.3696765
50
359.6507495
51
32.6129943
0
ARC
8
DEFAULT_255_1_388
10
7.6668425
20
0.2981788
40
0.3013762
50
359.469654
51
14.983205
0
ARC
8
DEFAULT_255_1_388
10
7.7461678
20
0.3194288
40
0.2192542
50
14.9781954
51
48.2004799
0
ARC
8
DEFAULT_255_1_388
10
7.7276788
20
0.2961937
40
0.2489048
50
48.5926661
51
74.1242559
0
ARC
8
DEFAULT_255_1_388
10
7.6901591
20
0.1723607
40
0.3782845
50
73.7889321
51
86.6653996
0
ARC
8
DEFAULT_255_1_388
10
7.6786405
20
0.0365955
40
0.5145025
50
86.2642725
51
90.0533288
0
ARC
8
DEFAULT_255_1_388
10
7.6754498
20
0.0810376
40
0.4700681
50
89.669455
51
99.2313411
0
ARC
8
DEFAULT_255_1_388
10
7.6481658
20
0.2435401
40
0.3052945
50
99.0695987
51
113.7659242
0
ARC
8
DEFAULT_255_1_388
10
7.6173652
20
0.3161772
40
0.226407
50
114.0402885
51
127.9848946
0
ARC
8
DEFAULT_255_1_388
10
7.5903129
20
0.3494884
40
0.1835045
50
127.7287217
51
176.7106493
0
ARC
8
DEFAULT_255_1_388
10
7.6666794
20
0.338121
40
0.2604907
50
175.1780759
51
180.0581213
0
ARC
8
DEFAULT_255_1_388
10
7.5718137
20
0.3367411
40
0.1656287
50
179.6140658
51
228.124674
0
ARC
8
DEFAULT_255_1_388
10
7.6215495
20
0.382794
40
0.2332038
50
226.5785315
51
230.8792476
0
ARC
8
DEFAULT_255_1_388
10
7.6744981
20
0.4530908
40
0.3211664
50
231.4636401
51
241.9261664
0
ARC
8
DEFAULT_255_1_388
10
7.8091765
20
0.7009349
40
0.6032345
50
241.7177136
51
248.3259138
0
ARC
8
DEFAULT_255_1_388
10
7.9650359
20
1.0870771
40
1.0196417
50
248.2007377
51
252.4527713
0
ARC
8
DEFAULT_255_1_388
10
8.1003886
20
1.5055092
40
1.4594143
50
252.3388938
51
254.347037
0
ARC
8
DEFAULT_255_1_388
10
7.2519187
20
-1.5292905
40
1.6917621
50
71.0197462
51
74.4085467
0
ARC
8
DEFAULT_255_1_388
10
7.4426275
20
-0.9787856
40
1.1091618
50
66.1845203
51
71.086519
0
ARC
8
DEFAULT_255_1_388
10
7.6176823
20
-0.5846561
40
0.6779073
50
59.3537334
51
66.269255
0
ARC
8
DEFAULT_255_1_388
10
7.7176549
20
-0.4155223
40
0.4814366
50
49.1021732
51
59.3294421
0
ARC
8
DEFAULT_255_1_388
10
7.8097538
20
-0.3105425
40
0.3417875
50
32.7924183
51
49.2503526
0
ARC
8
DEFAULT_255_1_388
10
7.8447152
20
-0.2855689
40
0.2988789
50
31.121225
51
32.3977355
0
ARC
8
DEFAULT_255_1_388
10
7.835933
20
-0.2888272
40
0.3080861
50
8.1116803
51
30.7958224
0
ARC
8
DEFAULT_255_1_388
10
7.7447675
20
-0.3043563
40
0.4005385
50
359.8390945
51
8.4707348
0
ARC
8
DEFAULT_255_1_388
10
7.8151723
20
-0.3098249
40
0.3301608
50
337.4732479
51
0.7538283
0
ARC
8
DEFAULT_255_1_388
10
7.8352748
20
-0.3120446
40
0.3107929
50
307.5917028
51
336.4313755
0
ARC
8
DEFAULT_255_1_388
10
7.7841806
20
-0.2552491
40
0.3870096
50
307.6560665
51
308.4561779
0
ARC
8
DEFAULT_255_1_388
10
7.7576022
20
-0.2144168
40
0.435591
50
284.3733666
51
307.1426212
0
ARC
8
DEFAULT_255_1_388
10
7.7018917
20
-0.0094609
40
0.6479685
50
272.4384566
51
284.6464689
0
ARC
8
DEFAULT_255_1_388
10
7.6876302
20
0.1929434
40
0.8508149
50
269.9708517
51
272.8180721
0
ARC
8
DEFAULT_255_1_388
10
7.6827984
20
-0.0362717
40
0.6216151
50
248.2707343
51
270.4054609
0
ARC
8
DEFAULT_255_1_388
10
7.6766856
20
-0.0577327
40
0.5994203
50
246.1380358
51
248.054058
0
ARC
8
DEFAULT_255_1_388
10
7.6295998
20
-0.1566295
40
0.4899388
50
233.1671897
51
246.4951656
0
ARC
8
DEFAULT_255_1_388
10
7.5672633
20
-0.2407863
40
0.3852115
50
215.3403381
51
233.084328
0
ARC
8
DEFAULT_255_1_388
10
7.5365997
20
-0.2630907
40
0.3472969
50
179.2419235
51
215.2648426
0
ARC
8
DEFAULT_255_1_388
10
7.6229548
20
-0.2615021
40
0.259251
50
179.3355796
51
199.1045873
0
ARC
8
DEFAULT_255_1_388
10
7.585569
20
-0.2712777
40
0.2207454
50
199.8830064
51
232.7061328
0
ARC
8
DEFAULT_255_1_388
10
7.6386965
20
-0.2044544
40
0.306101
50
232.3736206
51
255.5136621
0
ARC
8
DEFAULT_255_1_388
10
7.677047
20
-0.0644823
40
0.4512213
50
255.2447928
51
267.5318292
0
ARC
8
DEFAULT_255_1_388
10
7.6868937
20
0.0741709
40
0.5901825
50
267.1564563
51
270.0294721
0
ARC
8
DEFAULT_255_1_388
10
7.6900263
20
0.0242623
40
0.5402814
50
269.6999944
51
278.1662446
0
ARC
8
DEFAULT_255_1_388
10
7.718829
20
-0.1704026
40
0.3435003
50
278.0229022
51
290.6255326
0
ARC
8
DEFAULT_255_1_388
10
7.7579457
20
-0.2747453
40
0.2320666
50
290.6616368
51
307.0374127
0
ARC
8
DEFAULT_255_1_388
10
7.7917357
20
-0.316196
40
0.1786372
50
306.3942078
51
355.303191
0
ARC
8
DEFAULT_255_1_388
10
7.734165
20
-0.3075814
40
0.2367516
50
354.3662092
51
0.0709489
0
ARC
8
DEFAULT_255_1_388
10
7.7501518
20
-0.3050439
40
0.2207761
50
359.4175379
51
16.1975911
0
ARC
8
DEFAULT_255_1_388
10
7.8013636
20
-0.2910046
40
0.1676828
50
16.4721294
51
52.6261798
0
ARC
8
DEFAULT_255_1_388
10
7.7090144
20
-0.4129394
40
0.3206412
50
52.7381828
51
62.4979144
0
ARC
8
DEFAULT_255_1_388
10
7.5531896
20
-0.7061764
40
0.6527035
50
62.2517425
51
68.1219454
0
ARC
8
DEFAULT_255_1_388
10
7.3597384
20
-1.1816049
40
1.1659797
50
68.006043
51
71.8055127
0
ARC
8
DEFAULT_255_1_388
10
7.1577292
20
-1.7874277
40
1.8045908
50
71.718361
51
73.9260743
0
LINE
8
DEFAULT_255_1_388
10
9.1735608
20
0.6757898
11
9.1735608
21
0.5818191
0
LINE
8
DEFAULT_255_1_388
10
9.1735608
20
0.5818191
11
8.6287115
21
-0.6398
0
LINE
8
DEFAULT_255_1_388
10
8.6287115
20
-0.6398
11
8.45342
21
-0.6398
0
LINE
8
DEFAULT_255_1_388
10
8.45342
20
-0.6398
11
8.9964622
21
0.538448
0
LINE
8
DEFAULT_255_1_388
10
8.9964622
20
0.538448
11
8.2844534
21
0.538448
0
LINE
8
DEFAULT_255_1_388
10
8.2844534
20
0.538448
11
8.2844534
21
0.6757898
0
LINE
8
DEFAULT_255_1_388
10
8.2844534
20
0.6757898
11
9.1735608
21
0.6757898
0
LINE
8
DEFAULT_255_1_388
10
10.2253099
20
-0.5033618
11
10.2253099
21
-0.6398
0
LINE
8
DEFAULT_255_1_388
10
10.2253099
20
-0.6398
11
9.3633094
21
-0.6398
0
LINE
8
DEFAULT_255_1_388
10
9.3633094
20
-0.6398
11
9.3633094
21
-0.5196259
0
LINE
8
DEFAULT_255_1_388
10
9.3633094
20
-0.5196259
11
9.8187059
21
-0.0136298
0
LINE
8
DEFAULT_255_1_388
10
9.505169
20
0.2881607
11
9.3380096
21
0.2881607
0
LINE
8
DEFAULT_255_1_388
10
9.9171944
20
-0.121154
11
9.5648042
21
-0.5033618
0
LINE
8
DEFAULT_255_1_388
10
9.5648042
20
-0.5033618
11
10.2253099
21
-0.5033618
0
ARC
8
DEFAULT_255_1_388
10
8.3011118
20
1.3283983
40
2.0258655
50
318.5132526
51
320.7829045
0
ARC
8
DEFAULT_255_1_388
10
8.8959075
20
0.8442929
40
1.2589638
50
320.7372878
51
323.9739031
0
ARC
8
DEFAULT_255_1_388
10
9.3368007
20
0.5248554
40
0.7145141
50
323.8962701
51
328.64194
0
ARC
8
DEFAULT_255_1_388
10
9.5670264
20
0.3828545
40
0.4440242
50
328.8294576
51
331.7891185
0
ARC
8
DEFAULT_255_1_388
10
9.6792584
20
0.3249374
40
0.3177517
50
331.4254512
51
352.9365785
0
ARC
8
DEFAULT_255_1_388
10
9.6945584
20
0.321505
40
0.3021496
50
353.2257659
51
0.0166158
0
ARC
8
DEFAULT_255_1_388
10
9.7182345
20
0.3240894
40
0.2784847
50
359.486299
51
15.9343185
0
ARC
8
DEFAULT_255_1_388
10
9.7752612
20
0.3394269
40
0.2194403
50
16.1712913
51
43.5286088
0
ARC
8
DEFAULT_255_1_388
10
9.7839556
20
0.3481191
40
0.2071504
50
43.4417391
51
83.1661095
0
ARC
8
DEFAULT_255_1_388
10
9.7688717
20
0.2652316
40
0.2912888
50
82.160179
51
90.1505708
0
ARC
8
DEFAULT_255_1_388
10
9.7653199
20
0.2048279
40
0.3517025
50
89.5460741
51
102.5418361
0
ARC
8
DEFAULT_255_1_388
10
9.7379919
20
0.3207933
40
0.2325748
50
102.1738499
51
129.206123
0
ARC
8
DEFAULT_255_1_388
10
9.7291372
20
0.3347664
40
0.2161591
50
129.72865
51
135.753947
0
ARC
8
DEFAULT_255_1_388
10
9.7427855
20
0.3238728
40
0.2335433
50
136.1757367
51
166.3673339
0
ARC
8
DEFAULT_255_1_388
10
9.8560543
20
0.2935148
40
0.3507873
50
165.9090694
51
178.8684636
0
ARC
8
DEFAULT_255_1_388
10
9.9536314
20
0.2882263
40
0.4484624
50
178.4391136
51
180.0083808
0
ARC
8
DEFAULT_255_1_388
10
9.7957016
20
0.2926197
40
0.4577138
50
163.2878482
51
180.5581842
0
ARC
8
DEFAULT_255_1_388
10
9.7055057
20
0.3174393
40
0.3641968
50
133.4540601
51
162.947111
0
ARC
8
DEFAULT_255_1_388
10
9.7255939
20
0.2960789
40
0.3935189
50
100.7869829
51
133.4382499
0
ARC
8
DEFAULT_255_1_388
10
9.7647184
20
0.1218399
40
0.5720313
50
89.660664
51
101.3702276
0
ARC
8
DEFAULT_255_1_388
10
9.7721793
20
0.1287263
40
0.5651495
50
78.2172678
51
90.412935
0
ARC
8
DEFAULT_255_1_388
10
9.8121259
20
0.3114511
40
0.378122
50
55.9269121
51
78.4888449
0
ARC
8
DEFAULT_255_1_388
10
9.8341974
20
0.3495187
40
0.3342379
50
47.929771
51
55.4049217
0
ARC
8
DEFAULT_255_1_388
10
9.8456504
20
0.3611618
40
0.3179217
50
4.334829
51
48.0560205
0
ARC
8
DEFAULT_255_1_388
10
9.7224306
20
0.3420487
40
0.442341
50
359.9251713
51
5.5971671
0
ARC
8
DEFAULT_255_1_388
10
9.770646
20
0.3483728
40
0.3941854
50
337.8914027
51
358.9967534
0
ARC
8
DEFAULT_255_1_388
10
9.4654031
20
0.4661295
40
0.7213271
50
326.9132501
51
338.3508308
0
ARC
8
DEFAULT_255_1_388
10
9.0170142
20
0.7535105
40
1.2538973
50
319.6471833
51
327.0959558
0
ARC
8
DEFAULT_255_1_388
10
8.5856801
20
1.109305
40
1.8129975
50
317.2588228
51
319.9045804
0
LINE
8
DEFAULT_255_1_388
10
10.9517757
20
0.6821148
11
10.9517757
21
-0.6398
0
LINE
8
DEFAULT_255_1_388
10
10.9517757
20
-0.6398
11
10.7837127
21
-0.6398
0
LINE
8
DEFAULT_255_1_388
10
10.7837127
20
-0.6398
11
10.7837127
21
0.474295
0
LINE
8
DEFAULT_255_1_388
10
10.7837127
20
0.474295
11
10.4466832
21
0.3505066
0
LINE
8
DEFAULT_255_1_388
10
10.4466832
20
0.3505066
11
10.4466832
21
0.5023055
0
LINE
8
DEFAULT_255_1_388
10
10.4466832
20
0.5023055
11
10.9255723
21
0.6821148
0
LINE
8
DEFAULT_255_1_388
10
10.9255723
20
0.6821148
11
10.9517757
21
0.6821148
0
LINE
8
DEFAULT_255_1_388
10
12.1471915
20
0.6757898
11
12.1471915
21
-0.197957
0
LINE
8
DEFAULT_255_1_388
10
12.1471915
20
-0.197957
11
12.3297115
21
-0.197957
0
LINE
8
DEFAULT_255_1_388
10
12.3297115
20
-0.197957
11
12.3297115
21
-0.3343952
0
LINE
8
DEFAULT_255_1_388
10
12.3297115
20
-0.3343952
11
12.1471915
21
-0.3343952
0
LINE
8
DEFAULT_255_1_388
10
12.1471915
20
-0.3343952
11
12.1471915
21
-0.6398
0
LINE
8
DEFAULT_255_1_388
10
12.1471915
20
-0.6398
11
11.9791285
21
-0.6398
0
LINE
8
DEFAULT_255_1_388
10
11.9791285
20
-0.6398
11
11.9791285
21
-0.3343952
0
LINE
8
DEFAULT_255_1_388
10
11.9791285
20
-0.3343952
11
11.3800652
21
-0.3343952
0
LINE
8
DEFAULT_255_1_388
10
11.3800652
20
-0.3343952
11
11.3800652
21
-0.2359067
0
LINE
8
DEFAULT_255_1_388
10
11.3800652
20
-0.2359067
11
11.9691893
21
0.6757898
0
LINE
8
DEFAULT_255_1_388
10
11.9691893
20
0.6757898
11
12.1471915
21
0.6757898
0
LINE
8
DEFAULT_255_1_388
10
11.95925
20
0.4110455
11
11.5698138
21
-0.197957
0
LINE
8
DEFAULT_255_1_388
10
11.5698138
20
-0.197957
11
11.9791285
21
-0.197957
0
LINE
8
DEFAULT_255_1_388
10
11.9791285
20
-0.197957
11
11.9791285
21
0.447188
0
LINE
8
DEFAULT_255_1_388
10
11.9791285
20
0.447188
11
11.95925
21
0.4110455
0
LINE
8
DEFAULT_255_1_388
10
12.8456468
20
-0.0127263
11
12.8456468
21
-0.1491645
0
LINE
8
DEFAULT_255_1_388
10
12.8456468
20
-0.1491645
11
12.4047073
21
-0.1491645
0
LINE
8
DEFAULT_255_1_388
10
12.4047073
20
-0.1491645
11
12.4047073
21
-0.0127263
0
LINE
8
DEFAULT_255_1_388
10
12.4047073
20
-0.0127263
11
12.8456468
21
-0.0127263
0
LINE
8
DEFAULT_255_1_388
10
13.5404878
20
0.6821148
11
13.5404878
21
-0.6398
0
LINE
8
DEFAULT_255_1_388
10
13.5404878
20
-0.6398
11
13.3724249
21
-0.6398
0
LINE
8
DEFAULT_255_1_388
10
13.3724249
20
-0.6398
11
13.3724249
21
0.474295
0
LINE
8
DEFAULT_255_1_388
10
13.3724249
20
0.474295
11
13.0353953
21
0.3505066
0
LINE
8
DEFAULT_255_1_388
10
13.0353953
20
0.3505066
11
13.0353953
21
0.5023055
0
LINE
8
DEFAULT_255_1_388
10
13.0353953
20
0.5023055
11
13.5142845
21
0.6821148
0
LINE
8
DEFAULT_255_1_388
10
13.5142845
20
0.6821148
11
13.5404878
21
0.6821148
0
LINE
8
DEFAULT_255_1_388
10
14.5298909
20
-0.6398
11
14.0735909
21
-0.6398
0
LINE
8
DEFAULT_255_1_388
10
14.0735909
20
-0.6398
11
14.0735909
21
0.6757898
0
LINE
8
DEFAULT_255_1_388
10
14.0735909
20
0.6757898
11
14.5036875
21
0.6757898
0
LINE
8
DEFAULT_255_1_388
10
14.5362159
20
-0.0244726
11
14.2470752
21
-0.0244726
0
LINE
8
DEFAULT_255_1_388
10
14.2470752
20
-0.0244726
11
14.2470752
21
-0.4979404
0
LINE
8
DEFAULT_255_1_388
10
14.2470752
20
-0.4979404
11
14.5335052
21
-0.4979404
0
LINE
8
DEFAULT_255_1_388
10
14.2470752
20
0.5330267
11
14.2470752
21
0.1146763
0
LINE
8
DEFAULT_255_1_388
10
14.2470752
20
0.1146763
11
14.5091089
21
0.1146763
0
LINE
8
DEFAULT_255_1_388
10
14.5036875
20
0.5330267
11
14.2470752
21
0.5330267
0
ARC
8
DEFAULT_255_1_388
10
14.5079296
20
-0.1530176
40
0.8288183
50
82.1256322
51
90.2932506
0
ARC
8
DEFAULT_255_1_388
10
14.5516871
20
0.152759
40
0.5199321
50
69.9044202
51
82.2857574
0
ARC
8
DEFAULT_255_1_388
10
14.6158863
20
0.3262993
40
0.3348993
50
51.1840204
51
70.018125
0
ARC
8
DEFAULT_255_1_388
10
14.6445696
20
0.3679945
40
0.2844579
50
12.1018086
51
50.421322
0
ARC
8
DEFAULT_255_1_388
10
14.4888567
20
0.3288937
40
0.4449429
50
359.5252354
51
12.8212369
0
ARC
8
DEFAULT_255_1_388
10
14.6665997
20
0.3210943
40
0.2672162
50
323.4907456
51
0.8818258
0
ARC
8
DEFAULT_255_1_388
10
14.6195409
20
0.3574523
40
0.3266736
50
298.6824053
51
323.2758285
0
ARC
8
DEFAULT_255_1_388
10
14.5788701
20
0.4250509
40
0.4055105
50
293.1994739
51
299.139634
0
ARC
8
DEFAULT_255_1_388
10
14.6545651
20
-0.2595349
40
0.3229926
50
54.0009997
51
74.9168635
0
ARC
8
DEFAULT_255_1_388
10
14.6676577
20
-0.2373489
40
0.2973581
50
36.3578854
51
53.5293172
0
ARC
8
DEFAULT_255_1_388
10
14.6533946
20
-0.247515
40
0.3148715
50
4.8189348
51
36.3090187
0
ARC
8
DEFAULT_255_1_388
10
14.565697
20
-0.2598617
40
0.4033265
50
359.9373213
51
5.5201284
0
ARC
8
DEFAULT_255_1_388
10
14.52923
20
-0.2644267
40
0.4398126
50
344.7479357
51
0.5372278
0
ARC
8
DEFAULT_255_1_388
10
14.6407198
20
-0.2944795
40
0.3243441
50
311.1785587
51
344.6887681
0
ARC
8
DEFAULT_255_1_388
10
14.6078742
20
-0.2535916
40
0.3767511
50
286.0417804
51
310.8440924
0
ARC
8
DEFAULT_255_1_388
10
14.5508151
20
-0.0683115
40
0.5705957
50
274.1044074
51
286.4070149
0
ARC
8
DEFAULT_255_1_388
10
14.5309366
20
0.1434901
40
0.7832907
50
269.9235077
51
274.4458593
0
ARC
8
DEFAULT_255_1_388
10
14.5361085
20
-0.1196538
40
0.3782955
50
269.6057074
51
281.3740795
0
ARC
8
DEFAULT_255_1_388
10
14.5620583
20
-0.2426431
40
0.2526069
50
281.105298
51
302.5134029
0
ARC
8
DEFAULT_255_1_388
10
14.5785971
20
-0.2723056
40
0.2187131
50
303.0365425
51
311.8818034
0
ARC
8
DEFAULT_255_1_388
10
14.5866148
20
-0.2818398
40
0.2062624
50
311.9916937
51
351.7143773
0
ARC
8
DEFAULT_255_1_388
10
14.4947173
20
-0.2632729
40
0.2999202
50
350.7343295
51
0.2221526
0
ARC
8
DEFAULT_255_1_388
10
14.4826261
20
-0.256913
40
0.3120525
50
359.045729
51
17.2295312
0
ARC
8
DEFAULT_255_1_388
10
14.5995291
20
-0.2221845
40
0.1901144
50
17.6685208
51
78.9940245
0
ARC
8
DEFAULT_255_1_388
10
14.5413652
20
-0.4309989
40
0.4065575
50
76.565218
51
90.7103392
0
LINE
8
DEFAULT_255_1_388
10
14.5363249
20
-0.0244726
11
14.5362159
21
-0.0244726
0
ARC
8
DEFAULT_255_1_388
10
14.5116478
20
0.4842949
40
0.3696273
50
269.6064514
51
281.4533785
0
ARC
8
DEFAULT_255_1_388
10
14.5367119
20
0.3660283
40
0.2487412
50
281.2044438
51
302.5143998
0
ARC
8
DEFAULT_255_1_388
10
14.5521372
20
0.3382576
40
0.2170405
50
303.0211308
51
309.8378766
0
ARC
8
DEFAULT_255_1_388
10
14.572749
20
0.3151486
40
0.1860946
50
309.5229446
51
356.9509628
0
ARC
8
DEFAULT_255_1_388
10
14.4981616
20
0.3258831
40
0.2612347
50
355.4699226
51
0.0498632
0
ARC
8
DEFAULT_255_1_388
10
14.4667289
20
0.3283789
40
0.2926762
50
359.5558955
51
11.2092924
0
ARC
8
DEFAULT_255_1_388
10
14.5744257
20
0.3506667
40
0.1827036
50
10.9185717
51
31.322519
0
ARC
8
DEFAULT_255_1_388
10
14.6065805
20
0.3685571
40
0.1459418
50
31.8850633
51
52.1415586
0
ARC
8
DEFAULT_255_1_388
10
14.5757234
20
0.3249674
40
0.1993088
50
52.8283418
51
71.9850132
0
ARC
8
DEFAULT_255_1_388
10
14.5334395
20
0.2005158
40
0.3307407
50
71.686634
51
82.8453416
0
ARC
8
DEFAULT_255_1_388
10
14.5065042
20
-0.0030108
40
0.536039
50
82.6981895
51
90.1730083
0
ARC
8
DEFAULT_255_1_388
10
14.5039873
20
0.0848836
40
0.4481429
50
89.8851568
51
90.0383283
0
LINE
8
DEFAULT_255_1_388
10
16.1969673
20
0.0152842
11
16.1969673
21
-0.4672192
0
LINE
8
DEFAULT_255_1_388
10
15.183168
20
-0.0452546
11
15.183168
21
0.0694981
0
LINE
8
DEFAULT_255_1_388
10
16.1969673
20
0.2899678
11
16.023483
21
0.2899678
0
LINE
8
DEFAULT_255_1_388
10
15.357556
20
0.0740159
11
15.357556
21
-0.0335083
0
LINE
8
DEFAULT_255_1_388
10
16.0243865
20
-0.4211374
11
16.0243865
21
-0.1256718
0
LINE
8
DEFAULT_255_1_388
10
16.0243865
20
-0.1256718
11
15.7198853
21
-0.1256718
0
LINE
8
DEFAULT_255_1_388
10
15.7198853
20
-0.1256718
11
15.7198853
21
0.0152842
0
LINE
8
DEFAULT_255_1_388
10
15.7198853
20
0.0152842
11
16.1969673
21
0.0152842
0
ARC
8
DEFAULT_255_1_388
10
15.8784274
20
-0.2429716
40
0.3895571
50
295.8437277
51
324.8549962
0
ARC
8
DEFAULT_255_1_388
10
15.8316656
20
-0.1583381
40
0.4861381
50
291.5691164
51
296.4556269
0
ARC
8
DEFAULT_255_1_388
10
15.7741659
20
-0.0047199
40
0.6501442
50
278.6622213
51
291.3047061
0
ARC
8
DEFAULT_255_1_388
10
15.7359691
20
0.2369557
40
0.8948168
50
270.0200506
51
278.7494673
0
ARC
8
DEFAULT_255_1_388
10
15.7315895
20
0.4215453
40
1.0794166
50
270.0022372
51
270.2490917
0
ARC
8
DEFAULT_255_1_388
10
15.7273787
20
-0.0743173
40
0.5835695
50
253.5785313
51
270.4175629
0
ARC
8
DEFAULT_255_1_388
10
15.7078783
20
-0.1498375
40
0.5056241
50
238.8203954
51
253.2788387
0
ARC
8
DEFAULT_255_1_388
10
15.7056699
20
-0.1555776
40
0.4995712
50
206.7883476
51
238.696262
0
ARC
8
DEFAULT_255_1_388
10
15.7932095
20
-0.1031153
40
0.6014056
50
206.1137778
51
207.4912776
0
ARC
8
DEFAULT_255_1_388
10
15.8598931
20
-0.0747716
40
0.6737692
50
188.6922336
51
205.782076
0
ARC
8
DEFAULT_255_1_388
10
16.068729
20
-0.0392545
40
0.8855812
50
180.3881972
51
188.9218085
0
ARC
8
DEFAULT_255_1_388
10
16.2068447
20
0.0758622
40
1.0236965
50
170.2024645
51
180.3561986
0
ARC
8
DEFAULT_255_1_388
10
15.8509598
20
0.1395101
40
0.6621746
50
154.2856519
51
170.3893388
0
ARC
8
DEFAULT_255_1_388
10
15.7067561
20
0.2055192
40
0.5036209
50
139.8400879
51
153.9334639
0
ARC
8
DEFAULT_255_1_388
10
15.6663465
20
0.2378716
40
0.4518751
50
98.4190017
51
139.6707015
0
ARC
8
DEFAULT_255_1_388
10
15.7090432
20
0.0302755
40
0.6635912
50
89.7660128
51
99.4415389
0
ARC
8
DEFAULT_255_1_388
10
15.7163829
20
0.0376517
40
0.6562258
50
78.0552044
51
90.4042252
0
ARC
8
DEFAULT_255_1_388
10
15.7618892
20
0.2422661
40
0.4466287
50
54.6380186
51
78.3338577
0
ARC
8
DEFAULT_255_1_388
10
15.7833191
20
0.2783444
40
0.4048184
50
50.0313964
51
54.1562739
0
ARC
8
DEFAULT_255_1_388
10
15.7712084
20
0.2674798
40
0.4209308
50
18.1092229
51
49.7179911
0
ARC
8
DEFAULT_255_1_388
10
15.6073165
20
0.2074399
40
0.5953982
50
7.967396
51
18.698492
0
ARC
8
DEFAULT_255_1_388
10
15.6242426
20
0.2213236
40
0.4050986
50
9.7558763
51
27.3214087
0
ARC
8
DEFAULT_255_1_388
10
15.751089
20
0.2847087
40
0.2633168
50
27.736147
51
84.5257861
0
ARC
8
DEFAULT_255_1_388
10
15.71423
20
0.0997988
40
0.4513019
50
82.1064239
51
90.1997295
0
ARC
8
DEFAULT_255_1_388
10
15.7086316
20
0.1569501
40
0.3941684
50
89.4148952
51
105.5824837
0
ARC
8
DEFAULT_255_1_388
10
15.6797197
20
0.2622043
40
0.2850167
50
105.6678541
51
144.2649156
0
ARC
8
DEFAULT_255_1_388
10
15.7802089
20
0.1907024
40
0.4083468
50
144.3560675
51
162.8564185
0
ARC
8
DEFAULT_255_1_388
10
16.0146532
20
0.1154083
40
0.6545749
50
162.6076338
51
173.6779811
0
ARC
8
DEFAULT_255_1_388
10
16.3590647
20
0.0735422
40
1.0015089
50
173.4670996
51
179.9729015
0
ARC
8
DEFAULT_255_1_388
10
16.1443518
20
-0.0382364
40
0.78681
50
179.6556955
51
190.007958
0
ARC
8
DEFAULT_255_1_388
10
15.8837799
20
-0.086034
40
0.5218997
50
189.8117884
51
206.6795375
0
ARC
8
DEFAULT_255_1_388
10
15.7887245
20
-0.1303486
40
0.4170788
50
207.1031171
51
217.7074698
0
ARC
8
DEFAULT_255_1_388
10
15.7173676
20
-0.1924404
40
0.3226945
50
216.7345117
51
265.6812141
0
ARC
8
DEFAULT_255_1_388
10
15.7320818
20
-0.090697
40
0.4253149
50
264.7367524
51
270.0610826
0
ARC
8
DEFAULT_255_1_388
10
15.7347003
20
0.2288173
40
0.7448321
50
269.8334494
51
276.0538364
0
ARC
8
DEFAULT_255_1_388
10
15.7579866
20
0.0148924
40
0.5296446
50
275.9894423
51
284.4615914
0
ARC
8
DEFAULT_255_1_388
10
15.7801379
20
-0.078343
40
0.4338353
50
284.7038488
51
286.4938196
0
ARC
8
DEFAULT_255_1_388
10
15.8260528
20
-0.2262629
40
0.2789738
50
286.0770429
51
304.2629628
0
ARC
8
DEFAULT_255_1_388
10
15.8410686
20
-0.250832
40
0.2502188
50
304.5886247
51
317.1074126
0
LINE
8
DEFAULT_255_1_388
10
17.1484207
20
0.6757898
11
17.1484207
21
-0.197957
0
LINE
8
DEFAULT_255_1_388
10
17.1484207
20
-0.197957
11
17.3309407
21
-0.197957
0
LINE
8
DEFAULT_255_1_388
10
17.3309407
20
-0.197957
11
17.3309407
21
-0.3343952
0
LINE
8
DEFAULT_255_1_388
10
17.3309407
20
-0.3343952
11
17.1484207
21
-0.3343952
0
LINE
8
DEFAULT_255_1_388
10
17.1484207
20
-0.3343952
11
17.1484207
21
-0.6398
0
LINE
8
DEFAULT_255_1_388
10
17.1484207
20
-0.6398
11
16.9803577
21
-0.6398
0
LINE
8
DEFAULT_255_1_388
10
16.9803577
20
-0.6398
11
16.9803577
21
-0.3343952
0
LINE
8
DEFAULT_255_1_388
10
16.9803577
20
-0.3343952
11
16.3812945
21
-0.3343952
0
LINE
8
DEFAULT_255_1_388
10
16.3812945
20
-0.3343952
11
16.3812945
21
-0.2359067
0
LINE
8
DEFAULT_255_1_388
10
16.3812945
20
-0.2359067
11
16.9704185
21
0.6757898
0
LINE
8
DEFAULT_255_1_388
10
16.9704185
20
0.6757898
11
17.1484207
21
0.6757898
0
LINE
8
DEFAULT_255_1_388
10
16.9604793
20
0.4110455
11
16.571043
21
-0.197957
0
LINE
8
DEFAULT_255_1_388
10
16.571043
20
-0.197957
11
16.9803577
21
-0.197957
0
LINE
8
DEFAULT_255_1_388
10
16.9803577
20
-0.197957
11
16.9803577
21
0.447188
0
LINE
8
DEFAULT_255_1_388
10
16.9803577
20
0.447188
11
16.9604793
21
0.4110455
0
LINE
8
DEFAULT_255_1_388
10
18.3067903
20
0.138169
11
18.3067903
21
-0.0786865
0
LINE
8
DEFAULT_255_1_388
10
17.4764146
20
-0.1012756
11
17.4764146
21
0.1219048
0
LINE
8
DEFAULT_255_1_388
10
18.1396309
20
-0.1238647
11
18.1396309
21
0.1499153
0
LINE
8
DEFAULT_255_1_388
10
17.643574
20
0.1625652
11
17.643574
21
-0.1048898
0
ARC
8
DEFAULT_255_1_388
10
16.9290237
20
-0.0841882
40
1.3777776
50
353.8440855
51
0.2287917
0
ARC
8
DEFAULT_255_1_388
10
17.4509255
20
-0.1424586
40
0.852639
50
344.4934746
51
353.9763743
0
ARC
8
DEFAULT_255_1_388
10
17.7876062
20
-0.2381809
40
0.5026273
50
329.2803599
51
344.7473406
0
ARC
8
DEFAULT_255_1_388
10
17.8991558
20
-0.2993962
40
0.3754848
50
324.9361395
51
328.6153007
0
ARC
8
DEFAULT_255_1_388
10
17.9417207
20
-0.3291414
40
0.3235566
50
280.5801797
51
324.9173226
0
ARC
8
DEFAULT_255_1_388
10
17.8965836
20
-0.1411764
40
0.5167077
50
269.5979457
51
281.6732777
0
ARC
8
DEFAULT_255_1_388
10
17.888474
20
-0.1546887
40
0.5032026
50
256.6228565
51
270.5105488
0
ARC
8
DEFAULT_255_1_388
10
17.8432482
20
-0.3288655
40
0.3233092
50
215.8618351
51
257.2787793
0
ARC
8
DEFAULT_255_1_388
10
17.9581189
20
-0.2517894
40
0.4615831
50
197.9695203
51
215.2622745
0
ARC
8
DEFAULT_255_1_388
10
18.2376865
20
-0.1574359
40
0.7566307
50
187.8816486
51
198.2346584
0
ARC
8
DEFAULT_255_1_388
10
18.6830103
20
-0.0931547
40
1.2065653
50
180.8977266
51
188.0054894
0
ARC
8
DEFAULT_255_1_388
10
18.9880317
20
-0.08166
40
1.5117443
50
180.7434591
51
181.152202
0
ARC
8
DEFAULT_255_1_388
10
18.8205313
20
0.1273371
40
1.3441277
50
173.7674302
51
180.2315596
0
ARC
8
DEFAULT_255_1_388
10
18.3123182
20
0.1847779
40
0.8326847
50
164.3058537
51
173.9000553
0
ARC
8
DEFAULT_255_1_388
10
17.9847182
20
0.2791652
40
0.4917711
50
148.7922028
51
164.5682288
0
ARC
8
DEFAULT_255_1_388
10
17.8777919
20
0.3388457
40
0.3694204
50
144.5883979
51
148.1161588
0
ARC
8
DEFAULT_255_1_388
10
17.8390664
20
0.3658667
40
0.322202
50
101.6440149
51
144.5142619
0
ARC
8
DEFAULT_255_1_388
10
17.8868857
20
0.1758337
40
0.5180451
50
89.528284
51
102.5820197
0
ARC
8
DEFAULT_255_1_388
10
17.8957849
20
0.1714376
40
0.5224441
50
77.0437914
51
90.508231
0
ARC
8
DEFAULT_255_1_388
10
17.9410102
20
0.3562272
40
0.3322297
50
48.2777708
51
77.4996087
0
ARC
8
DEFAULT_255_1_388
10
17.9491842
20
0.3707557
40
0.315966
50
36.3141586
51
47.6307332
0
ARC
8
DEFAULT_255_1_388
10
17.8514564
20
0.3049159
40
0.4337313
50
18.2931065
51
35.6770203
0
ARC
8
DEFAULT_255_1_388
10
17.5653405
20
0.2067107
40
0.7362203
50
8.0246996
51
18.5605636
0
ARC
8
DEFAULT_255_1_388
10
17.0969761
20
0.1375432
40
1.2096583
50
1.127539
51
8.1718423
0
ARC
8
DEFAULT_255_1_388
10
16.7320894
20
0.1232374
40
1.5747719
50
0.5432713
51
1.38669
0
ARC
8
DEFAULT_255_1_388
10
16.9378273
20
0.1539163
40
1.2018103
50
359.8092569
51
4.9408001
0
ARC
8
DEFAULT_255_1_388
10
17.4114854
20
0.19619
40
0.7262727
50
4.8364937
51
12.2906017
0
ARC
8
DEFAULT_255_1_388
10
17.7214319
20
0.2652485
40
0.4087324
50
12.0806994
51
23.8171225
0
ARC
8
DEFAULT_255_1_388
10
17.8534715
20
0.3211508
40
0.2653719
50
24.2874621
51
31.3934353
0
ARC
8
DEFAULT_255_1_388
10
17.9125151
20
0.3597822
40
0.1948607
50
30.7407708
51
82.4658033
0
ARC
8
DEFAULT_255_1_388
10
17.8922812
20
0.2604017
40
0.2961198
50
81.1057101
51
90.2187368
0
ARC
8
DEFAULT_255_1_388
10
17.8882624
20
0.2894421
40
0.2670929
50
89.380395
51
105.6763916
0
ARC
8
DEFAULT_255_1_388
10
17.8676346
20
0.364432
40
0.1893189
50
105.7980655
51
149.7387869
0
ARC
8
DEFAULT_255_1_388
10
17.9873486
20
0.2924719
40
0.3289892
50
149.4208441
51
163.628295
0
ARC
8
DEFAULT_255_1_388
10
18.2225715
20
0.2207345
40
0.5749004
50
163.3764549
51
172.141138
0
ARC
8
DEFAULT_255_1_388
10
18.5938437
20
0.1675582
40
0.9499585
50
172.0258462
51
178.0705453
0
ARC
8
DEFAULT_255_1_388
10
18.9359989
20
0.1513682
40
1.2924734
50
177.8639301
51
179.5036263
0
ARC
8
DEFAULT_255_1_388
10
18.8141008
20
-0.1089849
40
1.170534
50
179.7995545
51
185.246089
0
ARC
8
DEFAULT_255_1_388
10
18.3592601
20
-0.1520596
40
0.7136613
50
185.1411911
51
193.0082205
0
ARC
8
DEFAULT_255_1_388
10
18.0618862
20
-0.2223559
40
0.4080987
50
192.7897338
51
205.2507384
0
ARC
8
DEFAULT_255_1_388
10
17.9441072
20
-0.2749462
40
0.2791522
50
205.8001921
51
211.2545876
0
ARC
8
DEFAULT_255_1_388
10
17.8852611
20
-0.3143868
40
0.2084074
50
210.3789935
51
238.4007996
0
ARC
8
DEFAULT_255_1_388
10
17.8830697
20
-0.3091214
40
0.2117943
50
239.6521916
51
265.9793852
0
ARC
8
DEFAULT_255_1_388
10
17.8926546
20
-0.2334642
40
0.2879689
50
265.1324455
51
270.0603288
0
ARC
8
DEFAULT_255_1_388
10
17.8958923
20
-0.2699582
40
0.2514919
50
269.3314378
51
287.2180039
0
ARC
8
DEFAULT_255_1_388
10
17.9114005
20
-0.3265709
40
0.1928357
50
287.7957942
51
329.0808983
0
ARC
8
DEFAULT_255_1_388
10
17.8036762
20
-0.2593349
40
0.319808
50
328.6635261
51
343.3325043
0
ARC
8
DEFAULT_255_1_388
10
17.5592221
20
-0.1831805
40
0.5758408
50
343.0498092
51
351.9392499
0
ARC
8
DEFAULT_255_1_388
10
17.1691543
20
-0.1256795
40
0.9701202
50
351.8071632
51
357.7957897
0
ARC
8
DEFAULT_255_1_388
10
16.805702
20
-0.1068276
40
1.3340376
50
357.5870923
51
359.2682493
0
LINE
8
DEFAULT_255_1_388
10
18.8859751
20
-0.0127263
11
18.8859751
21
-0.1491645
0
LINE
8
DEFAULT_255_1_388
10
18.8859751
20
-0.1491645
11
18.4450357
21
-0.1491645
0
LINE
8
DEFAULT_255_1_388
10
18.4450357
20
-0.1491645
11
18.4450357
21
-0.0127263
0
LINE
8
DEFAULT_255_1_388
10
18.4450357
20
-0.0127263
11
18.8859751
21
-0.0127263
0
LINE
8
DEFAULT_255_1_388
10
19.8564034
20
0.138169
11
19.8564034
21
-0.0786865
0
LINE
8
DEFAULT_255_1_388
10
19.0260276
20
-0.1012756
11
19.0260276
21
0.1219048
0
LINE
8
DEFAULT_255_1_388
10
19.6892439
20
-0.1238647
11
19.6892439
21
0.1499153
0
LINE
8
DEFAULT_255_1_388
10
19.1931871
20
0.1625652
11
19.1931871
21
-0.1048898
0
ARC
8
DEFAULT_255_1_388
10
18.4786368
20
-0.0841882
40
1.3777776
50
353.8440855
51
0.2287917
0
ARC
8
DEFAULT_255_1_388
10
19.0005385
20
-0.1424586
40
0.852639
50
344.4934746
51
353.9763743
0
ARC
8
DEFAULT_255_1_388
10
19.3372192
20
-0.2381809
40
0.5026273
50
329.2803599
51
344.7473406
0
ARC
8
DEFAULT_255_1_388
10
19.4487688
20
-0.2993962
40
0.3754848
50
324.9361395
51
328.6153007
0
ARC
8
DEFAULT_255_1_388
10
19.4913338
20
-0.3291414
40
0.3235566
50
280.5801797
51
324.9173226
0
ARC
8
DEFAULT_255_1_388
10
19.4461966
20
-0.1411764
40
0.5167077
50
269.5979457
51
281.6732777
0
ARC
8
DEFAULT_255_1_388
10
19.438087
20
-0.1546887
40
0.5032026
50
256.6228565
51
270.5105488
0
ARC
8
DEFAULT_255_1_388
10
19.3928613
20
-0.3288655
40
0.3233092
50
215.8618351
51
257.2787793
0
ARC
8
DEFAULT_255_1_388
10
19.507732
20
-0.2517894
40
0.4615831
50
197.9695203
51
215.2622745
0
ARC
8
DEFAULT_255_1_388
10
19.7872995
20
-0.1574359
40
0.7566307
50
187.8816486
51
198.2346584
0
ARC
8
DEFAULT_255_1_388
10
20.2326234
20
-0.0931547
40
1.2065653
50
180.8977266
51
188.0054894
0
ARC
8
DEFAULT_255_1_388
10
20.5376447
20
-0.08166
40
1.5117443
50
180.7434591
51
181.152202
0
ARC
8
DEFAULT_255_1_388
10
20.3701443
20
0.1273371
40
1.3441277
50
173.7674302
51
180.2315596
0
ARC
8
DEFAULT_255_1_388
10
19.8619312
20
0.1847779
40
0.8326847
50
164.3058537
51
173.9000553
0
ARC
8
DEFAULT_255_1_388
10
19.5343312
20
0.2791652
40
0.4917711
50
148.7922028
51
164.5682288
0
ARC
8
DEFAULT_255_1_388
10
19.427405
20
0.3388457
40
0.3694204
50
144.5883979
51
148.1161588
0
ARC
8
DEFAULT_255_1_388
10
19.3886795
20
0.3658667
40
0.322202
50
101.6440149
51
144.5142619
0
ARC
8
DEFAULT_255_1_388
10
19.4364987
20
0.1758337
40
0.5180451
50
89.528284
51
102.5820197
0
ARC
8
DEFAULT_255_1_388
10
19.4453979
20
0.1714376
40
0.5224441
50
77.0437914
51
90.508231
0
ARC
8
DEFAULT_255_1_388
10
19.4906233
20
0.3562272
40
0.3322297
50
48.2777708
51
77.4996087
0
ARC
8
DEFAULT_255_1_388
10
19.4987973
20
0.3707557
40
0.315966
50
36.3141586
51
47.6307332
0
ARC
8
DEFAULT_255_1_388
10
19.4010695
20
0.3049159
40
0.4337313
50
18.2931065
51
35.6770203
0
ARC
8
DEFAULT_255_1_388
10
19.1149536
20
0.2067107
40
0.7362203
50
8.0246996
51
18.5605636
0
ARC
8
DEFAULT_255_1_388
10
18.6465891
20
0.1375432
40
1.2096583
50
1.127539
51
8.1718423
0
ARC
8
DEFAULT_255_1_388
10
18.2817025
20
0.1232374
40
1.5747719
50
0.5432713
51
1.38669
0
ARC
8
DEFAULT_255_1_388
10
18.4874403
20
0.1539163
40
1.2018103
50
359.8092569
51
4.9408001
0
ARC
8
DEFAULT_255_1_388
10
18.9610985
20
0.19619
40
0.7262727
50
4.8364937
51
12.2906017
0
ARC
8
DEFAULT_255_1_388
10
19.2710449
20
0.2652485
40
0.4087324
50
12.0806994
51
23.8171225
0
ARC
8
DEFAULT_255_1_388
10
19.4030845
20
0.3211508
40
0.2653719
50
24.2874621
51
31.3934353
0
ARC
8
DEFAULT_255_1_388
10
19.4621281
20
0.3597822
40
0.1948607
50
30.7407708
51
82.4658033
0
ARC
8
DEFAULT_255_1_388
10
19.4418942
20
0.2604017
40
0.2961198
50
81.1057101
51
90.2187368
0
ARC
8
DEFAULT_255_1_388
10
19.4378754
20
0.2894421
40
0.2670929
50
89.380395
51
105.6763916
0
ARC
8
DEFAULT_255_1_388
10
19.4172476
20
0.364432
40
0.1893189
50
105.7980655
51
149.7387869
0
ARC
8
DEFAULT_255_1_388
10
19.5369616
20
0.2924719
40
0.3289892
50
149.4208441
51
163.628295
0
ARC
8
DEFAULT_255_1_388
10
19.7721846
20
0.2207345
40
0.5749004
50
163.3764549
51
172.141138
0
ARC
8
DEFAULT_255_1_388
10
20.1434567
20
0.1675582
40
0.9499585
50
172.0258462
51
178.0705453
0
ARC
8
DEFAULT_255_1_388
10
20.485612
20
0.1513682
40
1.2924734
50
177.8639301
51
179.5036263
0
ARC
8
DEFAULT_255_1_388
10
20.3637139
20
-0.1089849
40
1.170534
50
179.7995545
51
185.246089
0
ARC
8
DEFAULT_255_1_388
10
19.9088732
20
-0.1520596
40
0.7136613
50
185.1411911
51
193.0082205
0
ARC
8
DEFAULT_255_1_388
10
19.6114992
20
-0.2223559
40
0.4080987
50
192.7897338
51
205.2507384
0
ARC
8
DEFAULT_255_1_388
10
19.4937202
20
-0.2749462
40
0.2791522
50
205.8001921
51
211.2545876
0
ARC
8
DEFAULT_255_1_388
10
19.4348741
20
-0.3143868
40
0.2084074
50
210.3789935
51
238.4007996
0
ARC
8
DEFAULT_255_1_388
10
19.4326827
20
-0.3091214
40
0.2117943
50
239.6521916
51
265.9793852
0
ARC
8
DEFAULT_255_1_388
10
19.4422676
20
-0.2334642
40
0.2879689
50
265.1324455
51
270.0603288
0
ARC
8
DEFAULT_255_1_388
10
19.4455053
20
-0.2699582
40
0.2514919
50
269.3314378
51
287.2180039
0
ARC
8
DEFAULT_255_1_388
10
19.4610136
20
-0.3265709
40
0.1928357
50
287.7957942
51
329.0808983
0
ARC
8
DEFAULT_255_1_388
10
19.3532893
20
-0.2593349
40
0.319808
50
328.6635261
51
343.3325043
0
ARC
8
DEFAULT_255_1_388
10
19.1088351
20
-0.1831805
40
0.5758408
50
343.0498092
51
351.9392499
0
ARC
8
DEFAULT_255_1_388
10
18.7187673
20
-0.1256795
40
0.9701202
50
351.8071632
51
357.7957897
0
ARC
8
DEFAULT_255_1_388
10
18.355315
20
-0.1068276
40
1.3340376
50
357.5870923
51
359.2682493
0
LINE
8
DEFAULT_255_1_388
10
20.2259612
20
0.6757898
11
20.5431124
21
0.1716009
0
LINE
8
DEFAULT_255_1_388
10
20.5431124
20
0.1716009
11
20.8584563
21
0.6757898
0
LINE
8
DEFAULT_255_1_388
10
20.8584563
20
0.6757898
11
21.0626619
21
0.6757898
0
LINE
8
DEFAULT_255_1_388
10
21.0626619
20
0.6757898
11
20.6470223
21
0.0234163
0
LINE
8
DEFAULT_255_1_388
10
20.6470223
20
0.0234163
11
21.0726011
21
-0.6398
0
LINE
8
DEFAULT_255_1_388
10
21.0726011
20
-0.6398
11
20.8665884
21
-0.6398
0
LINE
8
DEFAULT_255_1_388
10
20.8665884
20
-0.6398
11
20.5431124
21
-0.1265754
0
LINE
8
DEFAULT_255_1_388
10
20.5431124
20
-0.1265754
11
20.2178292
21
-0.6398
0
LINE
8
DEFAULT_255_1_388
10
20.2178292
20
-0.6398
11
20.01272
21
-0.6398
0
LINE
8
DEFAULT_255_1_388
10
20.01272
20
-0.6398
11
20.4392024
21
0.0234163
0
LINE
8
DEFAULT_255_1_388
10
20.4392024
20
0.0234163
11
20.0226592
21
0.6757898
0
LINE
8
DEFAULT_255_1_388
10
20.0226592
20
0.6757898
11
20.2259612
21
0.6757898
0
LINE
8
DEFAULT_255_1_388
10
21.730396
20
-0.6398
11
21.274096
21
-0.6398
0
LINE
8
DEFAULT_255_1_388
10
21.274096
20
-0.6398
11
21.274096
21
0.6757898
0
LINE
8
DEFAULT_255_1_388
10
21.274096
20
0.6757898
11
21.7041927
21
0.6757898
0
LINE
8
DEFAULT_255_1_388
10
21.736721
20
-0.0244726
11
21.4475804
21
-0.0244726
0
LINE
8
DEFAULT_255_1_388
10
21.4475804
20
-0.0244726
11
21.4475804
21
-0.4979404
0
LINE
8
DEFAULT_255_1_388
10
21.4475804
20
-0.4979404
11
21.7340103
21
-0.4979404
0
LINE
8
DEFAULT_255_1_388
10
21.4475804
20
0.5330267
11
21.4475804
21
0.1146763
0
LINE
8
DEFAULT_255_1_388
10
21.4475804
20
0.1146763
11
21.7096141
21
0.1146763
0
LINE
8
DEFAULT_255_1_388
10
21.7041927
20
0.5330267
11
21.4475804
21
0.5330267
0
ARC
8
DEFAULT_255_1_388
10
21.7084347
20
-0.1530176
40
0.8288183
50
82.1256322
51
90.2932506
0
ARC
8
DEFAULT_255_1_388
10
21.7521922
20
0.152759
40
0.5199321
50
69.9044202
51
82.2857574
0
ARC
8
DEFAULT_255_1_388
10
21.8163915
20
0.3262993
40
0.3348993
50
51.1840204
51
70.018125
0
ARC
8
DEFAULT_255_1_388
10
21.8450747
20
0.3679945
40
0.2844579
50
12.1018086
51
50.421322
0
ARC
8
DEFAULT_255_1_388
10
21.6893618
20
0.3288937
40
0.4449429
50
359.5252354
51
12.8212369
0
ARC
8
DEFAULT_255_1_388
10
21.8671048
20
0.3210943
40
0.2672162
50
323.4907456
51
0.8818258
0
ARC
8
DEFAULT_255_1_388
10
21.8200461
20
0.3574523
40
0.3266736
50
298.6824053
51
323.2758285
0
ARC
8
DEFAULT_255_1_388
10
21.7793753
20
0.4250509
40
0.4055105
50
293.1994739
51
299.139634
0
ARC
8
DEFAULT_255_1_388
10
21.8550702
20
-0.2595349
40
0.3229926
50
54.0009997
51
74.9168635
0
ARC
8
DEFAULT_255_1_388
10
21.8681629
20
-0.2373489
40
0.2973581
50
36.3578854
51
53.5293172
0
ARC
8
DEFAULT_255_1_388
10
21.8538997
20
-0.247515
40
0.3148715
50
4.8189348
51
36.3090187
0
ARC
8
DEFAULT_255_1_388
10
21.7662021
20
-0.2598617
40
0.4033265
50
359.9373213
51
5.5201284
0
ARC
8
DEFAULT_255_1_388
10
21.7297351
20
-0.2644267
40
0.4398126
50
344.7479357
51
0.5372278
0
ARC
8
DEFAULT_255_1_388
10
21.841225
20
-0.2944795
40
0.3243441
50
311.1785587
51
344.6887681
0
ARC
8
DEFAULT_255_1_388
10
21.8083793
20
-0.2535916
40
0.3767511
50
286.0417804
51
310.8440924
0
ARC
8
DEFAULT_255_1_388
10
21.7513202
20
-0.0683115
40
0.5705957
50
274.1044074
51
286.4070149
0
ARC
8
DEFAULT_255_1_388
10
21.7314418
20
0.1434901
40
0.7832907
50
269.9235077
51
274.4458593
0
ARC
8
DEFAULT_255_1_388
10
21.7366136
20
-0.1196538
40
0.3782955
50
269.6057074
51
281.3740795
0
ARC
8
DEFAULT_255_1_388
10
21.7625634
20
-0.2426431
40
0.2526069
50
281.105298
51
302.5134029
0
ARC
8
DEFAULT_255_1_388
10
21.7791022
20
-0.2723056
40
0.2187131
50
303.0365425
51
311.8818034
0
ARC
8
DEFAULT_255_1_388
10
21.7871199
20
-0.2818398
40
0.2062624
50
311.9916937
51
351.7143773
0
ARC
8
DEFAULT_255_1_388
10
21.6952224
20
-0.2632729
40
0.2999202
50
350.7343295
51
0.2221526
0
ARC
8
DEFAULT_255_1_388
10
21.6831312
20
-0.256913
40
0.3120525
50
359.045729
51
17.2295312
0
ARC
8
DEFAULT_255_1_388
10
21.8000342
20
-0.2221845
40
0.1901144
50
17.6685208
51
78.9940245
0
ARC
8
DEFAULT_255_1_388
10
21.7418703
20
-0.4309989
40
0.4065575
50
76.565218
51
90.7103392
0
LINE
8
DEFAULT_255_1_388
10
21.73683
20
-0.0244726
11
21.736721
21
-0.0244726
0
ARC
8
DEFAULT_255_1_388
10
21.7121529
20
0.4842949
40
0.3696273
50
269.6064514
51
281.4533785
0
ARC
8
DEFAULT_255_1_388
10
21.737217
20
0.3660283
40
0.2487412
50
281.2044438
51
302.5143998
0
ARC
8
DEFAULT_255_1_388
10
21.7526424
20
0.3382576
40
0.2170405
50
303.0211308
51
309.8378766
0
ARC
8
DEFAULT_255_1_388
10
21.7732541
20
0.3151486
40
0.1860946
50
309.5229446
51
356.9509628
0
ARC
8
DEFAULT_255_1_388
10
21.6986667
20
0.3258831
40
0.2612347
50
355.4699226
51
0.0498632
0
ARC
8
DEFAULT_255_1_388
10
21.6672341
20
0.3283789
40
0.2926762
50
359.5558955
51
11.2092924
0
ARC
8
DEFAULT_255_1_388
10
21.7749308
20
0.3506667
40
0.1827036
50
10.9185717
51
31.322519
0
ARC
8
DEFAULT_255_1_388
10
21.8070856
20
0.3685571
40
0.1459418
50
31.8850633
51
52.1415586
0
ARC
8
DEFAULT_255_1_388
10
21.7762285
20
0.3249674
40
0.1993088
50
52.8283418
51
71.9850132
0
ARC
8
DEFAULT_255_1_388
10
21.7339446
20
0.2005158
40
0.3307407
50
71.686634
51
82.8453416
0
ARC
8
DEFAULT_255_1_388
10
21.7070093
20
-0.0030108
40
0.536039
50
82.6981895
51
90.1730083
0
ARC
8
DEFAULT_255_1_388
10
21.7044925
20
0.0848836
40
0.4481429
50
89.8851568
51
90.0383283
0
LINE
8
DEFAULT_255_1_388
10
23.2077239
20
0.138169
11
23.2077239
21
-0.0786865
0
LINE
8
DEFAULT_255_1_388
10
22.3773482
20
-0.1012756
11
22.3773482
21
0.1219048
0
LINE
8
DEFAULT_255_1_388
10
23.0405645
20
-0.1238647
11
23.0405645
21
0.1499153
0
LINE
8
DEFAULT_255_1_388
10
22.5445076
20
0.1625652
11
22.5445076
21
-0.1048898
0
ARC
8
DEFAULT_255_1_388
10
21.8299573
20
-0.0841882
40
1.3777776
50
353.8440855
51
0.2287917
0
ARC
8
DEFAULT_255_1_388
10
22.3518591
20
-0.1424586
40
0.852639
50
344.4934746
51
353.9763743
0
ARC
8
DEFAULT_255_1_388
10
22.6885398
20
-0.2381809
40
0.5026273
50
329.2803599
51
344.7473406
0
ARC
8
DEFAULT_255_1_388
10
22.8000894
20
-0.2993962
40
0.3754848
50
324.9361395
51
328.6153007
0
ARC
8
DEFAULT_255_1_388
10
22.8426543
20
-0.3291414
40
0.3235566
50
280.5801797
51
324.9173226
0
ARC
8
DEFAULT_255_1_388
10
22.7975172
20
-0.1411764
40
0.5167077
50
269.5979457
51
281.6732777
0
ARC
8
DEFAULT_255_1_388
10
22.7894075
20
-0.1546887
40
0.5032026
50
256.6228565
51
270.5105488
0
ARC
8
DEFAULT_255_1_388
10
22.7441818
20
-0.3288655
40
0.3233092
50
215.8618351
51
257.2787793
0
ARC
8
DEFAULT_255_1_388
10
22.8590525
20
-0.2517894
40
0.4615831
50
197.9695203
51
215.2622745
0
ARC
8
DEFAULT_255_1_388
10
23.1386201
20
-0.1574359
40
0.7566307
50
187.8816486
51
198.2346584
0
ARC
8
DEFAULT_255_1_388
10
23.5839439
20
-0.0931547
40
1.2065653
50
180.8977266
51
188.0054894
0
ARC
8
DEFAULT_255_1_388
10
23.8889653
20
-0.08166
40
1.5117443
50
180.7434591
51
181.152202
0
ARC
8
DEFAULT_255_1_388
10
23.7214649
20
0.1273371
40
1.3441277
50
173.7674302
51
180.2315596
0
ARC
8
DEFAULT_255_1_388
10
23.2132518
20
0.1847779
40
0.8326847
50
164.3058537
51
173.9000553
0
ARC
8
DEFAULT_255_1_388
10
22.8856518
20
0.2791652
40
0.4917711
50
148.7922028
51
164.5682288
0
ARC
8
DEFAULT_255_1_388
10
22.7787255
20
0.3388457
40
0.3694204
50
144.5883979
51
148.1161588
0
ARC
8
DEFAULT_255_1_388
10
22.74
20
0.3658667
40
0.322202
50
101.6440149
51
144.5142619
0
ARC
8
DEFAULT_255_1_388
10
22.7878193
20
0.1758337
40
0.5180451
50
89.528284
51
102.5820197
0
ARC
8
DEFAULT_255_1_388
10
22.7967185
20
0.1714376
40
0.5224441
50
77.0437914
51
90.508231
0
ARC
8
DEFAULT_255_1_388
10
22.8419438
20
0.3562272
40
0.3322297
50
48.2777708
51
77.4996087
0
ARC
8
DEFAULT_255_1_388
10
22.8501178
20
0.3707557
40
0.315966
50
36.3141586
51
47.6307332
0
ARC
8
DEFAULT_255_1_388
10
22.75239
20
0.3049159
40
0.4337313
50
18.2931065
51
35.6770203
0
ARC
8
DEFAULT_255_1_388
10
22.4662741
20
0.2067107
40
0.7362203
50
8.0246996
51
18.5605636
0
ARC
8
DEFAULT_255_1_388
10
21.9979097
20
0.1375432
40
1.2096583
50
1.127539
51
8.1718423
0
ARC
8
DEFAULT_255_1_388
10
21.633023
20
0.1232374
40
1.5747719
50
0.5432713
51
1.38669
0
ARC
8
DEFAULT_255_1_388
10
21.8387609
20
0.1539163
40
1.2018103
50
359.8092569
51
4.9408001
0
ARC
8
DEFAULT_255_1_388
10
22.312419
20
0.19619
40
0.7262727
50
4.8364937
51
12.2906017
0
ARC
8
DEFAULT_255_1_388
10
22.6223655
20
0.2652485
40
0.4087324
50
12.0806994
51
23.8171225
0
ARC
8
DEFAULT_255_1_388
10
22.7544051
20
0.3211508
40
0.2653719
50
24.2874621
51
31.3934353
0
ARC
8
DEFAULT_255_1_388
10
22.8134487
20
0.3597822
40
0.1948607
50
30.7407708
51
82.4658033
0
ARC
8
DEFAULT_255_1_388
10
22.7932148
20
0.2604017
40
0.2961198
50
81.1057101
51
90.2187368
0
ARC
8
DEFAULT_255_1_388
10
22.789196
20
0.2894421
40
0.2670929
50
89.380395
51
105.6763916
0
ARC
8
DEFAULT_255_1_388
10
22.7685681
20
0.364432
40
0.1893189
50
105.7980655
51
149.7387869
0
ARC
8
DEFAULT_255_1_388
10
22.8882822
20
0.2924719
40
0.3289892
50
149.4208441
51
163.628295
0
ARC
8
DEFAULT_255_1_388
10
23.1235051
20
0.2207345
40
0.5749004
50
163.3764549
51
172.141138
0
ARC
8
DEFAULT_255_1_388
10
23.4947773
20
0.1675582
40
0.9499585
50
172.0258462
51
178.0705453
0
ARC
8
DEFAULT_255_1_388
10
23.8369325
20
0.1513682
40
1.2924734
50
177.8639301
51
179.5036263
0
ARC
8
DEFAULT_255_1_388
10
23.7150344
20
-0.1089849
40
1.170534
50
179.7995545
51
185.246089
0
ARC
8
DEFAULT_255_1_388
10
23.2601937
20
-0.1520596
40
0.7136613
50
185.1411911
51
193.0082205
0
ARC
8
DEFAULT_255_1_388
10
22.9628198
20
-0.2223559
40
0.4080987
50
192.7897338
51
205.2507384
0
ARC
8
DEFAULT_255_1_388
10
22.8450408
20
-0.2749462
40
0.2791522
50
205.8001921
51
211.2545876
0
ARC
8
DEFAULT_255_1_388
10
22.7861947
20
-0.3143868
40
0.2084074
50
210.3789935
51
238.4007996
0
ARC
8
DEFAULT_255_1_388
10
22.7840033
20
-0.3091214
40
0.2117943
50
239.6521916
51
265.9793852
0
ARC
8
DEFAULT_255_1_388
10
22.7935882
20
-0.2334642
40
0.2879689
50
265.1324455
51
270.0603288
0
ARC
8
DEFAULT_255_1_388
10
22.7968259
20
-0.2699582
40
0.2514919
50
269.3314378
51
287.2180039
0
ARC
8
DEFAULT_255_1_388
10
22.8123341
20
-0.3265709
40
0.1928357
50
287.7957942
51
329.0808983
0
ARC
8
DEFAULT_255_1_388
10
22.7046098
20
-0.2593349
40
0.319808
50
328.6635261
51
343.3325043
0
ARC
8
DEFAULT_255_1_388
10
22.4601557
20
-0.1831805
40
0.5758408
50
343.0498092
51
351.9392499
0
ARC
8
DEFAULT_255_1_388
10
22.0700878
20
-0.1256795
40
0.9701202
50
351.8071632
51
357.7957897
0
ARC
8
DEFAULT_255_1_388
10
21.7066355
20
-0.1068276
40
1.3340376
50
357.5870923
51
359.2682493
0
ARC
8
DEFAULT_255_2_778
10
7.7543439
20
155.4823128
40
3.0466403
50
251.6724781
51
258.5987661
0
ARC
8
DEFAULT_255_2_778
10
7.5400558
20
154.4011316
40
1.9444375
50
258.4907215
51
268.3974115
0
ARC
8
DEFAULT_255_2_778
10
7.5177542
20
153.9704995
40
1.5133848
50
268.7854544
51
269.9953942
0
ARC
8
DEFAULT_255_2_778
10
7.5280263
20
153.5211726
40
1.0641086
50
269.4403512
51
279.6841037
0
ARC
8
DEFAULT_255_2_778
10
7.6421978
20
152.8916567
40
0.4244099
50
278.7863046
51
300.3428271
0
ARC
8
DEFAULT_255_2_778
10
7.7612279
20
152.68903
40
0.1894089
50
300.2328316
51
1.9014863
0
ARC
8
DEFAULT_255_2_778
10
7.746508
20
152.6981715
40
0.2040445
50
359.1977832
51
359.9996968
0
ARC
8
DEFAULT_255_2_778
10
7.753075
20
152.6990013
40
0.1974794
50
359.7589479
51
47.2071953
0
ARC
8
DEFAULT_255_2_778
10
7.619013
20
152.5500429
40
0.3978723
50
47.6130098
51
60.824453
0
ARC
8
DEFAULT_255_2_778
10
7.0184997
20
151.5330677
40
1.5788249
50
59.7878046
51
64.8721208
0
ARC
8
DEFAULT_255_2_778
10
6.0925837
20
149.6018461
40
3.7205057
50
64.5916011
51
66.820345
0
ARC
8
DEFAULT_255_2_778
10
9.6378482
20
157.9599609
40
5.3584611
50
244.3087082
51
247.1497851
0
ARC
8
DEFAULT_255_2_778
10
8.548978
20
155.704372
40
2.8538059
50
240.2312866
51
244.3765687
0
ARC
8
DEFAULT_255_2_778
10
7.7796999
20
154.3699805
40
1.3135689
50
233.2094737
51
240.4596791
0
ARC
8
DEFAULT_255_2_778
10
7.3564445
20
153.7999409
40
0.603585
50
225.678902
51
232.9782433
0
ARC
8
DEFAULT_255_2_778
10
7.396701
20
153.8247518
40
0.6495632
50
178.2741582
51
224.667467
0
ARC
8
DEFAULT_255_2_778
10
7.506651
20
153.8581559
40
0.7593447
50
157.036112
51
181.044431
0
ARC
8
DEFAULT_255_2_778
10
7.3792854
20
153.8989246
40
0.6262846
50
124.9253006
51
155.9241303
0
ARC
8
DEFAULT_255_2_778
10
7.5965789
20
153.5905358
40
1.0035357
50
100.4079723
51
125.0168617
0
ARC
8
DEFAULT_255_2_778
10
7.6996521
20
153.0964723
40
1.5081396
50
89.6483922
51
100.8684975
0
ARC
8
DEFAULT_255_2_778
10
7.7088565
20
152.7442665
40
1.8603169
50
89.5079487
51
89.9984402
0
ARC
8
DEFAULT_255_2_778
10
7.7104896
20
152.6790371
40
1.9255311
50
83.9170631
51
89.5732113
0
ARC
8
DEFAULT_255_2_778
10
7.507684
20
150.6714635
40
3.9433074
50
80.7325723
51
84.0779772
0
ARC
8
DEFAULT_255_2_778
10
7.021378
20
147.6485497
40
7.0050837
50
78.5086351
51
80.7886813
0
ARC
8
DEFAULT_255_2_778
10
7.66255
20
152.2480221
40
1.9415426
50
67.135818
51
78.0934208
0
ARC
8
DEFAULT_255_2_778
10
7.7857137
20
152.8184486
40
1.3579807
50
78.2126325
51
89.7333975
0
ARC
8
DEFAULT_255_2_778
10
7.7799169
20
153.2328048
40
0.9436877
50
89.2643807
51
100.5577599
0
ARC
8
DEFAULT_255_2_778
10
7.6671349
20
153.8015957
40
0.3639224
50
99.5099416
51
124.0285213
0
ARC
8
DEFAULT_255_2_778
10
7.57092
20
153.9516933
40
0.1857341
50
125.3416971
51
182.2767689
0
ARC
8
DEFAULT_255_2_778
10
7.5504732
20
153.9450853
40
0.1651425
50
180.2673353
51
239.6912529
0
ARC
8
DEFAULT_255_2_778
10
7.9323524
20
154.543404
40
0.8748407
50
237.8744287
51
242.8176978
0
ARC
8
DEFAULT_255_2_778
10
9.4134979
20
157.3540997
40
4.0518771
50
242.3429481
51
244.0446069
0
ARC
8
DEFAULT_255_2_778
10
12.367478
20
163.3879499
40
10.7700062
50
243.963828
51
244.8175572
0
ARC
8
DEFAULT_255_2_778
10
15.3896528
20
169.7796513
40
17.8401724
50
244.7685545
51
244.971514
0
ARC
8
DEFAULT_255_2_778
10
5.8614283
20
149.2848652
40
4.7613433
50
62.2451122
51
65.4192096
0
ARC
8
DEFAULT_255_2_778
10
6.9259351
20
151.296774
40
2.4851839
50
57.2979848
51
62.3628589
0
ARC
8
DEFAULT_255_2_778
10
7.6805627
20
152.462458
40
1.0965802
50
48.7493094
51
57.571194
0
ARC
8
DEFAULT_255_2_778
10
8.0120821
20
152.8507759
40
0.586081
50
44.3424824
51
48.0852666
0
ARC
8
DEFAULT_255_2_778
10
7.9788325
20
152.8312146
40
0.6236013
50
1.3523843
51
43.4925744
0
ARC
8
DEFAULT_255_2_778
10
7.7108854
20
152.7982828
40
0.8926473
50
359.9763756
51
3.0599076
0
ARC
8
DEFAULT_255_2_778
10
7.8648098
20
152.7831968
40
0.7388693
50
333.0409438
51
1.1413791
0
ARC
8
DEFAULT_255_2_778
10
7.8953469
20
152.7900035
40
0.7150136
50
300.8436672
51
331.44521
0
ARC
8
DEFAULT_255_2_778
10
7.6951587
20
153.1040479
40
1.0873327
50
281.4188469
51
301.4162372
0
ARC
8
DEFAULT_255_2_778
10
7.5637994
20
153.7128698
40
1.7101299
50
270.2272327
51
281.6944092
0
ARC
8
DEFAULT_255_2_778
10
7.5459128
20
154.1885692
40
2.185955
50
269.9983113
51
270.6466065
0
LINE
8
DEFAULT_255_2_778
10
7.5458484
20
152.0026142
11
7.5443325
21
152.0026147
0
ARC
8
DEFAULT_255_2_778
10
7.5514484
20
155.1855647
40
3.1829579
50
256.2431122
51
269.871909
0
ARC
8
DEFAULT_255_2_778
10
21.7546021
20
155.4043817
40
2.9666503
50
251.5318157
51
258.7258279
0
ARC
8
DEFAULT_255_2_778
10
21.5543563
20
154.382451
40
1.9252941
50
258.62435
51
268.8252909
0
ARC
8
DEFAULT_255_2_778
10
21.5360665
20
153.9875972
40
1.5301823
50
269.2068806
51
269.9987259
0
ARC
8
DEFAULT_255_2_778
10
21.5479171
20
153.5233861
40
1.0660376
50
269.3612297
51
279.5899087
0
ARC
8
DEFAULT_255_2_778
10
21.6613762
20
152.8919001
40
0.424527
50
278.6895227
51
300.2363944
0
ARC
8
DEFAULT_255_2_778
10
21.7804406
20
152.688447
40
0.188796
50
300.1108484
51
1.9024905
0
ARC
8
DEFAULT_255_2_778
10
21.74449
20
152.6990898
40
0.2246851
50
358.8842611
51
0.0019649
0
ARC
8
DEFAULT_255_2_778
10
21.7775114
20
152.7030062
40
0.1917038
50
358.831716
51
47.0900458
0
ARC
8
DEFAULT_255_2_778
10
21.6382597
20
152.5445519
40
0.402612
50
47.9285592
51
61.0836101
0
ARC
8
DEFAULT_255_2_778
10
21.0435796
20
151.5262787
40
1.5817315
50
60.0631222
51
65.1602386
0
ARC
8
DEFAULT_255_2_778
10
20.1320272
20
149.600206
40
3.7125866
50
64.8807046
51
67.1209578
0
ARC
8
DEFAULT_255_2_778
10
23.628079
20
157.8896565
40
5.2839333
50
244.2656926
51
247.1407051
0
ARC
8
DEFAULT_255_2_778
10
22.560032
20
155.6814327
40
2.8309849
50
240.1545061
51
244.3326325
0
ARC
8
DEFAULT_255_2_778
10
21.7861871
20
154.3454023
40
1.2870531
50
232.697515
51
240.4357497
0
ARC
8
DEFAULT_255_2_778
10
21.3710829
20
153.7943895
40
0.5972006
50
225.5850892
51
232.3393736
0
ARC
8
DEFAULT_255_2_778
10
21.4139264
20
153.823961
40
0.6483829
50
178.7795739
51
224.7095916
0
ARC
8
DEFAULT_255_2_778
10
21.6674642
20
153.8479812
40
0.9018316
50
179.997867
51
180.6487041
0
ARC
8
DEFAULT_255_2_778
10
21.5173061
20
153.8617926
40
0.7517998
50
156.9195758
51
181.050088
0
ARC
8
DEFAULT_255_2_778
10
21.3933805
20
153.9012389
40
0.6224513
50
124.7111133
51
155.7879672
0
ARC
8
DEFAULT_255_2_778
10
21.6055077
20
153.6109843
40
0.9818859
50
101.7943006
51
125.2417472
0
ARC
8
DEFAULT_255_2_778
10
21.7300568
20
153.0575359
40
1.5491324
50
89.5237779
51
102.119608
0
ARC
8
DEFAULT_255_2_778
10
21.728565
20
152.5027684
40
2.1038954
50
83.2897778
51
89.6087235
0
ARC
8
DEFAULT_255_2_778
10
21.5240013
20
150.6904907
40
3.9276711
50
79.3121016
51
83.4152109
0
ARC
8
DEFAULT_255_2_778
10
21.2073148
20
148.9258502
40
5.7204535
50
78.2244786
51
79.4731175
0
ARC
8
DEFAULT_255_2_778
10
21.6839903
20
152.2595601
40
1.9313541
50
67.1320052
51
78.3124693
0
ARC
8
DEFAULT_255_2_778
10
21.8016805
20
152.811809
40
1.3667182
50
78.4541134
51
89.7546716
0
ARC
8
DEFAULT_255_2_778
10
21.7954662
20
153.2404688
40
0.9381236
50
89.263032
51
100.5789495
0
ARC
8
DEFAULT_255_2_778
10
21.6826638
20
153.8071991
40
0.3603816
50
99.4915893
51
124.3627674
0
ARC
8
DEFAULT_255_2_778
10
21.5877509
20
153.9542673
40
0.1854666
50
125.8028369
51
182.2896157
0
ARC
8
DEFAULT_255_2_778
10
21.5495799
20
153.946772
40
0.1471476
50
179.9666171
51
180.1001736
0
ARC
8
DEFAULT_255_2_778
10
21.5667858
20
153.9467311
40
0.1643535
50
180.0754351
51
239.8483251
0
ARC
8
DEFAULT_255_2_778
10
21.9360551
20
154.528813
40
0.8535847
50
238.0402264
51
243.0370307
0
ARC
8
DEFAULT_255_2_778
10
23.4793463
20
157.4809461
40
4.1847343
50
242.5305029
51
244.1852103
0
ARC
8
DEFAULT_255_2_778
10
26.6271515
20
163.9511116
40
11.3799845
50
244.1038809
51
244.9214171
0
ARC
8
DEFAULT_255_2_778
10
29.8777528
20
170.859826
40
19.0152051
50
244.8737354
51
245.0669821
0
ARC
8
DEFAULT_255_2_778
10
19.8882742
20
149.326571
40
4.7223648
50
62.036831
51
65.2981624
0
ARC
8
DEFAULT_255_2_778
10
20.9522164
20
151.3211714
40
2.4617531
50
57.1110762
51
62.1404081
0
ARC
8
DEFAULT_255_2_778
10
21.7048272
20
152.474297
40
1.0847836
50
48.3568195
51
57.4187314
0
ARC
8
DEFAULT_255_2_778
10
22.029546
20
152.8506639
40
0.5878002
50
44.453022
51
47.6325253
0
ARC
8
DEFAULT_255_2_778
10
21.9979779
20
152.8324098
40
0.6231843
50
1.0876759
51
43.6183889
0
ARC
8
DEFAULT_255_2_778
10
21.7310111
20
152.8003301
40
0.8911213
50
359.9797211
51
2.8243422
0
ARC
8
DEFAULT_255_2_778
10
21.8804151
20
152.7852736
40
0.7418639
50
333.2156265
51
1.138567
0
ARC
8
DEFAULT_255_2_778
10
21.9152495
20
152.7897363
40
0.7130495
50
300.9658303
51
331.6339563
0
ARC
8
DEFAULT_255_2_778
10
21.7187382
20
153.09897
40
1.0793606
50
281.9136331
51
301.4645182
0
ARC
8
DEFAULT_255_2_778
10
21.5855532
20
153.6961054
40
1.6911426
50
270.5804277
51
282.1523279
0
ARC
8
DEFAULT_255_2_778
10
21.5644102
20
154.1900177
40
2.1853034
50
269.9959061
51
271.0035609
0
LINE
8
DEFAULT_255_2_778
10
21.5642541
20
152.0047142
11
21.5627325
21
152.0047147
0
ARC
8
DEFAULT_255_2_778
10
21.5696949
20
155.1888913
40
3.1841842
50
256.2458002
51
269.8747201
0
LINE
8
DEFAULT_255_2_778
10
6.7963325
20
152.0954147
11
6.7963325
21
152.5902147
0
LINE
8
DEFAULT_255_2_778
10
8.4169325
20
154.5132147
11
8.4169325
21
154.0370147
0
LINE
8
DEFAULT_255_2_778
10
6.7945325
20
152.0939147
11
6.7963325
21
152.0954147
0
LINE
8
DEFAULT_255_2_778
10
8.9871325
20
154.5627147
11
9.6634325
21
154.5627147
0
LINE
8
DEFAULT_255_2_778
10
9.6634325
20
154.5627147
11
9.6634325
21
152.0552147
0
LINE
8
DEFAULT_255_2_778
10
9.6634325
20
152.0552147
11
8.9871325
21
152.0552147
0
LINE
8
DEFAULT_255_2_778
10
8.9871325
20
152.0552147
11
8.9871325
21
154.5627147
0
LINE
8
DEFAULT_255_2_778
10
10.2814325
20
152.0552147
11
10.2814325
21
154.5627147
0
LINE
8
DEFAULT_255_2_778
10
10.2814325
20
154.5627147
11
12.0137325
21
154.5627147
0
LINE
8
DEFAULT_255_2_778
10
12.0137325
20
154.5627147
11
12.0137325
21
154.1089147
0
LINE
8
DEFAULT_255_2_778
10
12.0137325
20
154.1089147
11
10.9326325
21
154.1089147
0
LINE
8
DEFAULT_255_2_778
10
10.9326325
20
154.1089147
11
10.9326325
21
153.5427147
0
LINE
8
DEFAULT_255_2_778
10
10.9326325
20
153.5427147
11
11.8740325
21
153.5427147
0
LINE
8
DEFAULT_255_2_778
10
11.8740325
20
153.5427147
11
11.8740325
21
153.1292147
0
LINE
8
DEFAULT_255_2_778
10
11.8740325
20
153.1292147
11
10.9326325
21
153.1292147
0
LINE
8
DEFAULT_255_2_778
10
10.9326325
20
153.1292147
11
10.9326325
21
152.5339147
0
LINE
8
DEFAULT_255_2_778
10
10.9326325
20
152.5339147
11
12.0417325
21
152.5339147
0
LINE
8
DEFAULT_255_2_778
10
12.0417325
20
152.5339147
11
12.0417325
21
152.0536147
0
LINE
8
DEFAULT_255_2_778
10
12.0417325
20
152.0536147
11
10.2814325
21
152.0552147
0
LINE
8
DEFAULT_255_2_778
10
12.4822325
20
152.0552147
11
12.4822325
21
154.5627147
0
LINE
8
DEFAULT_255_2_778
10
12.4822325
20
154.5627147
11
13.3580325
21
154.5627147
0
LINE
8
DEFAULT_255_2_778
10
13.3580325
20
154.5627147
11
13.9676325
21
152.9604147
0
LINE
8
DEFAULT_255_2_778
10
13.9676325
20
152.9604147
11
14.5902325
21
154.5627147
0
LINE
8
DEFAULT_255_2_778
10
14.5902325
20
154.5627147
11
15.4220325
21
154.5627147
0
LINE
8
DEFAULT_255_2_778
10
15.4220325
20
154.5627147
11
15.4220325
21
152.0552147
0
LINE
8
DEFAULT_255_2_778
10
15.4220325
20
152.0552147
11
14.7817325
21
152.0552147
0
LINE
8
DEFAULT_255_2_778
10
14.7817325
20
152.0552147
11
14.7817325
21
153.8311147
0
LINE
8
DEFAULT_255_2_778
10
14.7817325
20
153.8311147
11
14.0729325
21
152.0309147
0
LINE
8
DEFAULT_255_2_778
10
14.0729325
20
152.0309147
11
13.6520325
21
152.0309147
0
LINE
8
DEFAULT_255_2_778
10
13.6520325
20
152.0309147
11
12.9564325
21
153.8311147
0
LINE
8
DEFAULT_255_2_778
10
12.9564325
20
153.8311147
11
12.9564325
21
152.0550147
0
LINE
8
DEFAULT_255_2_778
10
12.9564325
20
152.0550147
11
12.4822325
21
152.0552147
0
LINE
8
DEFAULT_255_2_778
10
16.0414325
20
152.0552147
11
16.0414325
21
154.5627147
0
LINE
8
DEFAULT_255_2_778
10
16.0414325
20
154.5627147
11
17.7736325
21
154.5627147
0
LINE
8
DEFAULT_255_2_778
10
17.7736325
20
154.5627147
11
17.7736325
21
154.1089147
0
LINE
8
DEFAULT_255_2_778
10
17.7736325
20
154.1089147
11
16.6926325
21
154.1089147
0
LINE
8
DEFAULT_255_2_778
10
16.6926325
20
154.1089147
11
16.6926325
21
153.5427147
0
LINE
8
DEFAULT_255_2_778
10
16.6926325
20
153.5427147
11
17.6339325
21
153.5427147
0
LINE
8
DEFAULT_255_2_778
10
17.6339325
20
153.5427147
11
17.6339325
21
153.1292147
0
LINE
8
DEFAULT_255_2_778
10
17.6339325
20
153.1292147
11
16.6926325
21
153.1292147
0
LINE
8
DEFAULT_255_2_778
10
16.6926325
20
153.1292147
11
16.6926325
21
152.5339147
0
LINE
8
DEFAULT_255_2_778
10
16.6926325
20
152.5339147
11
17.8035325
21
152.5339147
0
LINE
8
DEFAULT_255_2_778
10
17.8035325
20
152.5339147
11
17.8035325
21
152.0536147
0
LINE
8
DEFAULT_255_2_778
10
17.8035325
20
152.0536147
11
16.0414325
21
152.0552147
0
LINE
8
DEFAULT_255_2_778
10
18.2459325
20
152.0552147
11
18.2459325
21
154.5627147
0
LINE
8
DEFAULT_255_2_778
10
18.2459325
20
154.5627147
11
19.0288325
21
154.5627147
0
LINE
8
DEFAULT_255_2_778
10
19.0288325
20
154.5627147
11
19.8591325
21
152.8839147
0
LINE
8
DEFAULT_255_2_778
10
19.8591325
20
152.8839147
11
19.8591325
21
154.5627147
0
LINE
8
DEFAULT_255_2_778
10
19.8591325
20
154.5627147
11
20.3348325
21
154.5627147
0
LINE
8
DEFAULT_255_2_778
10
20.3348325
20
154.5627147
11
20.3348325
21
152.0552147
0
LINE
8
DEFAULT_255_2_778
10
20.3348325
20
152.0552147
11
19.5744325
21
152.0552147
0
LINE
8
DEFAULT_255_2_778
10
19.5744325
20
152.0552147
11
18.7219325
21
153.7565147
0
LINE
8
DEFAULT_255_2_778
10
18.7219325
20
153.7565147
11
18.7219325
21
152.0552147
0
LINE
8
DEFAULT_255_2_778
10
18.7219325
20
152.0552147
11
18.2459325
21
152.0552147
0
LINE
8
DEFAULT_255_2_778
10
20.8148325
20
152.0957147
11
20.8148325
21
152.5905147
0
LINE
8
DEFAULT_255_2_778
10
22.3747325
20
154.5259147
11
22.4345325
21
154.5153147
0
LINE
8
DEFAULT_255_2_778
10
22.4345325
20
154.5153147
11
22.4345325
21
154.0391147
0
LINE
8
DEFAULT_255_2_778
10
20.8126325
20
152.0960147
11
20.8148325
21
152.0957147
0
LINE
8
DEFAULT_255_1_388
10
7.9913457
20
150.4464892
11
7.8169577
21
150.4464892
0
LINE
8
DEFAULT_255_1_388
10
7.0380852
20
149.8926042
11
7.2124731
21
149.8926042
0
ARC
8
DEFAULT_255_1_388
10
7.8910304
20
151.4528821
40
1.4087688
50
248.9196578
51
254.1442424
0
ARC
8
DEFAULT_255_1_388
10
7.7020184
20
150.9662805
40
0.8867498
50
241.6337352
51
249.0064643
0
ARC
8
DEFAULT_255_1_388
10
7.5300498
20
150.6511764
40
0.5277799
50
230.4982261
51
241.8087583
0
ARC
8
DEFAULT_255_1_388
10
7.4418269
20
150.5387686
40
0.3849419
50
227.4062979
51
229.9877433
0
ARC
8
DEFAULT_255_1_388
10
7.3869615
20
150.4852155
40
0.3084129
50
200.6782127
51
228.1765252
0
ARC
8
DEFAULT_255_1_388
10
7.3950984
20
150.4835277
40
0.315461
50
179.506278
51
199.8695278
0
ARC
8
DEFAULT_255_1_388
10
7.3940573
20
150.4918671
40
0.3144584
50
132.4834401
51
181.0242352
0
ARC
8
DEFAULT_255_1_388
10
7.4609777
20
150.4286788
40
0.4063094
50
129.2526113
51
133.4249077
0
ARC
8
DEFAULT_255_1_388
10
7.477537
20
150.4038619
40
0.436014
50
101.9878945
51
128.8741833
0
ARC
8
DEFAULT_255_1_388
10
7.5223785
20
150.210236
40
0.6347415
50
89.5906376
51
102.3170567
0
ARC
8
DEFAULT_255_1_388
10
7.5303097
20
150.2460586
40
0.5989122
50
77.2359491
51
90.3248968
0
ARC
8
DEFAULT_255_1_388
10
7.5536028
20
150.3548554
40
0.4876594
50
63.8379856
51
77.0808925
0
ARC
8
DEFAULT_255_1_388
10
7.5848561
20
150.4130882
40
0.4216191
50
45.9863127
51
64.1608798
0
ARC
8
DEFAULT_255_1_388
10
7.6141955
20
150.446599
40
0.3771394
50
32.2747934
51
45.6544796
0
ARC
8
DEFAULT_255_1_388
10
7.6216761
20
150.4487426
40
0.3696765
50
359.6507495
51
32.6129943
0
ARC
8
DEFAULT_255_1_388
10
7.5155944
20
150.4492788
40
0.3013762
50
359.469654
51
14.983205
0
ARC
8
DEFAULT_255_1_388
10
7.5949196
20
150.4705288
40
0.2192542
50
14.9781954
51
48.2004799
0
ARC
8
DEFAULT_255_1_388
10
7.5764307
20
150.4472937
40
0.2489048
50
48.5926661
51
74.1242559
0
ARC
8
DEFAULT_255_1_388
10
7.5389109
20
150.3234607
40
0.3782845
50
73.7889321
51
86.6653996
0
ARC
8
DEFAULT_255_1_388
10
7.5273924
20
150.1876955
40
0.5145025
50
86.2642725
51
90.0533288
0
ARC
8
DEFAULT_255_1_388
10
7.5242017
20
150.2321376
40
0.4700681
50
89.669455
51
99.2313411
0
ARC
8
DEFAULT_255_1_388
10
7.4969176
20
150.3946401
40
0.3052945
50
99.0695987
51
113.7659242
0
ARC
8
DEFAULT_255_1_388
10
7.4661171
20
150.4672772
40
0.226407
50
114.0402885
51
127.9848946
0
ARC
8
DEFAULT_255_1_388
10
7.4390647
20
150.5005884
40
0.1835045
50
127.7287217
51
176.7106493
0
ARC
8
DEFAULT_255_1_388
10
7.5154312
20
150.489221
40
0.2604907
50
175.1780759
51
180.0581213
0
ARC
8
DEFAULT_255_1_388
10
7.4205656
20
150.4878411
40
0.1656287
50
179.6140658
51
228.124674
0
ARC
8
DEFAULT_255_1_388
10
7.4703013
20
150.533894
40
0.2332038
50
226.5785315
51
230.8792476
0
ARC
8
DEFAULT_255_1_388
10
7.52325
20
150.6041908
40
0.3211664
50
231.4636401
51
241.9261664
0
ARC
8
DEFAULT_255_1_388
10
7.6579283
20
150.8520349
40
0.6032345
50
241.7177136
51
248.3259138
0
ARC
8
DEFAULT_255_1_388
10
7.8137878
20
151.2381771
40
1.0196417
50
248.2007377
51
252.4527713
0
ARC
8
DEFAULT_255_1_388
10
7.9491405
20
151.6566092
40
1.4594143
50
252.3388938
51
254.347037
0
ARC
8
DEFAULT_255_1_388
10
7.1006705
20
148.6218095
40
1.6917621
50
71.0197462
51
74.4085467
0
ARC
8
DEFAULT_255_1_388
10
7.2913793
20
149.1723144
40
1.1091618
50
66.1845203
51
71.086519
0
ARC
8
DEFAULT_255_1_388
10
7.4664342
20
149.5664439
40
0.6779073
50
59.3537334
51
66.269255
0
ARC
8
DEFAULT_255_1_388
10
7.5664068
20
149.7355777
40
0.4814366
50
49.1021732
51
59.3294421
0
ARC
8
DEFAULT_255_1_388
10
7.6585056
20
149.8405575
40
0.3417875
50
32.7924183
51
49.2503526
0
ARC
8
DEFAULT_255_1_388
10
7.693467
20
149.8655311
40
0.2988789
50
31.121225
51
32.3977355
0
ARC
8
DEFAULT_255_1_388
10
7.6846848
20
149.8622728
40
0.3080861
50
8.1116803
51
30.7958224
0
ARC
8
DEFAULT_255_1_388
10
7.5935194
20
149.8467437
40
0.4005385
50
359.8390945
51
8.4707348
0
ARC
8
DEFAULT_255_1_388
10
7.6639242
20
149.8412751
40
0.3301608
50
337.4732479
51
0.7538283
0
ARC
8
DEFAULT_255_1_388
10
7.6840267
20
149.8390554
40
0.3107929
50
307.5917028
51
336.4313755
0
ARC
8
DEFAULT_255_1_388
10
7.6329324
20
149.8958509
40
0.3870096
50
307.6560665
51
308.4561779
0
ARC
8
DEFAULT_255_1_388
10
7.6063541
20
149.9366832
40
0.435591
50
284.3733666
51
307.1426212
0
ARC
8
DEFAULT_255_1_388
10
7.5506435
20
150.1416391
40
0.6479685
50
272.4384566
51
284.6464689
0
ARC
8
DEFAULT_255_1_388
10
7.536382
20
150.3440434
40
0.8508149
50
269.9708517
51
272.8180721
0
ARC
8
DEFAULT_255_1_388
10
7.5315503
20
150.1148283
40
0.6216151
50
248.2707343
51
270.4054609
0
ARC
8
DEFAULT_255_1_388
10
7.5254374
20
150.0933673
40
0.5994203
50
246.1380358
51
248.054058
0
ARC
8
DEFAULT_255_1_388
10
7.4783517
20
149.9944705
40
0.4899388
50
233.1671897
51
246.4951656
0
ARC
8
DEFAULT_255_1_388
10
7.4160152
20
149.9103137
40
0.3852115
50
215.3403381
51
233.084328
0
ARC
8
DEFAULT_255_1_388
10
7.3853516
20
149.8880093
40
0.3472969
50
179.2419235
51
215.2648426
0
ARC
8
DEFAULT_255_1_388
10
7.4717067
20
149.8895979
40
0.259251
50
179.3355796
51
199.1045873
0
ARC
8
DEFAULT_255_1_388
10
7.4343209
20
149.8798223
40
0.2207454
50
199.8830064
51
232.7061328
0
ARC
8
DEFAULT_255_1_388
10
7.4874483
20
149.9466456
40
0.306101
50
232.3736206
51
255.5136621
0
ARC
8
DEFAULT_255_1_388
10
7.5257989
20
150.0866177
40
0.4512213
50
255.2447928
51
267.5318292
0
ARC
8
DEFAULT_255_1_388
10
7.5356456
20
150.2252709
40
0.5901825
50
267.1564563
51
270.0294721
0
ARC
8
DEFAULT_255_1_388
10
7.5387781
20
150.1753623
40
0.5402814
50
269.6999944
51
278.1662446
0
ARC
8
DEFAULT_255_1_388
10
7.5675809
20
149.9806974
40
0.3435003
50
278.0229022
51
290.6255326
0
ARC
8
DEFAULT_255_1_388
10
7.6066975
20
149.8763547
40
0.2320666
50
290.6616368
51
307.0374127
0
ARC
8
DEFAULT_255_1_388
10
7.6404875
20
149.834904
40
0.1786372
50
306.3942078
51
355.303191
0
ARC
8
DEFAULT_255_1_388
10
7.5829168
20
149.8435186
40
0.2367516
50
354.3662092
51
0.0709489
0
ARC
8
DEFAULT_255_1_388
10
7.5989037
20
149.8460561
40
0.2207761
50
359.4175379
51
16.1975911
0
ARC
8
DEFAULT_255_1_388
10
7.6501155
20
149.8600954
40
0.1676828
50
16.4721294
51
52.6261798
0
ARC
8
DEFAULT_255_1_388
10
7.5577662
20
149.7381606
40
0.3206412
50
52.7381828
51
62.4979144
0
ARC
8
DEFAULT_255_1_388
10
7.4019415
20
149.4449236
40
0.6527035
50
62.2517425
51
68.1219454
0
ARC
8
DEFAULT_255_1_388
10
7.2084903
20
148.9694951
40
1.1659797
50
68.006043
51
71.8055127
0
ARC
8
DEFAULT_255_1_388
10
7.0064811
20
148.3636723
40
1.8045908
50
71.718361
51
73.9260743
0
LINE
8
DEFAULT_255_1_388
10
8.4024675
20
150.8268898
11
8.4024675
21
149.5113
0
LINE
8
DEFAULT_255_1_388
10
8.4024675
20
149.5113
11
8.2289831
21
149.5113
0
LINE
8
DEFAULT_255_1_388
10
8.2289831
20
149.5113
11
8.2289831
21
150.8268898
0
LINE
8
DEFAULT_255_1_388
10
8.2289831
20
150.8268898
11
8.4024675
21
150.8268898
0
LINE
8
DEFAULT_255_1_388
10
8.7196186
20
150.8268898
11
8.9437026
21
150.8268898
0
LINE
8
DEFAULT_255_1_388
10
8.9437026
20
150.8268898
11
9.3737993
21
149.7534553
0
LINE
8
DEFAULT_255_1_388
10
9.3737993
20
149.7534553
11
9.8038959
21
150.8268898
0
LINE
8
DEFAULT_255_1_388
10
9.8038959
20
150.8268898
11
10.0288835
21
150.8268898
0
LINE
8
DEFAULT_255_1_388
10
10.0288835
20
150.8268898
11
10.0288835
21
149.5113
0
LINE
8
DEFAULT_255_1_388
10
10.0288835
20
149.5113
11
9.8553991
21
149.5113
0
LINE
8
DEFAULT_255_1_388
10
9.8553991
20
149.5113
11
9.8553991
21
150.023621
0
LINE
8
DEFAULT_255_1_388
10
9.8553991
20
150.023621
11
9.8716633
21
150.5766025
0
LINE
8
DEFAULT_255_1_388
10
9.8716633
20
150.5766025
11
9.4397595
21
149.5113
0
LINE
8
DEFAULT_255_1_388
10
9.4397595
20
149.5113
11
9.3069355
21
149.5113
0
LINE
8
DEFAULT_255_1_388
10
9.3069355
20
149.5113
11
8.8759353
21
150.5738918
0
LINE
8
DEFAULT_255_1_388
10
8.8759353
20
150.5738918
11
8.893103
21
150.023621
0
LINE
8
DEFAULT_255_1_388
10
8.893103
20
150.023621
11
8.893103
21
149.5113
0
LINE
8
DEFAULT_255_1_388
10
8.893103
20
149.5113
11
8.7196186
21
149.5113
0
LINE
8
DEFAULT_255_1_388
10
8.7196186
20
149.5113
11
8.7196186
21
150.8268898
0
LINE
8
DEFAULT_255_1_388
10
11.2035173
20
149.5113
11
11.0779218
21
149.8546545
0
LINE
8
DEFAULT_255_1_388
10
11.0779218
20
149.8546545
11
10.5267475
21
149.8546545
0
LINE
8
DEFAULT_255_1_388
10
10.5267475
20
149.8546545
11
10.4029592
21
149.5113
0
LINE
8
DEFAULT_255_1_388
10
10.4029592
20
149.5113
11
10.2240534
21
149.5113
0
LINE
8
DEFAULT_255_1_388
10
10.2240534
20
149.5113
11
10.7264353
21
150.8268898
0
LINE
8
DEFAULT_255_1_388
10
10.7264353
20
150.8268898
11
10.8782341
21
150.8268898
0
LINE
8
DEFAULT_255_1_388
10
10.8782341
20
150.8268898
11
11.3815195
21
149.5113
0
LINE
8
DEFAULT_255_1_388
10
11.3815195
20
149.5113
11
11.2035173
21
149.5113
0
LINE
8
DEFAULT_255_1_388
10
10.8023347
20
150.6127451
11
10.5791542
21
149.9974177
0
LINE
8
DEFAULT_255_1_388
10
10.5791542
20
149.9974177
11
11.0264187
21
149.9974177
0
LINE
8
DEFAULT_255_1_388
10
11.0264187
20
149.9974177
11
10.8023347
21
150.6127451
0
LINE
8
DEFAULT_255_1_388
10
12.3510441
20
150.8268898
11
12.3510441
21
150.6841267
0
LINE
8
DEFAULT_255_1_388
10
12.3510441
20
150.6841267
11
11.928176
21
150.6841267
0
LINE
8
DEFAULT_255_1_388
10
11.928176
20
150.6841267
11
11.928176
21
149.5113
0
LINE
8
DEFAULT_255_1_388
10
11.928176
20
149.5113
11
11.7555952
21
149.5113
0
LINE
8
DEFAULT_255_1_388
10
11.7555952
20
149.5113
11
11.7555952
21
150.6841267
0
LINE
8
DEFAULT_255_1_388
10
11.7555952
20
150.6841267
11
11.3336306
21
150.6841267
0
LINE
8
DEFAULT_255_1_388
10
11.3336306
20
150.6841267
11
11.3336306
21
150.8268898
0
LINE
8
DEFAULT_255_1_388
10
11.3336306
20
150.8268898
11
12.3510441
21
150.8268898
0
LINE
8
DEFAULT_255_1_388
10
12.7323483
20
150.8268898
11
12.7323483
21
149.5113
0
LINE
8
DEFAULT_255_1_388
10
12.7323483
20
149.5113
11
12.558864
21
149.5113
0
LINE
8
DEFAULT_255_1_388
10
12.558864
20
149.5113
11
12.558864
21
150.8268898
0
LINE
8
DEFAULT_255_1_388
10
12.558864
20
150.8268898
11
12.7323483
21
150.8268898
0
LINE
8
DEFAULT_255_1_388
10
13.8428291
20
149.9287468
11
14.017217
21
149.9287468
0
LINE
8
DEFAULT_255_1_388
10
13.0043212
20
150.1076525
11
13.0043212
21
150.2341516
0
LINE
8
DEFAULT_255_1_388
10
14.017217
20
150.4040217
11
13.8428291
21
150.4040217
0
LINE
8
DEFAULT_255_1_388
10
13.1787092
20
150.2296337
11
13.1787092
21
150.1022312
0
ARC
8
DEFAULT_255_1_388
10
13.4006404
20
149.9959329
40
0.6202263
50
340.1774904
51
353.7812217
0
ARC
8
DEFAULT_255_1_388
10
13.5774257
20
149.9300893
40
0.4315926
50
311.4560052
51
340.4420756
0
ARC
8
DEFAULT_255_1_388
10
13.5736796
20
149.9425665
40
0.4434573
50
282.4332229
51
310.7514507
0
ARC
8
DEFAULT_255_1_388
10
13.5242614
20
150.1467703
40
0.6535262
50
269.9358869
51
282.8096729
0
ARC
8
DEFAULT_255_1_388
10
13.5184554
20
150.2980329
40
0.8048043
50
269.9995752
51
270.3612856
0
ARC
8
DEFAULT_255_1_388
10
13.5125044
20
150.0181781
40
0.5249831
50
250.7885263
51
270.6488451
0
ARC
8
DEFAULT_255_1_388
10
13.4935868
20
149.9464853
40
0.4510942
50
219.3628377
51
250.0611024
0
ARC
8
DEFAULT_255_1_388
10
13.5868743
20
150.0257653
40
0.5735046
50
193.5480293
51
219.5755675
0
ARC
8
DEFAULT_255_1_388
10
13.8536952
20
150.095052
40
0.849146
50
181.1220183
51
193.8754971
0
ARC
8
DEFAULT_255_1_388
10
14.0860185
20
150.1074914
40
1.0816971
50
179.9914644
51
181.5398227
0
ARC
8
DEFAULT_255_1_388
10
13.8783495
20
150.2383586
40
0.8740384
50
169.5837606
51
180.275782
0
ARC
8
DEFAULT_255_1_388
10
13.6716844
20
150.2765439
40
0.6638751
50
155.0367033
51
169.6002779
0
ARC
8
DEFAULT_255_1_388
10
13.5439302
20
150.3381336
40
0.5220662
50
136.7831557
51
155.2472983
0
ARC
8
DEFAULT_255_1_388
10
13.5001092
20
150.3753577
40
0.4646502
50
121.7633063
51
136.4281161
0
ARC
8
DEFAULT_255_1_388
10
13.5152932
20
150.3473049
40
0.4964979
50
95.6460018
51
121.5489589
0
ARC
8
DEFAULT_255_1_388
10
13.5329907
20
150.2225704
40
0.6223912
50
89.9245727
51
96.1375919
0
ARC
8
DEFAULT_255_1_388
10
13.5386612
20
150.2359721
40
0.6090084
50
76.6779212
51
90.456405
0
ARC
8
DEFAULT_255_1_388
10
13.5829425
20
150.414906
40
0.42469
50
47.4858803
51
76.9287069
0
ARC
8
DEFAULT_255_1_388
10
13.5664038
20
150.4036623
40
0.4441778
50
16.5424081
51
46.8934505
0
ARC
8
DEFAULT_255_1_388
10
13.3855088
20
150.3442265
40
0.6345318
50
5.4072971
51
17.0363711
0
ARC
8
DEFAULT_255_1_388
10
13.2236813
20
150.3182304
40
0.6250632
50
7.8888693
51
15.9242022
0
ARC
8
DEFAULT_255_1_388
10
13.4471799
20
150.3831309
40
0.3923364
50
15.7650676
51
27.9410069
0
ARC
8
DEFAULT_255_1_388
10
13.5713968
20
150.4496317
40
0.2514401
50
27.8167196
51
46.4007942
0
ARC
8
DEFAULT_255_1_388
10
13.5769809
20
150.4489882
40
0.2480958
50
47.4372362
51
75.0695672
0
ARC
8
DEFAULT_255_1_388
10
13.5422646
20
150.3281277
40
0.3738281
50
74.7009379
51
87.8124314
0
ARC
8
DEFAULT_255_1_388
10
13.5340262
20
150.2097659
40
0.4924321
50
87.3802571
51
90.0251599
0
ARC
8
DEFAULT_255_1_388
10
13.529691
20
150.3417997
40
0.3604218
50
89.3451886
51
108.5744412
0
ARC
8
DEFAULT_255_1_388
10
13.5142902
20
150.3995836
40
0.3007661
50
109.2998307
51
143.3037387
0
ARC
8
DEFAULT_255_1_388
10
13.6000192
20
150.3336584
40
0.4089031
50
143.075267
51
163.1918576
0
ARC
8
DEFAULT_255_1_388
10
13.8196026
20
150.2643652
40
0.6391492
50
162.9375929
51
174.6208776
0
ARC
8
DEFAULT_255_1_388
10
14.1150408
20
150.2319711
40
0.9363344
50
174.342123
51
180.1430283
0
ARC
8
DEFAULT_255_1_388
10
14.0102949
20
150.0976117
40
0.8315986
50
179.6817261
51
189.150555
0
ARC
8
DEFAULT_255_1_388
10
13.7289698
20
150.0507559
40
0.5464044
50
188.9911061
51
203.5772363
0
ARC
8
DEFAULT_255_1_388
10
13.607499
20
150.0003539
40
0.4149206
50
203.9075402
51
215.1312435
0
ARC
8
DEFAULT_255_1_388
10
13.5036788
20
149.9198907
40
0.2837747
50
213.9071511
51
263.8848919
0
ARC
8
DEFAULT_255_1_388
10
13.5177781
20
150.0081519
40
0.3730641
50
263.1757928
51
270.1031044
0
ARC
8
DEFAULT_255_1_388
10
13.521386
20
150.1484511
40
0.5133712
50
269.6722503
51
279.0606936
0
ARC
8
DEFAULT_255_1_388
10
13.5514016
20
149.967015
40
0.3294739
50
278.8749101
51
293.6349581
0
ARC
8
DEFAULT_255_1_388
10
13.5874219
20
149.8824251
40
0.2375405
50
293.8553806
51
310.0518171
0
ARC
8
DEFAULT_255_1_388
10
13.5879728
20
149.8754021
40
0.2318463
50
311.0644687
51
332.0111037
0
ARC
8
DEFAULT_255_1_388
10
13.4538402
20
149.9493702
40
0.3850112
50
331.6586806
51
343.2877423
0
ARC
8
DEFAULT_255_1_388
10
13.2217867
20
150.0206806
40
0.6277712
50
343.1446576
51
351.0103568
0
ARC
8
DEFAULT_255_1_388
10
13.058519
20
150.0506873
40
0.7937327
50
350.71248
51
351.1626997
0
LINE
8
DEFAULT_255_1_388
10
15.5849013
20
150.4464892
11
15.4105134
21
150.4464892
0
LINE
8
DEFAULT_255_1_388
10
14.6316408
20
149.8926042
11
14.8060288
21
149.8926042
0
ARC
8
DEFAULT_255_1_388
10
15.4845861
20
151.4528821
40
1.4087688
50
248.9196578
51
254.1442424
0
ARC
8
DEFAULT_255_1_388
10
15.2955741
20
150.9662805
40
0.8867498
50
241.6337352
51
249.0064643
0
ARC
8
DEFAULT_255_1_388
10
15.1236054
20
150.6511764
40
0.5277799
50
230.4982261
51
241.8087583
0
ARC
8
DEFAULT_255_1_388
10
15.0353825
20
150.5387686
40
0.3849419
50
227.4062979
51
229.9877433
0
ARC
8
DEFAULT_255_1_388
10
14.9805172
20
150.4852155
40
0.3084129
50
200.6782127
51
228.1765252
0
ARC
8
DEFAULT_255_1_388
10
14.9886541
20
150.4835277
40
0.315461
50
179.506278
51
199.8695278
0
ARC
8
DEFAULT_255_1_388
10
14.987613
20
150.4918671
40
0.3144584
50
132.4834401
51
181.0242352
0
ARC
8
DEFAULT_255_1_388
10
15.0545334
20
150.4286788
40
0.4063094
50
129.2526113
51
133.4249077
0
ARC
8
DEFAULT_255_1_388
10
15.0710926
20
150.4038619
40
0.436014
50
101.9878945
51
128.8741833
0
ARC
8
DEFAULT_255_1_388
10
15.1159342
20
150.210236
40
0.6347415
50
89.5906376
51
102.3170567
0
ARC
8
DEFAULT_255_1_388
10
15.1238653
20
150.2460586
40
0.5989122
50
77.2359491
51
90.3248968
0
ARC
8
DEFAULT_255_1_388
10
15.1471584
20
150.3548554
40
0.4876594
50
63.8379856
51
77.0808925
0
ARC
8
DEFAULT_255_1_388
10
15.1784118
20
150.4130882
40
0.4216191
50
45.9863127
51
64.1608798
0
ARC
8
DEFAULT_255_1_388
10
15.2077511
20
150.446599
40
0.3771394
50
32.2747934
51
45.6544796
0
ARC
8
DEFAULT_255_1_388
10
15.2152318
20
150.4487426
40
0.3696765
50
359.6507495
51
32.6129943
0
ARC
8
DEFAULT_255_1_388
10
15.1091501
20
150.4492788
40
0.3013762
50
359.469654
51
14.983205
0
ARC
8
DEFAULT_255_1_388
10
15.1884753
20
150.4705288
40
0.2192542
50
14.9781954
51
48.2004799
0
ARC
8
DEFAULT_255_1_388
10
15.1699864
20
150.4472937
40
0.2489048
50
48.5926661
51
74.1242559
0
ARC
8
DEFAULT_255_1_388
10
15.1324666
20
150.3234607
40
0.3782845
50
73.7889321
51
86.6653996
0
ARC
8
DEFAULT_255_1_388
10
15.1209481
20
150.1876955
40
0.5145025
50
86.2642725
51
90.0533288
0
ARC
8
DEFAULT_255_1_388
10
15.1177573
20
150.2321376
40
0.4700681
50
89.669455
51
99.2313411
0
ARC
8
DEFAULT_255_1_388
10
15.0904733
20
150.3946401
40
0.3052945
50
99.0695987
51
113.7659242
0
ARC
8
DEFAULT_255_1_388
10
15.0596728
20
150.4672772
40
0.226407
50
114.0402885
51
127.9848946
0
ARC
8
DEFAULT_255_1_388
10
15.0326204
20
150.5005884
40
0.1835045
50
127.7287217
51
176.7106493
0
ARC
8
DEFAULT_255_1_388
10
15.1089869
20
150.489221
40
0.2604907
50
175.1780759
51
180.0581213
0
ARC
8
DEFAULT_255_1_388
10
15.0141212
20
150.4878411
40
0.1656287
50
179.6140658
51
228.124674
0
ARC
8
DEFAULT_255_1_388
10
15.063857
20
150.533894
40
0.2332038
50
226.5785315
51
230.8792476
0
ARC
8
DEFAULT_255_1_388
10
15.1168056
20
150.6041908
40
0.3211664
50
231.4636401
51
241.9261664
0
ARC
8
DEFAULT_255_1_388
10
15.251484
20
150.8520349
40
0.6032345
50
241.7177136
51
248.3259138
0
ARC
8
DEFAULT_255_1_388
10
15.4073435
20
151.2381771
40
1.0196417
50
248.2007377
51
252.4527713
0
ARC
8
DEFAULT_255_1_388
10
15.5426961
20
151.6566092
40
1.4594143
50
252.3388938
51
254.347037
0
ARC
8
DEFAULT_255_1_388
10
14.6942262
20
148.6218095
40
1.6917621
50
71.0197462
51
74.4085467
0
ARC
8
DEFAULT_255_1_388
10
14.884935
20
149.1723144
40
1.1091618
50
66.1845203
51
71.086519
0
ARC
8
DEFAULT_255_1_388
10
15.0599899
20
149.5664439
40
0.6779073
50
59.3537334
51
66.269255
0
ARC
8
DEFAULT_255_1_388
10
15.1599625
20
149.7355777
40
0.4814366
50
49.1021732
51
59.3294421
0
ARC
8
DEFAULT_255_1_388
10
15.2520613
20
149.8405575
40
0.3417875
50
32.7924183
51
49.2503526
0
ARC
8
DEFAULT_255_1_388
10
15.2870227
20
149.8655311
40
0.2988789
50
31.121225
51
32.3977355
0
ARC
8
DEFAULT_255_1_388
10
15.2782405
20
149.8622728
40
0.3080861
50
8.1116803
51
30.7958224
0
ARC
8
DEFAULT_255_1_388
10
15.1870751
20
149.8467437
40
0.4005385
50
359.8390945
51
8.4707348
0
ARC
8
DEFAULT_255_1_388
10
15.2574798
20
149.8412751
40
0.3301608
50
337.4732479
51
0.7538283
0
ARC
8
DEFAULT_255_1_388
10
15.2775823
20
149.8390554
40
0.3107929
50
307.5917028
51
336.4313755
0
ARC
8
DEFAULT_255_1_388
10
15.2264881
20
149.8958509
40
0.3870096
50
307.6560665
51
308.4561779
0
ARC
8
DEFAULT_255_1_388
10
15.1999098
20
149.9366832
40
0.435591
50
284.3733666
51
307.1426212
0
ARC
8
DEFAULT_255_1_388
10
15.1441992
20
150.1416391
40
0.6479685
50
272.4384566
51
284.6464689
0
ARC
8
DEFAULT_255_1_388
10
15.1299377
20
150.3440434
40
0.8508149
50
269.9708517
51
272.8180721
0
ARC
8
DEFAULT_255_1_388
10
15.1251059
20
150.1148283
40
0.6216151
50
248.2707343
51
270.4054609
0
ARC
8
DEFAULT_255_1_388
10
15.1189931
20
150.0933673
40
0.5994203
50
246.1380358
51
248.054058
0
ARC
8
DEFAULT_255_1_388
10
15.0719073
20
149.9944705
40
0.4899388
50
233.1671897
51
246.4951656
0
ARC
8
DEFAULT_255_1_388
10
15.0095709
20
149.9103137
40
0.3852115
50
215.3403381
51
233.084328
0
ARC
8
DEFAULT_255_1_388
10
14.9789073
20
149.8880093
40
0.3472969
50
179.2419235
51
215.2648426
0
ARC
8
DEFAULT_255_1_388
10
15.0652624
20
149.8895979
40
0.259251
50
179.3355796
51
199.1045873
0
ARC
8
DEFAULT_255_1_388
10
15.0278765
20
149.8798223
40
0.2207454
50
199.8830064
51
232.7061328
0
ARC
8
DEFAULT_255_1_388
10
15.081004
20
149.9466456
40
0.306101
50
232.3736206
51
255.5136621
0
ARC
8
DEFAULT_255_1_388
10
15.1193546
20
150.0866177
40
0.4512213
50
255.2447928
51
267.5318292
0
ARC
8
DEFAULT_255_1_388
10
15.1292013
20
150.2252709
40
0.5901825
50
267.1564563
51
270.0294721
0
ARC
8
DEFAULT_255_1_388
10
15.1323338
20
150.1753623
40
0.5402814
50
269.6999944
51
278.1662446
0
ARC
8
DEFAULT_255_1_388
10
15.1611365
20
149.9806974
40
0.3435003
50
278.0229022
51
290.6255326
0
ARC
8
DEFAULT_255_1_388
10
15.2002532
20
149.8763547
40
0.2320666
50
290.6616368
51
307.0374127
0
ARC
8
DEFAULT_255_1_388
10
15.2340432
20
149.834904
40
0.1786372
50
306.3942078
51
355.303191
0
ARC
8
DEFAULT_255_1_388
10
15.1764725
20
149.8435186
40
0.2367516
50
354.3662092
51
0.0709489
0
ARC
8
DEFAULT_255_1_388
10
15.1924594
20
149.8460561
40
0.2207761
50
359.4175379
51
16.1975911
0
ARC
8
DEFAULT_255_1_388
10
15.2436711
20
149.8600954
40
0.1676828
50
16.4721294
51
52.6261798
0
ARC
8
DEFAULT_255_1_388
10
15.1513219
20
149.7381606
40
0.3206412
50
52.7381828
51
62.4979144
0
ARC
8
DEFAULT_255_1_388
10
14.9954972
20
149.4449236
40
0.6527035
50
62.2517425
51
68.1219454
0
ARC
8
DEFAULT_255_1_388
10
14.802046
20
148.9694951
40
1.1659797
50
68.006043
51
71.8055127
0
ARC
8
DEFAULT_255_1_388
10
14.6000368
20
148.3636723
40
1.8045908
50
71.718361
51
73.9260743
0
LINE
8
DEFAULT_255_1_388
10
16.6158684
20
150.8268898
11
16.6158684
21
150.7329191
0
LINE
8
DEFAULT_255_1_388
10
16.6158684
20
150.7329191
11
16.071019
21
149.5113
0
LINE
8
DEFAULT_255_1_388
10
16.071019
20
149.5113
11
15.8957275
21
149.5113
0
LINE
8
DEFAULT_255_1_388
10
15.8957275
20
149.5113
11
16.4387697
21
150.689548
0
LINE
8
DEFAULT_255_1_388
10
16.4387697
20
150.689548
11
15.7267609
21
150.689548
0
LINE
8
DEFAULT_255_1_388
10
15.7267609
20
150.689548
11
15.7267609
21
150.8268898
0
LINE
8
DEFAULT_255_1_388
10
15.7267609
20
150.8268898
11
16.6158684
21
150.8268898
0
LINE
8
DEFAULT_255_1_388
10
17.1706569
20
150.1383737
11
17.1706569
21
150.0019355
0
LINE
8
DEFAULT_255_1_388
10
17.1706569
20
150.0019355
11
16.7297175
21
150.0019355
0
LINE
8
DEFAULT_255_1_388
10
16.7297175
20
150.0019355
11
16.7297175
21
150.1383737
0
LINE
8
DEFAULT_255_1_388
10
16.7297175
20
150.1383737
11
17.1706569
21
150.1383737
0
LINE
8
DEFAULT_255_1_388
10
17.865498
20
150.8332148
11
17.865498
21
149.5113
0
LINE
8
DEFAULT_255_1_388
10
17.865498
20
149.5113
11
17.697435
21
149.5113
0
LINE
8
DEFAULT_255_1_388
10
17.697435
20
149.5113
11
17.697435
21
150.625395
0
LINE
8
DEFAULT_255_1_388
10
17.697435
20
150.625395
11
17.3604055
21
150.5016066
0
LINE
8
DEFAULT_255_1_388
10
17.3604055
20
150.5016066
11
17.3604055
21
150.6534055
0
LINE
8
DEFAULT_255_1_388
10
17.3604055
20
150.6534055
11
17.8392946
21
150.8332148
0
LINE
8
DEFAULT_255_1_388
10
17.8392946
20
150.8332148
11
17.865498
21
150.8332148
0
LINE
8
DEFAULT_255_1_388
10
19.2172304
20
149.6477382
11
19.2172304
21
149.5113
0
LINE
8
DEFAULT_255_1_388
10
19.2172304
20
149.5113
11
18.3552299
21
149.5113
0
LINE
8
DEFAULT_255_1_388
10
18.3552299
20
149.5113
11
18.3552299
21
149.6314741
0
LINE
8
DEFAULT_255_1_388
10
18.3552299
20
149.6314741
11
18.8106264
21
150.1374702
0
LINE
8
DEFAULT_255_1_388
10
18.4970896
20
150.4392607
11
18.3299301
21
150.4392607
0
LINE
8
DEFAULT_255_1_388
10
18.9091149
20
150.029946
11
18.5567248
21
149.6477382
0
LINE
8
DEFAULT_255_1_388
10
18.5567248
20
149.6477382
11
19.2172304
21
149.6477382
0
ARC
8
DEFAULT_255_1_388
10
17.2930324
20
151.4794983
40
2.0258655
50
318.5132526
51
320.7829045
0
ARC
8
DEFAULT_255_1_388
10
17.8878281
20
150.9953929
40
1.2589638
50
320.7372878
51
323.9739031
0
ARC
8
DEFAULT_255_1_388
10
18.3287212
20
150.6759554
40
0.7145141
50
323.8962701
51
328.64194
0
ARC
8
DEFAULT_255_1_388
10
18.558947
20
150.5339545
40
0.4440242
50
328.8294576
51
331.7891185
0
ARC
8
DEFAULT_255_1_388
10
18.671179
20
150.4760374
40
0.3177517
50
331.4254512
51
352.9365785
0
ARC
8
DEFAULT_255_1_388
10
18.686479
20
150.472605
40
0.3021496
50
353.2257659
51
0.0166158
0
ARC
8
DEFAULT_255_1_388
10
18.7101551
20
150.4751894
40
0.2784847
50
359.486299
51
15.9343185
0
ARC
8
DEFAULT_255_1_388
10
18.7671817
20
150.4905269
40
0.2194403
50
16.1712913
51
43.5286088
0
ARC
8
DEFAULT_255_1_388
10
18.7758762
20
150.4992191
40
0.2071504
50
43.4417391
51
83.1661095
0
ARC
8
DEFAULT_255_1_388
10
18.7607923
20
150.4163316
40
0.2912888
50
82.160179
51
90.1505708
0
ARC
8
DEFAULT_255_1_388
10
18.7572405
20
150.3559279
40
0.3517025
50
89.5460741
51
102.5418361
0
ARC
8
DEFAULT_255_1_388
10
18.7299125
20
150.4718933
40
0.2325748
50
102.1738499
51
129.206123
0
ARC
8
DEFAULT_255_1_388
10
18.7210578
20
150.4858664
40
0.2161591
50
129.72865
51
135.753947
0
ARC
8
DEFAULT_255_1_388
10
18.734706
20
150.4749728
40
0.2335433
50
136.1757367
51
166.3673339
0
ARC
8
DEFAULT_255_1_388
10
18.8479749
20
150.4446148
40
0.3507873
50
165.9090694
51
178.8684636
0
ARC
8
DEFAULT_255_1_388
10
18.945552
20
150.4393263
40
0.4484624
50
178.4391136
51
180.0083808
0
ARC
8
DEFAULT_255_1_388
10
18.7876222
20
150.4437197
40
0.4577138
50
163.2878482
51
180.5581842
0
ARC
8
DEFAULT_255_1_388
10
18.6974263
20
150.4685393
40
0.3641968
50
133.4540601
51
162.947111
0
ARC
8
DEFAULT_255_1_388
10
18.7175145
20
150.4471789
40
0.3935189
50
100.7869829
51
133.4382499
0
ARC
8
DEFAULT_255_1_388
10
18.756639
20
150.2729399
40
0.5720313
50
89.660664
51
101.3702276
0
ARC
8
DEFAULT_255_1_388
10
18.7640998
20
150.2798263
40
0.5651495
50
78.2172678
51
90.412935
0
ARC
8
DEFAULT_255_1_388
10
18.8040464
20
150.4625511
40
0.378122
50
55.9269121
51
78.4888449
0
ARC
8
DEFAULT_255_1_388
10
18.8261179
20
150.5006187
40
0.3342379
50
47.929771
51
55.4049217
0
ARC
8
DEFAULT_255_1_388
10
18.837571
20
150.5122618
40
0.3179217
50
4.334829
51
48.0560205
0
ARC
8
DEFAULT_255_1_388
10
18.7143511
20
150.4931487
40
0.442341
50
359.9251713
51
5.5971671
0
ARC
8
DEFAULT_255_1_388
10
18.7625666
20
150.4994728
40
0.3941854
50
337.8914027
51
358.9967534
0
ARC
8
DEFAULT_255_1_388
10
18.4573236
20
150.6172295
40
0.7213271
50
326.9132501
51
338.3508308
0
ARC
8
DEFAULT_255_1_388
10
18.0089348
20
150.9046105
40
1.2538973
50
319.6471833
51
327.0959558
0
ARC
8
DEFAULT_255_1_388
10
17.5776006
20
151.260405
40
1.8129975
50
317.2588228
51
319.9045804
0
LINE
8
DEFAULT_255_1_388
10
20.2192834
20
150.289269
11
20.2192834
21
150.0724135
0
LINE
8
DEFAULT_255_1_388
10
19.3889077
20
150.0498244
11
19.3889077
21
150.2730048
0
LINE
8
DEFAULT_255_1_388
10
20.052124
20
150.0272353
11
20.052124
21
150.3010153
0
LINE
8
DEFAULT_255_1_388
10
19.5560671
20
150.3136652
11
19.5560671
21
150.0462102
0
ARC
8
DEFAULT_255_1_388
10
18.8415168
20
150.0669118
40
1.3777776
50
353.8440855
51
0.2287917
0
ARC
8
DEFAULT_255_1_388
10
19.3634185
20
150.0086414
40
0.852639
50
344.4934746
51
353.9763743
0
ARC
8
DEFAULT_255_1_388
10
19.7000993
20
149.9129191
40
0.5026273
50
329.2803599
51
344.7473406
0
ARC
8
DEFAULT_255_1_388
10
19.8116488
20
149.8517038
40
0.3754848
50
324.9361395
51
328.6153007
0
ARC
8
DEFAULT_255_1_388
10
19.8542138
20
149.8219586
40
0.3235566
50
280.5801797
51
324.9173226
0
ARC
8
DEFAULT_255_1_388
10
19.8090767
20
150.0099236
40
0.5167077
50
269.5979457
51
281.6732777
0
ARC
8
DEFAULT_255_1_388
10
19.800967
20
149.9964113
40
0.5032026
50
256.6228565
51
270.5105488
0
ARC
8
DEFAULT_255_1_388
10
19.7557413
20
149.8222345
40
0.3233092
50
215.8618351
51
257.2787793
0
ARC
8
DEFAULT_255_1_388
10
19.870612
20
149.8993106
40
0.4615831
50
197.9695203
51
215.2622745
0
ARC
8
DEFAULT_255_1_388
10
20.1501796
20
149.9936641
40
0.7566307
50
187.8816486
51
198.2346584
0
ARC
8
DEFAULT_255_1_388
10
20.5955034
20
150.0579453
40
1.2065653
50
180.8977266
51
188.0054894
0
ARC
8
DEFAULT_255_1_388
10
20.9005248
20
150.06944
40
1.5117443
50
180.7434591
51
181.152202
0
ARC
8
DEFAULT_255_1_388
10
20.7330243
20
150.2784371
40
1.3441277
50
173.7674302
51
180.2315596
0
ARC
8
DEFAULT_255_1_388
10
20.2248112
20
150.3358779
40
0.8326847
50
164.3058537
51
173.9000553
0
ARC
8
DEFAULT_255_1_388
10
19.8972112
20
150.4302652
40
0.4917711
50
148.7922028
51
164.5682288
0
ARC
8
DEFAULT_255_1_388
10
19.790285
20
150.4899457
40
0.3694204
50
144.5883979
51
148.1161588
0
ARC
8
DEFAULT_255_1_388
10
19.7515595
20
150.5169667
40
0.322202
50
101.6440149
51
144.5142619
0
ARC
8
DEFAULT_255_1_388
10
19.7993787
20
150.3269337
40
0.5180451
50
89.528284
51
102.5820197
0
ARC
8
DEFAULT_255_1_388
10
19.8082779
20
150.3225376
40
0.5224441
50
77.0437914
51
90.508231
0
ARC
8
DEFAULT_255_1_388
10
19.8535033
20
150.5073272
40
0.3322297
50
48.2777708
51
77.4996087
0
ARC
8
DEFAULT_255_1_388
10
19.8616773
20
150.5218557
40
0.315966
50
36.3141586
51
47.6307332
0
ARC
8
DEFAULT_255_1_388
10
19.7639495
20
150.4560159
40
0.4337313
50
18.2931065
51
35.6770203
0
ARC
8
DEFAULT_255_1_388
10
19.4778336
20
150.3578107
40
0.7362203
50
8.0246996
51
18.5605636
0
ARC
8
DEFAULT_255_1_388
10
19.0094691
20
150.2886432
40
1.2096583
50
1.127539
51
8.1718423
0
ARC
8
DEFAULT_255_1_388
10
18.6445825
20
150.2743374
40
1.5747719
50
0.5432713
51
1.38669
0
ARC
8
DEFAULT_255_1_388
10
18.8503204
20
150.3050163
40
1.2018103
50
359.8092569
51
4.9408001
0
ARC
8
DEFAULT_255_1_388
10
19.3239785
20
150.34729
40
0.7262727
50
4.8364937
51
12.2906017
0
ARC
8
DEFAULT_255_1_388
10
19.633925
20
150.4163485
40
0.4087324
50
12.0806994
51
23.8171225
0
ARC
8
DEFAULT_255_1_388
10
19.7659646
20
150.4722508
40
0.2653719
50
24.2874621
51
31.3934353
0
ARC
8
DEFAULT_255_1_388
10
19.8250082
20
150.5108822
40
0.1948607
50
30.7407708
51
82.4658033
0
ARC
8
DEFAULT_255_1_388
10
19.8047742
20
150.4115017
40
0.2961198
50
81.1057101
51
90.2187368
0
ARC
8
DEFAULT_255_1_388
10
19.8007554
20
150.4405421
40
0.2670929
50
89.380395
51
105.6763916
0
ARC
8
DEFAULT_255_1_388
10
19.7801276
20
150.515532
40
0.1893189
50
105.7980655
51
149.7387869
0
ARC
8
DEFAULT_255_1_388
10
19.8998416
20
150.4435719
40
0.3289892
50
149.4208441
51
163.628295
0
ARC
8
DEFAULT_255_1_388
10
20.1350646
20
150.3718345
40
0.5749004
50
163.3764549
51
172.141138
0
ARC
8
DEFAULT_255_1_388
10
20.5063367
20
150.3186582
40
0.9499585
50
172.0258462
51
178.0705453
0
ARC
8
DEFAULT_255_1_388
10
20.848492
20
150.3024682
40
1.2924734
50
177.8639301
51
179.5036263
0
ARC
8
DEFAULT_255_1_388
10
20.7265939
20
150.0421151
40
1.170534
50
179.7995545
51
185.246089
0
ARC
8
DEFAULT_255_1_388
10
20.2717532
20
149.9990404
40
0.7136613
50
185.1411911
51
193.0082205
0
ARC
8
DEFAULT_255_1_388
10
19.9743793
20
149.9287441
40
0.4080987
50
192.7897338
51
205.2507384
0
ARC
8
DEFAULT_255_1_388
10
19.8566003
20
149.8761538
40
0.2791522
50
205.8001921
51
211.2545876
0
ARC
8
DEFAULT_255_1_388
10
19.7977542
20
149.8367132
40
0.2084074
50
210.3789935
51
238.4007996
0
ARC
8
DEFAULT_255_1_388
10
19.7955628
20
149.8419786
40
0.2117943
50
239.6521916
51
265.9793852
0
ARC
8
DEFAULT_255_1_388
10
19.8051477
20
149.9176358
40
0.2879689
50
265.1324455
51
270.0603288
0
ARC
8
DEFAULT_255_1_388
10
19.8083854
20
149.8811418
40
0.2514919
50
269.3314378
51
287.2180039
0
ARC
8
DEFAULT_255_1_388
10
19.8238936
20
149.8245291
40
0.1928357
50
287.7957942
51
329.0808983
0
ARC
8
DEFAULT_255_1_388
10
19.7161693
20
149.8917651
40
0.319808
50
328.6635261
51
343.3325043
0
ARC
8
DEFAULT_255_1_388
10
19.4717152
20
149.9679195
40
0.5758408
50
343.0498092
51
351.9392499
0
ARC
8
DEFAULT_255_1_388
10
19.0816473
20
150.0254205
40
0.9701202
50
351.8071632
51
357.7957897
0
ARC
8
DEFAULT_255_1_388
10
18.718195
20
150.0442724
40
1.3340376
50
357.5870923
51
359.2682493
0
LINE
8
DEFAULT_255_1_388
10
21.2583825
20
150.289269
11
21.2583825
21
150.0724135
0
LINE
8
DEFAULT_255_1_388
10
20.4280068
20
150.0498244
11
20.4280068
21
150.2730048
0
LINE
8
DEFAULT_255_1_388
10
21.0912231
20
150.0272353
11
21.0912231
21
150.3010153
0
LINE
8
DEFAULT_255_1_388
10
20.5951662
20
150.3136652
11
20.5951662
21
150.0462102
0
ARC
8
DEFAULT_255_1_388
10
19.8806159
20
150.0669118
40
1.3777776
50
353.8440855
51
0.2287917
0
ARC
8
DEFAULT_255_1_388
10
20.4025177
20
150.0086414
40
0.852639
50
344.4934746
51
353.9763743
0
ARC
8
DEFAULT_255_1_388
10
20.7391984
20
149.9129191
40
0.5026273
50
329.2803599
51
344.7473406
0
ARC
8
DEFAULT_255_1_388
10
20.8507479
20
149.8517038
40
0.3754848
50
324.9361395
51
328.6153007
0
ARC
8
DEFAULT_255_1_388
10
20.8933129
20
149.8219586
40
0.3235566
50
280.5801797
51
324.9173226
0
ARC
8
DEFAULT_255_1_388
10
20.8481758
20
150.0099236
40
0.5167077
50
269.5979457
51
281.6732777
0
ARC
8
DEFAULT_255_1_388
10
20.8400661
20
149.9964113
40
0.5032026
50
256.6228565
51
270.5105488
0
ARC
8
DEFAULT_255_1_388
10
20.7948404
20
149.8222345
40
0.3233092
50
215.8618351
51
257.2787793
0
ARC
8
DEFAULT_255_1_388
10
20.9097111
20
149.8993106
40
0.4615831
50
197.9695203
51
215.2622745
0
ARC
8
DEFAULT_255_1_388
10
21.1892787
20
149.9936641
40
0.7566307
50
187.8816486
51
198.2346584
0
ARC
8
DEFAULT_255_1_388
10
21.6346025
20
150.0579453
40
1.2065653
50
180.8977266
51
188.0054894
0
ARC
8
DEFAULT_255_1_388
10
21.9396239
20
150.06944
40
1.5117443
50
180.7434591
51
181.152202
0
ARC
8
DEFAULT_255_1_388
10
21.7721235
20
150.2784371
40
1.3441277
50
173.7674302
51
180.2315596
0
ARC
8
DEFAULT_255_1_388
10
21.2639104
20
150.3358779
40
0.8326847
50
164.3058537
51
173.9000553
0
ARC
8
DEFAULT_255_1_388
10
20.9363104
20
150.4302652
40
0.4917711
50
148.7922028
51
164.5682288
0
ARC
8
DEFAULT_255_1_388
10
20.8293841
20
150.4899457
40
0.3694204
50
144.5883979
51
148.1161588
0
ARC
8
DEFAULT_255_1_388
10
20.7906586
20
150.5169667
40
0.322202
50
101.6440149
51
144.5142619
0
ARC
8
DEFAULT_255_1_388
10
20.8384779
20
150.3269337
40
0.5180451
50
89.528284
51
102.5820197
0
ARC
8
DEFAULT_255_1_388
10
20.847377
20
150.3225376
40
0.5224441
50
77.0437914
51
90.508231
0
ARC
8
DEFAULT_255_1_388
10
20.8926024
20
150.5073272
40
0.3322297
50
48.2777708
51
77.4996087
0
ARC
8
DEFAULT_255_1_388
10
20.9007764
20
150.5218557
40
0.315966
50
36.3141586
51
47.6307332
0
ARC
8
DEFAULT_255_1_388
10
20.8030486
20
150.4560159
40
0.4337313
50
18.2931065
51
35.6770203
0
ARC
8
DEFAULT_255_1_388
10
20.5169327
20
150.3578107
40
0.7362203
50
8.0246996
51
18.5605636
0
ARC
8
DEFAULT_255_1_388
10
20.0485683
20
150.2886432
40
1.2096583
50
1.127539
51
8.1718423
0
ARC
8
DEFAULT_255_1_388
10
19.6836816
20
150.2743374
40
1.5747719
50
0.5432713
51
1.38669
0
ARC
8
DEFAULT_255_1_388
10
19.8894195
20
150.3050163
40
1.2018103
50
359.8092569
51
4.9408001
0
ARC
8
DEFAULT_255_1_388
10
20.3630776
20
150.34729
40
0.7262727
50
4.8364937
51
12.2906017
0
ARC
8
DEFAULT_255_1_388
10
20.6730241
20
150.4163485
40
0.4087324
50
12.0806994
51
23.8171225
0
ARC
8
DEFAULT_255_1_388
10
20.8050637
20
150.4722508
40
0.2653719
50
24.2874621
51
31.3934353
0
ARC
8
DEFAULT_255_1_388
10
20.8641073
20
150.5108822
40
0.1948607
50
30.7407708
51
82.4658033
0
ARC
8
DEFAULT_255_1_388
10
20.8438734
20
150.4115017
40
0.2961198
50
81.1057101
51
90.2187368
0
ARC
8
DEFAULT_255_1_388
10
20.8398545
20
150.4405421
40
0.2670929
50
89.380395
51
105.6763916
0
ARC
8
DEFAULT_255_1_388
10
20.8192267
20
150.515532
40
0.1893189
50
105.7980655
51
149.7387869
0
ARC
8
DEFAULT_255_1_388
10
20.9389407
20
150.4435719
40
0.3289892
50
149.4208441
51
163.628295
0
ARC
8
DEFAULT_255_1_388
10
21.1741637
20
150.3718345
40
0.5749004
50
163.3764549
51
172.141138
0
ARC
8
DEFAULT_255_1_388
10
21.5454359
20
150.3186582
40
0.9499585
50
172.0258462
51
178.0705453
0
ARC
8
DEFAULT_255_1_388
10
21.8875911
20
150.3024682
40
1.2924734
50
177.8639301
51
179.5036263
0
ARC
8
DEFAULT_255_1_388
10
21.765693
20
150.0421151
40
1.170534
50
179.7995545
51
185.246089
0
ARC
8
DEFAULT_255_1_388
10
21.3108523
20
149.9990404
40
0.7136613
50
185.1411911
51
193.0082205
0
ARC
8
DEFAULT_255_1_388
10
21.0134784
20
149.9287441
40
0.4080987
50
192.7897338
51
205.2507384
0
ARC
8
DEFAULT_255_1_388
10
20.8956994
20
149.8761538
40
0.2791522
50
205.8001921
51
211.2545876
0
ARC
8
DEFAULT_255_1_388
10
20.8368533
20
149.8367132
40
0.2084074
50
210.3789935
51
238.4007996
0
ARC
8
DEFAULT_255_1_388
10
20.8346619
20
149.8419786
40
0.2117943
50
239.6521916
51
265.9793852
0
ARC
8
DEFAULT_255_1_388
10
20.8442468
20
149.9176358
40
0.2879689
50
265.1324455
51
270.0603288
0
ARC
8
DEFAULT_255_1_388
10
20.8474845
20
149.8811418
40
0.2514919
50
269.3314378
51
287.2180039
0
ARC
8
DEFAULT_255_1_388
10
20.8629927
20
149.8245291
40
0.1928357
50
287.7957942
51
329.0808983
0
ARC
8
DEFAULT_255_1_388
10
20.7552684
20
149.8917651
40
0.319808
50
328.6635261
51
343.3325043
0
ARC
8
DEFAULT_255_1_388
10
20.5108143
20
149.9679195
40
0.5758408
50
343.0498092
51
351.9392499
0
ARC
8
DEFAULT_255_1_388
10
20.1207464
20
150.0254205
40
0.9701202
50
351.8071632
51
357.7957897
0
ARC
8
DEFAULT_255_1_388
10
19.7572941
20
150.0442724
40
1.3340376
50
357.5870923
51
359.2682493
0
LINE
8
DEFAULT_255_2_778
10
9.3932417
20
140.0968326
11
10.7161417
21
140.0968326
0
LINE
8
DEFAULT_255_2_778
10
10.7161417
20
140.0968326
11
10.7161417
21
87.1801326
0
LINE
8
DEFAULT_255_2_778
10
9.3932834
20
87.1802333
11
12.0390834
21
87.1802333
0
LINE
8
DEFAULT_255_2_778
10
12.0390834
20
87.1802333
11
12.0390834
21
81.8885333
0
LINE
8
DEFAULT_255_2_778
10
12.0390834
20
81.8885333
11
9.3932834
21
81.8885333
0
LINE
8
DEFAULT_255_2_778
10
9.3932834
20
81.8885333
11
9.3932834
21
87.1802333
0
LINE
8
DEFAULT_255_2_778
10
10.187
20
82.4177666
11
10.187
21
86.6510666
0
LINE
8
DEFAULT_255_2_778
10
9.9224167
20
85.857375
11
10.1870167
21
86.651075
0
LINE
8
DEFAULT_255_2_778
10
10.1870167
20
86.651075
11
10.4516167
21
85.857375
0
LINE
8
DEFAULT_255_2_778
10
10.4516167
20
85.857375
11
9.9224167
21
85.857375
0
LINE
8
DEFAULT_255_2_778
10
11.2453
20
86.6510666
11
11.2453
21
82.4177666
0
LINE
8
DEFAULT_255_2_778
10
10.9807167
20
83.211475
11
11.2453167
21
82.417775
0
LINE
8
DEFAULT_255_2_778
10
11.2453167
20
82.417775
11
11.5099167
21
83.211475
0
LINE
8
DEFAULT_255_2_778
10
11.5099167
20
83.211475
11
10.9807167
21
83.211475
0
LINE
8
DEFAULT_255_2_778
10
10.7161335
20
81.8885985
11
10.7161335
21
28.9718985
0
LINE
8
DEFAULT_255_2_778
10
10.7161335
20
28.9718985
11
9.3932335
21
28.9718985
0
LINE
8
DEFAULT_255_2_778
10
19.9765335
20
140.0968985
11
18.6536335
21
140.0968985
0
LINE
8
DEFAULT_255_2_778
10
18.6536335
20
140.0968985
11
18.6536335
21
99.0864985
0
LINE
8
DEFAULT_255_2_778
10
18.6536335
20
93.7947985
11
18.6536335
21
52.7843985
0
LINE
8
DEFAULT_255_2_778
10
18.6536335
20
52.7843985
11
19.9765335
21
52.7843985
0
LINE
8
DEFAULT_255_2_778
10
9.3932834
20
15.7427333
11
12.0390834
21
15.7427333
0
LINE
8
DEFAULT_255_2_778
10
12.0390834
20
15.7427333
11
12.0390834
21
10.4510333
0
LINE
8
DEFAULT_255_2_778
10
12.0390834
20
10.4510333
11
9.3932834
21
10.4510333
0
LINE
8
DEFAULT_255_2_778
10
9.3932834
20
10.4510333
11
9.3932834
21
15.7427333
0
ARC
8
DEFAULT_255_2_778_1
10
13.1928591
20
10.553477
40
4.816461
50
120.9442904
51
122.351755
0
ARC
8
DEFAULT_255_2_778_1
10
12.7462523
20
11.2571039
40
3.9830657
50
122.3407904
51
124.1946752
0
ARC
8
DEFAULT_255_2_778_1
10
12.3063464
20
11.9036306
40
3.2010724
50
124.1855758
51
126.4338849
0
ARC
8
DEFAULT_255_2_778_1
10
11.9204129
20
12.4263611
40
2.5513094
50
126.4326926
51
128.8877368
0
ARC
8
DEFAULT_255_2_778_1
10
11.5855968
20
12.8407658
40
2.0185498
50
128.8749205
51
131.8726567
0
ARC
8
DEFAULT_255_2_778_1
10
11.2884677
20
13.1717854
40
1.5737356
50
131.8616166
51
135.4168838
0
ARC
8
DEFAULT_255_2_778_1
10
11.025668
20
13.4299765
40
1.2053256
50
135.3893975
51
139.9687014
0
ARC
8
DEFAULT_255_2_778_1
10
10.7927889
20
13.6248102
40
0.9016937
50
139.9301659
51
145.9260426
0
ARC
8
DEFAULT_255_2_778_1
10
10.596654
20
13.7568104
40
0.6652776
50
145.8787362
51
153.8146208
0
ARC
8
DEFAULT_255_2_778_1
10
10.4445553
20
13.8311797
40
0.4959714
50
153.770634
51
164.3484794
0
ARC
8
DEFAULT_255_2_778_1
10
10.3432387
20
13.8593786
40
0.3908039
50
164.3220276
51
179.8083066
0
ARC
8
DEFAULT_255_2_778_1
10
10.3642789
20
13.867515
40
0.4118985
50
180.9499449
51
213.8111542
0
ARC
8
DEFAULT_255_2_778_1
10
10.6401828
20
14.0370896
40
0.73561
50
212.8271214
51
224.258472
0
ARC
8
DEFAULT_255_2_778_1
10
11.0230335
20
14.4064236
40
1.267567
50
224.1376218
51
231.4508261
0
ARC
8
DEFAULT_255_2_778_1
10
11.6657195
20
15.2094168
40
2.2960809
50
231.3955893
51
236.1256478
0
ARC
8
DEFAULT_255_2_778_1
10
13.4980223
20
17.9559293
40
5.5976905
50
236.2233172
51
239.1314682
0
ARC
8
DEFAULT_255_2_778_1
10
25.447927
20
37.6836568
40
28.6623793
50
238.8606853
51
239.0711101
0
ARC
8
DEFAULT_255_2_778_1
10
6.2757281
20
5.5865653
40
8.7248518
50
57.2420924
51
59.4062964
0
ARC
8
DEFAULT_255_2_778_1
10
9.5034241
20
10.6175102
40
2.747542
50
52.8289294
51
57.079028
0
ARC
8
DEFAULT_255_2_778_1
10
10.2780783
20
11.6378488
40
1.466457
50
46.3041868
51
52.8596521
0
ARC
8
DEFAULT_255_2_778_1
10
10.7103073
20
12.0879842
40
0.8424061
50
36.2174211
51
46.4090895
0
ARC
8
DEFAULT_255_2_778_1
10
10.9948088
20
12.2928128
40
0.4918609
50
17.400375
51
36.5489745
0
ARC
8
DEFAULT_255_2_778_1
10
11.1088994
20
12.3326754
40
0.3710912
50
0.0676858
51
16.7951297
0
ARC
8
DEFAULT_255_2_778_1
10
11.0878613
20
12.3345428
40
0.3921317
50
343.8035191
51
359.7912046
0
ARC
8
DEFAULT_255_2_778_1
10
10.9815912
20
12.3650167
40
0.5026844
50
333.2506233
51
343.8465691
0
ARC
8
DEFAULT_255_2_778_1
10
10.8277757
20
12.4417313
40
0.6745679
50
325.6600948
51
333.3122657
0
ARC
8
DEFAULT_255_2_778_1
10
10.6323344
20
12.5745296
40
0.9108568
50
319.7560915
51
325.6976089
0
ARC
8
DEFAULT_255_2_778_1
10
10.404199
20
12.7663002
40
1.2088854
50
315.4577584
51
319.8037947
0
ARC
8
DEFAULT_255_2_778_1
10
10.1408127
20
13.0251507
40
1.5781764
50
311.7298824
51
315.4670864
0
ARC
8
DEFAULT_255_2_778_1
10
9.8317879
20
13.3707074
40
2.0417554
50
308.723055
51
311.7470879
0
ARC
8
DEFAULT_255_2_778_1
10
9.477589
20
13.8119492
40
2.6075745
50
306.1165163
51
308.7300151
0
ARC
8
DEFAULT_255_2_778_1
10
9.0746091
20
14.3632523
40
3.2904564
50
303.9559446
51
306.1266333
0
ARC
8
DEFAULT_255_2_778_1
10
8.6630432
20
14.972515
40
4.0257023
50
302.3733397
51
303.9712246
0
ARC
8
DEFAULT_255_2_778_1
10
8.2434347
20
15.6340058
40
4.8090549
50
300.9434827
51
302.3758078
0
LINE
8
DEFAULT_255_2_778
10
9.3932335
20
21.0343404
11
10.7161335
21
21.0343404
0
LINE
8
DEFAULT_255_2_778
10
10.7161335
20
21.0343404
11
10.7161335
21
15.7427404
0
LINE
8
DEFAULT_255_2_778
10
10.7161335
20
10.4510404
11
10.7161335
21
5.1593404
0
LINE
8
DEFAULT_255_2_778
10
10.7161335
20
5.1593404
11
9.3932335
21
5.1593404
0
LINE
8
DEFAULT_255_2_778
10
17.3307335
20
99.0864404
11
19.9765335
21
99.0864404
0
LINE
8
DEFAULT_255_2_778
10
19.9765335
20
99.0864404
11
19.9765335
21
93.7947404
0
LINE
8
DEFAULT_255_2_778
10
19.9765335
20
93.7947404
11
17.3307335
21
93.7947404
0
LINE
8
DEFAULT_255_2_778
10
17.3307335
20
93.7947404
11
17.3307335
21
99.0864404
0
LINE
8
DEFAULT_255_2_778
10
18.1245
20
98.2926833
11
18.1245
21
94.5884833
0
ARC
8
DEFAULT_255_2_778
10
19.0496335
20
97.8966666
40
0.3960095
50
89.8710075
51
180.1289967
0
ARC
8
DEFAULT_255_2_778
10
19.051338
20
97.8966878
40
0.395988
50
359.8679252
51
90.1176342
0
ARC
8
DEFAULT_255_2_778
10
19.0513595
20
97.8949405
40
0.3959664
50
269.8792548
51
0.1207452
0
ARC
8
DEFAULT_255_2_778
10
19.0496123
20
97.8949621
40
0.3959881
50
179.8823802
51
270.1320647
0
LINE
8
DEFAULT_255_2_778
10
18.653625
20
97.895775
11
18.653625
21
97.895775
0
ARC
8
DEFAULT_255_2_778
10
19.0496335
20
94.9862666
40
0.3960095
50
89.8710075
51
180.1289967
0
ARC
8
DEFAULT_255_2_778
10
19.051338
20
94.9862878
40
0.395988
50
359.8679252
51
90.1176342
0
ARC
8
DEFAULT_255_2_778
10
19.0513595
20
94.9845405
40
0.3959664
50
269.8792548
51
0.1207452
0
ARC
8
DEFAULT_255_2_778
10
19.0496123
20
94.9845621
40
0.3959881
50
179.8823802
51
270.1320647
0
LINE
8
DEFAULT_255_2_778
10
18.653625
20
94.985375
11
18.653625
21
94.985375
0
LINE
8
DEFAULT_255_1_388
10
4.1657903
20
148.8424898
11
4.1657903
21
147.6687596
0
LINE
8
DEFAULT_255_1_388
10
4.1657903
20
147.6687596
11
4.7892498
21
147.6687596
0
LINE
8
DEFAULT_255_1_388
10
4.7892498
20
147.6687596
11
4.7892498
21
147.5269
0
LINE
8
DEFAULT_255_1_388
10
4.7892498
20
147.5269
11
3.9914024
21
147.5269
0
LINE
8
DEFAULT_255_1_388
10
3.9914024
20
147.5269
11
3.9914024
21
148.8424898
0
LINE
8
DEFAULT_255_1_388
10
3.9914024
20
148.8424898
11
4.1657903
21
148.8424898
0
LINE
8
DEFAULT_255_1_388
10
5.4931265
20
148.8488148
11
5.4931265
21
147.5269
0
LINE
8
DEFAULT_255_1_388
10
5.4931265
20
147.5269
11
5.3250635
21
147.5269
0
LINE
8
DEFAULT_255_1_388
10
5.3250635
20
147.5269
11
5.3250635
21
148.640995
0
LINE
8
DEFAULT_255_1_388
10
5.3250635
20
148.640995
11
4.988034
21
148.5172066
0
LINE
8
DEFAULT_255_1_388
10
4.988034
20
148.5172066
11
4.988034
21
148.6690055
0
LINE
8
DEFAULT_255_1_388
10
4.988034
20
148.6690055
11
5.4669231
21
148.8488148
0
LINE
8
DEFAULT_255_1_388
10
5.4669231
20
148.8488148
11
5.4931265
21
148.8488148
0
LINE
8
DEFAULT_255_1_388
10
4.4952985
20
5.9738148
11
4.4952985
21
4.6519
0
LINE
8
DEFAULT_255_1_388
10
4.4952985
20
4.6519
11
4.3272355
21
4.6519
0
LINE
8
DEFAULT_255_1_388
10
4.3272355
20
4.6519
11
4.3272355
21
5.765995
0
LINE
8
DEFAULT_255_1_388
10
4.3272355
20
5.765995
11
3.990206
21
5.6422066
0
LINE
8
DEFAULT_255_1_388
10
3.990206
20
5.6422066
11
3.990206
21
5.7940055
0
LINE
8
DEFAULT_255_1_388
10
3.990206
20
5.7940055
11
4.4690951
21
5.9738148
0
LINE
8
DEFAULT_255_1_388
10
4.4690951
20
5.9738148
11
4.4952985
21
5.9738148
0
LINE
8
DEFAULT_255_1_388
10
4.7791856
20
13.367369
11
4.7791856
21
13.1505135
0
LINE
8
DEFAULT_255_1_388
10
3.9488099
20
13.1279244
11
3.9488099
21
13.3511048
0
LINE
8
DEFAULT_255_1_388
10
4.6120262
20
13.1053353
11
4.6120262
21
13.3791153
0
LINE
8
DEFAULT_255_1_388
10
4.1159693
20
13.3917652
11
4.1159693
21
13.1243102
0
ARC
8
DEFAULT_255_1_388
10
3.401419
20
13.1450118
40
1.3777776
50
353.8440855
51
0.2287917
0
ARC
8
DEFAULT_255_1_388
10
3.9233208
20
13.0867414
40
0.852639
50
344.4934746
51
353.9763743
0
ARC
8
DEFAULT_255_1_388
10
4.2600015
20
12.9910191
40
0.5026273
50
329.2803599
51
344.7473406
0
ARC
8
DEFAULT_255_1_388
10
4.3715511
20
12.9298038
40
0.3754848
50
324.9361395
51
328.6153007
0
ARC
8
DEFAULT_255_1_388
10
4.4141161
20
12.9000586
40
0.3235566
50
280.5801797
51
324.9173226
0
ARC
8
DEFAULT_255_1_388
10
4.3689789
20
13.0880236
40
0.5167077
50
269.5979457
51
281.6732777
0
ARC
8
DEFAULT_255_1_388
10
4.3608693
20
13.0745113
40
0.5032026
50
256.6228565
51
270.5105488
0
ARC
8
DEFAULT_255_1_388
10
4.3156435
20
12.9003345
40
0.3233092
50
215.8618351
51
257.2787793
0
ARC
8
DEFAULT_255_1_388
10
4.4305142
20
12.9774106
40
0.4615831
50
197.9695203
51
215.2622745
0
ARC
8
DEFAULT_255_1_388
10
4.7100818
20
13.0717641
40
0.7566307
50
187.8816486
51
198.2346584
0
ARC
8
DEFAULT_255_1_388
10
5.1554056
20
13.1360453
40
1.2065653
50
180.8977266
51
188.0054894
0
ARC
8
DEFAULT_255_1_388
10
5.460427
20
13.14754
40
1.5117443
50
180.7434591
51
181.152202
0
ARC
8
DEFAULT_255_1_388
10
5.2929266
20
13.3565371
40
1.3441277
50
173.7674302
51
180.2315596
0
ARC
8
DEFAULT_255_1_388
10
4.7847135
20
13.4139779
40
0.8326847
50
164.3058537
51
173.9000553
0
ARC
8
DEFAULT_255_1_388
10
4.4571135
20
13.5083652
40
0.4917711
50
148.7922028
51
164.5682288
0
ARC
8
DEFAULT_255_1_388
10
4.3501872
20
13.5680457
40
0.3694204
50
144.5883979
51
148.1161588
0
ARC
8
DEFAULT_255_1_388
10
4.3114618
20
13.5950667
40
0.322202
50
101.6440149
51
144.5142619
0
ARC
8
DEFAULT_255_1_388
10
4.359281
20
13.4050337
40
0.5180451
50
89.528284
51
102.5820197
0
ARC
8
DEFAULT_255_1_388
10
4.3681802
20
13.4006376
40
0.5224441
50
77.0437914
51
90.508231
0
ARC
8
DEFAULT_255_1_388
10
4.4134055
20
13.5854272
40
0.3322297
50
48.2777708
51
77.4996087
0
ARC
8
DEFAULT_255_1_388
10
4.4215795
20
13.5999557
40
0.315966
50
36.3141586
51
47.6307332
0
ARC
8
DEFAULT_255_1_388
10
4.3238518
20
13.5341159
40
0.4337313
50
18.2931065
51
35.6770203
0
ARC
8
DEFAULT_255_1_388
10
4.0377358
20
13.4359107
40
0.7362203
50
8.0246996
51
18.5605636
0
ARC
8
DEFAULT_255_1_388
10
3.5693714
20
13.3667432
40
1.2096583
50
1.127539
51
8.1718423
0
ARC
8
DEFAULT_255_1_388
10
3.2044847
20
13.3524374
40
1.5747719
50
0.5432713
51
1.38669
0
ARC
8
DEFAULT_255_1_388
10
3.4102226
20
13.3831163
40
1.2018103
50
359.8092569
51
4.9408001
0
ARC
8
DEFAULT_255_1_388
10
3.8838807
20
13.42539
40
0.7262727
50
4.8364937
51
12.2906017
0
ARC
8
DEFAULT_255_1_388
10
4.1938272
20
13.4944485
40
0.4087324
50
12.0806994
51
23.8171225
0
ARC
8
DEFAULT_255_1_388
10
4.3258668
20
13.5503508
40
0.2653719
50
24.2874621
51
31.3934353
0
ARC
8
DEFAULT_255_1_388
10
4.3849104
20
13.5889822
40
0.1948607
50
30.7407708
51
82.4658033
0
ARC
8
DEFAULT_255_1_388
10
4.3646765
20
13.4896017
40
0.2961198
50
81.1057101
51
90.2187368
0
ARC
8
DEFAULT_255_1_388
10
4.3606577
20
13.5186421
40
0.2670929
50
89.380395
51
105.6763916
0
ARC
8
DEFAULT_255_1_388
10
4.3400299
20
13.593632
40
0.1893189
50
105.7980655
51
149.7387869
0
ARC
8
DEFAULT_255_1_388
10
4.4597439
20
13.5216719
40
0.3289892
50
149.4208441
51
163.628295
0
ARC
8
DEFAULT_255_1_388
10
4.6949668
20
13.4499345
40
0.5749004
50
163.3764549
51
172.141138
0
ARC
8
DEFAULT_255_1_388
10
5.066239
20
13.3967582
40
0.9499585
50
172.0258462
51
178.0705453
0
ARC
8
DEFAULT_255_1_388
10
5.4083943
20
13.3805682
40
1.2924734
50
177.8639301
51
179.5036263
0
ARC
8
DEFAULT_255_1_388
10
5.2864961
20
13.1202151
40
1.170534
50
179.7995545
51
185.246089
0
ARC
8
DEFAULT_255_1_388
10
4.8316554
20
13.0771404
40
0.7136613
50
185.1411911
51
193.0082205
0
ARC
8
DEFAULT_255_1_388
10
4.5342815
20
13.0068441
40
0.4080987
50
192.7897338
51
205.2507384
0
ARC
8
DEFAULT_255_1_388
10
4.4165025
20
12.9542538
40
0.2791522
50
205.8001921
51
211.2545876
0
ARC
8
DEFAULT_255_1_388
10
4.3576564
20
12.9148132
40
0.2084074
50
210.3789935
51
238.4007996
0
ARC
8
DEFAULT_255_1_388
10
4.355465
20
12.9200786
40
0.2117943
50
239.6521916
51
265.9793852
0
ARC
8
DEFAULT_255_1_388
10
4.3650499
20
12.9957358
40
0.2879689
50
265.1324455
51
270.0603288
0
ARC
8
DEFAULT_255_1_388
10
4.3682876
20
12.9592418
40
0.2514919
50
269.3314378
51
287.2180039
0
ARC
8
DEFAULT_255_1_388
10
4.3837958
20
12.9026291
40
0.1928357
50
287.7957942
51
329.0808983
0
ARC
8
DEFAULT_255_1_388
10
4.2760715
20
12.9698651
40
0.319808
50
328.6635261
51
343.3325043
0
ARC
8
DEFAULT_255_1_388
10
4.0316174
20
13.0460195
40
0.5758408
50
343.0498092
51
351.9392499
0
ARC
8
DEFAULT_255_1_388
10
3.6415496
20
13.1035205
40
0.9701202
50
351.8071632
51
357.7957897
0
ARC
8
DEFAULT_255_1_388
10
3.2780973
20
13.1223724
40
1.3340376
50
357.5870923
51
359.2682493
0
LINE
8
DEFAULT_255_1_388
10
4.8100318
20
20.6633382
11
4.8100318
21
20.5269
0
LINE
8
DEFAULT_255_1_388
10
4.8100318
20
20.5269
11
3.9480313
21
20.5269
0
LINE
8
DEFAULT_255_1_388
10
3.9480313
20
20.5269
11
3.9480313
21
20.6470741
0
LINE
8
DEFAULT_255_1_388
10
3.9480313
20
20.6470741
11
4.4034278
21
21.1530702
0
LINE
8
DEFAULT_255_1_388
10
4.0898909
20
21.4548607
11
3.9227315
21
21.4548607
0
LINE
8
DEFAULT_255_1_388
10
4.5019163
20
21.045546
11
4.1495262
21
20.6633382
0
LINE
8
DEFAULT_255_1_388
10
4.1495262
20
20.6633382
11
4.8100318
21
20.6633382
0
ARC
8
DEFAULT_255_1_388
10
2.8858337
20
22.4950983
40
2.0258655
50
318.5132526
51
320.7829045
0
ARC
8
DEFAULT_255_1_388
10
3.4806294
20
22.0109929
40
1.2589638
50
320.7372878
51
323.9739031
0
ARC
8
DEFAULT_255_1_388
10
3.9215226
20
21.6915554
40
0.7145141
50
323.8962701
51
328.64194
0
ARC
8
DEFAULT_255_1_388
10
4.1517484
20
21.5495545
40
0.4440242
50
328.8294576
51
331.7891185
0
ARC
8
DEFAULT_255_1_388
10
4.2639804
20
21.4916374
40
0.3177517
50
331.4254512
51
352.9365785
0
ARC
8
DEFAULT_255_1_388
10
4.2792804
20
21.488205
40
0.3021496
50
353.2257659
51
0.0166158
0
ARC
8
DEFAULT_255_1_388
10
4.3029564
20
21.4907894
40
0.2784847
50
359.486299
51
15.9343185
0
ARC
8
DEFAULT_255_1_388
10
4.3599831
20
21.5061269
40
0.2194403
50
16.1712913
51
43.5286088
0
ARC
8
DEFAULT_255_1_388
10
4.3686776
20
21.5148191
40
0.2071504
50
43.4417391
51
83.1661095
0
ARC
8
DEFAULT_255_1_388
10
4.3535937
20
21.4319316
40
0.2912888
50
82.160179
51
90.1505708
0
ARC
8
DEFAULT_255_1_388
10
4.3500418
20
21.3715279
40
0.3517025
50
89.5460741
51
102.5418361
0
ARC
8
DEFAULT_255_1_388
10
4.3227138
20
21.4874933
40
0.2325748
50
102.1738499
51
129.206123
0
ARC
8
DEFAULT_255_1_388
10
4.3138592
20
21.5014664
40
0.2161591
50
129.72865
51
135.753947
0
ARC
8
DEFAULT_255_1_388
10
4.3275074
20
21.4905728
40
0.2335433
50
136.1757367
51
166.3673339
0
ARC
8
DEFAULT_255_1_388
10
4.4407762
20
21.4602148
40
0.3507873
50
165.9090694
51
178.8684636
0
ARC
8
DEFAULT_255_1_388
10
4.5383534
20
21.4549263
40
0.4484624
50
178.4391136
51
180.0083808
0
ARC
8
DEFAULT_255_1_388
10
4.3804235
20
21.4593197
40
0.4577138
50
163.2878482
51
180.5581842
0
ARC
8
DEFAULT_255_1_388
10
4.2902276
20
21.4841393
40
0.3641968
50
133.4540601
51
162.947111
0
ARC
8
DEFAULT_255_1_388
10
4.3103158
20
21.4627789
40
0.3935189
50
100.7869829
51
133.4382499
0
ARC
8
DEFAULT_255_1_388
10
4.3494403
20
21.2885399
40
0.5720313
50
89.660664
51
101.3702276
0
ARC
8
DEFAULT_255_1_388
10
4.3569012
20
21.2954263
40
0.5651495
50
78.2172678
51
90.412935
0
ARC
8
DEFAULT_255_1_388
10
4.3968478
20
21.4781511
40
0.378122
50
55.9269121
51
78.4888449
0
ARC
8
DEFAULT_255_1_388
10
4.4189193
20
21.5162187
40
0.3342379
50
47.929771
51
55.4049217
0
ARC
8
DEFAULT_255_1_388
10
4.4303723
20
21.5278618
40
0.3179217
50
4.334829
51
48.0560205
0
ARC
8
DEFAULT_255_1_388
10
4.3071525
20
21.5087487
40
0.442341
50
359.9251713
51
5.5971671
0
ARC
8
DEFAULT_255_1_388
10
4.355368
20
21.5150728
40
0.3941854
50
337.8914027
51
358.9967534
0
ARC
8
DEFAULT_255_1_388
10
4.050125
20
21.6328295
40
0.7213271
50
326.9132501
51
338.3508308
0
ARC
8
DEFAULT_255_1_388
10
3.6017362
20
21.9202105
40
1.2538973
50
319.6471833
51
327.0959558
0
ARC
8
DEFAULT_255_1_388
10
3.170402
20
22.276005
40
1.8129975
50
317.2588228
51
319.9045804
0
LINE
8
DEFAULT_255_1_388
10
5.0305015
20
21.8424898
11
5.2545855
21
21.8424898
0
LINE
8
DEFAULT_255_1_388
10
5.2545855
20
21.8424898
11
5.6846822
21
20.7690553
0
LINE
8
DEFAULT_255_1_388
10
5.6846822
20
20.7690553
11
6.1147789
21
21.8424898
0
LINE
8
DEFAULT_255_1_388
10
6.1147789
20
21.8424898
11
6.3397664
21
21.8424898
0
LINE
8
DEFAULT_255_1_388
10
6.3397664
20
21.8424898
11
6.3397664
21
20.5269
0
LINE
8
DEFAULT_255_1_388
10
6.3397664
20
20.5269
11
6.166282
21
20.5269
0
LINE
8
DEFAULT_255_1_388
10
6.166282
20
20.5269
11
6.166282
21
21.039221
0
LINE
8
DEFAULT_255_1_388
10
6.166282
20
21.039221
11
6.1825462
21
21.5922025
0
LINE
8
DEFAULT_255_1_388
10
6.1825462
20
21.5922025
11
5.7506424
21
20.5269
0
LINE
8
DEFAULT_255_1_388
10
5.7506424
20
20.5269
11
5.6178184
21
20.5269
0
LINE
8
DEFAULT_255_1_388
10
5.6178184
20
20.5269
11
5.1868182
21
21.5894918
0
LINE
8
DEFAULT_255_1_388
10
5.1868182
20
21.5894918
11
5.2039859
21
21.039221
0
LINE
8
DEFAULT_255_1_388
10
5.2039859
20
21.039221
11
5.2039859
21
20.5269
0
LINE
8
DEFAULT_255_1_388
10
5.2039859
20
20.5269
11
5.0305015
21
20.5269
0
LINE
8
DEFAULT_255_1_388
10
5.0305015
20
20.5269
11
5.0305015
21
21.8424898
0
LINE
8
DEFAULT_255_1_388
10
4.8009641
20
28.9568426
11
4.8009641
21
28.9423856
0
LINE
8
DEFAULT_255_1_388
10
4.1350371
20
28.5773456
11
4.126905
21
28.4644
0
LINE
8
DEFAULT_255_1_388
10
4.126905
20
28.4644
11
3.973299
21
28.4644
0
LINE
8
DEFAULT_255_1_388
10
3.973299
20
28.4644
11
3.973299
21
29.852275
0
LINE
8
DEFAULT_255_1_388
10
3.973299
20
29.852275
11
4.1404584
21
29.852275
0
LINE
8
DEFAULT_255_1_388
10
4.1404584
20
29.852275
11
4.1404584
21
29.3345326
0
LINE
8
DEFAULT_255_1_388
10
4.1404584
20
29.1646625
11
4.1404584
21
28.7417943
0
ARC
8
DEFAULT_255_1_388
10
4.0082093
20
28.9374101
40
0.7927704
50
349.4826431
51
0.3595958
0
ARC
8
DEFAULT_255_1_388
10
4.2644003
20
28.8880754
40
0.531881
50
331.8601729
51
349.6703499
0
ARC
8
DEFAULT_255_1_388
10
4.3468295
20
28.8479295
40
0.440275
50
322.8939675
51
331.4079366
0
ARC
8
DEFAULT_255_1_388
10
4.4250663
20
28.7827419
40
0.3385862
50
296.725075
51
323.7043525
0
ARC
8
DEFAULT_255_1_388
10
4.428431
20
28.7905416
40
0.3441011
50
270.6344013
51
295.6405661
0
ARC
8
DEFAULT_255_1_388
10
4.4215006
20
28.8807096
40
0.4343809
50
269.9955642
51
271.4168155
0
ARC
8
DEFAULT_255_1_388
10
4.4171788
20
28.8656485
40
0.4193418
50
253.6575074
51
270.5859134
0
ARC
8
DEFAULT_255_1_388
10
4.3912036
20
28.7707616
40
0.3209845
50
217.0542732
51
253.3409544
0
ARC
8
DEFAULT_255_1_388
10
4.3987033
20
29.1289393
40
0.3300893
50
93.1931057
51
141.4760886
0
ARC
8
DEFAULT_255_1_388
10
4.4192026
20
28.9903127
40
0.4698157
50
89.9442329
51
94.747695
0
ARC
8
DEFAULT_255_1_388
10
4.4241249
20
29.0828571
40
0.3772974
50
70.6102966
51
90.6780641
0
ARC
8
DEFAULT_255_1_388
10
4.4369843
20
29.1340969
40
0.3247312
50
36.1152061
51
69.7490455
0
ARC
8
DEFAULT_255_1_388
10
4.325994
20
29.0493642
40
0.4643452
50
15.4648073
51
36.4892008
0
ARC
8
DEFAULT_255_1_388
10
4.0944336
20
28.9819548
40
0.7055035
50
3.9221328
51
15.7266383
0
ARC
8
DEFAULT_255_1_388
10
3.8291455
20
28.9580859
40
0.9718194
50
359.9267025
51
4.2562571
0
ARC
8
DEFAULT_255_1_388
10
3.9205932
20
28.9648052
40
0.7132198
50
359.7232654
51
7.7112388
0
ARC
8
DEFAULT_255_1_388
10
4.1750768
20
29.0003662
40
0.4562671
50
7.5740305
51
19.4153133
0
ARC
8
DEFAULT_255_1_388
10
4.3176781
20
29.0505795
40
0.3050836
50
19.4237113
51
34.9159184
0
ARC
8
DEFAULT_255_1_388
10
4.3931375
20
29.1053279
40
0.2118777
50
34.4555697
51
84.4656773
0
ARC
8
DEFAULT_255_1_388
10
4.3786751
20
29.0203992
40
0.2978698
50
83.2721807
51
90.1114043
0
ARC
8
DEFAULT_255_1_388
10
4.3739334
20
29.0427068
40
0.275593
50
89.1345761
51
111.409063
0
ARC
8
DEFAULT_255_1_388
10
4.3649956
20
29.0796005
40
0.2380381
50
112.6478022
51
148.9262646
0
ARC
8
DEFAULT_255_1_388
10
4.452521
20
29.0186711
40
0.3445235
50
147.7602672
51
154.9285352
0
ARC
8
DEFAULT_255_1_388
10
4.4232467
20
28.8786592
40
0.3141675
50
205.8262295
51
224.5304491
0
ARC
8
DEFAULT_255_1_388
10
4.3695146
20
28.8306875
40
0.2422463
50
225.3544419
51
269.2437751
0
ARC
8
DEFAULT_255_1_388
10
4.379834
20
28.9214679
40
0.3332798
50
267.6756581
51
270.0118705
0
ARC
8
DEFAULT_255_1_388
10
4.3829005
20
28.8360943
40
0.2479241
50
269.3072706
51
289.4988605
0
ARC
8
DEFAULT_255_1_388
10
4.391008
20
28.8027296
40
0.2137951
50
290.4353105
51
325.3765722
0
ARC
8
DEFAULT_255_1_388
10
4.3202739
20
28.85383
40
0.3010425
50
325.022387
51
342.6926192
0
ARC
8
DEFAULT_255_1_388
10
4.129354
20
28.9159493
40
0.5018047
50
342.4062017
51
352.8669894
0
ARC
8
DEFAULT_255_1_388
10
3.8232878
20
28.9561328
40
0.810494
50
352.7349871
51
359.855599
0
ARC
8
DEFAULT_255_1_388
10
3.6064902
20
28.9613426
40
1.0273146
50
359.5955109
51
0.0009972
0
ARC
8
DEFAULT_255_1_388
10
5.1355103
20
28.5531142
40
0.1204062
50
163.5412609
51
180.5084512
0
ARC
8
DEFAULT_255_1_388
10
5.1139001
20
28.558946
40
0.0980307
50
138.1652
51
163.2315563
0
ARC
8
DEFAULT_255_1_388
10
5.1012742
20
28.5696456
40
0.0814881
50
105.6860499
51
137.8492655
0
ARC
8
DEFAULT_255_1_388
10
5.1145943
20
28.5264109
40
0.126719
50
92.6078949
51
106.199173
0
ARC
8
DEFAULT_255_1_388
10
5.1180133
20
28.4818207
40
0.1714243
50
89.9659531
51
93.0713334
0
ARC
8
DEFAULT_255_1_388
10
5.1192169
20
28.5068484
40
0.1464007
50
78.4379126
51
90.4311892
0
ARC
8
DEFAULT_255_1_388
10
5.1300816
20
28.5575017
40
0.094599
50
56.8961942
51
78.7357785
0
ARC
8
DEFAULT_255_1_388
10
5.1371927
20
28.5699075
40
0.0803272
50
42.6503148
51
56.3122241
0
ARC
8
DEFAULT_255_1_388
10
5.1227828
20
28.5566661
40
0.099897
50
3.8141057
51
42.636595
0
ARC
8
DEFAULT_255_1_388
10
5.090515
20
28.5521616
40
0.1324137
50
359.9498843
51
4.8301897
0
ARC
8
DEFAULT_255_1_388
10
5.1160288
20
28.5509722
40
0.1069053
50
340.9378148
51
0.5753733
0
ARC
8
DEFAULT_255_1_388
10
5.128687
20
28.5475569
40
0.0938301
50
316.0798885
51
340.3845117
0
ARC
8
DEFAULT_255_1_388
10
5.1352181
20
28.541552
40
0.0849605
50
285.8512844
51
315.941661
0
ARC
8
DEFAULT_255_1_388
10
5.1220062
20
28.584262
40
0.1296594
50
273.1293204
51
286.3125006
0
ARC
8
DEFAULT_255_1_388
10
5.1182571
20
28.6294586
40
0.1749979
50
269.9535313
51
273.5471598
0
ARC
8
DEFAULT_255_1_388
10
5.1170177
20
28.6048833
40
0.1504266
50
259.0487117
51
270.4180248
0
ARC
8
DEFAULT_255_1_388
10
5.106179
20
28.5511783
40
0.0956414
50
239.7583641
51
259.3115656
0
ARC
8
DEFAULT_255_1_388
10
5.0970722
20
28.5342048
40
0.0763945
50
222.6243303
51
239.2473835
0
ARC
8
DEFAULT_255_1_388
10
5.1121893
20
28.5480572
40
0.0968985
50
182.9231258
51
222.598101
0
ARC
8
DEFAULT_255_1_388
10
5.1425093
20
28.5519696
40
0.1274004
50
179.9657458
51
183.9850364
0
LINE
8
DEFAULT_255_1_388
10
5.6918786
20
29.0896666
11
5.5581511
21
29.1240021
0
LINE
8
DEFAULT_255_1_388
10
5.5581511
20
29.1240021
11
5.6250148
21
29.7799898
0
LINE
8
DEFAULT_255_1_388
10
5.6250148
20
29.7799898
11
6.2990739
21
29.7799898
0
LINE
8
DEFAULT_255_1_388
10
6.2990739
20
29.7799898
11
6.2990739
21
29.6254803
0
LINE
8
DEFAULT_255_1_388
10
6.2990739
20
29.6254803
11
5.7668745
21
29.6254803
0
LINE
8
DEFAULT_255_1_388
10
5.7668745
20
29.6254803
11
5.7271176
21
29.2667652
0
LINE
8
DEFAULT_255_1_388
10
5.5111657
20
28.8104652
11
5.6692895
21
28.8104652
0
LINE
8
DEFAULT_255_1_388
10
5.7361533
20
29.1258092
11
5.6918786
21
29.0896666
0
ARC
8
DEFAULT_255_1_388
10
5.935779
20
28.9090241
40
0.4141476
50
93.7181681
51
120.253934
0
ARC
8
DEFAULT_255_1_388
10
5.9463842
20
28.8181284
40
0.5055616
50
89.9660471
51
94.2495185
0
ARC
8
DEFAULT_255_1_388
10
5.9509664
20
28.8844154
40
0.4392953
50
73.8045384
51
90.5585736
0
ARC
8
DEFAULT_255_1_388
10
5.9773922
20
28.980952
40
0.3392225
50
41.3071072
51
73.543002
0
ARC
8
DEFAULT_255_1_388
10
5.9305742
20
28.9406461
40
0.4009977
50
13.5075837
51
41.2174839
0
ARC
8
DEFAULT_255_1_388
10
5.7458839
20
28.8922907
40
0.5918864
50
1.1330171
51
13.8830737
0
ARC
8
DEFAULT_255_1_388
10
5.5862485
20
28.8837522
40
0.7516787
50
359.9925091
51
1.5431298
0
ARC
8
DEFAULT_255_1_388
10
5.73071
20
28.8791027
40
0.6072343
50
347.8572712
51
0.4294349
0
ARC
8
DEFAULT_255_1_388
10
5.9276234
20
28.8344898
40
0.4053482
50
323.6727442
51
348.1674594
0
ARC
8
DEFAULT_255_1_388
10
5.9607199
20
28.8143175
40
0.3667495
50
316.8171818
51
323.1486802
0
ARC
8
DEFAULT_255_1_388
10
5.9676323
20
28.8101612
40
0.358869
50
281.839603
51
316.5458142
0
ARC
8
DEFAULT_255_1_388
10
5.925361
20
28.9851363
40
0.5388223
50
269.5770964
51
282.4214641
0
ARC
8
DEFAULT_255_1_388
10
5.9173531
20
28.961093
40
0.5147801
50
256.2425863
51
270.4486481
0
ARC
8
DEFAULT_255_1_388
10
5.8837059
20
28.8261124
40
0.3756708
50
228.9024379
51
256.33135
0
ARC
8
DEFAULT_255_1_388
10
5.8754039
20
28.8130054
40
0.360344
50
193.7536029
51
228.5272638
0
ARC
8
DEFAULT_255_1_388
10
6.0146604
20
28.8538463
40
0.5053599
50
184.9244437
51
194.4976052
0
ARC
8
DEFAULT_255_1_388
10
6.0363245
20
28.8578722
40
0.3700839
50
187.3596909
51
198.6733728
0
ARC
8
DEFAULT_255_1_388
10
5.9182488
20
28.8169373
40
0.2451195
50
198.4453795
51
217.7945479
0
ARC
8
DEFAULT_255_1_388
10
5.8849661
20
28.7933563
40
0.2043754
50
218.2887146
51
228.5613203
0
ARC
8
DEFAULT_255_1_388
10
5.8959668
20
28.8081902
40
0.2227819
50
228.9652423
51
258.1237049
0
ARC
8
DEFAULT_255_1_388
10
5.9191105
20
28.9072964
40
0.3245374
50
257.7260585
51
270.4013717
0
ARC
8
DEFAULT_255_1_388
10
5.9241603
20
28.8572255
40
0.2744726
50
269.4204315
51
286.420998
0
ARC
8
DEFAULT_255_1_388
10
5.9408659
20
28.7965705
40
0.2115721
50
286.7250065
51
320.6004665
0
ARC
8
DEFAULT_255_1_388
10
5.8977575
20
28.8315527
40
0.2670878
50
320.6712228
51
344.5440474
0
ARC
8
DEFAULT_255_1_388
10
5.7676288
20
28.8697394
40
0.4026927
50
344.241448
51
356.735803
0
ARC
8
DEFAULT_255_1_388
10
5.6272596
20
28.8813656
40
0.5435085
50
356.3547471
51
0.0507222
0
ARC
8
DEFAULT_255_1_388
10
5.7774861
20
28.8848812
40
0.3932934
50
359.5579289
51
12.9534322
0
ARC
8
DEFAULT_255_1_388
10
5.8961701
20
28.9136586
40
0.2711827
50
12.6489751
51
41.608121
0
ARC
8
DEFAULT_255_1_388
10
5.9220861
20
28.9356946
40
0.2371737
50
41.7851122
51
85.9892156
0
ARC
8
DEFAULT_255_1_388
10
5.9082171
20
28.8441738
40
0.3295244
50
84.6965848
51
90.0672125
0
ARC
8
DEFAULT_255_1_388
10
5.9055738
20
28.7690118
40
0.4046926
50
89.6804991
51
99.161352
0
ARC
8
DEFAULT_255_1_388
10
5.8824747
20
28.9070848
40
0.2647044
50
98.9836248
51
113.8905702
0
ARC
8
DEFAULT_255_1_388
10
5.8566422
20
28.9680118
40
0.1985386
50
114.195234
51
127.3641866
0
LINE
8
DEFAULT_255_1_388
10
4.9332641
20
36.8943426
11
4.9332641
21
36.8798856
0
LINE
8
DEFAULT_255_1_388
10
4.2673371
20
36.5148456
11
4.259205
21
36.4019
0
LINE
8
DEFAULT_255_1_388
10
4.259205
20
36.4019
11
4.105599
21
36.4019
0
LINE
8
DEFAULT_255_1_388
10
4.105599
20
36.4019
11
4.105599
21
37.789775
0
LINE
8
DEFAULT_255_1_388
10
4.105599
20
37.789775
11
4.2727584
21
37.789775
0
LINE
8
DEFAULT_255_1_388
10
4.2727584
20
37.789775
11
4.2727584
21
37.2720326
0
LINE
8
DEFAULT_255_1_388
10
4.2727584
20
37.1021625
11
4.2727584
21
36.6792943
0
ARC
8
DEFAULT_255_1_388
10
4.1405093
20
36.8749101
40
0.7927704
50
349.4826431
51
0.3595958
0
ARC
8
DEFAULT_255_1_388
10
4.3967003
20
36.8255754
40
0.531881
50
331.8601729
51
349.6703499
0
ARC
8
DEFAULT_255_1_388
10
4.4791295
20
36.7854295
40
0.440275
50
322.8939675
51
331.4079366
0
ARC
8
DEFAULT_255_1_388
10
4.5573663
20
36.7202419
40
0.3385862
50
296.725075
51
323.7043525
0
ARC
8
DEFAULT_255_1_388
10
4.560731
20
36.7280416
40
0.3441011
50
270.6344013
51
295.6405661
0
ARC
8
DEFAULT_255_1_388
10
4.5538006
20
36.8182096
40
0.4343809
50
269.9955642
51
271.4168155
0
ARC
8
DEFAULT_255_1_388
10
4.5494788
20
36.8031485
40
0.4193418
50
253.6575074
51
270.5859134
0
ARC
8
DEFAULT_255_1_388
10
4.5235036
20
36.7082616
40
0.3209845
50
217.0542732
51
253.3409544
0
ARC
8
DEFAULT_255_1_388
10
4.5310033
20
37.0664393
40
0.3300893
50
93.1931057
51
141.4760886
0
ARC
8
DEFAULT_255_1_388
10
4.5515026
20
36.9278127
40
0.4698157
50
89.9442329
51
94.747695
0
ARC
8
DEFAULT_255_1_388
10
4.5564249
20
37.0203571
40
0.3772974
50
70.6102966
51
90.6780641
0
ARC
8
DEFAULT_255_1_388
10
4.5692843
20
37.0715969
40
0.3247312
50
36.1152061
51
69.7490455
0
ARC
8
DEFAULT_255_1_388
10
4.458294
20
36.9868642
40
0.4643452
50
15.4648073
51
36.4892008
0
ARC
8
DEFAULT_255_1_388
10
4.2267336
20
36.9194548
40
0.7055035
50
3.9221328
51
15.7266383
0
ARC
8
DEFAULT_255_1_388
10
3.9614455
20
36.8955859
40
0.9718194
50
359.9267025
51
4.2562571
0
ARC
8
DEFAULT_255_1_388
10
4.0528932
20
36.9023052
40
0.7132198
50
359.7232654
51
7.7112388
0
ARC
8
DEFAULT_255_1_388
10
4.3073768
20
36.9378662
40
0.4562671
50
7.5740305
51
19.4153133
0
ARC
8
DEFAULT_255_1_388
10
4.4499781
20
36.9880795
40
0.3050836
50
19.4237113
51
34.9159184
0
ARC
8
DEFAULT_255_1_388
10
4.5254375
20
37.0428279
40
0.2118777
50
34.4555697
51
84.4656773
0
ARC
8
DEFAULT_255_1_388
10
4.5109751
20
36.9578992
40
0.2978698
50
83.2721807
51
90.1114043
0
ARC
8
DEFAULT_255_1_388
10
4.5062334
20
36.9802068
40
0.275593
50
89.1345761
51
111.409063
0
ARC
8
DEFAULT_255_1_388
10
4.4972956
20
37.0171005
40
0.2380381
50
112.6478022
51
148.9262646
0
ARC
8
DEFAULT_255_1_388
10
4.584821
20
36.9561711
40
0.3445235
50
147.7602672
51
154.9285352
0
ARC
8
DEFAULT_255_1_388
10
4.5555467
20
36.8161592
40
0.3141675
50
205.8262295
51
224.5304491
0
ARC
8
DEFAULT_255_1_388
10
4.5018146
20
36.7681875
40
0.2422463
50
225.3544419
51
269.2437751
0
ARC
8
DEFAULT_255_1_388
10
4.512134
20
36.8589679
40
0.3332798
50
267.6756581
51
270.0118705
0
ARC
8
DEFAULT_255_1_388
10
4.5152005
20
36.7735943
40
0.2479241
50
269.3072706
51
289.4988605
0
ARC
8
DEFAULT_255_1_388
10
4.523308
20
36.7402296
40
0.2137951
50
290.4353105
51
325.3765722
0
ARC
8
DEFAULT_255_1_388
10
4.4525739
20
36.79133
40
0.3010425
50
325.022387
51
342.6926192
0
ARC
8
DEFAULT_255_1_388
10
4.261654
20
36.8534493
40
0.5018047
50
342.4062017
51
352.8669894
0
ARC
8
DEFAULT_255_1_388
10
3.9555878
20
36.8936328
40
0.810494
50
352.7349871
51
359.855599
0
ARC
8
DEFAULT_255_1_388
10
3.7387902
20
36.8988426
40
1.0273146
50
359.5955109
51
0.0009972
0
ARC
8
DEFAULT_255_1_388
10
5.2678103
20
36.4906142
40
0.1204062
50
163.5412609
51
180.5084512
0
ARC
8
DEFAULT_255_1_388
10
5.2462001
20
36.496446
40
0.0980307
50
138.1652
51
163.2315563
0
ARC
8
DEFAULT_255_1_388
10
5.2335742
20
36.5071456
40
0.0814881
50
105.6860499
51
137.8492655
0
ARC
8
DEFAULT_255_1_388
10
5.2468943
20
36.4639109
40
0.126719
50
92.6078949
51
106.199173
0
ARC
8
DEFAULT_255_1_388
10
5.2503133
20
36.4193207
40
0.1714243
50
89.9659531
51
93.0713334
0
ARC
8
DEFAULT_255_1_388
10
5.2515169
20
36.4443484
40
0.1464007
50
78.4379126
51
90.4311892
0
ARC
8
DEFAULT_255_1_388
10
5.2623816
20
36.4950017
40
0.094599
50
56.8961942
51
78.7357785
0
ARC
8
DEFAULT_255_1_388
10
5.2694927
20
36.5074075
40
0.0803272
50
42.6503148
51
56.3122241
0
ARC
8
DEFAULT_255_1_388
10
5.2550828
20
36.4941661
40
0.099897
50
3.8141057
51
42.636595
0
ARC
8
DEFAULT_255_1_388
10
5.222815
20
36.4896616
40
0.1324137
50
359.9498843
51
4.8301897
0
ARC
8
DEFAULT_255_1_388
10
5.2483288
20
36.4884722
40
0.1069053
50
340.9378148
51
0.5753733
0
ARC
8
DEFAULT_255_1_388
10
5.260987
20
36.4850569
40
0.0938301
50
316.0798885
51
340.3845117
0
ARC
8
DEFAULT_255_1_388
10
5.2675181
20
36.479052
40
0.0849605
50
285.8512844
51
315.941661
0
ARC
8
DEFAULT_255_1_388
10
5.2543062
20
36.521762
40
0.1296594
50
273.1293204
51
286.3125006
0
ARC
8
DEFAULT_255_1_388
10
5.2505571
20
36.5669586
40
0.1749979
50
269.9535313
51
273.5471598
0
ARC
8
DEFAULT_255_1_388
10
5.2493177
20
36.5423833
40
0.1504266
50
259.0487117
51
270.4180248
0
ARC
8
DEFAULT_255_1_388
10
5.238479
20
36.4886783
40
0.0956414
50
239.7583641
51
259.3115656
0
ARC
8
DEFAULT_255_1_388
10
5.2293722
20
36.4717048
40
0.0763945
50
222.6243303
51
239.2473835
0
ARC
8
DEFAULT_255_1_388
10
5.2444893
20
36.4855572
40
0.0968985
50
182.9231258
51
222.598101
0
ARC
8
DEFAULT_255_1_388
10
5.2748093
20
36.4894696
40
0.1274004
50
179.9657458
51
183.9850364
0
LINE
8
DEFAULT_255_1_388
10
6.3193319
20
37.7174898
11
6.3193319
21
36.843743
0
LINE
8
DEFAULT_255_1_388
10
6.3193319
20
36.843743
11
6.501852
21
36.843743
0
LINE
8
DEFAULT_255_1_388
10
6.501852
20
36.843743
11
6.501852
21
36.7073048
0
LINE
8
DEFAULT_255_1_388
10
6.501852
20
36.7073048
11
6.3193319
21
36.7073048
0
LINE
8
DEFAULT_255_1_388
10
6.3193319
20
36.7073048
11
6.3193319
21
36.4019
0
LINE
8
DEFAULT_255_1_388
10
6.3193319
20
36.4019
11
6.1512689
21
36.4019
0
LINE
8
DEFAULT_255_1_388
10
6.1512689
20
36.4019
11
6.1512689
21
36.7073048
0
LINE
8
DEFAULT_255_1_388
10
6.1512689
20
36.7073048
11
5.5522057
21
36.7073048
0
LINE
8
DEFAULT_255_1_388
10
5.5522057
20
36.7073048
11
5.5522057
21
36.8057933
0
LINE
8
DEFAULT_255_1_388
10
5.5522057
20
36.8057933
11
6.1413297
21
37.7174898
0
LINE
8
DEFAULT_255_1_388
10
6.1413297
20
37.7174898
11
6.3193319
21
37.7174898
0
LINE
8
DEFAULT_255_1_388
10
6.1313905
20
37.4527455
11
5.7419542
21
36.843743
0
LINE
8
DEFAULT_255_1_388
10
5.7419542
20
36.843743
11
6.1512689
21
36.843743
0
LINE
8
DEFAULT_255_1_388
10
6.1512689
20
36.843743
11
6.1512689
21
37.488888
0
LINE
8
DEFAULT_255_1_388
10
6.1512689
20
37.488888
11
6.1313905
21
37.4527455
0
LINE
8
DEFAULT_255_1_388
10
4.8009641
20
44.8318426
11
4.8009641
21
44.8173856
0
LINE
8
DEFAULT_255_1_388
10
4.1350371
20
44.4523456
11
4.126905
21
44.3394
0
LINE
8
DEFAULT_255_1_388
10
4.126905
20
44.3394
11
3.973299
21
44.3394
0
LINE
8
DEFAULT_255_1_388
10
3.973299
20
44.3394
11
3.973299
21
45.727275
0
LINE
8
DEFAULT_255_1_388
10
3.973299
20
45.727275
11
4.1404584
21
45.727275
0
LINE
8
DEFAULT_255_1_388
10
4.1404584
20
45.727275
11
4.1404584
21
45.2095326
0
LINE
8
DEFAULT_255_1_388
10
4.1404584
20
45.0396625
11
4.1404584
21
44.6167943
0
ARC
8
DEFAULT_255_1_388
10
4.0082093
20
44.8124101
40
0.7927704
50
349.4826431
51
0.3595958
0
ARC
8
DEFAULT_255_1_388
10
4.2644003
20
44.7630754
40
0.531881
50
331.8601729
51
349.6703499
0
ARC
8
DEFAULT_255_1_388
10
4.3468295
20
44.7229295
40
0.440275
50
322.8939675
51
331.4079366
0
ARC
8
DEFAULT_255_1_388
10
4.4250663
20
44.6577419
40
0.3385862
50
296.725075
51
323.7043525
0
ARC
8
DEFAULT_255_1_388
10
4.428431
20
44.6655416
40
0.3441011
50
270.6344013
51
295.6405661
0
ARC
8
DEFAULT_255_1_388
10
4.4215006
20
44.7557096
40
0.4343809
50
269.9955642
51
271.4168155
0
ARC
8
DEFAULT_255_1_388
10
4.4171788
20
44.7406485
40
0.4193418
50
253.6575074
51
270.5859134
0
ARC
8
DEFAULT_255_1_388
10
4.3912036
20
44.6457616
40
0.3209845
50
217.0542732
51
253.3409544
0
ARC
8
DEFAULT_255_1_388
10
4.3987033
20
45.0039393
40
0.3300893
50
93.1931057
51
141.4760886
0
ARC
8
DEFAULT_255_1_388
10
4.4192026
20
44.8653127
40
0.4698157
50
89.9442329
51
94.747695
0
ARC
8
DEFAULT_255_1_388
10
4.4241249
20
44.9578571
40
0.3772974
50
70.6102966
51
90.6780641
0
ARC
8
DEFAULT_255_1_388
10
4.4369843
20
45.0090969
40
0.3247312
50
36.1152061
51
69.7490455
0
ARC
8
DEFAULT_255_1_388
10
4.325994
20
44.9243642
40
0.4643452
50
15.4648073
51
36.4892008
0
ARC
8
DEFAULT_255_1_388
10
4.0944336
20
44.8569548
40
0.7055035
50
3.9221328
51
15.7266383
0
ARC
8
DEFAULT_255_1_388
10
3.8291455
20
44.8330859
40
0.9718194
50
359.9267025
51
4.2562571
0
ARC
8
DEFAULT_255_1_388
10
3.9205932
20
44.8398052
40
0.7132198
50
359.7232654
51
7.7112388
0
ARC
8
DEFAULT_255_1_388
10
4.1750768
20
44.8753662
40
0.4562671
50
7.5740305
51
19.4153133
0
ARC
8
DEFAULT_255_1_388
10
4.3176781
20
44.9255795
40
0.3050836
50
19.4237113
51
34.9159184
0
ARC
8
DEFAULT_255_1_388
10
4.3931375
20
44.9803279
40
0.2118777
50
34.4555697
51
84.4656773
0
ARC
8
DEFAULT_255_1_388
10
4.3786751
20
44.8953992
40
0.2978698
50
83.2721807
51
90.1114043
0
ARC
8
DEFAULT_255_1_388
10
4.3739334
20
44.9177068
40
0.275593
50
89.1345761
51
111.409063
0
ARC
8
DEFAULT_255_1_388
10
4.3649956
20
44.9546005
40
0.2380381
50
112.6478022
51
148.9262646
0
ARC
8
DEFAULT_255_1_388
10
4.452521
20
44.8936711
40
0.3445235
50
147.7602672
51
154.9285352
0
ARC
8
DEFAULT_255_1_388
10
4.4232467
20
44.7536592
40
0.3141675
50
205.8262295
51
224.5304491
0
ARC
8
DEFAULT_255_1_388
10
4.3695146
20
44.7056875
40
0.2422463
50
225.3544419
51
269.2437751
0
ARC
8
DEFAULT_255_1_388
10
4.379834
20
44.7964679
40
0.3332798
50
267.6756581
51
270.0118705
0
ARC
8
DEFAULT_255_1_388
10
4.3829005
20
44.7110943
40
0.2479241
50
269.3072706
51
289.4988605
0
ARC
8
DEFAULT_255_1_388
10
4.391008
20
44.6777296
40
0.2137951
50
290.4353105
51
325.3765722
0
ARC
8
DEFAULT_255_1_388
10
4.3202739
20
44.72883
40
0.3010425
50
325.022387
51
342.6926192
0
ARC
8
DEFAULT_255_1_388
10
4.129354
20
44.7909493
40
0.5018047
50
342.4062017
51
352.8669894
0
ARC
8
DEFAULT_255_1_388
10
3.8232878
20
44.8311328
40
0.810494
50
352.7349871
51
359.855599
0
ARC
8
DEFAULT_255_1_388
10
3.6064902
20
44.8363426
40
1.0273146
50
359.5955109
51
0.0009972
0
ARC
8
DEFAULT_255_1_388
10
5.1355103
20
44.4281142
40
0.1204062
50
163.5412609
51
180.5084512
0
ARC
8
DEFAULT_255_1_388
10
5.1139001
20
44.433946
40
0.0980307
50
138.1652
51
163.2315563
0
ARC
8
DEFAULT_255_1_388
10
5.1012742
20
44.4446456
40
0.0814881
50
105.6860499
51
137.8492655
0
ARC
8
DEFAULT_255_1_388
10
5.1145943
20
44.4014109
40
0.126719
50
92.6078949
51
106.199173
0
ARC
8
DEFAULT_255_1_388
10
5.1180133
20
44.3568207
40
0.1714243
50
89.9659531
51
93.0713334
0
ARC
8
DEFAULT_255_1_388
10
5.1192169
20
44.3818484
40
0.1464007
50
78.4379126
51
90.4311892
0
ARC
8
DEFAULT_255_1_388
10
5.1300816
20
44.4325017
40
0.094599
50
56.8961942
51
78.7357785
0
ARC
8
DEFAULT_255_1_388
10
5.1371927
20
44.4449075
40
0.0803272
50
42.6503148
51
56.3122241
0
ARC
8
DEFAULT_255_1_388
10
5.1227828
20
44.4316661
40
0.099897
50
3.8141057
51
42.636595
0
ARC
8
DEFAULT_255_1_388
10
5.090515
20
44.4271616
40
0.1324137
50
359.9498843
51
4.8301897
0
ARC
8
DEFAULT_255_1_388
10
5.1160288
20
44.4259722
40
0.1069053
50
340.9378148
51
0.5753733
0
ARC
8
DEFAULT_255_1_388
10
5.128687
20
44.4225569
40
0.0938301
50
316.0798885
51
340.3845117
0
ARC
8
DEFAULT_255_1_388
10
5.1352181
20
44.416552
40
0.0849605
50
285.8512844
51
315.941661
0
ARC
8
DEFAULT_255_1_388
10
5.1220062
20
44.459262
40
0.1296594
50
273.1293204
51
286.3125006
0
ARC
8
DEFAULT_255_1_388
10
5.1182571
20
44.5044586
40
0.1749979
50
269.9535313
51
273.5471598
0
ARC
8
DEFAULT_255_1_388
10
5.1170177
20
44.4798833
40
0.1504266
50
259.0487117
51
270.4180248
0
ARC
8
DEFAULT_255_1_388
10
5.106179
20
44.4261783
40
0.0956414
50
239.7583641
51
259.3115656
0
ARC
8
DEFAULT_255_1_388
10
5.0970722
20
44.4092048
40
0.0763945
50
222.6243303
51
239.2473835
0
ARC
8
DEFAULT_255_1_388
10
5.1121893
20
44.4230572
40
0.0968985
50
182.9231258
51
222.598101
0
ARC
8
DEFAULT_255_1_388
10
5.1425093
20
44.4269696
40
0.1274004
50
179.9657458
51
183.9850364
0
LINE
8
DEFAULT_255_1_388
10
5.7244069
20
44.9420775
11
5.7244069
21
45.0785157
0
LINE
8
DEFAULT_255_1_388
10
5.7244069
20
45.0785157
11
5.8500024
21
45.0785157
0
LINE
8
DEFAULT_255_1_388
10
5.6358576
20
45.3098282
11
5.4686982
21
45.3098282
0
LINE
8
DEFAULT_255_1_388
10
5.4569519
20
44.6863688
11
5.6250148
21
44.6863688
0
LINE
8
DEFAULT_255_1_388
10
5.8500024
20
44.9420775
11
5.7244069
21
44.9420775
0
ARC
8
DEFAULT_255_1_388
10
5.846725
20
45.4601922
40
0.3816905
50
270.491971
51
281.8953028
0
ARC
8
DEFAULT_255_1_388
10
5.8738677
20
45.3362199
40
0.2547877
50
281.6690378
51
301.2943765
0
ARC
8
DEFAULT_255_1_388
10
5.8930129
20
45.3011926
40
0.2149197
50
301.7834992
51
311.754567
0
ARC
8
DEFAULT_255_1_388
10
5.903317
20
45.289765
40
0.1995326
50
311.7325027
51
354.2803031
0
ARC
8
DEFAULT_255_1_388
10
5.8215586
20
45.303828
40
0.2823461
50
353.0941646
51
0.1174696
0
ARC
8
DEFAULT_255_1_388
10
5.7697144
20
45.3091874
40
0.3342238
50
359.1804452
51
15.0452323
0
ARC
8
DEFAULT_255_1_388
10
5.9211202
20
45.3533546
40
0.1765747
50
13.957816
51
77.6713812
0
ARC
8
DEFAULT_255_1_388
10
5.8776438
20
45.1975464
40
0.3381982
50
76.111571
51
90.7028736
0
ARC
8
DEFAULT_255_1_388
10
5.870985
20
45.228325
40
0.3074046
50
89.5321574
51
103.5319393
0
ARC
8
DEFAULT_255_1_388
10
5.8484234
20
45.3182443
40
0.2147041
50
103.2930114
51
133.5619756
0
ARC
8
DEFAULT_255_1_388
10
5.8434175
20
45.3249351
40
0.2064084
50
133.8349761
51
173.5343225
0
ARC
8
DEFAULT_255_1_388
10
5.9247833
20
45.3105144
40
0.2889266
50
172.5097183
51
180.1360699
0
ARC
8
DEFAULT_255_1_388
10
5.8177597
20
45.314388
40
0.3490913
50
155.3483706
51
180.7484035
0
ARC
8
DEFAULT_255_1_388
10
5.8122572
20
45.3111519
40
0.3454798
50
131.5745177
51
154.4799474
0
ARC
8
DEFAULT_255_1_388
10
5.8474855
20
45.2755422
40
0.3955058
50
96.9874487
51
131.9690874
0
ARC
8
DEFAULT_255_1_388
10
5.8721748
20
45.1354407
40
0.537622
50
89.8592909
51
97.7827481
0
ARC
8
DEFAULT_255_1_388
10
5.8775857
20
45.105936
40
0.5671399
50
78.3654493
51
90.4132586
0
ARC
8
DEFAULT_255_1_388
10
5.9178498
20
45.2925918
40
0.3762034
50
56.6229818
51
78.6387103
0
ARC
8
DEFAULT_255_1_388
10
5.9420327
20
45.3348846
40
0.3275964
50
47.0254604
51
56.085558
0
ARC
8
DEFAULT_255_1_388
10
5.9442578
20
45.3393189
40
0.3228382
50
10.9207523
51
46.777927
0
ARC
8
DEFAULT_255_1_388
10
5.7908172
20
45.3038401
40
0.4802559
50
359.6364235
51
11.6087615
0
ARC
8
DEFAULT_255_1_388
10
5.9972338
20
45.3021404
40
0.273833
50
332.3549969
51
359.7179765
0
ARC
8
DEFAULT_255_1_388
10
5.9240738
20
45.3368285
40
0.3547505
50
325.2332381
51
332.8746682
0
ARC
8
DEFAULT_255_1_388
10
5.9412321
20
45.3248763
40
0.3338396
50
292.9803892
51
325.2391113
0
ARC
8
DEFAULT_255_1_388
10
5.9101517
20
45.3853679
40
0.4016959
50
292.542178
51
293.6931461
0
ARC
8
DEFAULT_255_1_388
10
5.9545089
20
44.6588036
40
0.372079
50
57.643292
51
72.8626085
0
ARC
8
DEFAULT_255_1_388
10
5.9943923
20
44.7234273
40
0.2961455
50
36.7246661
51
57.4701329
0
ARC
8
DEFAULT_255_1_388
10
5.993108
20
44.724847
40
0.2963321
50
8.054535
51
36.3561529
0
ARC
8
DEFAULT_255_1_388
10
5.8960753
20
44.7074073
40
0.3948682
50
359.8316595
51
8.5873361
0
ARC
8
DEFAULT_255_1_388
10
5.8538227
20
44.701997
40
0.4371398
50
343.9831631
51
0.557075
0
ARC
8
DEFAULT_255_1_388
10
5.9535276
20
44.6746963
40
0.3337749
50
311.6358204
51
343.7652116
0
ARC
8
DEFAULT_255_1_388
10
5.910953
20
44.7226955
40
0.3979351
50
279.7829743
51
311.625622
0
ARC
8
DEFAULT_255_1_388
10
5.8770665
20
44.8843642
40
0.5630417
50
269.7285092
51
280.3857694
0
ARC
8
DEFAULT_255_1_388
10
5.8700978
20
44.8797241
40
0.5584119
50
256.6827433
51
270.4412869
0
ARC
8
DEFAULT_255_1_388
10
5.8319965
20
44.7239698
40
0.3980715
50
229.4223821
51
256.8554507
0
ARC
8
DEFAULT_255_1_388
10
5.7853518
20
44.6714683
40
0.3278564
50
181.8183354
51
229.6455015
0
ARC
8
DEFAULT_255_1_388
10
5.9023128
20
44.6861825
40
0.4453611
50
179.9760419
51
183.2330638
0
ARC
8
DEFAULT_255_1_388
10
5.882968
20
44.6838781
40
0.2579652
50
179.4467996
51
196.2871626
0
ARC
8
DEFAULT_255_1_388
10
5.8281134
20
44.6688709
40
0.2011057
50
196.5661293
51
227.7059371
0
ARC
8
DEFAULT_255_1_388
10
5.8465741
20
44.6895155
40
0.2287994
50
227.7653015
51
257.8763321
0
ARC
8
DEFAULT_255_1_388
10
5.8718824
20
44.7955961
40
0.3378385
50
257.4583525
51
270.4267406
0
ARC
8
DEFAULT_255_1_388
10
5.8770074
20
44.828223
40
0.3704652
50
269.5965319
51
280.8788143
0
ARC
8
DEFAULT_255_1_388
10
5.9028302
20
44.6992529
40
0.2389415
50
280.6347277
51
299.8594068
0
ARC
8
DEFAULT_255_1_388
10
5.9243071
20
44.6584736
40
0.19289
50
300.3575552
51
314.5515667
0
ARC
8
DEFAULT_255_1_388
10
5.9149747
20
44.6653025
40
0.204312
50
315.0730962
51
345.0429362
0
ARC
8
DEFAULT_255_1_388
10
5.8111254
20
44.6955539
40
0.31246
50
344.598526
51
357.9270698
0
ARC
8
DEFAULT_255_1_388
10
5.7101559
20
44.7024705
40
0.4136265
50
357.4755098
51
0.0224936
0
ARC
8
DEFAULT_255_1_388
10
5.8254437
20
44.7052099
40
0.2983498
50
359.5051035
51
13.4236939
0
ARC
8
DEFAULT_255_1_388
10
5.9229527
20
44.7301637
40
0.1977186
50
12.9497905
51
48.7550905
0
ARC
8
DEFAULT_255_1_388
10
5.9024449
20
44.7021373
40
0.2323321
50
49.509109
51
72.1832965
0
ARC
8
DEFAULT_255_1_388
10
5.8621917
20
44.5826632
40
0.358397
50
71.9008458
51
84.3555134
0
ARC
8
DEFAULT_255_1_388
10
5.8440312
20
44.4294712
40
0.512641
50
84.019632
51
89.3326067
0
LINE
8
DEFAULT_255_1_388
10
4.8009641
20
52.7693426
11
4.8009641
21
52.7548856
0
LINE
8
DEFAULT_255_1_388
10
4.1350371
20
52.3898456
11
4.126905
21
52.2769
0
LINE
8
DEFAULT_255_1_388
10
4.126905
20
52.2769
11
3.973299
21
52.2769
0
LINE
8
DEFAULT_255_1_388
10
3.973299
20
52.2769
11
3.973299
21
53.664775
0
LINE
8
DEFAULT_255_1_388
10
3.973299
20
53.664775
11
4.1404584
21
53.664775
0
LINE
8
DEFAULT_255_1_388
10
4.1404584
20
53.664775
11
4.1404584
21
53.1470326
0
LINE
8
DEFAULT_255_1_388
10
4.1404584
20
52.9771625
11
4.1404584
21
52.5542943
0
ARC
8
DEFAULT_255_1_388
10
4.0082093
20
52.7499101
40
0.7927704
50
349.4826431
51
0.3595958
0
ARC
8
DEFAULT_255_1_388
10
4.2644003
20
52.7005754
40
0.531881
50
331.8601729
51
349.6703499
0
ARC
8
DEFAULT_255_1_388
10
4.3468295
20
52.6604295
40
0.440275
50
322.8939675
51
331.4079366
0
ARC
8
DEFAULT_255_1_388
10
4.4250663
20
52.5952419
40
0.3385862
50
296.725075
51
323.7043525
0
ARC
8
DEFAULT_255_1_388
10
4.428431
20
52.6030416
40
0.3441011
50
270.6344013
51
295.6405661
0
ARC
8
DEFAULT_255_1_388
10
4.4215006
20
52.6932096
40
0.4343809
50
269.9955642
51
271.4168155
0
ARC
8
DEFAULT_255_1_388
10
4.4171788
20
52.6781485
40
0.4193418
50
253.6575074
51
270.5859134
0
ARC
8
DEFAULT_255_1_388
10
4.3912036
20
52.5832616
40
0.3209845
50
217.0542732
51
253.3409544
0
ARC
8
DEFAULT_255_1_388
10
4.3987033
20
52.9414393
40
0.3300893
50
93.1931057
51
141.4760886
0
ARC
8
DEFAULT_255_1_388
10
4.4192026
20
52.8028127
40
0.4698157
50
89.9442329
51
94.747695
0
ARC
8
DEFAULT_255_1_388
10
4.4241249
20
52.8953571
40
0.3772974
50
70.6102966
51
90.6780641
0
ARC
8
DEFAULT_255_1_388
10
4.4369843
20
52.9465969
40
0.3247312
50
36.1152061
51
69.7490455
0
ARC
8
DEFAULT_255_1_388
10
4.325994
20
52.8618642
40
0.4643452
50
15.4648073
51
36.4892008
0
ARC
8
DEFAULT_255_1_388
10
4.0944336
20
52.7944548
40
0.7055035
50
3.9221328
51
15.7266383
0
ARC
8
DEFAULT_255_1_388
10
3.8291455
20
52.7705859
40
0.9718194
50
359.9267025
51
4.2562571
0
ARC
8
DEFAULT_255_1_388
10
3.9205932
20
52.7773052
40
0.7132198
50
359.7232654
51
7.7112388
0
ARC
8
DEFAULT_255_1_388
10
4.1750768
20
52.8128662
40
0.4562671
50
7.5740305
51
19.4153133
0
ARC
8
DEFAULT_255_1_388
10
4.3176781
20
52.8630795
40
0.3050836
50
19.4237113
51
34.9159184
0
ARC
8
DEFAULT_255_1_388
10
4.3931375
20
52.9178279
40
0.2118777
50
34.4555697
51
84.4656773
0
ARC
8
DEFAULT_255_1_388
10
4.3786751
20
52.8328992
40
0.2978698
50
83.2721807
51
90.1114043
0
ARC
8
DEFAULT_255_1_388
10
4.3739334
20
52.8552068
40
0.275593
50
89.1345761
51
111.409063
0
ARC
8
DEFAULT_255_1_388
10
4.3649956
20
52.8921005
40
0.2380381
50
112.6478022
51
148.9262646
0
ARC
8
DEFAULT_255_1_388
10
4.452521
20
52.8311711
40
0.3445235
50
147.7602672
51
154.9285352
0
ARC
8
DEFAULT_255_1_388
10
4.4232467
20
52.6911592
40
0.3141675
50
205.8262295
51
224.5304491
0
ARC
8
DEFAULT_255_1_388
10
4.3695146
20
52.6431875
40
0.2422463
50
225.3544419
51
269.2437751
0
ARC
8
DEFAULT_255_1_388
10
4.379834
20
52.7339679
40
0.3332798
50
267.6756581
51
270.0118705
0
ARC
8
DEFAULT_255_1_388
10
4.3829005
20
52.6485943
40
0.2479241
50
269.3072706
51
289.4988605
0
ARC
8
DEFAULT_255_1_388
10
4.391008
20
52.6152296
40
0.2137951
50
290.4353105
51
325.3765722
0
ARC
8
DEFAULT_255_1_388
10
4.3202739
20
52.66633
40
0.3010425
50
325.022387
51
342.6926192
0
ARC
8
DEFAULT_255_1_388
10
4.129354
20
52.7284493
40
0.5018047
50
342.4062017
51
352.8669894
0
ARC
8
DEFAULT_255_1_388
10
3.8232878
20
52.7686328
40
0.810494
50
352.7349871
51
359.855599
0
ARC
8
DEFAULT_255_1_388
10
3.6064902
20
52.7738426
40
1.0273146
50
359.5955109
51
0.0009972
0
ARC
8
DEFAULT_255_1_388
10
5.1355103
20
52.3656142
40
0.1204062
50
163.5412609
51
180.5084512
0
ARC
8
DEFAULT_255_1_388
10
5.1139001
20
52.371446
40
0.0980307
50
138.1652
51
163.2315563
0
ARC
8
DEFAULT_255_1_388
10
5.1012742
20
52.3821456
40
0.0814881
50
105.6860499
51
137.8492655
0
ARC
8
DEFAULT_255_1_388
10
5.1145943
20
52.3389109
40
0.126719
50
92.6078949
51
106.199173
0
ARC
8
DEFAULT_255_1_388
10
5.1180133
20
52.2943207
40
0.1714243
50
89.9659531
51
93.0713334
0
ARC
8
DEFAULT_255_1_388
10
5.1192169
20
52.3193484
40
0.1464007
50
78.4379126
51
90.4311892
0
ARC
8
DEFAULT_255_1_388
10
5.1300816
20
52.3700017
40
0.094599
50
56.8961942
51
78.7357785
0
ARC
8
DEFAULT_255_1_388
10
5.1371927
20
52.3824075
40
0.0803272
50
42.6503148
51
56.3122241
0
ARC
8
DEFAULT_255_1_388
10
5.1227828
20
52.3691661
40
0.099897
50
3.8141057
51
42.636595
0
ARC
8
DEFAULT_255_1_388
10
5.090515
20
52.3646616
40
0.1324137
50
359.9498843
51
4.8301897
0
ARC
8
DEFAULT_255_1_388
10
5.1160288
20
52.3634722
40
0.1069053
50
340.9378148
51
0.5753733
0
ARC
8
DEFAULT_255_1_388
10
5.128687
20
52.3600569
40
0.0938301
50
316.0798885
51
340.3845117
0
ARC
8
DEFAULT_255_1_388
10
5.1352181
20
52.354052
40
0.0849605
50
285.8512844
51
315.941661
0
ARC
8
DEFAULT_255_1_388
10
5.1220062
20
52.396762
40
0.1296594
50
273.1293204
51
286.3125006
0
ARC
8
DEFAULT_255_1_388
10
5.1182571
20
52.4419586
40
0.1749979
50
269.9535313
51
273.5471598
0
ARC
8
DEFAULT_255_1_388
10
5.1170177
20
52.4173833
40
0.1504266
50
259.0487117
51
270.4180248
0
ARC
8
DEFAULT_255_1_388
10
5.106179
20
52.3636783
40
0.0956414
50
239.7583641
51
259.3115656
0
ARC
8
DEFAULT_255_1_388
10
5.0970722
20
52.3467048
40
0.0763945
50
222.6243303
51
239.2473835
0
ARC
8
DEFAULT_255_1_388
10
5.1121893
20
52.3605572
40
0.0968985
50
182.9231258
51
222.598101
0
ARC
8
DEFAULT_255_1_388
10
5.1425093
20
52.3644696
40
0.1274004
50
179.9657458
51
183.9850364
0
LINE
8
DEFAULT_255_1_388
10
6.3433486
20
52.4133382
11
6.3433486
21
52.2769
0
LINE
8
DEFAULT_255_1_388
10
6.3433486
20
52.2769
11
5.4813481
21
52.2769
0
LINE
8
DEFAULT_255_1_388
10
5.4813481
20
52.2769
11
5.4813481
21
52.3970741
0
LINE
8
DEFAULT_255_1_388
10
5.4813481
20
52.3970741
11
5.9367446
21
52.9030702
0
LINE
8
DEFAULT_255_1_388
10
5.6232077
20
53.2048607
11
5.4560483
21
53.2048607
0
LINE
8
DEFAULT_255_1_388
10
6.0352331
20
52.795546
11
5.682843
21
52.4133382
0
LINE
8
DEFAULT_255_1_388
10
5.682843
20
52.4133382
11
6.3433486
21
52.4133382
0
ARC
8
DEFAULT_255_1_388
10
4.4191505
20
54.2450983
40
2.0258655
50
318.5132526
51
320.7829045
0
ARC
8
DEFAULT_255_1_388
10
5.0139462
20
53.7609929
40
1.2589638
50
320.7372878
51
323.9739031
0
ARC
8
DEFAULT_255_1_388
10
5.4548394
20
53.4415554
40
0.7145141
50
323.8962701
51
328.64194
0
ARC
8
DEFAULT_255_1_388
10
5.6850651
20
53.2995545
40
0.4440242
50
328.8294576
51
331.7891185
0
ARC
8
DEFAULT_255_1_388
10
5.7972972
20
53.2416374
40
0.3177517
50
331.4254512
51
352.9365785
0
ARC
8
DEFAULT_255_1_388
10
5.8125972
20
53.238205
40
0.3021496
50
353.2257659
51
0.0166158
0
ARC
8
DEFAULT_255_1_388
10
5.8362732
20
53.2407894
40
0.2784847
50
359.486299
51
15.9343185
0
ARC
8
DEFAULT_255_1_388
10
5.8932999
20
53.2561269
40
0.2194403
50
16.1712913
51
43.5286088
0
ARC
8
DEFAULT_255_1_388
10
5.9019944
20
53.2648191
40
0.2071504
50
43.4417391
51
83.1661095
0
ARC
8
DEFAULT_255_1_388
10
5.8869105
20
53.1819316
40
0.2912888
50
82.160179
51
90.1505708
0
ARC
8
DEFAULT_255_1_388
10
5.8833586
20
53.1215279
40
0.3517025
50
89.5460741
51
102.5418361
0
ARC
8
DEFAULT_255_1_388
10
5.8560306
20
53.2374933
40
0.2325748
50
102.1738499
51
129.206123
0
ARC
8
DEFAULT_255_1_388
10
5.847176
20
53.2514664
40
0.2161591
50
129.72865
51
135.753947
0
ARC
8
DEFAULT_255_1_388
10
5.8608242
20
53.2405728
40
0.2335433
50
136.1757367
51
166.3673339
0
ARC
8
DEFAULT_255_1_388
10
5.974093
20
53.2102148
40
0.3507873
50
165.9090694
51
178.8684636
0
ARC
8
DEFAULT_255_1_388
10
6.0716702
20
53.2049263
40
0.4484624
50
178.4391136
51
180.0083808
0
ARC
8
DEFAULT_255_1_388
10
5.9137403
20
53.2093197
40
0.4577138
50
163.2878482
51
180.5581842
0
ARC
8
DEFAULT_255_1_388
10
5.8235444
20
53.2341393
40
0.3641968
50
133.4540601
51
162.947111
0
ARC
8
DEFAULT_255_1_388
10
5.8436326
20
53.2127789
40
0.3935189
50
100.7869829
51
133.4382499
0
ARC
8
DEFAULT_255_1_388
10
5.8827571
20
53.0385399
40
0.5720313
50
89.660664
51
101.3702276
0
ARC
8
DEFAULT_255_1_388
10
5.890218
20
53.0454263
40
0.5651495
50
78.2172678
51
90.412935
0
ARC
8
DEFAULT_255_1_388
10
5.9301646
20
53.2281511
40
0.378122
50
55.9269121
51
78.4888449
0
ARC
8
DEFAULT_255_1_388
10
5.9522361
20
53.2662187
40
0.3342379
50
47.929771
51
55.4049217
0
ARC
8
DEFAULT_255_1_388
10
5.9636891
20
53.2778618
40
0.3179217
50
4.334829
51
48.0560205
0
ARC
8
DEFAULT_255_1_388
10
5.8404693
20
53.2587487
40
0.442341
50
359.9251713
51
5.5971671
0
ARC
8
DEFAULT_255_1_388
10
5.8886848
20
53.2650728
40
0.3941854
50
337.8914027
51
358.9967534
0
ARC
8
DEFAULT_255_1_388
10
5.5834418
20
53.3828295
40
0.7213271
50
326.9132501
51
338.3508308
0
ARC
8
DEFAULT_255_1_388
10
5.135053
20
53.6702105
40
1.2538973
50
319.6471833
51
327.0959558
0
ARC
8
DEFAULT_255_1_388
10
4.7037188
20
54.026005
40
1.8129975
50
317.2588228
51
319.9045804
0
LINE
8
DEFAULT_255_1_388
10
4.7921641
20
60.7068426
11
4.7921641
21
60.6923856
0
LINE
8
DEFAULT_255_1_388
10
4.1262371
20
60.3273456
11
4.118105
21
60.2144
0
LINE
8
DEFAULT_255_1_388
10
4.118105
20
60.2144
11
3.964499
21
60.2144
0
LINE
8
DEFAULT_255_1_388
10
3.964499
20
60.2144
11
3.964499
21
61.602275
0
LINE
8
DEFAULT_255_1_388
10
3.964499
20
61.602275
11
4.1316584
21
61.602275
0
LINE
8
DEFAULT_255_1_388
10
4.1316584
20
61.602275
11
4.1316584
21
61.0845326
0
LINE
8
DEFAULT_255_1_388
10
4.1316584
20
60.9146625
11
4.1316584
21
60.4917943
0
ARC
8
DEFAULT_255_1_388
10
3.9994093
20
60.6874101
40
0.7927704
50
349.4826431
51
0.3595958
0
ARC
8
DEFAULT_255_1_388
10
4.2556003
20
60.6380754
40
0.531881
50
331.8601729
51
349.6703499
0
ARC
8
DEFAULT_255_1_388
10
4.3380295
20
60.5979295
40
0.440275
50
322.8939675
51
331.4079366
0
ARC
8
DEFAULT_255_1_388
10
4.4162663
20
60.5327419
40
0.3385862
50
296.725075
51
323.7043525
0
ARC
8
DEFAULT_255_1_388
10
4.419631
20
60.5405416
40
0.3441011
50
270.6344013
51
295.6405661
0
ARC
8
DEFAULT_255_1_388
10
4.4127006
20
60.6307096
40
0.4343809
50
269.9955642
51
271.4168155
0
ARC
8
DEFAULT_255_1_388
10
4.4083788
20
60.6156485
40
0.4193418
50
253.6575074
51
270.5859134
0
ARC
8
DEFAULT_255_1_388
10
4.3824036
20
60.5207616
40
0.3209845
50
217.0542732
51
253.3409544
0
ARC
8
DEFAULT_255_1_388
10
4.3899033
20
60.8789393
40
0.3300893
50
93.1931057
51
141.4760886
0
ARC
8
DEFAULT_255_1_388
10
4.4104026
20
60.7403127
40
0.4698157
50
89.9442329
51
94.747695
0
ARC
8
DEFAULT_255_1_388
10
4.4153249
20
60.8328571
40
0.3772974
50
70.6102966
51
90.6780641
0
ARC
8
DEFAULT_255_1_388
10
4.4281843
20
60.8840969
40
0.3247312
50
36.1152061
51
69.7490455
0
ARC
8
DEFAULT_255_1_388
10
4.317194
20
60.7993642
40
0.4643452
50
15.4648073
51
36.4892008
0
ARC
8
DEFAULT_255_1_388
10
4.0856336
20
60.7319548
40
0.7055035
50
3.9221328
51
15.7266383
0
ARC
8
DEFAULT_255_1_388
10
3.8203455
20
60.7080859
40
0.9718194
50
359.9267025
51
4.2562571
0
ARC
8
DEFAULT_255_1_388
10
3.9117932
20
60.7148052
40
0.7132198
50
359.7232654
51
7.7112388
0
ARC
8
DEFAULT_255_1_388
10
4.1662768
20
60.7503662
40
0.4562671
50
7.5740305
51
19.4153133
0
ARC
8
DEFAULT_255_1_388
10
4.3088781
20
60.8005795
40
0.3050836
50
19.4237113
51
34.9159184
0
ARC
8
DEFAULT_255_1_388
10
4.3843375
20
60.8553279
40
0.2118777
50
34.4555697
51
84.4656773
0
ARC
8
DEFAULT_255_1_388
10
4.3698751
20
60.7703992
40
0.2978698
50
83.2721807
51
90.1114043
0
ARC
8
DEFAULT_255_1_388
10
4.3651334
20
60.7927068
40
0.275593
50
89.1345761
51
111.409063
0
ARC
8
DEFAULT_255_1_388
10
4.3561956
20
60.8296005
40
0.2380381
50
112.6478022
51
148.9262646
0
ARC
8
DEFAULT_255_1_388
10
4.443721
20
60.7686711
40
0.3445235
50
147.7602672
51
154.9285352
0
ARC
8
DEFAULT_255_1_388
10
4.4144467
20
60.6286592
40
0.3141675
50
205.8262295
51
224.5304491
0
ARC
8
DEFAULT_255_1_388
10
4.3607146
20
60.5806875
40
0.2422463
50
225.3544419
51
269.2437751
0
ARC
8
DEFAULT_255_1_388
10
4.371034
20
60.6714679
40
0.3332798
50
267.6756581
51
270.0118705
0
ARC
8
DEFAULT_255_1_388
10
4.3741005
20
60.5860943
40
0.2479241
50
269.3072706
51
289.4988605
0
ARC
8
DEFAULT_255_1_388
10
4.382208
20
60.5527296
40
0.2137951
50
290.4353105
51
325.3765722
0
ARC
8
DEFAULT_255_1_388
10
4.3114739
20
60.60383
40
0.3010425
50
325.022387
51
342.6926192
0
ARC
8
DEFAULT_255_1_388
10
4.120554
20
60.6659493
40
0.5018047
50
342.4062017
51
352.8669894
0
ARC
8
DEFAULT_255_1_388
10
3.8144878
20
60.7061328
40
0.810494
50
352.7349871
51
359.855599
0
ARC
8
DEFAULT_255_1_388
10
3.5976902
20
60.7113426
40
1.0273146
50
359.5955109
51
0.0009972
0
ARC
8
DEFAULT_255_1_388
10
5.1267103
20
60.3031142
40
0.1204062
50
163.5412609
51
180.5084512
0
ARC
8
DEFAULT_255_1_388
10
5.1051001
20
60.308946
40
0.0980307
50
138.1652
51
163.2315563
0
ARC
8
DEFAULT_255_1_388
10
5.0924742
20
60.3196456
40
0.0814881
50
105.6860499
51
137.8492655
0
ARC
8
DEFAULT_255_1_388
10
5.1057943
20
60.2764109
40
0.126719
50
92.6078949
51
106.199173
0
ARC
8
DEFAULT_255_1_388
10
5.1092133
20
60.2318207
40
0.1714243
50
89.9659531
51
93.0713334
0
ARC
8
DEFAULT_255_1_388
10
5.1104169
20
60.2568484
40
0.1464007
50
78.4379126
51
90.4311892
0
ARC
8
DEFAULT_255_1_388
10
5.1212816
20
60.3075017
40
0.094599
50
56.8961942
51
78.7357785
0
ARC
8
DEFAULT_255_1_388
10
5.1283927
20
60.3199075
40
0.0803272
50
42.6503148
51
56.3122241
0
ARC
8
DEFAULT_255_1_388
10
5.1139828
20
60.3066661
40
0.099897
50
3.8141057
51
42.636595
0
ARC
8
DEFAULT_255_1_388
10
5.081715
20
60.3021616
40
0.1324137
50
359.9498843
51
4.8301897
0
ARC
8
DEFAULT_255_1_388
10
5.1072288
20
60.3009722
40
0.1069053
50
340.9378148
51
0.5753733
0
ARC
8
DEFAULT_255_1_388
10
5.119887
20
60.2975569
40
0.0938301
50
316.0798885
51
340.3845117
0
ARC
8
DEFAULT_255_1_388
10
5.1264181
20
60.291552
40
0.0849605
50
285.8512844
51
315.941661
0
ARC
8
DEFAULT_255_1_388
10
5.1132062
20
60.334262
40
0.1296594
50
273.1293204
51
286.3125006
0
ARC
8
DEFAULT_255_1_388
10
5.1094571
20
60.3794586
40
0.1749979
50
269.9535313
51
273.5471598
0
ARC
8
DEFAULT_255_1_388
10
5.1082177
20
60.3548833
40
0.1504266
50
259.0487117
51
270.4180248
0
ARC
8
DEFAULT_255_1_388
10
5.097379
20
60.3011783
40
0.0956414
50
239.7583641
51
259.3115656
0
ARC
8
DEFAULT_255_1_388
10
5.0882722
20
60.2842048
40
0.0763945
50
222.6243303
51
239.2473835
0
ARC
8
DEFAULT_255_1_388
10
5.1033893
20
60.2980572
40
0.0968985
50
182.9231258
51
222.598101
0
ARC
8
DEFAULT_255_1_388
10
5.1337093
20
60.3019696
40
0.1274004
50
179.9657458
51
183.9850364
0
LINE
8
DEFAULT_255_1_388
10
6.0219153
20
61.5363148
11
6.0219153
21
60.2144
0
LINE
8
DEFAULT_255_1_388
10
6.0219153
20
60.2144
11
5.8538523
21
60.2144
0
LINE
8
DEFAULT_255_1_388
10
5.8538523
20
60.2144
11
5.8538523
21
61.328495
0
LINE
8
DEFAULT_255_1_388
10
5.8538523
20
61.328495
11
5.5168228
21
61.2047066
0
LINE
8
DEFAULT_255_1_388
10
5.5168228
20
61.2047066
11
5.5168228
21
61.3565055
0
LINE
8
DEFAULT_255_1_388
10
5.5168228
20
61.3565055
11
5.9957119
21
61.5363148
0
LINE
8
DEFAULT_255_1_388
10
5.9957119
20
61.5363148
11
6.0219153
21
61.5363148
0
LINE
8
DEFAULT_255_1_388
10
4.8009641
20
68.6443426
11
4.8009641
21
68.6298856
0
LINE
8
DEFAULT_255_1_388
10
4.1350371
20
68.2648456
11
4.126905
21
68.1519
0
LINE
8
DEFAULT_255_1_388
10
4.126905
20
68.1519
11
3.973299
21
68.1519
0
LINE
8
DEFAULT_255_1_388
10
3.973299
20
68.1519
11
3.973299
21
69.539775
0
LINE
8
DEFAULT_255_1_388
10
3.973299
20
69.539775
11
4.1404584
21
69.539775
0
LINE
8
DEFAULT_255_1_388
10
4.1404584
20
69.539775
11
4.1404584
21
69.0220326
0
LINE
8
DEFAULT_255_1_388
10
4.1404584
20
68.8521625
11
4.1404584
21
68.4292943
0
ARC
8
DEFAULT_255_1_388
10
4.0082093
20
68.6249101
40
0.7927704
50
349.4826431
51
0.3595958
0
ARC
8
DEFAULT_255_1_388
10
4.2644003
20
68.5755754
40
0.531881
50
331.8601729
51
349.6703499
0
ARC
8
DEFAULT_255_1_388
10
4.3468295
20
68.5354295
40
0.440275
50
322.8939675
51
331.4079366
0
ARC
8
DEFAULT_255_1_388
10
4.4250663
20
68.4702419
40
0.3385862
50
296.725075
51
323.7043525
0
ARC
8
DEFAULT_255_1_388
10
4.428431
20
68.4780416
40
0.3441011
50
270.6344013
51
295.6405661
0
ARC
8
DEFAULT_255_1_388
10
4.4215006
20
68.5682096
40
0.4343809
50
269.9955642
51
271.4168155
0
ARC
8
DEFAULT_255_1_388
10
4.4171788
20
68.5531485
40
0.4193418
50
253.6575074
51
270.5859134
0
ARC
8
DEFAULT_255_1_388
10
4.3912036
20
68.4582616
40
0.3209845
50
217.0542732
51
253.3409544
0
ARC
8
DEFAULT_255_1_388
10
4.3987033
20
68.8164393
40
0.3300893
50
93.1931057
51
141.4760886
0
ARC
8
DEFAULT_255_1_388
10
4.4192026
20
68.6778127
40
0.4698157
50
89.9442329
51
94.747695
0
ARC
8
DEFAULT_255_1_388
10
4.4241249
20
68.7703571
40
0.3772974
50
70.6102966
51
90.6780641
0
ARC
8
DEFAULT_255_1_388
10
4.4369843
20
68.8215969
40
0.3247312
50
36.1152061
51
69.7490455
0
ARC
8
DEFAULT_255_1_388
10
4.325994
20
68.7368642
40
0.4643452
50
15.4648073
51
36.4892008
0
ARC
8
DEFAULT_255_1_388
10
4.0944336
20
68.6694548
40
0.7055035
50
3.9221328
51
15.7266383
0
ARC
8
DEFAULT_255_1_388
10
3.8291455
20
68.6455859
40
0.9718194
50
359.9267025
51
4.2562571
0
ARC
8
DEFAULT_255_1_388
10
3.9205932
20
68.6523052
40
0.7132198
50
359.7232654
51
7.7112388
0
ARC
8
DEFAULT_255_1_388
10
4.1750768
20
68.6878662
40
0.4562671
50
7.5740305
51
19.4153133
0
ARC
8
DEFAULT_255_1_388
10
4.3176781
20
68.7380795
40
0.3050836
50
19.4237113
51
34.9159184
0
ARC
8
DEFAULT_255_1_388
10
4.3931375
20
68.7928279
40
0.2118777
50
34.4555697
51
84.4656773
0
ARC
8
DEFAULT_255_1_388
10
4.3786751
20
68.7078992
40
0.2978698
50
83.2721807
51
90.1114043
0
ARC
8
DEFAULT_255_1_388
10
4.3739334
20
68.7302068
40
0.275593
50
89.1345761
51
111.409063
0
ARC
8
DEFAULT_255_1_388
10
4.3649956
20
68.7671005
40
0.2380381
50
112.6478022
51
148.9262646
0
ARC
8
DEFAULT_255_1_388
10
4.452521
20
68.7061711
40
0.3445235
50
147.7602672
51
154.9285352
0
ARC
8
DEFAULT_255_1_388
10
4.4232467
20
68.5661592
40
0.3141675
50
205.8262295
51
224.5304491
0
ARC
8
DEFAULT_255_1_388
10
4.3695146
20
68.5181875
40
0.2422463
50
225.3544419
51
269.2437751
0
ARC
8
DEFAULT_255_1_388
10
4.379834
20
68.6089679
40
0.3332798
50
267.6756581
51
270.0118705
0
ARC
8
DEFAULT_255_1_388
10
4.3829005
20
68.5235943
40
0.2479241
50
269.3072706
51
289.4988605
0
ARC
8
DEFAULT_255_1_388
10
4.391008
20
68.4902296
40
0.2137951
50
290.4353105
51
325.3765722
0
ARC
8
DEFAULT_255_1_388
10
4.3202739
20
68.54133
40
0.3010425
50
325.022387
51
342.6926192
0
ARC
8
DEFAULT_255_1_388
10
4.129354
20
68.6034493
40
0.5018047
50
342.4062017
51
352.8669894
0
ARC
8
DEFAULT_255_1_388
10
3.8232878
20
68.6436328
40
0.810494
50
352.7349871
51
359.855599
0
ARC
8
DEFAULT_255_1_388
10
3.6064902
20
68.6488426
40
1.0273146
50
359.5955109
51
0.0009972
0
ARC
8
DEFAULT_255_1_388
10
5.1355103
20
68.2406142
40
0.1204062
50
163.5412609
51
180.5084512
0
ARC
8
DEFAULT_255_1_388
10
5.1139001
20
68.246446
40
0.0980307
50
138.1652
51
163.2315563
0
ARC
8
DEFAULT_255_1_388
10
5.1012742
20
68.2571456
40
0.0814881
50
105.6860499
51
137.8492655
0
ARC
8
DEFAULT_255_1_388
10
5.1145943
20
68.2139109
40
0.126719
50
92.6078949
51
106.199173
0
ARC
8
DEFAULT_255_1_388
10
5.1180133
20
68.1693207
40
0.1714243
50
89.9659531
51
93.0713334
0
ARC
8
DEFAULT_255_1_388
10
5.1192169
20
68.1943484
40
0.1464007
50
78.4379126
51
90.4311892
0
ARC
8
DEFAULT_255_1_388
10
5.1300816
20
68.2450017
40
0.094599
50
56.8961942
51
78.7357785
0
ARC
8
DEFAULT_255_1_388
10
5.1371927
20
68.2574075
40
0.0803272
50
42.6503148
51
56.3122241
0
ARC
8
DEFAULT_255_1_388
10
5.1227828
20
68.2441661
40
0.099897
50
3.8141057
51
42.636595
0
ARC
8
DEFAULT_255_1_388
10
5.090515
20
68.2396616
40
0.1324137
50
359.9498843
51
4.8301897
0
ARC
8
DEFAULT_255_1_388
10
5.1160288
20
68.2384722
40
0.1069053
50
340.9378148
51
0.5753733
0
ARC
8
DEFAULT_255_1_388
10
5.128687
20
68.2350569
40
0.0938301
50
316.0798885
51
340.3845117
0
ARC
8
DEFAULT_255_1_388
10
5.1352181
20
68.229052
40
0.0849605
50
285.8512844
51
315.941661
0
ARC
8
DEFAULT_255_1_388
10
5.1220062
20
68.271762
40
0.1296594
50
273.1293204
51
286.3125006
0
ARC
8
DEFAULT_255_1_388
10
5.1182571
20
68.3169586
40
0.1749979
50
269.9535313
51
273.5471598
0
ARC
8
DEFAULT_255_1_388
10
5.1170177
20
68.2923833
40
0.1504266
50
259.0487117
51
270.4180248
0
ARC
8
DEFAULT_255_1_388
10
5.106179
20
68.2386783
40
0.0956414
50
239.7583641
51
259.3115656
0
ARC
8
DEFAULT_255_1_388
10
5.0970722
20
68.2217048
40
0.0763945
50
222.6243303
51
239.2473835
0
ARC
8
DEFAULT_255_1_388
10
5.1121893
20
68.2355572
40
0.0968985
50
182.9231258
51
222.598101
0
ARC
8
DEFAULT_255_1_388
10
5.1425093
20
68.2394696
40
0.1274004
50
179.9657458
51
183.9850364
0
LINE
8
DEFAULT_255_1_388
10
6.3063024
20
68.929869
11
6.3063024
21
68.7130135
0
LINE
8
DEFAULT_255_1_388
10
5.4759267
20
68.6904244
11
5.4759267
21
68.9136048
0
LINE
8
DEFAULT_255_1_388
10
6.139143
20
68.6678353
11
6.139143
21
68.9416153
0
LINE
8
DEFAULT_255_1_388
10
5.6430861
20
68.9542652
11
5.6430861
21
68.6868102
0
ARC
8
DEFAULT_255_1_388
10
4.9285358
20
68.7075118
40
1.3777776
50
353.8440855
51
0.2287917
0
ARC
8
DEFAULT_255_1_388
10
5.4504376
20
68.6492414
40
0.852639
50
344.4934746
51
353.9763743
0
ARC
8
DEFAULT_255_1_388
10
5.7871183
20
68.5535191
40
0.5026273
50
329.2803599
51
344.7473406
0
ARC
8
DEFAULT_255_1_388
10
5.8986679
20
68.4923038
40
0.3754848
50
324.9361395
51
328.6153007
0
ARC
8
DEFAULT_255_1_388
10
5.9412328
20
68.4625586
40
0.3235566
50
280.5801797
51
324.9173226
0
ARC
8
DEFAULT_255_1_388
10
5.8960957
20
68.6505236
40
0.5167077
50
269.5979457
51
281.6732777
0
ARC
8
DEFAULT_255_1_388
10
5.8879861
20
68.6370113
40
0.5032026
50
256.6228565
51
270.5105488
0
ARC
8
DEFAULT_255_1_388
10
5.8427603
20
68.4628345
40
0.3233092
50
215.8618351
51
257.2787793
0
ARC
8
DEFAULT_255_1_388
10
5.957631
20
68.5399106
40
0.4615831
50
197.9695203
51
215.2622745
0
ARC
8
DEFAULT_255_1_388
10
6.2371986
20
68.6342641
40
0.7566307
50
187.8816486
51
198.2346584
0
ARC
8
DEFAULT_255_1_388
10
6.6825224
20
68.6985453
40
1.2065653
50
180.8977266
51
188.0054894
0
ARC
8
DEFAULT_255_1_388
10
6.9875438
20
68.71004
40
1.5117443
50
180.7434591
51
181.152202
0
ARC
8
DEFAULT_255_1_388
10
6.8200434
20
68.9190371
40
1.3441277
50
173.7674302
51
180.2315596
0
ARC
8
DEFAULT_255_1_388
10
6.3118303
20
68.9764779
40
0.8326847
50
164.3058537
51
173.9000553
0
ARC
8
DEFAULT_255_1_388
10
5.9842303
20
69.0708652
40
0.4917711
50
148.7922028
51
164.5682288
0
ARC
8
DEFAULT_255_1_388
10
5.877304
20
69.1305457
40
0.3694204
50
144.5883979
51
148.1161588
0
ARC
8
DEFAULT_255_1_388
10
5.8385786
20
69.1575667
40
0.322202
50
101.6440149
51
144.5142619
0
ARC
8
DEFAULT_255_1_388
10
5.8863978
20
68.9675337
40
0.5180451
50
89.528284
51
102.5820197
0
ARC
8
DEFAULT_255_1_388
10
5.895297
20
68.9631376
40
0.5224441
50
77.0437914
51
90.508231
0
ARC
8
DEFAULT_255_1_388
10
5.9405223
20
69.1479272
40
0.3322297
50
48.2777708
51
77.4996087
0
ARC
8
DEFAULT_255_1_388
10
5.9486963
20
69.1624557
40
0.315966
50
36.3141586
51
47.6307332
0
ARC
8
DEFAULT_255_1_388
10
5.8509686
20
69.0966159
40
0.4337313
50
18.2931065
51
35.6770203
0
ARC
8
DEFAULT_255_1_388
10
5.5648526
20
68.9984107
40
0.7362203
50
8.0246996
51
18.5605636
0
ARC
8
DEFAULT_255_1_388
10
5.0964882
20
68.9292432
40
1.2096583
50
1.127539
51
8.1718423
0
ARC
8
DEFAULT_255_1_388
10
4.7316015
20
68.9149374
40
1.5747719
50
0.5432713
51
1.38669
0
ARC
8
DEFAULT_255_1_388
10
4.9373394
20
68.9456163
40
1.2018103
50
359.8092569
51
4.9408001
0
ARC
8
DEFAULT_255_1_388
10
5.4109975
20
68.98789
40
0.7262727
50
4.8364937
51
12.2906017
0
ARC
8
DEFAULT_255_1_388
10
5.720944
20
69.0569485
40
0.4087324
50
12.0806994
51
23.8171225
0
ARC
8
DEFAULT_255_1_388
10
5.8529836
20
69.1128508
40
0.2653719
50
24.2874621
51
31.3934353
0
ARC
8
DEFAULT_255_1_388
10
5.9120272
20
69.1514822
40
0.1948607
50
30.7407708
51
82.4658033
0
ARC
8
DEFAULT_255_1_388
10
5.8917933
20
69.0521017
40
0.2961198
50
81.1057101
51
90.2187368
0
ARC
8
DEFAULT_255_1_388
10
5.8877745
20
69.0811421
40
0.2670929
50
89.380395
51
105.6763916
0
ARC
8
DEFAULT_255_1_388
10
5.8671467
20
69.156132
40
0.1893189
50
105.7980655
51
149.7387869
0
ARC
8
DEFAULT_255_1_388
10
5.9868607
20
69.0841719
40
0.3289892
50
149.4208441
51
163.628295
0
ARC
8
DEFAULT_255_1_388
10
6.2220836
20
69.0124345
40
0.5749004
50
163.3764549
51
172.141138
0
ARC
8
DEFAULT_255_1_388
10
6.5933558
20
68.9592582
40
0.9499585
50
172.0258462
51
178.0705453
0
ARC
8
DEFAULT_255_1_388
10
6.9355111
20
68.9430682
40
1.2924734
50
177.8639301
51
179.5036263
0
ARC
8
DEFAULT_255_1_388
10
6.8136129
20
68.6827151
40
1.170534
50
179.7995545
51
185.246089
0
ARC
8
DEFAULT_255_1_388
10
6.3587722
20
68.6396404
40
0.7136613
50
185.1411911
51
193.0082205
0
ARC
8
DEFAULT_255_1_388
10
6.0613983
20
68.5693441
40
0.4080987
50
192.7897338
51
205.2507384
0
ARC
8
DEFAULT_255_1_388
10
5.9436193
20
68.5167538
40
0.2791522
50
205.8001921
51
211.2545876
0
ARC
8
DEFAULT_255_1_388
10
5.8847732
20
68.4773132
40
0.2084074
50
210.3789935
51
238.4007996
0
ARC
8
DEFAULT_255_1_388
10
5.8825818
20
68.4825786
40
0.2117943
50
239.6521916
51
265.9793852
0
ARC
8
DEFAULT_255_1_388
10
5.8921667
20
68.5582358
40
0.2879689
50
265.1324455
51
270.0603288
0
ARC
8
DEFAULT_255_1_388
10
5.8954044
20
68.5217418
40
0.2514919
50
269.3314378
51
287.2180039
0
ARC
8
DEFAULT_255_1_388
10
5.9109126
20
68.4651291
40
0.1928357
50
287.7957942
51
329.0808983
0
ARC
8
DEFAULT_255_1_388
10
5.8031883
20
68.5323651
40
0.319808
50
328.6635261
51
343.3325043
0
ARC
8
DEFAULT_255_1_388
10
5.5587342
20
68.6085195
40
0.5758408
50
343.0498092
51
351.9392499
0
ARC
8
DEFAULT_255_1_388
10
5.1686664
20
68.6660205
40
0.9701202
50
351.8071632
51
357.7957897
0
ARC
8
DEFAULT_255_1_388
10
4.8052141
20
68.6848724
40
1.3340376
50
357.5870923
51
359.2682493
0
LINE
8
DEFAULT_255_1_388
10
4.7500716
20
76.0894
11
4.5747801
21
76.0894
0
LINE
8
DEFAULT_255_1_388
10
4.3859351
20
76.6821383
11
4.5485767
21
76.6821383
0
LINE
8
DEFAULT_255_1_388
10
4.5485767
20
76.6821383
11
4.5485767
21
76.7589413
0
LINE
8
DEFAULT_255_1_388
10
4.1311299
20
76.7959874
11
3.9630669
21
76.7959874
0
LINE
8
DEFAULT_255_1_388
10
4.7157361
20
76.7679769
11
4.7157361
21
76.3180018
0
LINE
8
DEFAULT_255_1_388
10
4.7500716
20
76.103857
11
4.7500716
21
76.0894
0
LINE
8
DEFAULT_255_1_388
10
4.5485767
20
76.36318
11
4.5485767
21
76.5637713
0
LINE
8
DEFAULT_255_1_388
10
4.5485767
20
76.5637713
11
4.4175599
21
76.5637713
0
ARC
8
DEFAULT_255_1_388
10
4.691695
20
76.14611
40
0.1299428
50
197.0784902
51
205.8758668
0
ARC
8
DEFAULT_255_1_388
10
4.8311536
20
76.1902959
40
0.2762313
50
192.2927663
51
197.3441989
0
ARC
8
DEFAULT_255_1_388
10
5.0507042
20
76.239076
40
0.5011345
50
189.1573793
51
192.3977084
0
ARC
8
DEFAULT_255_1_388
10
5.3671888
20
76.2906878
40
0.8217995
50
186.8686098
51
189.1982636
0
ARC
8
DEFAULT_255_1_388
10
4.2616979
20
76.464726
40
0.3975173
50
294.0079259
51
316.7603918
0
ARC
8
DEFAULT_255_1_388
10
4.2762162
20
76.4442902
40
0.3729755
50
269.5043226
51
293.2478373
0
ARC
8
DEFAULT_255_1_388
10
4.2695214
20
76.4893915
40
0.4180772
50
255.4034155
51
270.4753052
0
ARC
8
DEFAULT_255_1_388
10
4.2436427
20
76.3889652
40
0.3143705
50
228.6141063
51
255.3550831
0
ARC
8
DEFAULT_255_1_388
10
4.2062409
20
76.353154
40
0.2628114
50
181.8954381
51
229.5703134
0
ARC
8
DEFAULT_255_1_388
10
4.2727345
20
76.3603824
40
0.329546
50
179.9848815
51
182.7691528
0
ARC
8
DEFAULT_255_1_388
10
4.2634411
20
76.3642827
40
0.3202753
50
161.0342928
51
180.6822077
0
ARC
8
DEFAULT_255_1_388
10
4.2140026
20
76.3771422
40
0.2693695
50
125.0525065
51
160.2034058
0
ARC
8
DEFAULT_255_1_388
10
4.2884748
20
76.2755275
40
0.3953338
50
106.2670809
51
125.4300189
0
ARC
8
DEFAULT_255_1_388
10
4.3528789
20
76.0650795
40
0.6154041
50
95.4857579
51
106.5348562
0
ARC
8
DEFAULT_255_1_388
10
4.3836077
20
75.7838993
40
0.8982419
50
89.8515405
51
95.7222579
0
ARC
8
DEFAULT_255_1_388
10
4.3116658
20
76.7609925
40
0.2369198
50
359.5039339
51
14.3181205
0
ARC
8
DEFAULT_255_1_388
10
4.3762662
20
76.7777862
40
0.170173
50
14.2184556
51
45.2028524
0
ARC
8
DEFAULT_255_1_388
10
4.3803358
20
76.7793862
40
0.1661795
50
45.8098216
51
73.0032926
0
ARC
8
DEFAULT_255_1_388
10
4.3523185
20
76.693726
40
0.2562942
50
72.6112517
51
85.7231489
0
ARC
8
DEFAULT_255_1_388
10
4.3421969
20
76.5910339
40
0.3594635
50
85.335019
51
90.0855069
0
ARC
8
DEFAULT_255_1_388
10
4.3395402
20
76.6574472
40
0.2930574
50
89.5854741
51
103.459124
0
ARC
8
DEFAULT_255_1_388
10
4.3223941
20
76.7289134
40
0.2195632
50
103.448332
51
126.5403399
0
ARC
8
DEFAULT_255_1_388
10
4.2954918
20
76.7633224
40
0.1759039
50
126.1730306
51
141.5008224
0
ARC
8
DEFAULT_255_1_388
10
4.2529233
20
76.7967266
40
0.1217955
50
141.3332087
51
180.3477313
0
ARC
8
DEFAULT_255_1_388
10
4.1770656
20
76.7947904
40
0.214002
50
151.6373605
51
179.6795088
0
ARC
8
DEFAULT_255_1_388
10
4.2447892
20
76.7610768
40
0.2896224
50
142.4981529
51
152.1330509
0
ARC
8
DEFAULT_255_1_388
10
4.2805896
20
76.7329781
40
0.3351307
50
120.8284906
51
142.4132156
0
ARC
8
DEFAULT_255_1_388
10
4.3273872
20
76.6597185
40
0.4220297
50
113.9634885
51
121.1871733
0
ARC
8
DEFAULT_255_1_388
10
4.3427181
20
76.6223705
40
0.4623867
50
93.3784336
51
113.8197902
0
ARC
8
DEFAULT_255_1_388
10
4.3513563
20
76.5362549
40
0.5488732
50
89.9745993
51
93.7488475
0
ARC
8
DEFAULT_255_1_388
10
4.3552809
20
76.5403587
40
0.5447818
50
79.1327128
51
90.3871707
0
ARC
8
DEFAULT_255_1_388
10
4.3918573
20
76.7231597
40
0.3583662
50
60.1434453
51
79.365517
0
ARC
8
DEFAULT_255_1_388
10
4.4207339
20
76.7786195
40
0.2959028
50
48.6191018
51
59.6466565
0
ARC
8
DEFAULT_255_1_388
10
4.4261051
20
76.7857356
40
0.2870136
50
9.0349502
51
48.4845487
0
ARC
8
DEFAULT_255_1_388
10
4.305035
20
76.7593084
40
0.4107927
50
1.2091359
51
10.0234369
0
ARC
8
DEFAULT_255_1_388
10
5.5747798
20
76.3152422
40
0.8590481
50
179.8159449
51
185.3205667
0
ARC
8
DEFAULT_255_1_388
10
5.2715643
20
76.2862945
40
0.5544553
50
185.2475628
51
192.7952551
0
ARC
8
DEFAULT_255_1_388
10
5.0733467
20
76.2408024
40
0.3510853
50
192.7195981
51
202.9584216
0
ARC
8
DEFAULT_255_1_388
10
4.2973503
20
76.5105895
40
0.2937869
50
270.006916
51
300.503478
0
ARC
8
DEFAULT_255_1_388
10
4.3111438
20
76.4961888
40
0.2744162
50
299.5482616
51
315.609538
0
ARC
8
DEFAULT_255_1_388
10
4.3437734
20
76.4628072
40
0.2277499
50
315.8682065
51
334.0592465
0
ARC
8
DEFAULT_255_1_388
10
4.4126708
20
75.77919
40
0.7845965
50
89.64297
51
97.2867877
0
ARC
8
DEFAULT_255_1_388
10
4.3630305
20
76.1508936
40
0.4096042
50
96.9938706
51
109.7783917
0
ARC
8
DEFAULT_255_1_388
10
4.2881768
20
76.3512851
40
0.1957225
50
109.0087985
51
135.3265591
0
ARC
8
DEFAULT_255_1_388
10
4.2574187
20
76.3893764
40
0.1471704
50
137.4537784
51
182.1083946
0
ARC
8
DEFAULT_255_1_388
10
4.2994887
20
76.3821101
40
0.1891498
50
179.4390335
51
195.7201623
0
ARC
8
DEFAULT_255_1_388
10
4.2531922
20
76.3694585
40
0.1411576
50
195.8683556
51
230.157074
0
ARC
8
DEFAULT_255_1_388
10
4.2804645
20
76.4021228
40
0.1837102
50
230.1532486
51
259.7486257
0
ARC
8
DEFAULT_255_1_388
10
4.2960687
20
76.4756472
40
0.258848
50
259.2461118
51
270.2915316
0
ARC
8
DEFAULT_255_1_388
10
5.1017855
20
76.1781142
40
0.1204062
50
163.5412609
51
180.5084512
0
ARC
8
DEFAULT_255_1_388
10
5.0801754
20
76.183946
40
0.0980307
50
138.1652
51
163.2315563
0
ARC
8
DEFAULT_255_1_388
10
5.0675495
20
76.1946456
40
0.0814881
50
105.6860499
51
137.8492655
0
ARC
8
DEFAULT_255_1_388
10
5.0808696
20
76.1514109
40
0.126719
50
92.6078949
51
106.199173
0
ARC
8
DEFAULT_255_1_388
10
5.0842886
20
76.1068207
40
0.1714243
50
89.9659531
51
93.0713334
0
ARC
8
DEFAULT_255_1_388
10
5.0854922
20
76.1318484
40
0.1464007
50
78.4379126
51
90.4311892
0
ARC
8
DEFAULT_255_1_388
10
5.0963569
20
76.1825017
40
0.094599
50
56.8961942
51
78.7357785
0
ARC
8
DEFAULT_255_1_388
10
5.1034679
20
76.1949075
40
0.0803272
50
42.6503148
51
56.3122241
0
ARC
8
DEFAULT_255_1_388
10
5.0890581
20
76.1816661
40
0.099897
50
3.8141057
51
42.636595
0
ARC
8
DEFAULT_255_1_388
10
5.0567903
20
76.1771616
40
0.1324137
50
359.9498843
51
4.8301897
0
ARC
8
DEFAULT_255_1_388
10
5.082304
20
76.1759722
40
0.1069053
50
340.9378148
51
0.5753733
0
ARC
8
DEFAULT_255_1_388
10
5.0949623
20
76.1725569
40
0.0938301
50
316.0798885
51
340.3845117
0
ARC
8
DEFAULT_255_1_388
10
5.1014934
20
76.166552
40
0.0849605
50
285.8512844
51
315.941661
0
ARC
8
DEFAULT_255_1_388
10
5.0882814
20
76.209262
40
0.1296594
50
273.1293204
51
286.3125006
0
ARC
8
DEFAULT_255_1_388
10
5.0845324
20
76.2544586
40
0.1749979
50
269.9535313
51
273.5471598
0
ARC
8
DEFAULT_255_1_388
10
5.0832929
20
76.2298833
40
0.1504266
50
259.0487117
51
270.4180248
0
ARC
8
DEFAULT_255_1_388
10
5.0724542
20
76.1761783
40
0.0956414
50
239.7583641
51
259.3115656
0
ARC
8
DEFAULT_255_1_388
10
5.0633475
20
76.1592048
40
0.0763945
50
222.6243303
51
239.2473835
0
ARC
8
DEFAULT_255_1_388
10
5.0784646
20
76.1730572
40
0.0968985
50
182.9231258
51
222.598101
0
ARC
8
DEFAULT_255_1_388
10
5.1087845
20
76.1769696
40
0.1274004
50
179.9657458
51
183.9850364
0
LINE
8
DEFAULT_255_1_388
10
6.2969739
20
77.4049898
11
6.2969739
21
77.3110191
0
LINE
8
DEFAULT_255_1_388
10
6.2969739
20
77.3110191
11
5.7521246
21
76.0894
0
LINE
8
DEFAULT_255_1_388
10
5.7521246
20
76.0894
11
5.5768331
21
76.0894
0
LINE
8
DEFAULT_255_1_388
10
5.5768331
20
76.0894
11
6.1198753
21
77.267648
0
LINE
8
DEFAULT_255_1_388
10
6.1198753
20
77.267648
11
5.4078665
21
77.267648
0
LINE
8
DEFAULT_255_1_388
10
5.4078665
20
77.267648
11
5.4078665
21
77.4049898
0
LINE
8
DEFAULT_255_1_388
10
5.4078665
20
77.4049898
11
6.2969739
21
77.4049898
0
LINE
8
DEFAULT_255_1_388
10
4.7500716
20
84.0269
11
4.5747801
21
84.0269
0
LINE
8
DEFAULT_255_1_388
10
4.3859351
20
84.6196383
11
4.5485767
21
84.6196383
0
LINE
8
DEFAULT_255_1_388
10
4.5485767
20
84.6196383
11
4.5485767
21
84.6964413
0
LINE
8
DEFAULT_255_1_388
10
4.1311299
20
84.7334874
11
3.9630669
21
84.7334874
0
LINE
8
DEFAULT_255_1_388
10
4.7157361
20
84.7054769
11
4.7157361
21
84.2555018
0
LINE
8
DEFAULT_255_1_388
10
4.7500716
20
84.041357
11
4.7500716
21
84.0269
0
LINE
8
DEFAULT_255_1_388
10
4.5485767
20
84.30068
11
4.5485767
21
84.5012713
0
LINE
8
DEFAULT_255_1_388
10
4.5485767
20
84.5012713
11
4.4175599
21
84.5012713
0
ARC
8
DEFAULT_255_1_388
10
4.691695
20
84.08361
40
0.1299428
50
197.0784902
51
205.8758668
0
ARC
8
DEFAULT_255_1_388
10
4.8311536
20
84.1277959
40
0.2762313
50
192.2927663
51
197.3441989
0
ARC
8
DEFAULT_255_1_388
10
5.0507042
20
84.176576
40
0.5011345
50
189.1573793
51
192.3977084
0
ARC
8
DEFAULT_255_1_388
10
5.3671888
20
84.2281878
40
0.8217995
50
186.8686098
51
189.1982636
0
ARC
8
DEFAULT_255_1_388
10
4.2616979
20
84.402226
40
0.3975173
50
294.0079259
51
316.7603918
0
ARC
8
DEFAULT_255_1_388
10
4.2762162
20
84.3817902
40
0.3729755
50
269.5043226
51
293.2478373
0
ARC
8
DEFAULT_255_1_388
10
4.2695214
20
84.4268915
40
0.4180772
50
255.4034155
51
270.4753052
0
ARC
8
DEFAULT_255_1_388
10
4.2436427
20
84.3264652
40
0.3143705
50
228.6141063
51
255.3550831
0
ARC
8
DEFAULT_255_1_388
10
4.2062409
20
84.290654
40
0.2628114
50
181.8954381
51
229.5703134
0
ARC
8
DEFAULT_255_1_388
10
4.2727345
20
84.2978824
40
0.329546
50
179.9848815
51
182.7691528
0
ARC
8
DEFAULT_255_1_388
10
4.2634411
20
84.3017827
40
0.3202753
50
161.0342928
51
180.6822077
0
ARC
8
DEFAULT_255_1_388
10
4.2140026
20
84.3146422
40
0.2693695
50
125.0525065
51
160.2034058
0
ARC
8
DEFAULT_255_1_388
10
4.2884748
20
84.2130275
40
0.3953338
50
106.2670809
51
125.4300189
0
ARC
8
DEFAULT_255_1_388
10
4.3528789
20
84.0025795
40
0.6154041
50
95.4857579
51
106.5348562
0
ARC
8
DEFAULT_255_1_388
10
4.3836077
20
83.7213993
40
0.8982419
50
89.8515405
51
95.7222579
0
ARC
8
DEFAULT_255_1_388
10
4.3116658
20
84.6984925
40
0.2369198
50
359.5039339
51
14.3181205
0
ARC
8
DEFAULT_255_1_388
10
4.3762662
20
84.7152862
40
0.170173
50
14.2184556
51
45.2028524
0
ARC
8
DEFAULT_255_1_388
10
4.3803358
20
84.7168862
40
0.1661795
50
45.8098216
51
73.0032926
0
ARC
8
DEFAULT_255_1_388
10
4.3523185
20
84.631226
40
0.2562942
50
72.6112517
51
85.7231489
0
ARC
8
DEFAULT_255_1_388
10
4.3421969
20
84.5285339
40
0.3594635
50
85.335019
51
90.0855069
0
ARC
8
DEFAULT_255_1_388
10
4.3395402
20
84.5949472
40
0.2930574
50
89.5854741
51
103.459124
0
ARC
8
DEFAULT_255_1_388
10
4.3223941
20
84.6664134
40
0.2195632
50
103.448332
51
126.5403399
0
ARC
8
DEFAULT_255_1_388
10
4.2954918
20
84.7008224
40
0.1759039
50
126.1730306
51
141.5008224
0
ARC
8
DEFAULT_255_1_388
10
4.2529233
20
84.7342266
40
0.1217955
50
141.3332087
51
180.3477313
0
ARC
8
DEFAULT_255_1_388
10
4.1770656
20
84.7322904
40
0.214002
50
151.6373605
51
179.6795088
0
ARC
8
DEFAULT_255_1_388
10
4.2447892
20
84.6985768
40
0.2896224
50
142.4981529
51
152.1330509
0
ARC
8
DEFAULT_255_1_388
10
4.2805896
20
84.6704781
40
0.3351307
50
120.8284906
51
142.4132156
0
ARC
8
DEFAULT_255_1_388
10
4.3273872
20
84.5972185
40
0.4220297
50
113.9634885
51
121.1871733
0
ARC
8
DEFAULT_255_1_388
10
4.3427181
20
84.5598705
40
0.4623867
50
93.3784336
51
113.8197902
0
ARC
8
DEFAULT_255_1_388
10
4.3513563
20
84.4737549
40
0.5488732
50
89.9745993
51
93.7488475
0
ARC
8
DEFAULT_255_1_388
10
4.3552809
20
84.4778587
40
0.5447818
50
79.1327128
51
90.3871707
0
ARC
8
DEFAULT_255_1_388
10
4.3918573
20
84.6606597
40
0.3583662
50
60.1434453
51
79.365517
0
ARC
8
DEFAULT_255_1_388
10
4.4207339
20
84.7161195
40
0.2959028
50
48.6191018
51
59.6466565
0
ARC
8
DEFAULT_255_1_388
10
4.4261051
20
84.7232356
40
0.2870136
50
9.0349502
51
48.4845487
0
ARC
8
DEFAULT_255_1_388
10
4.305035
20
84.6968084
40
0.4107927
50
1.2091359
51
10.0234369
0
ARC
8
DEFAULT_255_1_388
10
5.5747798
20
84.2527422
40
0.8590481
50
179.8159449
51
185.3205667
0
ARC
8
DEFAULT_255_1_388
10
5.2715643
20
84.2237945
40
0.5544553
50
185.2475628
51
192.7952551
0
ARC
8
DEFAULT_255_1_388
10
5.0733467
20
84.1783024
40
0.3510853
50
192.7195981
51
202.9584216
0
ARC
8
DEFAULT_255_1_388
10
4.2973503
20
84.4480895
40
0.2937869
50
270.006916
51
300.503478
0
ARC
8
DEFAULT_255_1_388
10
4.3111438
20
84.4336888
40
0.2744162
50
299.5482616
51
315.609538
0
ARC
8
DEFAULT_255_1_388
10
4.3437734
20
84.4003072
40
0.2277499
50
315.8682065
51
334.0592465
0
ARC
8
DEFAULT_255_1_388
10
4.4126708
20
83.71669
40
0.7845965
50
89.64297
51
97.2867877
0
ARC
8
DEFAULT_255_1_388
10
4.3630305
20
84.0883936
40
0.4096042
50
96.9938706
51
109.7783917
0
ARC
8
DEFAULT_255_1_388
10
4.2881768
20
84.2887851
40
0.1957225
50
109.0087985
51
135.3265591
0
ARC
8
DEFAULT_255_1_388
10
4.2574187
20
84.3268764
40
0.1471704
50
137.4537784
51
182.1083946
0
ARC
8
DEFAULT_255_1_388
10
4.2994887
20
84.3196101
40
0.1891498
50
179.4390335
51
195.7201623
0
ARC
8
DEFAULT_255_1_388
10
4.2531922
20
84.3069585
40
0.1411576
50
195.8683556
51
230.157074
0
ARC
8
DEFAULT_255_1_388
10
4.2804645
20
84.3396228
40
0.1837102
50
230.1532486
51
259.7486257
0
ARC
8
DEFAULT_255_1_388
10
4.2960687
20
84.4131472
40
0.258848
50
259.2461118
51
270.2915316
0
ARC
8
DEFAULT_255_1_388
10
5.1017855
20
84.1156142
40
0.1204062
50
163.5412609
51
180.5084512
0
ARC
8
DEFAULT_255_1_388
10
5.0801754
20
84.121446
40
0.0980307
50
138.1652
51
163.2315563
0
ARC
8
DEFAULT_255_1_388
10
5.0675495
20
84.1321456
40
0.0814881
50
105.6860499
51
137.8492655
0
ARC
8
DEFAULT_255_1_388
10
5.0808696
20
84.0889109
40
0.126719
50
92.6078949
51
106.199173
0
ARC
8
DEFAULT_255_1_388
10
5.0842886
20
84.0443207
40
0.1714243
50
89.9659531
51
93.0713334
0
ARC
8
DEFAULT_255_1_388
10
5.0854922
20
84.0693484
40
0.1464007
50
78.4379126
51
90.4311892
0
ARC
8
DEFAULT_255_1_388
10
5.0963569
20
84.1200017
40
0.094599
50
56.8961942
51
78.7357785
0
ARC
8
DEFAULT_255_1_388
10
5.1034679
20
84.1324075
40
0.0803272
50
42.6503148
51
56.3122241
0
ARC
8
DEFAULT_255_1_388
10
5.0890581
20
84.1191661
40
0.099897
50
3.8141057
51
42.636595
0
ARC
8
DEFAULT_255_1_388
10
5.0567903
20
84.1146616
40
0.1324137
50
359.9498843
51
4.8301897
0
ARC
8
DEFAULT_255_1_388
10
5.082304
20
84.1134722
40
0.1069053
50
340.9378148
51
0.5753733
0
ARC
8
DEFAULT_255_1_388
10
5.0949623
20
84.1100569
40
0.0938301
50
316.0798885
51
340.3845117
0
ARC
8
DEFAULT_255_1_388
10
5.1014934
20
84.104052
40
0.0849605
50
285.8512844
51
315.941661
0
ARC
8
DEFAULT_255_1_388
10
5.0882814
20
84.146762
40
0.1296594
50
273.1293204
51
286.3125006
0
ARC
8
DEFAULT_255_1_388
10
5.0845324
20
84.1919586
40
0.1749979
50
269.9535313
51
273.5471598
0
ARC
8
DEFAULT_255_1_388
10
5.0832929
20
84.1673833
40
0.1504266
50
259.0487117
51
270.4180248
0
ARC
8
DEFAULT_255_1_388
10
5.0724542
20
84.1136783
40
0.0956414
50
239.7583641
51
259.3115656
0
ARC
8
DEFAULT_255_1_388
10
5.0633475
20
84.0967048
40
0.0763945
50
222.6243303
51
239.2473835
0
ARC
8
DEFAULT_255_1_388
10
5.0784646
20
84.1105572
40
0.0968985
50
182.9231258
51
222.598101
0
ARC
8
DEFAULT_255_1_388
10
5.1087845
20
84.1144696
40
0.1274004
50
179.9657458
51
183.9850364
0
LINE
8
DEFAULT_255_1_388
10
6.0737935
20
85.3433934
11
6.1036111
21
85.3433934
0
LINE
8
DEFAULT_255_1_388
10
6.1036111
20
85.3433934
11
6.1036111
21
85.2015338
0
LINE
8
DEFAULT_255_1_388
10
6.1036111
20
85.2015338
11
6.0728899
21
85.2015338
0
LINE
8
DEFAULT_255_1_388
10
5.4575625
20
84.5274747
11
5.4575625
21
84.5916278
0
LINE
8
DEFAULT_255_1_388
10
5.6256255
20
84.5699422
11
5.6256255
21
84.5084999
0
ARC
8
DEFAULT_255_1_388
10
6.0787791
20
84.6392826
40
0.562282
50
90.6001079
51
104.5146616
0
ARC
8
DEFAULT_255_1_388
10
6.035075
20
84.80181
40
0.3939917
50
104.2855758
51
133.8630124
0
ARC
8
DEFAULT_255_1_388
10
6.0535003
20
84.7896243
40
0.4155734
50
134.5304124
51
161.6210222
0
ARC
8
DEFAULT_255_1_388
10
6.2394935
20
84.7240421
40
0.6127682
50
161.2850533
51
174.2074364
0
ARC
8
DEFAULT_255_1_388
10
6.3984502
20
84.7021437
40
0.7731446
50
173.7817938
51
174.9251711
0
ARC
8
DEFAULT_255_1_388
10
5.8858696
20
84.546627
40
0.3412588
50
95.8332067
51
138.995412
0
ARC
8
DEFAULT_255_1_388
10
5.9109976
20
84.4027695
40
0.4870358
50
89.8755506
51
97.0540979
0
ARC
8
DEFAULT_255_1_388
10
5.9163365
20
84.4967841
40
0.3930432
50
71.6407016
51
90.6240821
0
ARC
8
DEFAULT_255_1_388
10
5.9332759
20
84.5591433
40
0.3285421
50
39.6368051
51
71.0190743
0
ARC
8
DEFAULT_255_1_388
10
5.8616666
20
84.4972586
40
0.4231706
50
10.6588054
51
39.9044509
0
ARC
8
DEFAULT_255_1_388
10
5.6875212
20
84.4594223
40
0.60133
50
359.6827842
51
11.1326896
0
ARC
8
DEFAULT_255_1_388
10
5.6830548
20
84.4514715
40
0.6058047
50
347.2485908
51
0.4371098
0
ARC
8
DEFAULT_255_1_388
10
5.8706333
20
84.4063379
40
0.4128987
50
318.1408565
51
347.6118497
0
ARC
8
DEFAULT_255_1_388
10
5.907193
20
84.3762903
40
0.3656244
50
275.6342406
51
317.824739
0
ARC
8
DEFAULT_255_1_388
10
5.8823451
20
84.5224827
40
0.513655
50
269.8872513
51
276.7916069
0
ARC
8
DEFAULT_255_1_388
10
5.8761643
20
84.4071181
40
0.398323
50
246.9139443
51
270.7436787
0
ARC
8
DEFAULT_255_1_388
10
5.8768839
20
84.3911044
40
0.3839368
50
218.1665534
51
245.8780431
0
ARC
8
DEFAULT_255_1_388
10
5.9758211
20
84.4738903
40
0.5128958
50
191.4115343
51
218.6077624
0
ARC
8
DEFAULT_255_1_388
10
6.1938528
20
84.5227777
40
0.7363054
50
179.6344971
51
191.7836758
0
ARC
8
DEFAULT_255_1_388
10
6.8218402
20
84.5991495
40
1.3642984
50
171.4523743
51
180.3158856
0
ARC
8
DEFAULT_255_1_388
10
6.3274129
20
84.6760895
40
0.8639311
50
157.9802296
51
171.6246761
0
ARC
8
DEFAULT_255_1_388
10
6.078348
20
84.7754038
40
0.5958004
50
141.4299236
51
157.8541251
0
ARC
8
DEFAULT_255_1_388
10
6.0061563
20
84.8264746
40
0.5075416
50
102.871586
51
140.8564533
0
ARC
8
DEFAULT_255_1_388
10
6.0790116
20
84.5519943
40
0.7914163
50
90.377773
51
103.5868422
0
ARC
8
DEFAULT_255_1_388
10
5.8834637
20
84.4839543
40
0.2667015
50
89.8751238
51
126.2072139
0
ARC
8
DEFAULT_255_1_388
10
5.8886108
20
84.4665847
40
0.2838229
50
124.9742447
51
144.8960197
0
ARC
8
DEFAULT_255_1_388
10
5.8688353
20
84.4826981
40
0.2583845
50
145.2974778
51
160.2660922
0
ARC
8
DEFAULT_255_1_388
10
6.2144841
20
84.5049151
40
0.5888695
50
179.6512124
51
190.285571
0
ARC
8
DEFAULT_255_1_388
10
6.0239321
20
84.4689968
40
0.3949683
50
190.0944895
51
207.5099647
0
ARC
8
DEFAULT_255_1_388
10
5.9602903
20
84.4387177
40
0.3245464
50
207.9585471
51
216.325377
0
ARC
8
DEFAULT_255_1_388
10
5.922054
20
84.4072712
40
0.2751259
50
215.7661336
51
232.5457193
0
ARC
8
DEFAULT_255_1_388
10
5.8789656
20
84.3525273
40
0.2054668
50
232.8005815
51
270.6605497
0
ARC
8
DEFAULT_255_1_388
10
5.884108
20
84.3934853
40
0.2464268
50
269.3550767
51
288.474612
0
ARC
8
DEFAULT_255_1_388
10
5.8945587
20
84.3541721
40
0.2058436
50
289.1831976
51
322.9685307
0
ARC
8
DEFAULT_255_1_388
10
5.8257689
20
84.4084279
40
0.2934408
50
322.6007085
51
346.5183319
0
ARC
8
DEFAULT_255_1_388
10
5.6955445
20
84.4416434
40
0.4278249
50
346.2584622
51
358.7739592
0
ARC
8
DEFAULT_255_1_388
10
5.580402
20
84.4478829
40
0.5430876
50
358.3757628
51
0.0082477
0
ARC
8
DEFAULT_255_1_388
10
5.6660838
20
84.4509856
40
0.4574157
50
359.6211417
51
11.28403
0
ARC
8
DEFAULT_255_1_388
10
5.8097445
20
84.4809535
40
0.3106708
50
11.0483152
51
31.8145585
0
ARC
8
DEFAULT_255_1_388
10
5.844515
20
84.4998045
40
0.2711963
50
32.3028554
51
38.0820598
0
ARC
8
DEFAULT_255_1_388
10
5.8918383
20
84.5426717
40
0.2075566
50
36.8249851
51
85.741667
0
ARC
8
DEFAULT_255_1_388
10
5.8842795
20
84.4863065
40
0.2643487
50
85.0150021
51
90.050843
0
LINE
8
DEFAULT_255_1_388
10
4.7500716
20
91.9644
11
4.5747801
21
91.9644
0
LINE
8
DEFAULT_255_1_388
10
4.3859351
20
92.5571383
11
4.5485767
21
92.5571383
0
LINE
8
DEFAULT_255_1_388
10
4.5485767
20
92.5571383
11
4.5485767
21
92.6339413
0
LINE
8
DEFAULT_255_1_388
10
4.1311299
20
92.6709874
11
3.9630669
21
92.6709874
0
LINE
8
DEFAULT_255_1_388
10
4.7157361
20
92.6429769
11
4.7157361
21
92.1930018
0
LINE
8
DEFAULT_255_1_388
10
4.7500716
20
91.978857
11
4.7500716
21
91.9644
0
LINE
8
DEFAULT_255_1_388
10
4.5485767
20
92.23818
11
4.5485767
21
92.4387713
0
LINE
8
DEFAULT_255_1_388
10
4.5485767
20
92.4387713
11
4.4175599
21
92.4387713
0
ARC
8
DEFAULT_255_1_388
10
4.691695
20
92.02111
40
0.1299428
50
197.0784902
51
205.8758668
0
ARC
8
DEFAULT_255_1_388
10
4.8311536
20
92.0652959
40
0.2762313
50
192.2927663
51
197.3441989
0
ARC
8
DEFAULT_255_1_388
10
5.0507042
20
92.114076
40
0.5011345
50
189.1573793
51
192.3977084
0
ARC
8
DEFAULT_255_1_388
10
5.3671888
20
92.1656878
40
0.8217995
50
186.8686098
51
189.1982636
0
ARC
8
DEFAULT_255_1_388
10
4.2616979
20
92.339726
40
0.3975173
50
294.0079259
51
316.7603918
0
ARC
8
DEFAULT_255_1_388
10
4.2762162
20
92.3192902
40
0.3729755
50
269.5043226
51
293.2478373
0
ARC
8
DEFAULT_255_1_388
10
4.2695214
20
92.3643915
40
0.4180772
50
255.4034155
51
270.4753052
0
ARC
8
DEFAULT_255_1_388
10
4.2436427
20
92.2639652
40
0.3143705
50
228.6141063
51
255.3550831
0
ARC
8
DEFAULT_255_1_388
10
4.2062409
20
92.228154
40
0.2628114
50
181.8954381
51
229.5703134
0
ARC
8
DEFAULT_255_1_388
10
4.2727345
20
92.2353824
40
0.329546
50
179.9848815
51
182.7691528
0
ARC
8
DEFAULT_255_1_388
10
4.2634411
20
92.2392827
40
0.3202753
50
161.0342928
51
180.6822077
0
ARC
8
DEFAULT_255_1_388
10
4.2140026
20
92.2521422
40
0.2693695
50
125.0525065
51
160.2034058
0
ARC
8
DEFAULT_255_1_388
10
4.2884748
20
92.1505275
40
0.3953338
50
106.2670809
51
125.4300189
0
ARC
8
DEFAULT_255_1_388
10
4.3528789
20
91.9400795
40
0.6154041
50
95.4857579
51
106.5348562
0
ARC
8
DEFAULT_255_1_388
10
4.3836077
20
91.6588993
40
0.8982419
50
89.8515405
51
95.7222579
0
ARC
8
DEFAULT_255_1_388
10
4.3116658
20
92.6359925
40
0.2369198
50
359.5039339
51
14.3181205
0
ARC
8
DEFAULT_255_1_388
10
4.3762662
20
92.6527862
40
0.170173
50
14.2184556
51
45.2028524
0
ARC
8
DEFAULT_255_1_388
10
4.3803358
20
92.6543862
40
0.1661795
50
45.8098216
51
73.0032926
0
ARC
8
DEFAULT_255_1_388
10
4.3523185
20
92.568726
40
0.2562942
50
72.6112517
51
85.7231489
0
ARC
8
DEFAULT_255_1_388
10
4.3421969
20
92.4660339
40
0.3594635
50
85.335019
51
90.0855069
0
ARC
8
DEFAULT_255_1_388
10
4.3395402
20
92.5324472
40
0.2930574
50
89.5854741
51
103.459124
0
ARC
8
DEFAULT_255_1_388
10
4.3223941
20
92.6039134
40
0.2195632
50
103.448332
51
126.5403399
0
ARC
8
DEFAULT_255_1_388
10
4.2954918
20
92.6383224
40
0.1759039
50
126.1730306
51
141.5008224
0
ARC
8
DEFAULT_255_1_388
10
4.2529233
20
92.6717266
40
0.1217955
50
141.3332087
51
180.3477313
0
ARC
8
DEFAULT_255_1_388
10
4.1770656
20
92.6697904
40
0.214002
50
151.6373605
51
179.6795088
0
ARC
8
DEFAULT_255_1_388
10
4.2447892
20
92.6360768
40
0.2896224
50
142.4981529
51
152.1330509
0
ARC
8
DEFAULT_255_1_388
10
4.2805896
20
92.6079781
40
0.3351307
50
120.8284906
51
142.4132156
0
ARC
8
DEFAULT_255_1_388
10
4.3273872
20
92.5347185
40
0.4220297
50
113.9634885
51
121.1871733
0
ARC
8
DEFAULT_255_1_388
10
4.3427181
20
92.4973705
40
0.4623867
50
93.3784336
51
113.8197902
0
ARC
8
DEFAULT_255_1_388
10
4.3513563
20
92.4112549
40
0.5488732
50
89.9745993
51
93.7488475
0
ARC
8
DEFAULT_255_1_388
10
4.3552809
20
92.4153587
40
0.5447818
50
79.1327128
51
90.3871707
0
ARC
8
DEFAULT_255_1_388
10
4.3918573
20
92.5981597
40
0.3583662
50
60.1434453
51
79.365517
0
ARC
8
DEFAULT_255_1_388
10
4.4207339
20
92.6536195
40
0.2959028
50
48.6191018
51
59.6466565
0
ARC
8
DEFAULT_255_1_388
10
4.4261051
20
92.6607356
40
0.2870136
50
9.0349502
51
48.4845487
0
ARC
8
DEFAULT_255_1_388
10
4.305035
20
92.6343084
40
0.4107927
50
1.2091359
51
10.0234369
0
ARC
8
DEFAULT_255_1_388
10
5.5747798
20
92.1902422
40
0.8590481
50
179.8159449
51
185.3205667
0
ARC
8
DEFAULT_255_1_388
10
5.2715643
20
92.1612945
40
0.5544553
50
185.2475628
51
192.7952551
0
ARC
8
DEFAULT_255_1_388
10
5.0733467
20
92.1158024
40
0.3510853
50
192.7195981
51
202.9584216
0
ARC
8
DEFAULT_255_1_388
10
4.2973503
20
92.3855895
40
0.2937869
50
270.006916
51
300.503478
0
ARC
8
DEFAULT_255_1_388
10
4.3111438
20
92.3711888
40
0.2744162
50
299.5482616
51
315.609538
0
ARC
8
DEFAULT_255_1_388
10
4.3437734
20
92.3378072
40
0.2277499
50
315.8682065
51
334.0592465
0
ARC
8
DEFAULT_255_1_388
10
4.4126708
20
91.65419
40
0.7845965
50
89.64297
51
97.2867877
0
ARC
8
DEFAULT_255_1_388
10
4.3630305
20
92.0258936
40
0.4096042
50
96.9938706
51
109.7783917
0
ARC
8
DEFAULT_255_1_388
10
4.2881768
20
92.2262851
40
0.1957225
50
109.0087985
51
135.3265591
0
ARC
8
DEFAULT_255_1_388
10
4.2574187
20
92.2643764
40
0.1471704
50
137.4537784
51
182.1083946
0
ARC
8
DEFAULT_255_1_388
10
4.2994887
20
92.2571101
40
0.1891498
50
179.4390335
51
195.7201623
0
ARC
8
DEFAULT_255_1_388
10
4.2531922
20
92.2444585
40
0.1411576
50
195.8683556
51
230.157074
0
ARC
8
DEFAULT_255_1_388
10
4.2804645
20
92.2771228
40
0.1837102
50
230.1532486
51
259.7486257
0
ARC
8
DEFAULT_255_1_388
10
4.2960687
20
92.3506472
40
0.258848
50
259.2461118
51
270.2915316
0
ARC
8
DEFAULT_255_1_388
10
5.1017855
20
92.0531142
40
0.1204062
50
163.5412609
51
180.5084512
0
ARC
8
DEFAULT_255_1_388
10
5.0801754
20
92.058946
40
0.0980307
50
138.1652
51
163.2315563
0
ARC
8
DEFAULT_255_1_388
10
5.0675495
20
92.0696456
40
0.0814881
50
105.6860499
51
137.8492655
0
ARC
8
DEFAULT_255_1_388
10
5.0808696
20
92.0264109
40
0.126719
50
92.6078949
51
106.199173
0
ARC
8
DEFAULT_255_1_388
10
5.0842886
20
91.9818207
40
0.1714243
50
89.9659531
51
93.0713334
0
ARC
8
DEFAULT_255_1_388
10
5.0854922
20
92.0068484
40
0.1464007
50
78.4379126
51
90.4311892
0
ARC
8
DEFAULT_255_1_388
10
5.0963569
20
92.0575017
40
0.094599
50
56.8961942
51
78.7357785
0
ARC
8
DEFAULT_255_1_388
10
5.1034679
20
92.0699075
40
0.0803272
50
42.6503148
51
56.3122241
0
ARC
8
DEFAULT_255_1_388
10
5.0890581
20
92.0566661
40
0.099897
50
3.8141057
51
42.636595
0
ARC
8
DEFAULT_255_1_388
10
5.0567903
20
92.0521616
40
0.1324137
50
359.9498843
51
4.8301897
0
ARC
8
DEFAULT_255_1_388
10
5.082304
20
92.0509722
40
0.1069053
50
340.9378148
51
0.5753733
0
ARC
8
DEFAULT_255_1_388
10
5.0949623
20
92.0475569
40
0.0938301
50
316.0798885
51
340.3845117
0
ARC
8
DEFAULT_255_1_388
10
5.1014934
20
92.041552
40
0.0849605
50
285.8512844
51
315.941661
0
ARC
8
DEFAULT_255_1_388
10
5.0882814
20
92.084262
40
0.1296594
50
273.1293204
51
286.3125006
0
ARC
8
DEFAULT_255_1_388
10
5.0845324
20
92.1294586
40
0.1749979
50
269.9535313
51
273.5471598
0
ARC
8
DEFAULT_255_1_388
10
5.0832929
20
92.1048833
40
0.1504266
50
259.0487117
51
270.4180248
0
ARC
8
DEFAULT_255_1_388
10
5.0724542
20
92.0511783
40
0.0956414
50
239.7583641
51
259.3115656
0
ARC
8
DEFAULT_255_1_388
10
5.0633475
20
92.0342048
40
0.0763945
50
222.6243303
51
239.2473835
0
ARC
8
DEFAULT_255_1_388
10
5.0784646
20
92.0480572
40
0.0968985
50
182.9231258
51
222.598101
0
ARC
8
DEFAULT_255_1_388
10
5.1087845
20
92.0519696
40
0.1274004
50
179.9657458
51
183.9850364
0
LINE
8
DEFAULT_255_1_388
10
5.6581539
20
92.5896666
11
5.5244263
21
92.6240021
0
LINE
8
DEFAULT_255_1_388
10
5.5244263
20
92.6240021
11
5.5912901
21
93.2799898
0
LINE
8
DEFAULT_255_1_388
10
5.5912901
20
93.2799898
11
6.2653492
21
93.2799898
0
LINE
8
DEFAULT_255_1_388
10
6.2653492
20
93.2799898
11
6.2653492
21
93.1254803
0
LINE
8
DEFAULT_255_1_388
10
6.2653492
20
93.1254803
11
5.7331497
21
93.1254803
0
LINE
8
DEFAULT_255_1_388
10
5.7331497
20
93.1254803
11
5.6933929
21
92.7667652
0
LINE
8
DEFAULT_255_1_388
10
5.477441
20
92.3104652
11
5.6355647
21
92.3104652
0
LINE
8
DEFAULT_255_1_388
10
5.7024285
20
92.6258092
11
5.6581539
21
92.5896666
0
ARC
8
DEFAULT_255_1_388
10
5.9020542
20
92.4090241
40
0.4141476
50
93.7181681
51
120.253934
0
ARC
8
DEFAULT_255_1_388
10
5.9126594
20
92.3181284
40
0.5055616
50
89.9660471
51
94.2495185
0
ARC
8
DEFAULT_255_1_388
10
5.9172416
20
92.3844154
40
0.4392953
50
73.8045384
51
90.5585736
0
ARC
8
DEFAULT_255_1_388
10
5.9436674
20
92.480952
40
0.3392225
50
41.3071072
51
73.543002
0
ARC
8
DEFAULT_255_1_388
10
5.8968494
20
92.4406461
40
0.4009977
50
13.5075837
51
41.2174839
0
ARC
8
DEFAULT_255_1_388
10
5.7121591
20
92.3922907
40
0.5918864
50
1.1330171
51
13.8830737
0
ARC
8
DEFAULT_255_1_388
10
5.5525237
20
92.3837522
40
0.7516787
50
359.9925091
51
1.5431298
0
ARC
8
DEFAULT_255_1_388
10
5.6969852
20
92.3791027
40
0.6072343
50
347.8572712
51
0.4294349
0
ARC
8
DEFAULT_255_1_388
10
5.8938987
20
92.3344898
40
0.4053482
50
323.6727442
51
348.1674594
0
ARC
8
DEFAULT_255_1_388
10
5.9269951
20
92.3143175
40
0.3667495
50
316.8171818
51
323.1486802
0
ARC
8
DEFAULT_255_1_388
10
5.9339075
20
92.3101612
40
0.358869
50
281.839603
51
316.5458142
0
ARC
8
DEFAULT_255_1_388
10
5.8916363
20
92.4851363
40
0.5388223
50
269.5770964
51
282.4214641
0
ARC
8
DEFAULT_255_1_388
10
5.8836283
20
92.461093
40
0.5147801
50
256.2425863
51
270.4486481
0
ARC
8
DEFAULT_255_1_388
10
5.8499811
20
92.3261124
40
0.3756708
50
228.9024379
51
256.33135
0
ARC
8
DEFAULT_255_1_388
10
5.8416791
20
92.3130054
40
0.360344
50
193.7536029
51
228.5272638
0
ARC
8
DEFAULT_255_1_388
10
5.9809356
20
92.3538463
40
0.5053599
50
184.9244437
51
194.4976052
0
ARC
8
DEFAULT_255_1_388
10
6.0025998
20
92.3578722
40
0.3700839
50
187.3596909
51
198.6733728
0
ARC
8
DEFAULT_255_1_388
10
5.8845241
20
92.3169373
40
0.2451195
50
198.4453795
51
217.7945479
0
ARC
8
DEFAULT_255_1_388
10
5.8512414
20
92.2933563
40
0.2043754
50
218.2887146
51
228.5613203
0
ARC
8
DEFAULT_255_1_388
10
5.862242
20
92.3081902
40
0.2227819
50
228.9652423
51
258.1237049
0
ARC
8
DEFAULT_255_1_388
10
5.8853858
20
92.4072964
40
0.3245374
50
257.7260585
51
270.4013717
0
ARC
8
DEFAULT_255_1_388
10
5.8904356
20
92.3572255
40
0.2744726
50
269.4204315
51
286.420998
0
ARC
8
DEFAULT_255_1_388
10
5.9071412
20
92.2965705
40
0.2115721
50
286.7250065
51
320.6004665
0
ARC
8
DEFAULT_255_1_388
10
5.8640327
20
92.3315527
40
0.2670878
50
320.6712228
51
344.5440474
0
ARC
8
DEFAULT_255_1_388
10
5.7339041
20
92.3697394
40
0.4026927
50
344.241448
51
356.735803
0
ARC
8
DEFAULT_255_1_388
10
5.5935348
20
92.3813656
40
0.5435085
50
356.3547471
51
0.0507222
0
ARC
8
DEFAULT_255_1_388
10
5.7437613
20
92.3848812
40
0.3932934
50
359.5579289
51
12.9534322
0
ARC
8
DEFAULT_255_1_388
10
5.8624453
20
92.4136586
40
0.2711827
50
12.6489751
51
41.608121
0
ARC
8
DEFAULT_255_1_388
10
5.8883613
20
92.4356946
40
0.2371737
50
41.7851122
51
85.9892156
0
ARC
8
DEFAULT_255_1_388
10
5.8744923
20
92.3441738
40
0.3295244
50
84.6965848
51
90.0672125
0
ARC
8
DEFAULT_255_1_388
10
5.8718491
20
92.2690118
40
0.4046926
50
89.6804991
51
99.161352
0
ARC
8
DEFAULT_255_1_388
10
5.84875
20
92.4070848
40
0.2647044
50
98.9836248
51
113.8905702
0
ARC
8
DEFAULT_255_1_388
10
5.8229175
20
92.4680118
40
0.1985386
50
114.195234
51
127.3641866
0
LINE
8
DEFAULT_255_1_388
10
4.8823716
20
99.9019
11
4.7070801
21
99.9019
0
LINE
8
DEFAULT_255_1_388
10
4.5182351
20
100.4946383
11
4.6808767
21
100.4946383
0
LINE
8
DEFAULT_255_1_388
10
4.6808767
20
100.4946383
11
4.6808767
21
100.5714413
0
LINE
8
DEFAULT_255_1_388
10
4.2634299
20
100.6084874
11
4.0953669
21
100.6084874
0
LINE
8
DEFAULT_255_1_388
10
4.8480361
20
100.5804769
11
4.8480361
21
100.1305018
0
LINE
8
DEFAULT_255_1_388
10
4.8823716
20
99.916357
11
4.8823716
21
99.9019
0
LINE
8
DEFAULT_255_1_388
10
4.6808767
20
100.17568
11
4.6808767
21
100.3762713
0
LINE
8
DEFAULT_255_1_388
10
4.6808767
20
100.3762713
11
4.5498599
21
100.3762713
0
ARC
8
DEFAULT_255_1_388
10
4.823995
20
99.95861
40
0.1299428
50
197.0784902
51
205.8758668
0
ARC
8
DEFAULT_255_1_388
10
4.9634536
20
100.0027959
40
0.2762313
50
192.2927663
51
197.3441989
0
ARC
8
DEFAULT_255_1_388
10
5.1830042
20
100.051576
40
0.5011345
50
189.1573793
51
192.3977084
0
ARC
8
DEFAULT_255_1_388
10
5.4994888
20
100.1031878
40
0.8217995
50
186.8686098
51
189.1982636
0
ARC
8
DEFAULT_255_1_388
10
4.3939979
20
100.277226
40
0.3975173
50
294.0079259
51
316.7603918
0
ARC
8
DEFAULT_255_1_388
10
4.4085162
20
100.2567902
40
0.3729755
50
269.5043226
51
293.2478373
0
ARC
8
DEFAULT_255_1_388
10
4.4018214
20
100.3018915
40
0.4180772
50
255.4034155
51
270.4753052
0
ARC
8
DEFAULT_255_1_388
10
4.3759427
20
100.2014652
40
0.3143705
50
228.6141063
51
255.3550831
0
ARC
8
DEFAULT_255_1_388
10
4.3385409
20
100.165654
40
0.2628114
50
181.8954381
51
229.5703134
0
ARC
8
DEFAULT_255_1_388
10
4.4050345
20
100.1728824
40
0.329546
50
179.9848815
51
182.7691528
0
ARC
8
DEFAULT_255_1_388
10
4.3957411
20
100.1767827
40
0.3202753
50
161.0342928
51
180.6822077
0
ARC
8
DEFAULT_255_1_388
10
4.3463026
20
100.1896422
40
0.2693695
50
125.0525065
51
160.2034058
0
ARC
8
DEFAULT_255_1_388
10
4.4207748
20
100.0880275
40
0.3953338
50
106.2670809
51
125.4300189
0
ARC
8
DEFAULT_255_1_388
10
4.4851789
20
99.8775795
40
0.6154041
50
95.4857579
51
106.5348562
0
ARC
8
DEFAULT_255_1_388
10
4.5159077
20
99.5963993
40
0.8982419
50
89.8515405
51
95.7222579
0
ARC
8
DEFAULT_255_1_388
10
4.4439658
20
100.5734925
40
0.2369198
50
359.5039339
51
14.3181205
0
ARC
8
DEFAULT_255_1_388
10
4.5085662
20
100.5902862
40
0.170173
50
14.2184556
51
45.2028524
0
ARC
8
DEFAULT_255_1_388
10
4.5126358
20
100.5918862
40
0.1661795
50
45.8098216
51
73.0032926
0
ARC
8
DEFAULT_255_1_388
10
4.4846185
20
100.506226
40
0.2562942
50
72.6112517
51
85.7231489
0
ARC
8
DEFAULT_255_1_388
10
4.4744969
20
100.4035339
40
0.3594635
50
85.335019
51
90.0855069
0
ARC
8
DEFAULT_255_1_388
10
4.4718402
20
100.4699472
40
0.2930574
50
89.5854741
51
103.459124
0
ARC
8
DEFAULT_255_1_388
10
4.4546941
20
100.5414134
40
0.2195632
50
103.448332
51
126.5403399
0
ARC
8
DEFAULT_255_1_388
10
4.4277918
20
100.5758224
40
0.1759039
50
126.1730306
51
141.5008224
0
ARC
8
DEFAULT_255_1_388
10
4.3852233
20
100.6092266
40
0.1217955
50
141.3332087
51
180.3477313
0
ARC
8
DEFAULT_255_1_388
10
4.3093656
20
100.6072904
40
0.214002
50
151.6373605
51
179.6795088
0
ARC
8
DEFAULT_255_1_388
10
4.3770892
20
100.5735768
40
0.2896224
50
142.4981529
51
152.1330509
0
ARC
8
DEFAULT_255_1_388
10
4.4128896
20
100.5454781
40
0.3351307
50
120.8284906
51
142.4132156
0
ARC
8
DEFAULT_255_1_388
10
4.4596872
20
100.4722185
40
0.4220297
50
113.9634885
51
121.1871733
0
ARC
8
DEFAULT_255_1_388
10
4.4750181
20
100.4348705
40
0.4623867
50
93.3784336
51
113.8197902
0
ARC
8
DEFAULT_255_1_388
10
4.4836563
20
100.3487549
40
0.5488732
50
89.9745993
51
93.7488475
0
ARC
8
DEFAULT_255_1_388
10
4.4875809
20
100.3528587
40
0.5447818
50
79.1327128
51
90.3871707
0
ARC
8
DEFAULT_255_1_388
10
4.5241573
20
100.5356597
40
0.3583662
50
60.1434453
51
79.365517
0
ARC
8
DEFAULT_255_1_388
10
4.5530339
20
100.5911195
40
0.2959028
50
48.6191018
51
59.6466565
0
ARC
8
DEFAULT_255_1_388
10
4.5584051
20
100.5982356
40
0.2870136
50
9.0349502
51
48.4845487
0
ARC
8
DEFAULT_255_1_388
10
4.437335
20
100.5718084
40
0.4107927
50
1.2091359
51
10.0234369
0
ARC
8
DEFAULT_255_1_388
10
5.7070798
20
100.1277422
40
0.8590481
50
179.8159449
51
185.3205667
0
ARC
8
DEFAULT_255_1_388
10
5.4038643
20
100.0987945
40
0.5544553
50
185.2475628
51
192.7952551
0
ARC
8
DEFAULT_255_1_388
10
5.2056467
20
100.0533024
40
0.3510853
50
192.7195981
51
202.9584216
0
ARC
8
DEFAULT_255_1_388
10
4.4296503
20
100.3230895
40
0.2937869
50
270.006916
51
300.503478
0
ARC
8
DEFAULT_255_1_388
10
4.4434438
20
100.3086888
40
0.2744162
50
299.5482616
51
315.609538
0
ARC
8
DEFAULT_255_1_388
10
4.4760734
20
100.2753072
40
0.2277499
50
315.8682065
51
334.0592465
0
ARC
8
DEFAULT_255_1_388
10
4.5449708
20
99.59169
40
0.7845965
50
89.64297
51
97.2867877
0
ARC
8
DEFAULT_255_1_388
10
4.4953305
20
99.9633936
40
0.4096042
50
96.9938706
51
109.7783917
0
ARC
8
DEFAULT_255_1_388
10
4.4204768
20
100.1637851
40
0.1957225
50
109.0087985
51
135.3265591
0
ARC
8
DEFAULT_255_1_388
10
4.3897187
20
100.2018764
40
0.1471704
50
137.4537784
51
182.1083946
0
ARC
8
DEFAULT_255_1_388
10
4.4317887
20
100.1946101
40
0.1891498
50
179.4390335
51
195.7201623
0
ARC
8
DEFAULT_255_1_388
10
4.3854922
20
100.1819585
40
0.1411576
50
195.8683556
51
230.157074
0
ARC
8
DEFAULT_255_1_388
10
4.4127645
20
100.2146228
40
0.1837102
50
230.1532486
51
259.7486257
0
ARC
8
DEFAULT_255_1_388
10
4.4283687
20
100.2881472
40
0.258848
50
259.2461118
51
270.2915316
0
ARC
8
DEFAULT_255_1_388
10
5.2340855
20
99.9906142
40
0.1204062
50
163.5412609
51
180.5084512
0
ARC
8
DEFAULT_255_1_388
10
5.2124754
20
99.996446
40
0.0980307
50
138.1652
51
163.2315563
0
ARC
8
DEFAULT_255_1_388
10
5.1998495
20
100.0071456
40
0.0814881
50
105.6860499
51
137.8492655
0
ARC
8
DEFAULT_255_1_388
10
5.2131696
20
99.9639109
40
0.126719
50
92.6078949
51
106.199173
0
ARC
8
DEFAULT_255_1_388
10
5.2165886
20
99.9193207
40
0.1714243
50
89.9659531
51
93.0713334
0
ARC
8
DEFAULT_255_1_388
10
5.2177922
20
99.9443484
40
0.1464007
50
78.4379126
51
90.4311892
0
ARC
8
DEFAULT_255_1_388
10
5.2286569
20
99.9950017
40
0.094599
50
56.8961942
51
78.7357785
0
ARC
8
DEFAULT_255_1_388
10
5.2357679
20
100.0074075
40
0.0803272
50
42.6503148
51
56.3122241
0
ARC
8
DEFAULT_255_1_388
10
5.2213581
20
99.9941661
40
0.099897
50
3.8141057
51
42.636595
0
ARC
8
DEFAULT_255_1_388
10
5.1890903
20
99.9896616
40
0.1324137
50
359.9498843
51
4.8301897
0
ARC
8
DEFAULT_255_1_388
10
5.214604
20
99.9884722
40
0.1069053
50
340.9378148
51
0.5753733
0
ARC
8
DEFAULT_255_1_388
10
5.2272623
20
99.9850569
40
0.0938301
50
316.0798885
51
340.3845117
0
ARC
8
DEFAULT_255_1_388
10
5.2337934
20
99.979052
40
0.0849605
50
285.8512844
51
315.941661
0
ARC
8
DEFAULT_255_1_388
10
5.2205814
20
100.021762
40
0.1296594
50
273.1293204
51
286.3125006
0
ARC
8
DEFAULT_255_1_388
10
5.2168324
20
100.0669586
40
0.1749979
50
269.9535313
51
273.5471598
0
ARC
8
DEFAULT_255_1_388
10
5.2155929
20
100.0423833
40
0.1504266
50
259.0487117
51
270.4180248
0
ARC
8
DEFAULT_255_1_388
10
5.2047542
20
99.9886783
40
0.0956414
50
239.7583641
51
259.3115656
0
ARC
8
DEFAULT_255_1_388
10
5.1956475
20
99.9717048
40
0.0763945
50
222.6243303
51
239.2473835
0
ARC
8
DEFAULT_255_1_388
10
5.2107646
20
99.9855572
40
0.0968985
50
182.9231258
51
222.598101
0
ARC
8
DEFAULT_255_1_388
10
5.2410845
20
99.9894696
40
0.1274004
50
179.9657458
51
183.9850364
0
LINE
8
DEFAULT_255_1_388
10
6.2856072
20
101.2174898
11
6.2856072
21
100.343743
0
LINE
8
DEFAULT_255_1_388
10
6.2856072
20
100.343743
11
6.4681272
21
100.343743
0
LINE
8
DEFAULT_255_1_388
10
6.4681272
20
100.343743
11
6.4681272
21
100.2073048
0
LINE
8
DEFAULT_255_1_388
10
6.4681272
20
100.2073048
11
6.2856072
21
100.2073048
0
LINE
8
DEFAULT_255_1_388
10
6.2856072
20
100.2073048
11
6.2856072
21
99.9019
0
LINE
8
DEFAULT_255_1_388
10
6.2856072
20
99.9019
11
6.1175442
21
99.9019
0
LINE
8
DEFAULT_255_1_388
10
6.1175442
20
99.9019
11
6.1175442
21
100.2073048
0
LINE
8
DEFAULT_255_1_388
10
6.1175442
20
100.2073048
11
5.518481
21
100.2073048
0
LINE
8
DEFAULT_255_1_388
10
5.518481
20
100.2073048
11
5.518481
21
100.3057933
0
LINE
8
DEFAULT_255_1_388
10
5.518481
20
100.3057933
11
6.107605
21
101.2174898
0
LINE
8
DEFAULT_255_1_388
10
6.107605
20
101.2174898
11
6.2856072
21
101.2174898
0
LINE
8
DEFAULT_255_1_388
10
6.0976658
20
100.9527455
11
5.7082295
21
100.343743
0
LINE
8
DEFAULT_255_1_388
10
5.7082295
20
100.343743
11
6.1175442
21
100.343743
0
LINE
8
DEFAULT_255_1_388
10
6.1175442
20
100.343743
11
6.1175442
21
100.988888
0
LINE
8
DEFAULT_255_1_388
10
6.1175442
20
100.988888
11
6.0976658
21
100.9527455
0
LINE
8
DEFAULT_255_1_388
10
4.7500716
20
107.8394
11
4.5747801
21
107.8394
0
LINE
8
DEFAULT_255_1_388
10
4.3859351
20
108.4321383
11
4.5485767
21
108.4321383
0
LINE
8
DEFAULT_255_1_388
10
4.5485767
20
108.4321383
11
4.5485767
21
108.5089413
0
LINE
8
DEFAULT_255_1_388
10
4.1311299
20
108.5459874
11
3.9630669
21
108.5459874
0
LINE
8
DEFAULT_255_1_388
10
4.7157361
20
108.5179769
11
4.7157361
21
108.0680018
0
LINE
8
DEFAULT_255_1_388
10
4.7500716
20
107.853857
11
4.7500716
21
107.8394
0
LINE
8
DEFAULT_255_1_388
10
4.5485767
20
108.11318
11
4.5485767
21
108.3137713
0
LINE
8
DEFAULT_255_1_388
10
4.5485767
20
108.3137713
11
4.4175599
21
108.3137713
0
ARC
8
DEFAULT_255_1_388
10
4.691695
20
107.89611
40
0.1299428
50
197.0784902
51
205.8758668
0
ARC
8
DEFAULT_255_1_388
10
4.8311536
20
107.9402959
40
0.2762313
50
192.2927663
51
197.3441989
0
ARC
8
DEFAULT_255_1_388
10
5.0507042
20
107.989076
40
0.5011345
50
189.1573793
51
192.3977084
0
ARC
8
DEFAULT_255_1_388
10
5.3671888
20
108.0406878
40
0.8217995
50
186.8686098
51
189.1982636
0
ARC
8
DEFAULT_255_1_388
10
4.2616979
20
108.214726
40
0.3975173
50
294.0079259
51
316.7603918
0
ARC
8
DEFAULT_255_1_388
10
4.2762162
20
108.1942902
40
0.3729755
50
269.5043226
51
293.2478373
0
ARC
8
DEFAULT_255_1_388
10
4.2695214
20
108.2393915
40
0.4180772
50
255.4034155
51
270.4753052
0
ARC
8
DEFAULT_255_1_388
10
4.2436427
20
108.1389652
40
0.3143705
50
228.6141063
51
255.3550831
0
ARC
8
DEFAULT_255_1_388
10
4.2062409
20
108.103154
40
0.2628114
50
181.8954381
51
229.5703134
0
ARC
8
DEFAULT_255_1_388
10
4.2727345
20
108.1103824
40
0.329546
50
179.9848815
51
182.7691528
0
ARC
8
DEFAULT_255_1_388
10
4.2634411
20
108.1142827
40
0.3202753
50
161.0342928
51
180.6822077
0
ARC
8
DEFAULT_255_1_388
10
4.2140026
20
108.1271422
40
0.2693695
50
125.0525065
51
160.2034058
0
ARC
8
DEFAULT_255_1_388
10
4.2884748
20
108.0255275
40
0.3953338
50
106.2670809
51
125.4300189
0
ARC
8
DEFAULT_255_1_388
10
4.3528789
20
107.8150795
40
0.6154041
50
95.4857579
51
106.5348562
0
ARC
8
DEFAULT_255_1_388
10
4.3836077
20
107.5338993
40
0.8982419
50
89.8515405
51
95.7222579
0
ARC
8
DEFAULT_255_1_388
10
4.3116658
20
108.5109925
40
0.2369198
50
359.5039339
51
14.3181205
0
ARC
8
DEFAULT_255_1_388
10
4.3762662
20
108.5277862
40
0.170173
50
14.2184556
51
45.2028524
0
ARC
8
DEFAULT_255_1_388
10
4.3803358
20
108.5293862
40
0.1661795
50
45.8098216
51
73.0032926
0
ARC
8
DEFAULT_255_1_388
10
4.3523185
20
108.443726
40
0.2562942
50
72.6112517
51
85.7231489
0
ARC
8
DEFAULT_255_1_388
10
4.3421969
20
108.3410339
40
0.3594635
50
85.335019
51
90.0855069
0
ARC
8
DEFAULT_255_1_388
10
4.3395402
20
108.4074472
40
0.2930574
50
89.5854741
51
103.459124
0
ARC
8
DEFAULT_255_1_388
10
4.3223941
20
108.4789134
40
0.2195632
50
103.448332
51
126.5403399
0
ARC
8
DEFAULT_255_1_388
10
4.2954918
20
108.5133224
40
0.1759039
50
126.1730306
51
141.5008224
0
ARC
8
DEFAULT_255_1_388
10
4.2529233
20
108.5467266
40
0.1217955
50
141.3332087
51
180.3477313
0
ARC
8
DEFAULT_255_1_388
10
4.1770656
20
108.5447904
40
0.214002
50
151.6373605
51
179.6795088
0
ARC
8
DEFAULT_255_1_388
10
4.2447892
20
108.5110768
40
0.2896224
50
142.4981529
51
152.1330509
0
ARC
8
DEFAULT_255_1_388
10
4.2805896
20
108.4829781
40
0.3351307
50
120.8284906
51
142.4132156
0
ARC
8
DEFAULT_255_1_388
10
4.3273872
20
108.4097185
40
0.4220297
50
113.9634885
51
121.1871733
0
ARC
8
DEFAULT_255_1_388
10
4.3427181
20
108.3723705
40
0.4623867
50
93.3784336
51
113.8197902
0
ARC
8
DEFAULT_255_1_388
10
4.3513563
20
108.2862549
40
0.5488732
50
89.9745993
51
93.7488475
0
ARC
8
DEFAULT_255_1_388
10
4.3552809
20
108.2903587
40
0.5447818
50
79.1327128
51
90.3871707
0
ARC
8
DEFAULT_255_1_388
10
4.3918573
20
108.4731597
40
0.3583662
50
60.1434453
51
79.365517
0
ARC
8
DEFAULT_255_1_388
10
4.4207339
20
108.5286195
40
0.2959028
50
48.6191018
51
59.6466565
0
ARC
8
DEFAULT_255_1_388
10
4.4261051
20
108.5357356
40
0.2870136
50
9.0349502
51
48.4845487
0
ARC
8
DEFAULT_255_1_388
10
4.305035
20
108.5093084
40
0.4107927
50
1.2091359
51
10.0234369
0
ARC
8
DEFAULT_255_1_388
10
5.5747798
20
108.0652422
40
0.8590481
50
179.8159449
51
185.3205667
0
ARC
8
DEFAULT_255_1_388
10
5.2715643
20
108.0362945
40
0.5544553
50
185.2475628
51
192.7952551
0
ARC
8
DEFAULT_255_1_388
10
5.0733467
20
107.9908024
40
0.3510853
50
192.7195981
51
202.9584216
0
ARC
8
DEFAULT_255_1_388
10
4.2973503
20
108.2605895
40
0.2937869
50
270.006916
51
300.503478
0
ARC
8
DEFAULT_255_1_388
10
4.3111438
20
108.2461888
40
0.2744162
50
299.5482616
51
315.609538
0
ARC
8
DEFAULT_255_1_388
10
4.3437734
20
108.2128072
40
0.2277499
50
315.8682065
51
334.0592465
0
ARC
8
DEFAULT_255_1_388
10
4.4126708
20
107.52919
40
0.7845965
50
89.64297
51
97.2867877
0
ARC
8
DEFAULT_255_1_388
10
4.3630305
20
107.9008936
40
0.4096042
50
96.9938706
51
109.7783917
0
ARC
8
DEFAULT_255_1_388
10
4.2881768
20
108.1012851
40
0.1957225
50
109.0087985
51
135.3265591
0
ARC
8
DEFAULT_255_1_388
10
4.2574187
20
108.1393764
40
0.1471704
50
137.4537784
51
182.1083946
0
ARC
8
DEFAULT_255_1_388
10
4.2994887
20
108.1321101
40
0.1891498
50
179.4390335
51
195.7201623
0
ARC
8
DEFAULT_255_1_388
10
4.2531922
20
108.1194585
40
0.1411576
50
195.8683556
51
230.157074
0
ARC
8
DEFAULT_255_1_388
10
4.2804645
20
108.1521228
40
0.1837102
50
230.1532486
51
259.7486257
0
ARC
8
DEFAULT_255_1_388
10
4.2960687
20
108.2256472
40
0.258848
50
259.2461118
51
270.2915316
0
ARC
8
DEFAULT_255_1_388
10
5.1017855
20
107.9281142
40
0.1204062
50
163.5412609
51
180.5084512
0
ARC
8
DEFAULT_255_1_388
10
5.0801754
20
107.933946
40
0.0980307
50
138.1652
51
163.2315563
0
ARC
8
DEFAULT_255_1_388
10
5.0675495
20
107.9446456
40
0.0814881
50
105.6860499
51
137.8492655
0
ARC
8
DEFAULT_255_1_388
10
5.0808696
20
107.9014109
40
0.126719
50
92.6078949
51
106.199173
0
ARC
8
DEFAULT_255_1_388
10
5.0842886
20
107.8568207
40
0.1714243
50
89.9659531
51
93.0713334
0
ARC
8
DEFAULT_255_1_388
10
5.0854922
20
107.8818484
40
0.1464007
50
78.4379126
51
90.4311892
0
ARC
8
DEFAULT_255_1_388
10
5.0963569
20
107.9325017
40
0.094599
50
56.8961942
51
78.7357785
0
ARC
8
DEFAULT_255_1_388
10
5.1034679
20
107.9449075
40
0.0803272
50
42.6503148
51
56.3122241
0
ARC
8
DEFAULT_255_1_388
10
5.0890581
20
107.9316661
40
0.099897
50
3.8141057
51
42.636595
0
ARC
8
DEFAULT_255_1_388
10
5.0567903
20
107.9271616
40
0.1324137
50
359.9498843
51
4.8301897
0
ARC
8
DEFAULT_255_1_388
10
5.082304
20
107.9259722
40
0.1069053
50
340.9378148
51
0.5753733
0
ARC
8
DEFAULT_255_1_388
10
5.0949623
20
107.9225569
40
0.0938301
50
316.0798885
51
340.3845117
0
ARC
8
DEFAULT_255_1_388
10
5.1014934
20
107.916552
40
0.0849605
50
285.8512844
51
315.941661
0
ARC
8
DEFAULT_255_1_388
10
5.0882814
20
107.959262
40
0.1296594
50
273.1293204
51
286.3125006
0
ARC
8
DEFAULT_255_1_388
10
5.0845324
20
108.0044586
40
0.1749979
50
269.9535313
51
273.5471598
0
ARC
8
DEFAULT_255_1_388
10
5.0832929
20
107.9798833
40
0.1504266
50
259.0487117
51
270.4180248
0
ARC
8
DEFAULT_255_1_388
10
5.0724542
20
107.9261783
40
0.0956414
50
239.7583641
51
259.3115656
0
ARC
8
DEFAULT_255_1_388
10
5.0633475
20
107.9092048
40
0.0763945
50
222.6243303
51
239.2473835
0
ARC
8
DEFAULT_255_1_388
10
5.0784646
20
107.9230572
40
0.0968985
50
182.9231258
51
222.598101
0
ARC
8
DEFAULT_255_1_388
10
5.1087845
20
107.9269696
40
0.1274004
50
179.9657458
51
183.9850364
0
LINE
8
DEFAULT_255_1_388
10
5.6906822
20
108.4420775
11
5.6906822
21
108.5785157
0
LINE
8
DEFAULT_255_1_388
10
5.6906822
20
108.5785157
11
5.8162776
21
108.5785157
0
LINE
8
DEFAULT_255_1_388
10
5.6021329
20
108.8098282
11
5.4349734
21
108.8098282
0
LINE
8
DEFAULT_255_1_388
10
5.4232271
20
108.1863688
11
5.5912901
21
108.1863688
0
LINE
8
DEFAULT_255_1_388
10
5.8162776
20
108.4420775
11
5.6906822
21
108.4420775
0
ARC
8
DEFAULT_255_1_388
10
5.8130003
20
108.9601922
40
0.3816905
50
270.491971
51
281.8953028
0
ARC
8
DEFAULT_255_1_388
10
5.840143
20
108.8362199
40
0.2547877
50
281.6690378
51
301.2943765
0
ARC
8
DEFAULT_255_1_388
10
5.8592881
20
108.8011926
40
0.2149197
50
301.7834992
51
311.754567
0
ARC
8
DEFAULT_255_1_388
10
5.8695923
20
108.789765
40
0.1995326
50
311.7325027
51
354.2803031
0
ARC
8
DEFAULT_255_1_388
10
5.7878338
20
108.803828
40
0.2823461
50
353.0941646
51
0.1174696
0
ARC
8
DEFAULT_255_1_388
10
5.7359896
20
108.8091874
40
0.3342238
50
359.1804452
51
15.0452323
0
ARC
8
DEFAULT_255_1_388
10
5.8873955
20
108.8533546
40
0.1765747
50
13.957816
51
77.6713812
0
ARC
8
DEFAULT_255_1_388
10
5.843919
20
108.6975464
40
0.3381982
50
76.111571
51
90.7028736
0
ARC
8
DEFAULT_255_1_388
10
5.8372603
20
108.728325
40
0.3074046
50
89.5321574
51
103.5319393
0
ARC
8
DEFAULT_255_1_388
10
5.8146986
20
108.8182443
40
0.2147041
50
103.2930114
51
133.5619756
0
ARC
8
DEFAULT_255_1_388
10
5.8096928
20
108.8249351
40
0.2064084
50
133.8349761
51
173.5343225
0
ARC
8
DEFAULT_255_1_388
10
5.8910585
20
108.8105144
40
0.2889266
50
172.5097183
51
180.1360699
0
ARC
8
DEFAULT_255_1_388
10
5.7840349
20
108.814388
40
0.3490913
50
155.3483706
51
180.7484035
0
ARC
8
DEFAULT_255_1_388
10
5.7785325
20
108.8111519
40
0.3454798
50
131.5745177
51
154.4799474
0
ARC
8
DEFAULT_255_1_388
10
5.8137607
20
108.7755422
40
0.3955058
50
96.9874487
51
131.9690874
0
ARC
8
DEFAULT_255_1_388
10
5.83845
20
108.6354407
40
0.537622
50
89.8592909
51
97.7827481
0
ARC
8
DEFAULT_255_1_388
10
5.8438609
20
108.605936
40
0.5671399
50
78.3654493
51
90.4132586
0
ARC
8
DEFAULT_255_1_388
10
5.884125
20
108.7925918
40
0.3762034
50
56.6229818
51
78.6387103
0
ARC
8
DEFAULT_255_1_388
10
5.9083079
20
108.8348846
40
0.3275964
50
47.0254604
51
56.085558
0
ARC
8
DEFAULT_255_1_388
10
5.910533
20
108.8393189
40
0.3228382
50
10.9207523
51
46.777927
0
ARC
8
DEFAULT_255_1_388
10
5.7570924
20
108.8038401
40
0.4802559
50
359.6364235
51
11.6087615
0
ARC
8
DEFAULT_255_1_388
10
5.963509
20
108.8021404
40
0.273833
50
332.3549969
51
359.7179765
0
ARC
8
DEFAULT_255_1_388
10
5.8903491
20
108.8368285
40
0.3547505
50
325.2332381
51
332.8746682
0
ARC
8
DEFAULT_255_1_388
10
5.9075074
20
108.8248763
40
0.3338396
50
292.9803892
51
325.2391113
0
ARC
8
DEFAULT_255_1_388
10
5.8764269
20
108.8853679
40
0.4016959
50
292.542178
51
293.6931461
0
ARC
8
DEFAULT_255_1_388
10
5.9207841
20
108.1588036
40
0.372079
50
57.643292
51
72.8626085
0
ARC
8
DEFAULT_255_1_388
10
5.9606676
20
108.2234273
40
0.2961455
50
36.7246661
51
57.4701329
0
ARC
8
DEFAULT_255_1_388
10
5.9593833
20
108.224847
40
0.2963321
50
8.054535
51
36.3561529
0
ARC
8
DEFAULT_255_1_388
10
5.8623505
20
108.2074073
40
0.3948682
50
359.8316595
51
8.5873361
0
ARC
8
DEFAULT_255_1_388
10
5.8200979
20
108.201997
40
0.4371398
50
343.9831631
51
0.557075
0
ARC
8
DEFAULT_255_1_388
10
5.9198029
20
108.1746963
40
0.3337749
50
311.6358204
51
343.7652116
0
ARC
8
DEFAULT_255_1_388
10
5.8772283
20
108.2226955
40
0.3979351
50
279.7829743
51
311.625622
0
ARC
8
DEFAULT_255_1_388
10
5.8433418
20
108.3843642
40
0.5630417
50
269.7285092
51
280.3857694
0
ARC
8
DEFAULT_255_1_388
10
5.8363731
20
108.3797241
40
0.5584119
50
256.6827433
51
270.4412869
0
ARC
8
DEFAULT_255_1_388
10
5.7982717
20
108.2239698
40
0.3980715
50
229.4223821
51
256.8554507
0
ARC
8
DEFAULT_255_1_388
10
5.7516271
20
108.1714683
40
0.3278564
50
181.8183354
51
229.6455015
0
ARC
8
DEFAULT_255_1_388
10
5.868588
20
108.1861825
40
0.4453611
50
179.9760419
51
183.2330638
0
ARC
8
DEFAULT_255_1_388
10
5.8492433
20
108.1838781
40
0.2579652
50
179.4467996
51
196.2871626
0
ARC
8
DEFAULT_255_1_388
10
5.7943886
20
108.1688709
40
0.2011057
50
196.5661293
51
227.7059371
0
ARC
8
DEFAULT_255_1_388
10
5.8128493
20
108.1895155
40
0.2287994
50
227.7653015
51
257.8763321
0
ARC
8
DEFAULT_255_1_388
10
5.8381577
20
108.2955961
40
0.3378385
50
257.4583525
51
270.4267406
0
ARC
8
DEFAULT_255_1_388
10
5.8432826
20
108.328223
40
0.3704652
50
269.5965319
51
280.8788143
0
ARC
8
DEFAULT_255_1_388
10
5.8691054
20
108.1992529
40
0.2389415
50
280.6347277
51
299.8594068
0
ARC
8
DEFAULT_255_1_388
10
5.8905824
20
108.1584736
40
0.19289
50
300.3575552
51
314.5515667
0
ARC
8
DEFAULT_255_1_388
10
5.88125
20
108.1653025
40
0.204312
50
315.0730962
51
345.0429362
0
ARC
8
DEFAULT_255_1_388
10
5.7774007
20
108.1955539
40
0.31246
50
344.598526
51
357.9270698
0
ARC
8
DEFAULT_255_1_388
10
5.6764312
20
108.2024705
40
0.4136265
50
357.4755098
51
0.0224936
0
ARC
8
DEFAULT_255_1_388
10
5.7917189
20
108.2052099
40
0.2983498
50
359.5051035
51
13.4236939
0
ARC
8
DEFAULT_255_1_388
10
5.8892279
20
108.2301637
40
0.1977186
50
12.9497905
51
48.7550905
0
ARC
8
DEFAULT_255_1_388
10
5.8687201
20
108.2021373
40
0.2323321
50
49.509109
51
72.1832965
0
ARC
8
DEFAULT_255_1_388
10
5.828467
20
108.0826632
40
0.358397
50
71.9008458
51
84.3555134
0
ARC
8
DEFAULT_255_1_388
10
5.8103064
20
107.9294712
40
0.512641
50
84.019632
51
89.3326067
0
LINE
8
DEFAULT_255_1_388
10
4.7500716
20
115.7769
11
4.5747801
21
115.7769
0
LINE
8
DEFAULT_255_1_388
10
4.3859351
20
116.3696383
11
4.5485767
21
116.3696383
0
LINE
8
DEFAULT_255_1_388
10
4.5485767
20
116.3696383
11
4.5485767
21
116.4464413
0
LINE
8
DEFAULT_255_1_388
10
4.1311299
20
116.4834874
11
3.9630669
21
116.4834874
0
LINE
8
DEFAULT_255_1_388
10
4.7157361
20
116.4554769
11
4.7157361
21
116.0055018
0
LINE
8
DEFAULT_255_1_388
10
4.7500716
20
115.791357
11
4.7500716
21
115.7769
0
LINE
8
DEFAULT_255_1_388
10
4.5485767
20
116.05068
11
4.5485767
21
116.2512713
0
LINE
8
DEFAULT_255_1_388
10
4.5485767
20
116.2512713
11
4.4175599
21
116.2512713
0
ARC
8
DEFAULT_255_1_388
10
4.691695
20
115.83361
40
0.1299428
50
197.0784902
51
205.8758668
0
ARC
8
DEFAULT_255_1_388
10
4.8311536
20
115.8777959
40
0.2762313
50
192.2927663
51
197.3441989
0
ARC
8
DEFAULT_255_1_388
10
5.0507042
20
115.926576
40
0.5011345
50
189.1573793
51
192.3977084
0
ARC
8
DEFAULT_255_1_388
10
5.3671888
20
115.9781878
40
0.8217995
50
186.8686098
51
189.1982636
0
ARC
8
DEFAULT_255_1_388
10
4.2616979
20
116.152226
40
0.3975173
50
294.0079259
51
316.7603918
0
ARC
8
DEFAULT_255_1_388
10
4.2762162
20
116.1317902
40
0.3729755
50
269.5043226
51
293.2478373
0
ARC
8
DEFAULT_255_1_388
10
4.2695214
20
116.1768915
40
0.4180772
50
255.4034155
51
270.4753052
0
ARC
8
DEFAULT_255_1_388
10
4.2436427
20
116.0764652
40
0.3143705
50
228.6141063
51
255.3550831
0
ARC
8
DEFAULT_255_1_388
10
4.2062409
20
116.040654
40
0.2628114
50
181.8954381
51
229.5703134
0
ARC
8
DEFAULT_255_1_388
10
4.2727345
20
116.0478824
40
0.329546
50
179.9848815
51
182.7691528
0
ARC
8
DEFAULT_255_1_388
10
4.2634411
20
116.0517827
40
0.3202753
50
161.0342928
51
180.6822077
0
ARC
8
DEFAULT_255_1_388
10
4.2140026
20
116.0646422
40
0.2693695
50
125.0525065
51
160.2034058
0
ARC
8
DEFAULT_255_1_388
10
4.2884748
20
115.9630275
40
0.3953338
50
106.2670809
51
125.4300189
0
ARC
8
DEFAULT_255_1_388
10
4.3528789
20
115.7525795
40
0.6154041
50
95.4857579
51
106.5348562
0
ARC
8
DEFAULT_255_1_388
10
4.3836077
20
115.4713993
40
0.8982419
50
89.8515405
51
95.7222579
0
ARC
8
DEFAULT_255_1_388
10
4.3116658
20
116.4484925
40
0.2369198
50
359.5039339
51
14.3181205
0
ARC
8
DEFAULT_255_1_388
10
4.3762662
20
116.4652862
40
0.170173
50
14.2184556
51
45.2028524
0
ARC
8
DEFAULT_255_1_388
10
4.3803358
20
116.4668862
40
0.1661795
50
45.8098216
51
73.0032926
0
ARC
8
DEFAULT_255_1_388
10
4.3523185
20
116.381226
40
0.2562942
50
72.6112517
51
85.7231489
0
ARC
8
DEFAULT_255_1_388
10
4.3421969
20
116.2785339
40
0.3594635
50
85.335019
51
90.0855069
0
ARC
8
DEFAULT_255_1_388
10
4.3395402
20
116.3449472
40
0.2930574
50
89.5854741
51
103.459124
0
ARC
8
DEFAULT_255_1_388
10
4.3223941
20
116.4164134
40
0.2195632
50
103.448332
51
126.5403399
0
ARC
8
DEFAULT_255_1_388
10
4.2954918
20
116.4508224
40
0.1759039
50
126.1730306
51
141.5008224
0
ARC
8
DEFAULT_255_1_388
10
4.2529233
20
116.4842266
40
0.1217955
50
141.3332087
51
180.3477313
0
ARC
8
DEFAULT_255_1_388
10
4.1770656
20
116.4822904
40
0.214002
50
151.6373605
51
179.6795088
0
ARC
8
DEFAULT_255_1_388
10
4.2447892
20
116.4485768
40
0.2896224
50
142.4981529
51
152.1330509
0
ARC
8
DEFAULT_255_1_388
10
4.2805896
20
116.4204781
40
0.3351307
50
120.8284906
51
142.4132156
0
ARC
8
DEFAULT_255_1_388
10
4.3273872
20
116.3472185
40
0.4220297
50
113.9634885
51
121.1871733
0
ARC
8
DEFAULT_255_1_388
10
4.3427181
20
116.3098705
40
0.4623867
50
93.3784336
51
113.8197902
0
ARC
8
DEFAULT_255_1_388
10
4.3513563
20
116.2237549
40
0.5488732
50
89.9745993
51
93.7488475
0
ARC
8
DEFAULT_255_1_388
10
4.3552809
20
116.2278587
40
0.5447818
50
79.1327128
51
90.3871707
0
ARC
8
DEFAULT_255_1_388
10
4.3918573
20
116.4106597
40
0.3583662
50
60.1434453
51
79.365517
0
ARC
8
DEFAULT_255_1_388
10
4.4207339
20
116.4661195
40
0.2959028
50
48.6191018
51
59.6466565
0
ARC
8
DEFAULT_255_1_388
10
4.4261051
20
116.4732356
40
0.2870136
50
9.0349502
51
48.4845487
0
ARC
8
DEFAULT_255_1_388
10
4.305035
20
116.4468084
40
0.4107927
50
1.2091359
51
10.0234369
0
ARC
8
DEFAULT_255_1_388
10
5.5747798
20
116.0027422
40
0.8590481
50
179.8159449
51
185.3205667
0
ARC
8
DEFAULT_255_1_388
10
5.2715643
20
115.9737945
40
0.5544553
50
185.2475628
51
192.7952551
0
ARC
8
DEFAULT_255_1_388
10
5.0733467
20
115.9283024
40
0.3510853
50
192.7195981
51
202.9584216
0
ARC
8
DEFAULT_255_1_388
10
4.2973503
20
116.1980895
40
0.2937869
50
270.006916
51
300.503478
0
ARC
8
DEFAULT_255_1_388
10
4.3111438
20
116.1836888
40
0.2744162
50
299.5482616
51
315.609538
0
ARC
8
DEFAULT_255_1_388
10
4.3437734
20
116.1503072
40
0.2277499
50
315.8682065
51
334.0592465
0
ARC
8
DEFAULT_255_1_388
10
4.4126708
20
115.46669
40
0.7845965
50
89.64297
51
97.2867877
0
ARC
8
DEFAULT_255_1_388
10
4.3630305
20
115.8383936
40
0.4096042
50
96.9938706
51
109.7783917
0
ARC
8
DEFAULT_255_1_388
10
4.2881768
20
116.0387851
40
0.1957225
50
109.0087985
51
135.3265591
0
ARC
8
DEFAULT_255_1_388
10
4.2574187
20
116.0768764
40
0.1471704
50
137.4537784
51
182.1083946
0
ARC
8
DEFAULT_255_1_388
10
4.2994887
20
116.0696101
40
0.1891498
50
179.4390335
51
195.7201623
0
ARC
8
DEFAULT_255_1_388
10
4.2531922
20
116.0569585
40
0.1411576
50
195.8683556
51
230.157074
0
ARC
8
DEFAULT_255_1_388
10
4.2804645
20
116.0896228
40
0.1837102
50
230.1532486
51
259.7486257
0
ARC
8
DEFAULT_255_1_388
10
4.2960687
20
116.1631472
40
0.258848
50
259.2461118
51
270.2915316
0
ARC
8
DEFAULT_255_1_388
10
5.1017855
20
115.8656142
40
0.1204062
50
163.5412609
51
180.5084512
0
ARC
8
DEFAULT_255_1_388
10
5.0801754
20
115.871446
40
0.0980307
50
138.1652
51
163.2315563
0
ARC
8
DEFAULT_255_1_388
10
5.0675495
20
115.8821456
40
0.0814881
50
105.6860499
51
137.8492655
0
ARC
8
DEFAULT_255_1_388
10
5.0808696
20
115.8389109
40
0.126719
50
92.6078949
51
106.199173
0
ARC
8
DEFAULT_255_1_388
10
5.0842886
20
115.7943207
40
0.1714243
50
89.9659531
51
93.0713334
0
ARC
8
DEFAULT_255_1_388
10
5.0854922
20
115.8193484
40
0.1464007
50
78.4379126
51
90.4311892
0
ARC
8
DEFAULT_255_1_388
10
5.0963569
20
115.8700017
40
0.094599
50
56.8961942
51
78.7357785
0
ARC
8
DEFAULT_255_1_388
10
5.1034679
20
115.8824075
40
0.0803272
50
42.6503148
51
56.3122241
0
ARC
8
DEFAULT_255_1_388
10
5.0890581
20
115.8691661
40
0.099897
50
3.8141057
51
42.636595
0
ARC
8
DEFAULT_255_1_388
10
5.0567903
20
115.8646616
40
0.1324137
50
359.9498843
51
4.8301897
0
ARC
8
DEFAULT_255_1_388
10
5.082304
20
115.8634722
40
0.1069053
50
340.9378148
51
0.5753733
0
ARC
8
DEFAULT_255_1_388
10
5.0949623
20
115.8600569
40
0.0938301
50
316.0798885
51
340.3845117
0
ARC
8
DEFAULT_255_1_388
10
5.1014934
20
115.854052
40
0.0849605
50
285.8512844
51
315.941661
0
ARC
8
DEFAULT_255_1_388
10
5.0882814
20
115.896762
40
0.1296594
50
273.1293204
51
286.3125006
0
ARC
8
DEFAULT_255_1_388
10
5.0845324
20
115.9419586
40
0.1749979
50
269.9535313
51
273.5471598
0
ARC
8
DEFAULT_255_1_388
10
5.0832929
20
115.9173833
40
0.1504266
50
259.0487117
51
270.4180248
0
ARC
8
DEFAULT_255_1_388
10
5.0724542
20
115.8636783
40
0.0956414
50
239.7583641
51
259.3115656
0
ARC
8
DEFAULT_255_1_388
10
5.0633475
20
115.8467048
40
0.0763945
50
222.6243303
51
239.2473835
0
ARC
8
DEFAULT_255_1_388
10
5.0784646
20
115.8605572
40
0.0968985
50
182.9231258
51
222.598101
0
ARC
8
DEFAULT_255_1_388
10
5.1087845
20
115.8644696
40
0.1274004
50
179.9657458
51
183.9850364
0
LINE
8
DEFAULT_255_1_388
10
6.3096238
20
115.9133382
11
6.3096238
21
115.7769
0
LINE
8
DEFAULT_255_1_388
10
6.3096238
20
115.7769
11
5.4476233
21
115.7769
0
LINE
8
DEFAULT_255_1_388
10
5.4476233
20
115.7769
11
5.4476233
21
115.8970741
0
LINE
8
DEFAULT_255_1_388
10
5.4476233
20
115.8970741
11
5.9030198
21
116.4030702
0
LINE
8
DEFAULT_255_1_388
10
5.589483
20
116.7048607
11
5.4223235
21
116.7048607
0
LINE
8
DEFAULT_255_1_388
10
6.0015083
20
116.295546
11
5.6491182
21
115.9133382
0
LINE
8
DEFAULT_255_1_388
10
5.6491182
20
115.9133382
11
6.3096238
21
115.9133382
0
ARC
8
DEFAULT_255_1_388
10
4.3854258
20
117.7450983
40
2.0258655
50
318.5132526
51
320.7829045
0
ARC
8
DEFAULT_255_1_388
10
4.9802215
20
117.2609929
40
1.2589638
50
320.7372878
51
323.9739031
0
ARC
8
DEFAULT_255_1_388
10
5.4211146
20
116.9415554
40
0.7145141
50
323.8962701
51
328.64194
0
ARC
8
DEFAULT_255_1_388
10
5.6513404
20
116.7995545
40
0.4440242
50
328.8294576
51
331.7891185
0
ARC
8
DEFAULT_255_1_388
10
5.7635724
20
116.7416374
40
0.3177517
50
331.4254512
51
352.9365785
0
ARC
8
DEFAULT_255_1_388
10
5.7788724
20
116.738205
40
0.3021496
50
353.2257659
51
0.0166158
0
ARC
8
DEFAULT_255_1_388
10
5.8025485
20
116.7407894
40
0.2784847
50
359.486299
51
15.9343185
0
ARC
8
DEFAULT_255_1_388
10
5.8595751
20
116.7561269
40
0.2194403
50
16.1712913
51
43.5286088
0
ARC
8
DEFAULT_255_1_388
10
5.8682696
20
116.7648191
40
0.2071504
50
43.4417391
51
83.1661095
0
ARC
8
DEFAULT_255_1_388
10
5.8531857
20
116.6819316
40
0.2912888
50
82.160179
51
90.1505708
0
ARC
8
DEFAULT_255_1_388
10
5.8496339
20
116.6215279
40
0.3517025
50
89.5460741
51
102.5418361
0
ARC
8
DEFAULT_255_1_388
10
5.8223059
20
116.7374933
40
0.2325748
50
102.1738499
51
129.206123
0
ARC
8
DEFAULT_255_1_388
10
5.8134512
20
116.7514664
40
0.2161591
50
129.72865
51
135.753947
0
ARC
8
DEFAULT_255_1_388
10
5.8270994
20
116.7405728
40
0.2335433
50
136.1757367
51
166.3673339
0
ARC
8
DEFAULT_255_1_388
10
5.9403683
20
116.7102148
40
0.3507873
50
165.9090694
51
178.8684636
0
ARC
8
DEFAULT_255_1_388
10
6.0379454
20
116.7049263
40
0.4484624
50
178.4391136
51
180.0083808
0
ARC
8
DEFAULT_255_1_388
10
5.8800156
20
116.7093197
40
0.4577138
50
163.2878482
51
180.5581842
0
ARC
8
DEFAULT_255_1_388
10
5.7898197
20
116.7341393
40
0.3641968
50
133.4540601
51
162.947111
0
ARC
8
DEFAULT_255_1_388
10
5.8099079
20
116.7127789
40
0.3935189
50
100.7869829
51
133.4382499
0
ARC
8
DEFAULT_255_1_388
10
5.8490324
20
116.5385399
40
0.5720313
50
89.660664
51
101.3702276
0
ARC
8
DEFAULT_255_1_388
10
5.8564933
20
116.5454263
40
0.5651495
50
78.2172678
51
90.412935
0
ARC
8
DEFAULT_255_1_388
10
5.8964398
20
116.7281511
40
0.378122
50
55.9269121
51
78.4888449
0
ARC
8
DEFAULT_255_1_388
10
5.9185113
20
116.7662187
40
0.3342379
50
47.929771
51
55.4049217
0
ARC
8
DEFAULT_255_1_388
10
5.9299644
20
116.7778618
40
0.3179217
50
4.334829
51
48.0560205
0
ARC
8
DEFAULT_255_1_388
10
5.8067445
20
116.7587487
40
0.442341
50
359.9251713
51
5.5971671
0
ARC
8
DEFAULT_255_1_388
10
5.85496
20
116.7650728
40
0.3941854
50
337.8914027
51
358.9967534
0
ARC
8
DEFAULT_255_1_388
10
5.549717
20
116.8828295
40
0.7213271
50
326.9132501
51
338.3508308
0
ARC
8
DEFAULT_255_1_388
10
5.1013282
20
117.1702105
40
1.2538973
50
319.6471833
51
327.0959558
0
ARC
8
DEFAULT_255_1_388
10
4.669994
20
117.526005
40
1.8129975
50
317.2588228
51
319.9045804
0
LINE
8
DEFAULT_255_1_388
10
4.7426716
20
123.7144
11
4.5673801
21
123.7144
0
LINE
8
DEFAULT_255_1_388
10
4.3785351
20
124.3071383
11
4.5411767
21
124.3071383
0
LINE
8
DEFAULT_255_1_388
10
4.5411767
20
124.3071383
11
4.5411767
21
124.3839413
0
LINE
8
DEFAULT_255_1_388
10
4.1237299
20
124.4209874
11
3.9556669
21
124.4209874
0
LINE
8
DEFAULT_255_1_388
10
4.7083361
20
124.3929769
11
4.7083361
21
123.9430018
0
LINE
8
DEFAULT_255_1_388
10
4.7426716
20
123.728857
11
4.7426716
21
123.7144
0
LINE
8
DEFAULT_255_1_388
10
4.5411767
20
123.98818
11
4.5411767
21
124.1887713
0
LINE
8
DEFAULT_255_1_388
10
4.5411767
20
124.1887713
11
4.4101599
21
124.1887713
0
ARC
8
DEFAULT_255_1_388
10
4.684295
20
123.77111
40
0.1299428
50
197.0784902
51
205.8758668
0
ARC
8
DEFAULT_255_1_388
10
4.8237536
20
123.8152959
40
0.2762313
50
192.2927663
51
197.3441989
0
ARC
8
DEFAULT_255_1_388
10
5.0433042
20
123.864076
40
0.5011345
50
189.1573793
51
192.3977084
0
ARC
8
DEFAULT_255_1_388
10
5.3597888
20
123.9156878
40
0.8217995
50
186.8686098
51
189.1982636
0
ARC
8
DEFAULT_255_1_388
10
4.2542979
20
124.089726
40
0.3975173
50
294.0079259
51
316.7603918
0
ARC
8
DEFAULT_255_1_388
10
4.2688162
20
124.0692902
40
0.3729755
50
269.5043226
51
293.2478373
0
ARC
8
DEFAULT_255_1_388
10
4.2621214
20
124.1143915
40
0.4180772
50
255.4034155
51
270.4753052
0
ARC
8
DEFAULT_255_1_388
10
4.2362427
20
124.0139652
40
0.3143705
50
228.6141063
51
255.3550831
0
ARC
8
DEFAULT_255_1_388
10
4.1988409
20
123.978154
40
0.2628114
50
181.8954381
51
229.5703134
0
ARC
8
DEFAULT_255_1_388
10
4.2653345
20
123.9853824
40
0.329546
50
179.9848815
51
182.7691528
0
ARC
8
DEFAULT_255_1_388
10
4.2560411
20
123.9892827
40
0.3202753
50
161.0342928
51
180.6822077
0
ARC
8
DEFAULT_255_1_388
10
4.2066026
20
124.0021422
40
0.2693695
50
125.0525065
51
160.2034058
0
ARC
8
DEFAULT_255_1_388
10
4.2810748
20
123.9005275
40
0.3953338
50
106.2670809
51
125.4300189
0
ARC
8
DEFAULT_255_1_388
10
4.3454789
20
123.6900795
40
0.6154041
50
95.4857579
51
106.5348562
0
ARC
8
DEFAULT_255_1_388
10
4.3762077
20
123.4088993
40
0.8982419
50
89.8515405
51
95.7222579
0
ARC
8
DEFAULT_255_1_388
10
4.3042658
20
124.3859925
40
0.2369198
50
359.5039339
51
14.3181205
0
ARC
8
DEFAULT_255_1_388
10
4.3688662
20
124.4027862
40
0.170173
50
14.2184556
51
45.2028524
0
ARC
8
DEFAULT_255_1_388
10
4.3729358
20
124.4043862
40
0.1661795
50
45.8098216
51
73.0032926
0
ARC
8
DEFAULT_255_1_388
10
4.3449185
20
124.318726
40
0.2562942
50
72.6112517
51
85.7231489
0
ARC
8
DEFAULT_255_1_388
10
4.3347969
20
124.2160339
40
0.3594635
50
85.335019
51
90.0855069
0
ARC
8
DEFAULT_255_1_388
10
4.3321402
20
124.2824472
40
0.2930574
50
89.5854741
51
103.459124
0
ARC
8
DEFAULT_255_1_388
10
4.3149941
20
124.3539134
40
0.2195632
50
103.448332
51
126.5403399
0
ARC
8
DEFAULT_255_1_388
10
4.2880918
20
124.3883224
40
0.1759039
50
126.1730306
51
141.5008224
0
ARC
8
DEFAULT_255_1_388
10
4.2455233
20
124.4217266
40
0.1217955
50
141.3332087
51
180.3477313
0
ARC
8
DEFAULT_255_1_388
10
4.1696656
20
124.4197904
40
0.214002
50
151.6373605
51
179.6795088
0
ARC
8
DEFAULT_255_1_388
10
4.2373892
20
124.3860768
40
0.2896224
50
142.4981529
51
152.1330509
0
ARC
8
DEFAULT_255_1_388
10
4.2731896
20
124.3579781
40
0.3351307
50
120.8284906
51
142.4132156
0
ARC
8
DEFAULT_255_1_388
10
4.3199872
20
124.2847185
40
0.4220297
50
113.9634885
51
121.1871733
0
ARC
8
DEFAULT_255_1_388
10
4.3353181
20
124.2473705
40
0.4623867
50
93.3784336
51
113.8197902
0
ARC
8
DEFAULT_255_1_388
10
4.3439563
20
124.1612549
40
0.5488732
50
89.9745993
51
93.7488475
0
ARC
8
DEFAULT_255_1_388
10
4.3478809
20
124.1653587
40
0.5447818
50
79.1327128
51
90.3871707
0
ARC
8
DEFAULT_255_1_388
10
4.3844573
20
124.3481597
40
0.3583662
50
60.1434453
51
79.365517
0
ARC
8
DEFAULT_255_1_388
10
4.4133339
20
124.4036195
40
0.2959028
50
48.6191018
51
59.6466565
0
ARC
8
DEFAULT_255_1_388
10
4.4187051
20
124.4107356
40
0.2870136
50
9.0349502
51
48.4845487
0
ARC
8
DEFAULT_255_1_388
10
4.297635
20
124.3843084
40
0.4107927
50
1.2091359
51
10.0234369
0
ARC
8
DEFAULT_255_1_388
10
5.5673798
20
123.9402422
40
0.8590481
50
179.8159449
51
185.3205667
0
ARC
8
DEFAULT_255_1_388
10
5.2641643
20
123.9112945
40
0.5544553
50
185.2475628
51
192.7952551
0
ARC
8
DEFAULT_255_1_388
10
5.0659467
20
123.8658024
40
0.3510853
50
192.7195981
51
202.9584216
0
ARC
8
DEFAULT_255_1_388
10
4.2899503
20
124.1355895
40
0.2937869
50
270.006916
51
300.503478
0
ARC
8
DEFAULT_255_1_388
10
4.3037438
20
124.1211888
40
0.2744162
50
299.5482616
51
315.609538
0
ARC
8
DEFAULT_255_1_388
10
4.3363734
20
124.0878072
40
0.2277499
50
315.8682065
51
334.0592465
0
ARC
8
DEFAULT_255_1_388
10
4.4052708
20
123.40419
40
0.7845965
50
89.64297
51
97.2867877
0
ARC
8
DEFAULT_255_1_388
10
4.3556305
20
123.7758936
40
0.4096042
50
96.9938706
51
109.7783917
0
ARC
8
DEFAULT_255_1_388
10
4.2807768
20
123.9762851
40
0.1957225
50
109.0087985
51
135.3265591
0
ARC
8
DEFAULT_255_1_388
10
4.2500187
20
124.0143764
40
0.1471704
50
137.4537784
51
182.1083946
0
ARC
8
DEFAULT_255_1_388
10
4.2920887
20
124.0071101
40
0.1891498
50
179.4390335
51
195.7201623
0
ARC
8
DEFAULT_255_1_388
10
4.2457922
20
123.9944585
40
0.1411576
50
195.8683556
51
230.157074
0
ARC
8
DEFAULT_255_1_388
10
4.2730645
20
124.0271228
40
0.1837102
50
230.1532486
51
259.7486257
0
ARC
8
DEFAULT_255_1_388
10
4.2886687
20
124.1006472
40
0.258848
50
259.2461118
51
270.2915316
0
ARC
8
DEFAULT_255_1_388
10
5.0943855
20
123.8031142
40
0.1204062
50
163.5412609
51
180.5084512
0
ARC
8
DEFAULT_255_1_388
10
5.0727754
20
123.808946
40
0.0980307
50
138.1652
51
163.2315563
0
ARC
8
DEFAULT_255_1_388
10
5.0601495
20
123.8196456
40
0.0814881
50
105.6860499
51
137.8492655
0
ARC
8
DEFAULT_255_1_388
10
5.0734696
20
123.7764109
40
0.126719
50
92.6078949
51
106.199173
0
ARC
8
DEFAULT_255_1_388
10
5.0768886
20
123.7318207
40
0.1714243
50
89.9659531
51
93.0713334
0
ARC
8
DEFAULT_255_1_388
10
5.0780922
20
123.7568484
40
0.1464007
50
78.4379126
51
90.4311892
0
ARC
8
DEFAULT_255_1_388
10
5.0889569
20
123.8075017
40
0.094599
50
56.8961942
51
78.7357785
0
ARC
8
DEFAULT_255_1_388
10
5.0960679
20
123.8199075
40
0.0803272
50
42.6503148
51
56.3122241
0
ARC
8
DEFAULT_255_1_388
10
5.0816581
20
123.8066661
40
0.099897
50
3.8141057
51
42.636595
0
ARC
8
DEFAULT_255_1_388
10
5.0493903
20
123.8021616
40
0.1324137
50
359.9498843
51
4.8301897
0
ARC
8
DEFAULT_255_1_388
10
5.074904
20
123.8009722
40
0.1069053
50
340.9378148
51
0.5753733
0
ARC
8
DEFAULT_255_1_388
10
5.0875623
20
123.7975569
40
0.0938301
50
316.0798885
51
340.3845117
0
ARC
8
DEFAULT_255_1_388
10
5.0940934
20
123.791552
40
0.0849605
50
285.8512844
51
315.941661
0
ARC
8
DEFAULT_255_1_388
10
5.0808814
20
123.834262
40
0.1296594
50
273.1293204
51
286.3125006
0
ARC
8
DEFAULT_255_1_388
10
5.0771324
20
123.8794586
40
0.1749979
50
269.9535313
51
273.5471598
0
ARC
8
DEFAULT_255_1_388
10
5.0758929
20
123.8548833
40
0.1504266
50
259.0487117
51
270.4180248
0
ARC
8
DEFAULT_255_1_388
10
5.0650542
20
123.8011783
40
0.0956414
50
239.7583641
51
259.3115656
0
ARC
8
DEFAULT_255_1_388
10
5.0559475
20
123.7842048
40
0.0763945
50
222.6243303
51
239.2473835
0
ARC
8
DEFAULT_255_1_388
10
5.0710646
20
123.7980572
40
0.0968985
50
182.9231258
51
222.598101
0
ARC
8
DEFAULT_255_1_388
10
5.1013845
20
123.8019696
40
0.1274004
50
179.9657458
51
183.9850364
0
LINE
8
DEFAULT_255_1_388
10
5.9895905
20
125.0363148
11
5.9895905
21
123.7144
0
LINE
8
DEFAULT_255_1_388
10
5.9895905
20
123.7144
11
5.8215275
21
123.7144
0
LINE
8
DEFAULT_255_1_388
10
5.8215275
20
123.7144
11
5.8215275
21
124.828495
0
LINE
8
DEFAULT_255_1_388
10
5.8215275
20
124.828495
11
5.484498
21
124.7047066
0
LINE
8
DEFAULT_255_1_388
10
5.484498
20
124.7047066
11
5.484498
21
124.8565055
0
LINE
8
DEFAULT_255_1_388
10
5.484498
20
124.8565055
11
5.9633872
21
125.0363148
0
LINE
8
DEFAULT_255_1_388
10
5.9633872
20
125.0363148
11
5.9895905
21
125.0363148
0
LINE
8
DEFAULT_255_1_388
10
4.7500716
20
131.6519
11
4.5747801
21
131.6519
0
LINE
8
DEFAULT_255_1_388
10
4.3859351
20
132.2446383
11
4.5485767
21
132.2446383
0
LINE
8
DEFAULT_255_1_388
10
4.5485767
20
132.2446383
11
4.5485767
21
132.3214413
0
LINE
8
DEFAULT_255_1_388
10
4.1311299
20
132.3584874
11
3.9630669
21
132.3584874
0
LINE
8
DEFAULT_255_1_388
10
4.7157361
20
132.3304769
11
4.7157361
21
131.8805018
0
LINE
8
DEFAULT_255_1_388
10
4.7500716
20
131.666357
11
4.7500716
21
131.6519
0
LINE
8
DEFAULT_255_1_388
10
4.5485767
20
131.92568
11
4.5485767
21
132.1262713
0
LINE
8
DEFAULT_255_1_388
10
4.5485767
20
132.1262713
11
4.4175599
21
132.1262713
0
ARC
8
DEFAULT_255_1_388
10
4.691695
20
131.70861
40
0.1299428
50
197.0784902
51
205.8758668
0
ARC
8
DEFAULT_255_1_388
10
4.8311536
20
131.7527959
40
0.2762313
50
192.2927663
51
197.3441989
0
ARC
8
DEFAULT_255_1_388
10
5.0507042
20
131.801576
40
0.5011345
50
189.1573793
51
192.3977084
0
ARC
8
DEFAULT_255_1_388
10
5.3671888
20
131.8531878
40
0.8217995
50
186.8686098
51
189.1982636
0
ARC
8
DEFAULT_255_1_388
10
4.2616979
20
132.027226
40
0.3975173
50
294.0079259
51
316.7603918
0
ARC
8
DEFAULT_255_1_388
10
4.2762162
20
132.0067902
40
0.3729755
50
269.5043226
51
293.2478373
0
ARC
8
DEFAULT_255_1_388
10
4.2695214
20
132.0518915
40
0.4180772
50
255.4034155
51
270.4753052
0
ARC
8
DEFAULT_255_1_388
10
4.2436427
20
131.9514652
40
0.3143705
50
228.6141063
51
255.3550831
0
ARC
8
DEFAULT_255_1_388
10
4.2062409
20
131.915654
40
0.2628114
50
181.8954381
51
229.5703134
0
ARC
8
DEFAULT_255_1_388
10
4.2727345
20
131.9228824
40
0.329546
50
179.9848815
51
182.7691528
0
ARC
8
DEFAULT_255_1_388
10
4.2634411
20
131.9267827
40
0.3202753
50
161.0342928
51
180.6822077
0
ARC
8
DEFAULT_255_1_388
10
4.2140026
20
131.9396422
40
0.2693695
50
125.0525065
51
160.2034058
0
ARC
8
DEFAULT_255_1_388
10
4.2884748
20
131.8380275
40
0.3953338
50
106.2670809
51
125.4300189
0
ARC
8
DEFAULT_255_1_388
10
4.3528789
20
131.6275795
40
0.6154041
50
95.4857579
51
106.5348562
0
ARC
8
DEFAULT_255_1_388
10
4.3836077
20
131.3463993
40
0.8982419
50
89.8515405
51
95.7222579
0
ARC
8
DEFAULT_255_1_388
10
4.3116658
20
132.3234925
40
0.2369198
50
359.5039339
51
14.3181205
0
ARC
8
DEFAULT_255_1_388
10
4.3762662
20
132.3402862
40
0.170173
50
14.2184556
51
45.2028524
0
ARC
8
DEFAULT_255_1_388
10
4.3803358
20
132.3418862
40
0.1661795
50
45.8098216
51
73.0032926
0
ARC
8
DEFAULT_255_1_388
10
4.3523185
20
132.256226
40
0.2562942
50
72.6112517
51
85.7231489
0
ARC
8
DEFAULT_255_1_388
10
4.3421969
20
132.1535339
40
0.3594635
50
85.335019
51
90.0855069
0
ARC
8
DEFAULT_255_1_388
10
4.3395402
20
132.2199472
40
0.2930574
50
89.5854741
51
103.459124
0
ARC
8
DEFAULT_255_1_388
10
4.3223941
20
132.2914134
40
0.2195632
50
103.448332
51
126.5403399
0
ARC
8
DEFAULT_255_1_388
10
4.2954918
20
132.3258224
40
0.1759039
50
126.1730306
51
141.5008224
0
ARC
8
DEFAULT_255_1_388
10
4.2529233
20
132.3592266
40
0.1217955
50
141.3332087
51
180.3477313
0
ARC
8
DEFAULT_255_1_388
10
4.1770656
20
132.3572904
40
0.214002
50
151.6373605
51
179.6795088
0
ARC
8
DEFAULT_255_1_388
10
4.2447892
20
132.3235768
40
0.2896224
50
142.4981529
51
152.1330509
0
ARC
8
DEFAULT_255_1_388
10
4.2805896
20
132.2954781
40
0.3351307
50
120.8284906
51
142.4132156
0
ARC
8
DEFAULT_255_1_388
10
4.3273872
20
132.2222185
40
0.4220297
50
113.9634885
51
121.1871733
0
ARC
8
DEFAULT_255_1_388
10
4.3427181
20
132.1848705
40
0.4623867
50
93.3784336
51
113.8197902
0
ARC
8
DEFAULT_255_1_388
10
4.3513563
20
132.0987549
40
0.5488732
50
89.9745993
51
93.7488475
0
ARC
8
DEFAULT_255_1_388
10
4.3552809
20
132.1028587
40
0.5447818
50
79.1327128
51
90.3871707
0
ARC
8
DEFAULT_255_1_388
10
4.3918573
20
132.2856597
40
0.3583662
50
60.1434453
51
79.365517
0
ARC
8
DEFAULT_255_1_388
10
4.4207339
20
132.3411195
40
0.2959028
50
48.6191018
51
59.6466565
0
ARC
8
DEFAULT_255_1_388
10
4.4261051
20
132.3482356
40
0.2870136
50
9.0349502
51
48.4845487
0
ARC
8
DEFAULT_255_1_388
10
4.305035
20
132.3218084
40
0.4107927
50
1.2091359
51
10.0234369
0
ARC
8
DEFAULT_255_1_388
10
5.5747798
20
131.8777422
40
0.8590481
50
179.8159449
51
185.3205667
0
ARC
8
DEFAULT_255_1_388
10
5.2715643
20
131.8487945
40
0.5544553
50
185.2475628
51
192.7952551
0
ARC
8
DEFAULT_255_1_388
10
5.0733467
20
131.8033024
40
0.3510853
50
192.7195981
51
202.9584216
0
ARC
8
DEFAULT_255_1_388
10
4.2973503
20
132.0730895
40
0.2937869
50
270.006916
51
300.503478
0
ARC
8
DEFAULT_255_1_388
10
4.3111438
20
132.0586888
40
0.2744162
50
299.5482616
51
315.609538
0
ARC
8
DEFAULT_255_1_388
10
4.3437734
20
132.0253072
40
0.2277499
50
315.8682065
51
334.0592465
0
ARC
8
DEFAULT_255_1_388
10
4.4126708
20
131.34169
40
0.7845965
50
89.64297
51
97.2867877
0
ARC
8
DEFAULT_255_1_388
10
4.3630305
20
131.7133936
40
0.4096042
50
96.9938706
51
109.7783917
0
ARC
8
DEFAULT_255_1_388
10
4.2881768
20
131.9137851
40
0.1957225
50
109.0087985
51
135.3265591
0
ARC
8
DEFAULT_255_1_388
10
4.2574187
20
131.9518764
40
0.1471704
50
137.4537784
51
182.1083946
0
ARC
8
DEFAULT_255_1_388
10
4.2994887
20
131.9446101
40
0.1891498
50
179.4390335
51
195.7201623
0
ARC
8
DEFAULT_255_1_388
10
4.2531922
20
131.9319585
40
0.1411576
50
195.8683556
51
230.157074
0
ARC
8
DEFAULT_255_1_388
10
4.2804645
20
131.9646228
40
0.1837102
50
230.1532486
51
259.7486257
0
ARC
8
DEFAULT_255_1_388
10
4.2960687
20
132.0381472
40
0.258848
50
259.2461118
51
270.2915316
0
ARC
8
DEFAULT_255_1_388
10
5.1017855
20
131.7406142
40
0.1204062
50
163.5412609
51
180.5084512
0
ARC
8
DEFAULT_255_1_388
10
5.0801754
20
131.746446
40
0.0980307
50
138.1652
51
163.2315563
0
ARC
8
DEFAULT_255_1_388
10
5.0675495
20
131.7571456
40
0.0814881
50
105.6860499
51
137.8492655
0
ARC
8
DEFAULT_255_1_388
10
5.0808696
20
131.7139109
40
0.126719
50
92.6078949
51
106.199173
0
ARC
8
DEFAULT_255_1_388
10
5.0842886
20
131.6693207
40
0.1714243
50
89.9659531
51
93.0713334
0
ARC
8
DEFAULT_255_1_388
10
5.0854922
20
131.6943484
40
0.1464007
50
78.4379126
51
90.4311892
0
ARC
8
DEFAULT_255_1_388
10
5.0963569
20
131.7450017
40
0.094599
50
56.8961942
51
78.7357785
0
ARC
8
DEFAULT_255_1_388
10
5.1034679
20
131.7574075
40
0.0803272
50
42.6503148
51
56.3122241
0
ARC
8
DEFAULT_255_1_388
10
5.0890581
20
131.7441661
40
0.099897
50
3.8141057
51
42.636595
0
ARC
8
DEFAULT_255_1_388
10
5.0567903
20
131.7396616
40
0.1324137
50
359.9498843
51
4.8301897
0
ARC
8
DEFAULT_255_1_388
10
5.082304
20
131.7384722
40
0.1069053
50
340.9378148
51
0.5753733
0
ARC
8
DEFAULT_255_1_388
10
5.0949623
20
131.7350569
40
0.0938301
50
316.0798885
51
340.3845117
0
ARC
8
DEFAULT_255_1_388
10
5.1014934
20
131.729052
40
0.0849605
50
285.8512844
51
315.941661
0
ARC
8
DEFAULT_255_1_388
10
5.0882814
20
131.771762
40
0.1296594
50
273.1293204
51
286.3125006
0
ARC
8
DEFAULT_255_1_388
10
5.0845324
20
131.8169586
40
0.1749979
50
269.9535313
51
273.5471598
0
ARC
8
DEFAULT_255_1_388
10
5.0832929
20
131.7923833
40
0.1504266
50
259.0487117
51
270.4180248
0
ARC
8
DEFAULT_255_1_388
10
5.0724542
20
131.7386783
40
0.0956414
50
239.7583641
51
259.3115656
0
ARC
8
DEFAULT_255_1_388
10
5.0633475
20
131.7217048
40
0.0763945
50
222.6243303
51
239.2473835
0
ARC
8
DEFAULT_255_1_388
10
5.0784646
20
131.7355572
40
0.0968985
50
182.9231258
51
222.598101
0
ARC
8
DEFAULT_255_1_388
10
5.1087845
20
131.7394696
40
0.1274004
50
179.9657458
51
183.9850364
0
LINE
8
DEFAULT_255_1_388
10
6.2725777
20
132.429869
11
6.2725777
21
132.2130135
0
LINE
8
DEFAULT_255_1_388
10
5.442202
20
132.1904244
11
5.442202
21
132.4136048
0
LINE
8
DEFAULT_255_1_388
10
6.1054183
20
132.1678353
11
6.1054183
21
132.4416153
0
LINE
8
DEFAULT_255_1_388
10
5.6093614
20
132.4542652
11
5.6093614
21
132.1868102
0
ARC
8
DEFAULT_255_1_388
10
4.8948111
20
132.2075118
40
1.3777776
50
353.8440855
51
0.2287917
0
ARC
8
DEFAULT_255_1_388
10
5.4167128
20
132.1492414
40
0.852639
50
344.4934746
51
353.9763743
0
ARC
8
DEFAULT_255_1_388
10
5.7533935
20
132.0535191
40
0.5026273
50
329.2803599
51
344.7473406
0
ARC
8
DEFAULT_255_1_388
10
5.8649431
20
131.9923038
40
0.3754848
50
324.9361395
51
328.6153007
0
ARC
8
DEFAULT_255_1_388
10
5.9075081
20
131.9625586
40
0.3235566
50
280.5801797
51
324.9173226
0
ARC
8
DEFAULT_255_1_388
10
5.862371
20
132.1505236
40
0.5167077
50
269.5979457
51
281.6732777
0
ARC
8
DEFAULT_255_1_388
10
5.8542613
20
132.1370113
40
0.5032026
50
256.6228565
51
270.5105488
0
ARC
8
DEFAULT_255_1_388
10
5.8090356
20
131.9628345
40
0.3233092
50
215.8618351
51
257.2787793
0
ARC
8
DEFAULT_255_1_388
10
5.9239063
20
132.0399106
40
0.4615831
50
197.9695203
51
215.2622745
0
ARC
8
DEFAULT_255_1_388
10
6.2034739
20
132.1342641
40
0.7566307
50
187.8816486
51
198.2346584
0
ARC
8
DEFAULT_255_1_388
10
6.6487977
20
132.1985453
40
1.2065653
50
180.8977266
51
188.0054894
0
ARC
8
DEFAULT_255_1_388
10
6.953819
20
132.21004
40
1.5117443
50
180.7434591
51
181.152202
0
ARC
8
DEFAULT_255_1_388
10
6.7863186
20
132.4190371
40
1.3441277
50
173.7674302
51
180.2315596
0
ARC
8
DEFAULT_255_1_388
10
6.2781055
20
132.4764779
40
0.8326847
50
164.3058537
51
173.9000553
0
ARC
8
DEFAULT_255_1_388
10
5.9505055
20
132.5708652
40
0.4917711
50
148.7922028
51
164.5682288
0
ARC
8
DEFAULT_255_1_388
10
5.8435793
20
132.6305457
40
0.3694204
50
144.5883979
51
148.1161588
0
ARC
8
DEFAULT_255_1_388
10
5.8048538
20
132.6575667
40
0.322202
50
101.6440149
51
144.5142619
0
ARC
8
DEFAULT_255_1_388
10
5.852673
20
132.4675337
40
0.5180451
50
89.528284
51
102.5820197
0
ARC
8
DEFAULT_255_1_388
10
5.8615722
20
132.4631376
40
0.5224441
50
77.0437914
51
90.508231
0
ARC
8
DEFAULT_255_1_388
10
5.9067976
20
132.6479272
40
0.3322297
50
48.2777708
51
77.4996087
0
ARC
8
DEFAULT_255_1_388
10
5.9149716
20
132.6624557
40
0.315966
50
36.3141586
51
47.6307332
0
ARC
8
DEFAULT_255_1_388
10
5.8172438
20
132.5966159
40
0.4337313
50
18.2931065
51
35.6770203
0
ARC
8
DEFAULT_255_1_388
10
5.5311279
20
132.4984107
40
0.7362203
50
8.0246996
51
18.5605636
0
ARC
8
DEFAULT_255_1_388
10
5.0627634
20
132.4292432
40
1.2096583
50
1.127539
51
8.1718423
0
ARC
8
DEFAULT_255_1_388
10
4.6978768
20
132.4149374
40
1.5747719
50
0.5432713
51
1.38669
0
ARC
8
DEFAULT_255_1_388
10
4.9036146
20
132.4456163
40
1.2018103
50
359.8092569
51
4.9408001
0
ARC
8
DEFAULT_255_1_388
10
5.3772728
20
132.48789
40
0.7262727
50
4.8364937
51
12.2906017
0
ARC
8
DEFAULT_255_1_388
10
5.6872193
20
132.5569485
40
0.4087324
50
12.0806994
51
23.8171225
0
ARC
8
DEFAULT_255_1_388
10
5.8192589
20
132.6128508
40
0.2653719
50
24.2874621
51
31.3934353
0
ARC
8
DEFAULT_255_1_388
10
5.8783024
20
132.6514822
40
0.1948607
50
30.7407708
51
82.4658033
0
ARC
8
DEFAULT_255_1_388
10
5.8580685
20
132.5521017
40
0.2961198
50
81.1057101
51
90.2187368
0
ARC
8
DEFAULT_255_1_388
10
5.8540497
20
132.5811421
40
0.2670929
50
89.380395
51
105.6763916
0
ARC
8
DEFAULT_255_1_388
10
5.8334219
20
132.656132
40
0.1893189
50
105.7980655
51
149.7387869
0
ARC
8
DEFAULT_255_1_388
10
5.9531359
20
132.5841719
40
0.3289892
50
149.4208441
51
163.628295
0
ARC
8
DEFAULT_255_1_388
10
6.1883589
20
132.5124345
40
0.5749004
50
163.3764549
51
172.141138
0
ARC
8
DEFAULT_255_1_388
10
6.559631
20
132.4592582
40
0.9499585
50
172.0258462
51
178.0705453
0
ARC
8
DEFAULT_255_1_388
10
6.9017863
20
132.4430682
40
1.2924734
50
177.8639301
51
179.5036263
0
ARC
8
DEFAULT_255_1_388
10
6.7798882
20
132.1827151
40
1.170534
50
179.7995545
51
185.246089
0
ARC
8
DEFAULT_255_1_388
10
6.3250475
20
132.1396404
40
0.7136613
50
185.1411911
51
193.0082205
0
ARC
8
DEFAULT_255_1_388
10
6.0276736
20
132.0693441
40
0.4080987
50
192.7897338
51
205.2507384
0
ARC
8
DEFAULT_255_1_388
10
5.9098945
20
132.0167538
40
0.2791522
50
205.8001921
51
211.2545876
0
ARC
8
DEFAULT_255_1_388
10
5.8510485
20
131.9773132
40
0.2084074
50
210.3789935
51
238.4007996
0
ARC
8
DEFAULT_255_1_388
10
5.8488571
20
131.9825786
40
0.2117943
50
239.6521916
51
265.9793852
0
ARC
8
DEFAULT_255_1_388
10
5.858442
20
132.0582358
40
0.2879689
50
265.1324455
51
270.0603288
0
ARC
8
DEFAULT_255_1_388
10
5.8616797
20
132.0217418
40
0.2514919
50
269.3314378
51
287.2180039
0
ARC
8
DEFAULT_255_1_388
10
5.8771879
20
131.9651291
40
0.1928357
50
287.7957942
51
329.0808983
0
ARC
8
DEFAULT_255_1_388
10
5.7694636
20
132.0323651
40
0.319808
50
328.6635261
51
343.3325043
0
ARC
8
DEFAULT_255_1_388
10
5.5250095
20
132.1085195
40
0.5758408
50
343.0498092
51
351.9392499
0
ARC
8
DEFAULT_255_1_388
10
5.1349416
20
132.1660205
40
0.9701202
50
351.8071632
51
357.7957897
0
ARC
8
DEFAULT_255_1_388
10
4.7714893
20
132.1848724
40
1.3340376
50
357.5870923
51
359.2682493
0
LINE
8
DEFAULT_255_1_388
10
4.4973985
20
140.9113148
11
4.4973985
21
139.5894
0
LINE
8
DEFAULT_255_1_388
10
4.4973985
20
139.5894
11
4.3293355
21
139.5894
0
LINE
8
DEFAULT_255_1_388
10
4.3293355
20
139.5894
11
4.3293355
21
140.703495
0
LINE
8
DEFAULT_255_1_388
10
4.3293355
20
140.703495
11
3.992306
21
140.5797066
0
LINE
8
DEFAULT_255_1_388
10
3.992306
20
140.5797066
11
3.992306
21
140.7315055
0
LINE
8
DEFAULT_255_1_388
10
3.992306
20
140.7315055
11
4.4711951
21
140.9113148
0
LINE
8
DEFAULT_255_1_388
10
4.4711951
20
140.9113148
11
4.4973985
21
140.9113148
0
LINE
8
DEFAULT_255_1_388
10
5.0305015
20
140.9049898
11
5.2545855
21
140.9049898
0
LINE
8
DEFAULT_255_1_388
10
5.2545855
20
140.9049898
11
5.6846822
21
139.8315553
0
LINE
8
DEFAULT_255_1_388
10
5.6846822
20
139.8315553
11
6.1147789
21
140.9049898
0
LINE
8
DEFAULT_255_1_388
10
6.1147789
20
140.9049898
11
6.3397664
21
140.9049898
0
LINE
8
DEFAULT_255_1_388
10
6.3397664
20
140.9049898
11
6.3397664
21
139.5894
0
LINE
8
DEFAULT_255_1_388
10
6.3397664
20
139.5894
11
6.166282
21
139.5894
0
LINE
8
DEFAULT_255_1_388
10
6.166282
20
139.5894
11
6.166282
21
140.101721
0
LINE
8
DEFAULT_255_1_388
10
6.166282
20
140.101721
11
6.1825462
21
140.6547025
0
LINE
8
DEFAULT_255_1_388
10
6.1825462
20
140.6547025
11
5.7506424
21
139.5894
0
LINE
8
DEFAULT_255_1_388
10
5.7506424
20
139.5894
11
5.6178184
21
139.5894
0
LINE
8
DEFAULT_255_1_388
10
5.6178184
20
139.5894
11
5.1868182
21
140.6519918
0
LINE
8
DEFAULT_255_1_388
10
5.1868182
20
140.6519918
11
5.2039859
21
140.101721
0
LINE
8
DEFAULT_255_1_388
10
5.2039859
20
140.101721
11
5.2039859
21
139.5894
0
LINE
8
DEFAULT_255_1_388
10
5.2039859
20
139.5894
11
5.0305015
21
139.5894
0
LINE
8
DEFAULT_255_1_388
10
5.0305015
20
139.5894
11
5.0305015
21
140.9049898
0
LINE
8
DEFAULT_255_1_388
10
24.316391
20
148.8424898
11
24.316391
21
147.5269
0
LINE
8
DEFAULT_255_1_388
10
24.316391
20
147.5269
11
24.1420031
21
147.5269
0
LINE
8
DEFAULT_255_1_388
10
24.1420031
20
147.5269
11
23.4796903
21
148.5406993
0
LINE
8
DEFAULT_255_1_388
10
23.4796903
20
148.5406993
11
23.4796903
21
147.5269
0
LINE
8
DEFAULT_255_1_388
10
23.4796903
20
147.5269
11
23.3053024
21
147.5269
0
LINE
8
DEFAULT_255_1_388
10
23.3053024
20
147.5269
11
23.3053024
21
148.8424898
0
LINE
8
DEFAULT_255_1_388
10
23.3053024
20
148.8424898
11
23.4796903
21
148.8424898
0
LINE
8
DEFAULT_255_1_388
10
23.4796903
20
148.8424898
11
24.1438102
21
147.8241727
0
LINE
8
DEFAULT_255_1_388
10
24.1438102
20
147.8241727
11
24.1438102
21
148.8424898
0
LINE
8
DEFAULT_255_1_388
10
24.1438102
20
148.8424898
11
24.316391
21
148.8424898
0
LINE
8
DEFAULT_255_1_388
10
23.0084024
20
37.7174898
11
23.2324864
21
37.7174898
0
LINE
8
DEFAULT_255_1_388
10
23.2324864
20
37.7174898
11
23.6625831
21
36.6440553
0
LINE
8
DEFAULT_255_1_388
10
23.6625831
20
36.6440553
11
24.0926797
21
37.7174898
0
LINE
8
DEFAULT_255_1_388
10
24.0926797
20
37.7174898
11
24.3176673
21
37.7174898
0
LINE
8
DEFAULT_255_1_388
10
24.3176673
20
37.7174898
11
24.3176673
21
36.4019
0
LINE
8
DEFAULT_255_1_388
10
24.3176673
20
36.4019
11
24.1441829
21
36.4019
0
LINE
8
DEFAULT_255_1_388
10
24.1441829
20
36.4019
11
24.1441829
21
36.914221
0
LINE
8
DEFAULT_255_1_388
10
24.1441829
20
36.914221
11
24.1604471
21
37.4672025
0
LINE
8
DEFAULT_255_1_388
10
24.1604471
20
37.4672025
11
23.7285433
21
36.4019
0
LINE
8
DEFAULT_255_1_388
10
23.7285433
20
36.4019
11
23.5957193
21
36.4019
0
LINE
8
DEFAULT_255_1_388
10
23.5957193
20
36.4019
11
23.164719
21
37.4644918
0
LINE
8
DEFAULT_255_1_388
10
23.164719
20
37.4644918
11
23.1818868
21
36.914221
0
LINE
8
DEFAULT_255_1_388
10
23.1818868
20
36.914221
11
23.1818868
21
36.4019
0
LINE
8
DEFAULT_255_1_388
10
23.1818868
20
36.4019
11
23.0084024
21
36.4019
0
LINE
8
DEFAULT_255_1_388
10
23.0084024
20
36.4019
11
23.0084024
21
37.7174898
0
LINE
8
DEFAULT_255_1_388
10
22.7519903
20
45.6549898
11
22.7519903
21
44.4812596
0
LINE
8
DEFAULT_255_1_388
10
22.7519903
20
44.4812596
11
23.3754498
21
44.4812596
0
LINE
8
DEFAULT_255_1_388
10
23.3754498
20
44.4812596
11
23.3754498
21
44.3394
0
LINE
8
DEFAULT_255_1_388
10
23.3754498
20
44.3394
11
22.5776024
21
44.3394
0
LINE
8
DEFAULT_255_1_388
10
22.5776024
20
44.3394
11
22.5776024
21
45.6549898
0
LINE
8
DEFAULT_255_1_388
10
22.5776024
20
45.6549898
11
22.7519903
21
45.6549898
0
LINE
8
DEFAULT_255_1_388
10
24.0260162
20
45.4290987
11
24.0260162
21
45.0450838
0
LINE
8
DEFAULT_255_1_388
10
24.0260162
20
45.0450838
11
24.3928634
21
45.0450838
0
LINE
8
DEFAULT_255_1_388
10
24.3928634
20
45.0450838
11
24.3928634
21
44.8869601
0
LINE
8
DEFAULT_255_1_388
10
24.3928634
20
44.8869601
11
24.0260162
21
44.8869601
0
LINE
8
DEFAULT_255_1_388
10
24.0260162
20
44.8869601
11
24.0260162
21
44.4713204
0
LINE
8
DEFAULT_255_1_388
10
24.0260162
20
44.4713204
11
23.8579532
21
44.4713204
0
LINE
8
DEFAULT_255_1_388
10
23.8579532
20
44.4713204
11
23.8579532
21
44.8869601
0
LINE
8
DEFAULT_255_1_388
10
23.8579532
20
44.8869601
11
23.4911061
21
44.8869601
0
LINE
8
DEFAULT_255_1_388
10
23.4911061
20
44.8869601
11
23.4911061
21
45.0450838
0
LINE
8
DEFAULT_255_1_388
10
23.4911061
20
45.0450838
11
23.8579532
21
45.0450838
0
LINE
8
DEFAULT_255_1_388
10
23.8579532
20
45.0450838
11
23.8579532
21
45.4290987
0
LINE
8
DEFAULT_255_1_388
10
23.8579532
20
45.4290987
11
24.0260162
21
45.4290987
0
LINE
8
DEFAULT_255_1_388
10
22.8644641
20
52.7693426
11
22.8644641
21
52.7548856
0
LINE
8
DEFAULT_255_1_388
10
22.1985371
20
52.3898456
11
22.190405
21
52.2769
0
LINE
8
DEFAULT_255_1_388
10
22.190405
20
52.2769
11
22.036799
21
52.2769
0
LINE
8
DEFAULT_255_1_388
10
22.036799
20
52.2769
11
22.036799
21
53.664775
0
LINE
8
DEFAULT_255_1_388
10
22.036799
20
53.664775
11
22.2039584
21
53.664775
0
LINE
8
DEFAULT_255_1_388
10
22.2039584
20
53.664775
11
22.2039584
21
53.1470326
0
LINE
8
DEFAULT_255_1_388
10
22.2039584
20
52.9771625
11
22.2039584
21
52.5542943
0
ARC
8
DEFAULT_255_1_388
10
22.0717093
20
52.7499101
40
0.7927704
50
349.4826431
51
0.3595958
0
ARC
8
DEFAULT_255_1_388
10
22.3279003
20
52.7005754
40
0.531881
50
331.8601729
51
349.6703499
0
ARC
8
DEFAULT_255_1_388
10
22.4103295
20
52.6604295
40
0.440275
50
322.8939675
51
331.4079366
0
ARC
8
DEFAULT_255_1_388
10
22.4885663
20
52.5952419
40
0.3385862
50
296.725075
51
323.7043525
0
ARC
8
DEFAULT_255_1_388
10
22.491931
20
52.6030416
40
0.3441011
50
270.6344013
51
295.6405661
0
ARC
8
DEFAULT_255_1_388
10
22.4850006
20
52.6932096
40
0.4343809
50
269.9955642
51
271.4168155
0
ARC
8
DEFAULT_255_1_388
10
22.4806788
20
52.6781485
40
0.4193418
50
253.6575074
51
270.5859134
0
ARC
8
DEFAULT_255_1_388
10
22.4547036
20
52.5832616
40
0.3209845
50
217.0542732
51
253.3409544
0
ARC
8
DEFAULT_255_1_388
10
22.4622033
20
52.9414393
40
0.3300893
50
93.1931057
51
141.4760886
0
ARC
8
DEFAULT_255_1_388
10
22.4827026
20
52.8028127
40
0.4698157
50
89.9442329
51
94.747695
0
ARC
8
DEFAULT_255_1_388
10
22.4876249
20
52.8953571
40
0.3772974
50
70.6102966
51
90.6780641
0
ARC
8
DEFAULT_255_1_388
10
22.5004843
20
52.9465969
40
0.3247312
50
36.1152061
51
69.7490455
0
ARC
8
DEFAULT_255_1_388
10
22.389494
20
52.8618642
40
0.4643452
50
15.4648073
51
36.4892008
0
ARC
8
DEFAULT_255_1_388
10
22.1579336
20
52.7944548
40
0.7055035
50
3.9221328
51
15.7266383
0
ARC
8
DEFAULT_255_1_388
10
21.8926455
20
52.7705859
40
0.9718194
50
359.9267025
51
4.2562571
0
ARC
8
DEFAULT_255_1_388
10
21.9840932
20
52.7773052
40
0.7132198
50
359.7232654
51
7.7112388
0
ARC
8
DEFAULT_255_1_388
10
22.2385768
20
52.8128662
40
0.4562671
50
7.5740305
51
19.4153133
0
ARC
8
DEFAULT_255_1_388
10
22.3811781
20
52.8630795
40
0.3050836
50
19.4237113
51
34.9159184
0
ARC
8
DEFAULT_255_1_388
10
22.4566375
20
52.9178279
40
0.2118777
50
34.4555697
51
84.4656773
0
ARC
8
DEFAULT_255_1_388
10
22.4421751
20
52.8328992
40
0.2978698
50
83.2721807
51
90.1114043
0
ARC
8
DEFAULT_255_1_388
10
22.4374334
20
52.8552068
40
0.275593
50
89.1345761
51
111.409063
0
ARC
8
DEFAULT_255_1_388
10
22.4284956
20
52.8921005
40
0.2380381
50
112.6478022
51
148.9262646
0
ARC
8
DEFAULT_255_1_388
10
22.516021
20
52.8311711
40
0.3445235
50
147.7602672
51
154.9285352
0
ARC
8
DEFAULT_255_1_388
10
22.4867467
20
52.6911592
40
0.3141675
50
205.8262295
51
224.5304491
0
ARC
8
DEFAULT_255_1_388
10
22.4330146
20
52.6431875
40
0.2422463
50
225.3544419
51
269.2437751
0
ARC
8
DEFAULT_255_1_388
10
22.443334
20
52.7339679
40
0.3332798
50
267.6756581
51
270.0118705
0
ARC
8
DEFAULT_255_1_388
10
22.4464005
20
52.6485943
40
0.2479241
50
269.3072706
51
289.4988605
0
ARC
8
DEFAULT_255_1_388
10
22.454508
20
52.6152296
40
0.2137951
50
290.4353105
51
325.3765722
0
ARC
8
DEFAULT_255_1_388
10
22.3837739
20
52.66633
40
0.3010425
50
325.022387
51
342.6926192
0
ARC
8
DEFAULT_255_1_388
10
22.192854
20
52.7284493
40
0.5018047
50
342.4062017
51
352.8669894
0
ARC
8
DEFAULT_255_1_388
10
21.8867878
20
52.7686328
40
0.810494
50
352.7349871
51
359.855599
0
ARC
8
DEFAULT_255_1_388
10
21.6699902
20
52.7738426
40
1.0273146
50
359.5955109
51
0.0009972
0
ARC
8
DEFAULT_255_1_388
10
23.1990103
20
52.3656142
40
0.1204062
50
163.5412609
51
180.5084512
0
ARC
8
DEFAULT_255_1_388
10
23.1774001
20
52.371446
40
0.0980307
50
138.1652
51
163.2315563
0
ARC
8
DEFAULT_255_1_388
10
23.1647742
20
52.3821456
40
0.0814881
50
105.6860499
51
137.8492655
0
ARC
8
DEFAULT_255_1_388
10
23.1780943
20
52.3389109
40
0.126719
50
92.6078949
51
106.199173
0
ARC
8
DEFAULT_255_1_388
10
23.1815133
20
52.2943207
40
0.1714243
50
89.9659531
51
93.0713334
0
ARC
8
DEFAULT_255_1_388
10
23.1827169
20
52.3193484
40
0.1464007
50
78.4379126
51
90.4311892
0
ARC
8
DEFAULT_255_1_388
10
23.1935816
20
52.3700017
40
0.094599
50
56.8961942
51
78.7357785
0
ARC
8
DEFAULT_255_1_388
10
23.2006927
20
52.3824075
40
0.0803272
50
42.6503148
51
56.3122241
0
ARC
8
DEFAULT_255_1_388
10
23.1862828
20
52.3691661
40
0.099897
50
3.8141057
51
42.636595
0
ARC
8
DEFAULT_255_1_388
10
23.154015
20
52.3646616
40
0.1324137
50
359.9498843
51
4.8301897
0
ARC
8
DEFAULT_255_1_388
10
23.1795288
20
52.3634722
40
0.1069053
50
340.9378148
51
0.5753733
0
ARC
8
DEFAULT_255_1_388
10
23.192187
20
52.3600569
40
0.0938301
50
316.0798885
51
340.3845117
0
ARC
8
DEFAULT_255_1_388
10
23.1987181
20
52.354052
40
0.0849605
50
285.8512844
51
315.941661
0
ARC
8
DEFAULT_255_1_388
10
23.1855062
20
52.396762
40
0.1296594
50
273.1293204
51
286.3125006
0
ARC
8
DEFAULT_255_1_388
10
23.1817571
20
52.4419586
40
0.1749979
50
269.9535313
51
273.5471598
0
ARC
8
DEFAULT_255_1_388
10
23.1805177
20
52.4173833
40
0.1504266
50
259.0487117
51
270.4180248
0
ARC
8
DEFAULT_255_1_388
10
23.169679
20
52.3636783
40
0.0956414
50
239.7583641
51
259.3115656
0
ARC
8
DEFAULT_255_1_388
10
23.1605722
20
52.3467048
40
0.0763945
50
222.6243303
51
239.2473835
0
ARC
8
DEFAULT_255_1_388
10
23.1756893
20
52.3605572
40
0.0968985
50
182.9231258
51
222.598101
0
ARC
8
DEFAULT_255_1_388
10
23.2060093
20
52.3644696
40
0.1274004
50
179.9657458
51
183.9850364
0
LINE
8
DEFAULT_255_1_388
10
24.0942153
20
53.5988148
11
24.0942153
21
52.2769
0
LINE
8
DEFAULT_255_1_388
10
24.0942153
20
52.2769
11
23.9261523
21
52.2769
0
LINE
8
DEFAULT_255_1_388
10
23.9261523
20
52.2769
11
23.9261523
21
53.390995
0
LINE
8
DEFAULT_255_1_388
10
23.9261523
20
53.390995
11
23.5891228
21
53.2672066
0
LINE
8
DEFAULT_255_1_388
10
23.5891228
20
53.2672066
11
23.5891228
21
53.4190055
0
LINE
8
DEFAULT_255_1_388
10
23.5891228
20
53.4190055
11
24.0680119
21
53.5988148
0
LINE
8
DEFAULT_255_1_388
10
24.0680119
20
53.5988148
11
24.0942153
21
53.5988148
0
LINE
8
DEFAULT_255_1_388
10
22.8557641
20
60.7068426
11
22.8557641
21
60.6923856
0
LINE
8
DEFAULT_255_1_388
10
22.1898371
20
60.3273456
11
22.181705
21
60.2144
0
LINE
8
DEFAULT_255_1_388
10
22.181705
20
60.2144
11
22.028099
21
60.2144
0
LINE
8
DEFAULT_255_1_388
10
22.028099
20
60.2144
11
22.028099
21
61.602275
0
LINE
8
DEFAULT_255_1_388
10
22.028099
20
61.602275
11
22.1952584
21
61.602275
0
LINE
8
DEFAULT_255_1_388
10
22.1952584
20
61.602275
11
22.1952584
21
61.0845326
0
LINE
8
DEFAULT_255_1_388
10
22.1952584
20
60.9146625
11
22.1952584
21
60.4917943
0
ARC
8
DEFAULT_255_1_388
10
22.0630093
20
60.6874101
40
0.7927704
50
349.4826431
51
0.3595958
0
ARC
8
DEFAULT_255_1_388
10
22.3192003
20
60.6380754
40
0.531881
50
331.8601729
51
349.6703499
0
ARC
8
DEFAULT_255_1_388
10
22.4016295
20
60.5979295
40
0.440275
50
322.8939675
51
331.4079366
0
ARC
8
DEFAULT_255_1_388
10
22.4798663
20
60.5327419
40
0.3385862
50
296.725075
51
323.7043525
0
ARC
8
DEFAULT_255_1_388
10
22.483231
20
60.5405416
40
0.3441011
50
270.6344013
51
295.6405661
0
ARC
8
DEFAULT_255_1_388
10
22.4763006
20
60.6307096
40
0.4343809
50
269.9955642
51
271.4168155
0
ARC
8
DEFAULT_255_1_388
10
22.4719788
20
60.6156485
40
0.4193418
50
253.6575074
51
270.5859134
0
ARC
8
DEFAULT_255_1_388
10
22.4460036
20
60.5207616
40
0.3209845
50
217.0542732
51
253.3409544
0
ARC
8
DEFAULT_255_1_388
10
22.4535033
20
60.8789393
40
0.3300893
50
93.1931057
51
141.4760886
0
ARC
8
DEFAULT_255_1_388
10
22.4740026
20
60.7403127
40
0.4698157
50
89.9442329
51
94.747695
0
ARC
8
DEFAULT_255_1_388
10
22.4789249
20
60.8328571
40
0.3772974
50
70.6102966
51
90.6780641
0
ARC
8
DEFAULT_255_1_388
10
22.4917843
20
60.8840969
40
0.3247312
50
36.1152061
51
69.7490455
0
ARC
8
DEFAULT_255_1_388
10
22.380794
20
60.7993642
40
0.4643452
50
15.4648073
51
36.4892008
0
ARC
8
DEFAULT_255_1_388
10
22.1492336
20
60.7319548
40
0.7055035
50
3.9221328
51
15.7266383
0
ARC
8
DEFAULT_255_1_388
10
21.8839455
20
60.7080859
40
0.9718194
50
359.9267025
51
4.2562571
0
ARC
8
DEFAULT_255_1_388
10
21.9753932
20
60.7148052
40
0.7132198
50
359.7232654
51
7.7112388
0
ARC
8
DEFAULT_255_1_388
10
22.2298768
20
60.7503662
40
0.4562671
50
7.5740305
51
19.4153133
0
ARC
8
DEFAULT_255_1_388
10
22.3724781
20
60.8005795
40
0.3050836
50
19.4237113
51
34.9159184
0
ARC
8
DEFAULT_255_1_388
10
22.4479375
20
60.8553279
40
0.2118777
50
34.4555697
51
84.4656773
0
ARC
8
DEFAULT_255_1_388
10
22.4334751
20
60.7703992
40
0.2978698
50
83.2721807
51
90.1114043
0
ARC
8
DEFAULT_255_1_388
10
22.4287334
20
60.7927068
40
0.275593
50
89.1345761
51
111.409063
0
ARC
8
DEFAULT_255_1_388
10
22.4197956
20
60.8296005
40
0.2380381
50
112.6478022
51
148.9262646
0
ARC
8
DEFAULT_255_1_388
10
22.507321
20
60.7686711
40
0.3445235
50
147.7602672
51
154.9285352
0
ARC
8
DEFAULT_255_1_388
10
22.4780467
20
60.6286592
40
0.3141675
50
205.8262295
51
224.5304491
0
ARC
8
DEFAULT_255_1_388
10
22.4243146
20
60.5806875
40
0.2422463
50
225.3544419
51
269.2437751
0
ARC
8
DEFAULT_255_1_388
10
22.434634
20
60.6714679
40
0.3332798
50
267.6756581
51
270.0118705
0
ARC
8
DEFAULT_255_1_388
10
22.4377005
20
60.5860943
40
0.2479241
50
269.3072706
51
289.4988605
0
ARC
8
DEFAULT_255_1_388
10
22.445808
20
60.5527296
40
0.2137951
50
290.4353105
51
325.3765722
0
ARC
8
DEFAULT_255_1_388
10
22.3750739
20
60.60383
40
0.3010425
50
325.022387
51
342.6926192
0
ARC
8
DEFAULT_255_1_388
10
22.184154
20
60.6659493
40
0.5018047
50
342.4062017
51
352.8669894
0
ARC
8
DEFAULT_255_1_388
10
21.8780878
20
60.7061328
40
0.810494
50
352.7349871
51
359.855599
0
ARC
8
DEFAULT_255_1_388
10
21.6612902
20
60.7113426
40
1.0273146
50
359.5955109
51
0.0009972
0
ARC
8
DEFAULT_255_1_388
10
23.1903103
20
60.3031142
40
0.1204062
50
163.5412609
51
180.5084512
0
ARC
8
DEFAULT_255_1_388
10
23.1687001
20
60.308946
40
0.0980307
50
138.1652
51
163.2315563
0
ARC
8
DEFAULT_255_1_388
10
23.1560742
20
60.3196456
40
0.0814881
50
105.6860499
51
137.8492655
0
ARC
8
DEFAULT_255_1_388
10
23.1693943
20
60.2764109
40
0.126719
50
92.6078949
51
106.199173
0
ARC
8
DEFAULT_255_1_388
10
23.1728133
20
60.2318207
40
0.1714243
50
89.9659531
51
93.0713334
0
ARC
8
DEFAULT_255_1_388
10
23.1740169
20
60.2568484
40
0.1464007
50
78.4379126
51
90.4311892
0
ARC
8
DEFAULT_255_1_388
10
23.1848816
20
60.3075017
40
0.094599
50
56.8961942
51
78.7357785
0
ARC
8
DEFAULT_255_1_388
10
23.1919927
20
60.3199075
40
0.0803272
50
42.6503148
51
56.3122241
0
ARC
8
DEFAULT_255_1_388
10
23.1775828
20
60.3066661
40
0.099897
50
3.8141057
51
42.636595
0
ARC
8
DEFAULT_255_1_388
10
23.145315
20
60.3021616
40
0.1324137
50
359.9498843
51
4.8301897
0
ARC
8
DEFAULT_255_1_388
10
23.1708288
20
60.3009722
40
0.1069053
50
340.9378148
51
0.5753733
0
ARC
8
DEFAULT_255_1_388
10
23.183487
20
60.2975569
40
0.0938301
50
316.0798885
51
340.3845117
0
ARC
8
DEFAULT_255_1_388
10
23.1900181
20
60.291552
40
0.0849605
50
285.8512844
51
315.941661
0
ARC
8
DEFAULT_255_1_388
10
23.1768062
20
60.334262
40
0.1296594
50
273.1293204
51
286.3125006
0
ARC
8
DEFAULT_255_1_388
10
23.1730571
20
60.3794586
40
0.1749979
50
269.9535313
51
273.5471598
0
ARC
8
DEFAULT_255_1_388
10
23.1718177
20
60.3548833
40
0.1504266
50
259.0487117
51
270.4180248
0
ARC
8
DEFAULT_255_1_388
10
23.160979
20
60.3011783
40
0.0956414
50
239.7583641
51
259.3115656
0
ARC
8
DEFAULT_255_1_388
10
23.1518722
20
60.2842048
40
0.0763945
50
222.6243303
51
239.2473835
0
ARC
8
DEFAULT_255_1_388
10
23.1669893
20
60.2980572
40
0.0968985
50
182.9231258
51
222.598101
0
ARC
8
DEFAULT_255_1_388
10
23.1973093
20
60.3019696
40
0.1274004
50
179.9657458
51
183.9850364
0
LINE
8
DEFAULT_255_1_388
10
24.3611024
20
60.992369
11
24.3611024
21
60.7755135
0
LINE
8
DEFAULT_255_1_388
10
23.5307267
20
60.7529244
11
23.5307267
21
60.9761048
0
LINE
8
DEFAULT_255_1_388
10
24.193943
20
60.7303353
11
24.193943
21
61.0041153
0
LINE
8
DEFAULT_255_1_388
10
23.6978861
20
61.0167652
11
23.6978861
21
60.7493102
0
ARC
8
DEFAULT_255_1_388
10
22.9833358
20
60.7700118
40
1.3777776
50
353.8440855
51
0.2287917
0
ARC
8
DEFAULT_255_1_388
10
23.5052376
20
60.7117414
40
0.852639
50
344.4934746
51
353.9763743
0
ARC
8
DEFAULT_255_1_388
10
23.8419183
20
60.6160191
40
0.5026273
50
329.2803599
51
344.7473406
0
ARC
8
DEFAULT_255_1_388
10
23.9534679
20
60.5548038
40
0.3754848
50
324.9361395
51
328.6153007
0
ARC
8
DEFAULT_255_1_388
10
23.9960328
20
60.5250586
40
0.3235566
50
280.5801797
51
324.9173226
0
ARC
8
DEFAULT_255_1_388
10
23.9508957
20
60.7130236
40
0.5167077
50
269.5979457
51
281.6732777
0
ARC
8
DEFAULT_255_1_388
10
23.9427861
20
60.6995113
40
0.5032026
50
256.6228565
51
270.5105488
0
ARC
8
DEFAULT_255_1_388
10
23.8975603
20
60.5253345
40
0.3233092
50
215.8618351
51
257.2787793
0
ARC
8
DEFAULT_255_1_388
10
24.012431
20
60.6024106
40
0.4615831
50
197.9695203
51
215.2622745
0
ARC
8
DEFAULT_255_1_388
10
24.2919986
20
60.6967641
40
0.7566307
50
187.8816486
51
198.2346584
0
ARC
8
DEFAULT_255_1_388
10
24.7373224
20
60.7610453
40
1.2065653
50
180.8977266
51
188.0054894
0
ARC
8
DEFAULT_255_1_388
10
25.0423438
20
60.77254
40
1.5117443
50
180.7434591
51
181.152202
0
ARC
8
DEFAULT_255_1_388
10
24.8748434
20
60.9815371
40
1.3441277
50
173.7674302
51
180.2315596
0
ARC
8
DEFAULT_255_1_388
10
24.3666303
20
61.0389779
40
0.8326847
50
164.3058537
51
173.9000553
0
ARC
8
DEFAULT_255_1_388
10
24.0390303
20
61.1333652
40
0.4917711
50
148.7922028
51
164.5682288
0
ARC
8
DEFAULT_255_1_388
10
23.932104
20
61.1930457
40
0.3694204
50
144.5883979
51
148.1161588
0
ARC
8
DEFAULT_255_1_388
10
23.8933786
20
61.2200667
40
0.322202
50
101.6440149
51
144.5142619
0
ARC
8
DEFAULT_255_1_388
10
23.9411978
20
61.0300337
40
0.5180451
50
89.528284
51
102.5820197
0
ARC
8
DEFAULT_255_1_388
10
23.950097
20
61.0256376
40
0.5224441
50
77.0437914
51
90.508231
0
ARC
8
DEFAULT_255_1_388
10
23.9953223
20
61.2104272
40
0.3322297
50
48.2777708
51
77.4996087
0
ARC
8
DEFAULT_255_1_388
10
24.0034963
20
61.2249557
40
0.315966
50
36.3141586
51
47.6307332
0
ARC
8
DEFAULT_255_1_388
10
23.9057686
20
61.1591159
40
0.4337313
50
18.2931065
51
35.6770203
0
ARC
8
DEFAULT_255_1_388
10
23.6196526
20
61.0609107
40
0.7362203
50
8.0246996
51
18.5605636
0
ARC
8
DEFAULT_255_1_388
10
23.1512882
20
60.9917432
40
1.2096583
50
1.127539
51
8.1718423
0
ARC
8
DEFAULT_255_1_388
10
22.7864015
20
60.9774374
40
1.5747719
50
0.5432713
51
1.38669
0
ARC
8
DEFAULT_255_1_388
10
22.9921394
20
61.0081163
40
1.2018103
50
359.8092569
51
4.9408001
0
ARC
8
DEFAULT_255_1_388
10
23.4657975
20
61.05039
40
0.7262727
50
4.8364937
51
12.2906017
0
ARC
8
DEFAULT_255_1_388
10
23.775744
20
61.1194485
40
0.4087324
50
12.0806994
51
23.8171225
0
ARC
8
DEFAULT_255_1_388
10
23.9077836
20
61.1753508
40
0.2653719
50
24.2874621
51
31.3934353
0
ARC
8
DEFAULT_255_1_388
10
23.9668272
20
61.2139822
40
0.1948607
50
30.7407708
51
82.4658033
0
ARC
8
DEFAULT_255_1_388
10
23.9465933
20
61.1146017
40
0.2961198
50
81.1057101
51
90.2187368
0
ARC
8
DEFAULT_255_1_388
10
23.9425745
20
61.1436421
40
0.2670929
50
89.380395
51
105.6763916
0
ARC
8
DEFAULT_255_1_388
10
23.9219467
20
61.218632
40
0.1893189
50
105.7980655
51
149.7387869
0
ARC
8
DEFAULT_255_1_388
10
24.0416607
20
61.1466719
40
0.3289892
50
149.4208441
51
163.628295
0
ARC
8
DEFAULT_255_1_388
10
24.2768836
20
61.0749345
40
0.5749004
50
163.3764549
51
172.141138
0
ARC
8
DEFAULT_255_1_388
10
24.6481558
20
61.0217582
40
0.9499585
50
172.0258462
51
178.0705453
0
ARC
8
DEFAULT_255_1_388
10
24.9903111
20
61.0055682
40
1.2924734
50
177.8639301
51
179.5036263
0
ARC
8
DEFAULT_255_1_388
10
24.8684129
20
60.7452151
40
1.170534
50
179.7995545
51
185.246089
0
ARC
8
DEFAULT_255_1_388
10
24.4135722
20
60.7021404
40
0.7136613
50
185.1411911
51
193.0082205
0
ARC
8
DEFAULT_255_1_388
10
24.1161983
20
60.6318441
40
0.4080987
50
192.7897338
51
205.2507384
0
ARC
8
DEFAULT_255_1_388
10
23.9984193
20
60.5792538
40
0.2791522
50
205.8001921
51
211.2545876
0
ARC
8
DEFAULT_255_1_388
10
23.9395732
20
60.5398132
40
0.2084074
50
210.3789935
51
238.4007996
0
ARC
8
DEFAULT_255_1_388
10
23.9373818
20
60.5450786
40
0.2117943
50
239.6521916
51
265.9793852
0
ARC
8
DEFAULT_255_1_388
10
23.9469667
20
60.6207358
40
0.2879689
50
265.1324455
51
270.0603288
0
ARC
8
DEFAULT_255_1_388
10
23.9502044
20
60.5842418
40
0.2514919
50
269.3314378
51
287.2180039
0
ARC
8
DEFAULT_255_1_388
10
23.9657126
20
60.5276291
40
0.1928357
50
287.7957942
51
329.0808983
0
ARC
8
DEFAULT_255_1_388
10
23.8579883
20
60.5948651
40
0.319808
50
328.6635261
51
343.3325043
0
ARC
8
DEFAULT_255_1_388
10
23.6135342
20
60.6710195
40
0.5758408
50
343.0498092
51
351.9392499
0
ARC
8
DEFAULT_255_1_388
10
23.2234664
20
60.7285205
40
0.9701202
50
351.8071632
51
357.7957897
0
ARC
8
DEFAULT_255_1_388
10
22.8600141
20
60.7473724
40
1.3340376
50
357.5870923
51
359.2682493
0
LINE
8
DEFAULT_255_1_388
10
22.8365716
20
68.1519
11
22.6612801
21
68.1519
0
LINE
8
DEFAULT_255_1_388
10
22.4724351
20
68.7446383
11
22.6350767
21
68.7446383
0
LINE
8
DEFAULT_255_1_388
10
22.6350767
20
68.7446383
11
22.6350767
21
68.8214413
0
LINE
8
DEFAULT_255_1_388
10
22.2176299
20
68.8584874
11
22.0495669
21
68.8584874
0
LINE
8
DEFAULT_255_1_388
10
22.8022361
20
68.8304769
11
22.8022361
21
68.3805018
0
LINE
8
DEFAULT_255_1_388
10
22.8365716
20
68.166357
11
22.8365716
21
68.1519
0
LINE
8
DEFAULT_255_1_388
10
22.6350767
20
68.42568
11
22.6350767
21
68.6262713
0
LINE
8
DEFAULT_255_1_388
10
22.6350767
20
68.6262713
11
22.5040599
21
68.6262713
0
ARC
8
DEFAULT_255_1_388
10
22.778195
20
68.20861
40
0.1299428
50
197.0784902
51
205.8758668
0
ARC
8
DEFAULT_255_1_388
10
22.9176536
20
68.2527959
40
0.2762313
50
192.2927663
51
197.3441989
0
ARC
8
DEFAULT_255_1_388
10
23.1372042
20
68.301576
40
0.5011345
50
189.1573793
51
192.3977084
0
ARC
8
DEFAULT_255_1_388
10
23.4536888
20
68.3531878
40
0.8217995
50
186.8686098
51
189.1982636
0
ARC
8
DEFAULT_255_1_388
10
22.3481979
20
68.527226
40
0.3975173
50
294.0079259
51
316.7603918
0
ARC
8
DEFAULT_255_1_388
10
22.3627162
20
68.5067902
40
0.3729755
50
269.5043226
51
293.2478373
0
ARC
8
DEFAULT_255_1_388
10
22.3560214
20
68.5518915
40
0.4180772
50
255.4034155
51
270.4753052
0
ARC
8
DEFAULT_255_1_388
10
22.3301427
20
68.4514652
40
0.3143705
50
228.6141063
51
255.3550831
0
ARC
8
DEFAULT_255_1_388
10
22.2927409
20
68.415654
40
0.2628114
50
181.8954381
51
229.5703134
0
ARC
8
DEFAULT_255_1_388
10
22.3592345
20
68.4228824
40
0.329546
50
179.9848815
51
182.7691528
0
ARC
8
DEFAULT_255_1_388
10
22.3499411
20
68.4267827
40
0.3202753
50
161.0342928
51
180.6822077
0
ARC
8
DEFAULT_255_1_388
10
22.3005026
20
68.4396422
40
0.2693695
50
125.0525065
51
160.2034058
0
ARC
8
DEFAULT_255_1_388
10
22.3749748
20
68.3380275
40
0.3953338
50
106.2670809
51
125.4300189
0
ARC
8
DEFAULT_255_1_388
10
22.4393789
20
68.1275795
40
0.6154041
50
95.4857579
51
106.5348562
0
ARC
8
DEFAULT_255_1_388
10
22.4701077
20
67.8463993
40
0.8982419
50
89.8515405
51
95.7222579
0
ARC
8
DEFAULT_255_1_388
10
22.3981658
20
68.8234925
40
0.2369198
50
359.5039339
51
14.3181205
0
ARC
8
DEFAULT_255_1_388
10
22.4627662
20
68.8402862
40
0.170173
50
14.2184556
51
45.2028524
0
ARC
8
DEFAULT_255_1_388
10
22.4668358
20
68.8418862
40
0.1661795
50
45.8098216
51
73.0032926
0
ARC
8
DEFAULT_255_1_388
10
22.4388185
20
68.756226
40
0.2562942
50
72.6112517
51
85.7231489
0
ARC
8
DEFAULT_255_1_388
10
22.4286969
20
68.6535339
40
0.3594635
50
85.335019
51
90.0855069
0
ARC
8
DEFAULT_255_1_388
10
22.4260402
20
68.7199472
40
0.2930574
50
89.5854741
51
103.459124
0
ARC
8
DEFAULT_255_1_388
10
22.4088941
20
68.7914134
40
0.2195632
50
103.448332
51
126.5403399
0
ARC
8
DEFAULT_255_1_388
10
22.3819918
20
68.8258224
40
0.1759039
50
126.1730306
51
141.5008224
0
ARC
8
DEFAULT_255_1_388
10
22.3394233
20
68.8592266
40
0.1217955
50
141.3332087
51
180.3477313
0
ARC
8
DEFAULT_255_1_388
10
22.2635656
20
68.8572904
40
0.214002
50
151.6373605
51
179.6795088
0
ARC
8
DEFAULT_255_1_388
10
22.3312892
20
68.8235768
40
0.2896224
50
142.4981529
51
152.1330509
0
ARC
8
DEFAULT_255_1_388
10
22.3670896
20
68.7954781
40
0.3351307
50
120.8284906
51
142.4132156
0
ARC
8
DEFAULT_255_1_388
10
22.4138872
20
68.7222185
40
0.4220297
50
113.9634885
51
121.1871733
0
ARC
8
DEFAULT_255_1_388
10
22.4292181
20
68.6848705
40
0.4623867
50
93.3784336
51
113.8197902
0
ARC
8
DEFAULT_255_1_388
10
22.4378563
20
68.5987549
40
0.5488732
50
89.9745993
51
93.7488475
0
ARC
8
DEFAULT_255_1_388
10
22.4417809
20
68.6028587
40
0.5447818
50
79.1327128
51
90.3871707
0
ARC
8
DEFAULT_255_1_388
10
22.4783573
20
68.7856597
40
0.3583662
50
60.1434453
51
79.365517
0
ARC
8
DEFAULT_255_1_388
10
22.5072339
20
68.8411195
40
0.2959028
50
48.6191018
51
59.6466565
0
ARC
8
DEFAULT_255_1_388
10
22.5126051
20
68.8482356
40
0.2870136
50
9.0349502
51
48.4845487
0
ARC
8
DEFAULT_255_1_388
10
22.391535
20
68.8218084
40
0.4107927
50
1.2091359
51
10.0234369
0
ARC
8
DEFAULT_255_1_388
10
23.6612798
20
68.3777422
40
0.8590481
50
179.8159449
51
185.3205667
0
ARC
8
DEFAULT_255_1_388
10
23.3580643
20
68.3487945
40
0.5544553
50
185.2475628
51
192.7952551
0
ARC
8
DEFAULT_255_1_388
10
23.1598467
20
68.3033024
40
0.3510853
50
192.7195981
51
202.9584216
0
ARC
8
DEFAULT_255_1_388
10
22.3838503
20
68.5730895
40
0.2937869
50
270.006916
51
300.503478
0
ARC
8
DEFAULT_255_1_388
10
22.3976438
20
68.5586888
40
0.2744162
50
299.5482616
51
315.609538
0
ARC
8
DEFAULT_255_1_388
10
22.4302734
20
68.5253072
40
0.2277499
50
315.8682065
51
334.0592465
0
ARC
8
DEFAULT_255_1_388
10
22.4991708
20
67.84169
40
0.7845965
50
89.64297
51
97.2867877
0
ARC
8
DEFAULT_255_1_388
10
22.4495305
20
68.2133936
40
0.4096042
50
96.9938706
51
109.7783917
0
ARC
8
DEFAULT_255_1_388
10
22.3746768
20
68.4137851
40
0.1957225
50
109.0087985
51
135.3265591
0
ARC
8
DEFAULT_255_1_388
10
22.3439187
20
68.4518764
40
0.1471704
50
137.4537784
51
182.1083946
0
ARC
8
DEFAULT_255_1_388
10
22.3859887
20
68.4446101
40
0.1891498
50
179.4390335
51
195.7201623
0
ARC
8
DEFAULT_255_1_388
10
22.3396922
20
68.4319585
40
0.1411576
50
195.8683556
51
230.157074
0
ARC
8
DEFAULT_255_1_388
10
22.3669645
20
68.4646228
40
0.1837102
50
230.1532486
51
259.7486257
0
ARC
8
DEFAULT_255_1_388
10
22.3825687
20
68.5381472
40
0.258848
50
259.2461118
51
270.2915316
0
ARC
8
DEFAULT_255_1_388
10
23.1882855
20
68.2406142
40
0.1204062
50
163.5412609
51
180.5084512
0
ARC
8
DEFAULT_255_1_388
10
23.1666754
20
68.246446
40
0.0980307
50
138.1652
51
163.2315563
0
ARC
8
DEFAULT_255_1_388
10
23.1540495
20
68.2571456
40
0.0814881
50
105.6860499
51
137.8492655
0
ARC
8
DEFAULT_255_1_388
10
23.1673696
20
68.2139109
40
0.126719
50
92.6078949
51
106.199173
0
ARC
8
DEFAULT_255_1_388
10
23.1707886
20
68.1693207
40
0.1714243
50
89.9659531
51
93.0713334
0
ARC
8
DEFAULT_255_1_388
10
23.1719922
20
68.1943484
40
0.1464007
50
78.4379126
51
90.4311892
0
ARC
8
DEFAULT_255_1_388
10
23.1828569
20
68.2450017
40
0.094599
50
56.8961942
51
78.7357785
0
ARC
8
DEFAULT_255_1_388
10
23.1899679
20
68.2574075
40
0.0803272
50
42.6503148
51
56.3122241
0
ARC
8
DEFAULT_255_1_388
10
23.1755581
20
68.2441661
40
0.099897
50
3.8141057
51
42.636595
0
ARC
8
DEFAULT_255_1_388
10
23.1432903
20
68.2396616
40
0.1324137
50
359.9498843
51
4.8301897
0
ARC
8
DEFAULT_255_1_388
10
23.168804
20
68.2384722
40
0.1069053
50
340.9378148
51
0.5753733
0
ARC
8
DEFAULT_255_1_388
10
23.1814623
20
68.2350569
40
0.0938301
50
316.0798885
51
340.3845117
0
ARC
8
DEFAULT_255_1_388
10
23.1879934
20
68.229052
40
0.0849605
50
285.8512844
51
315.941661
0
ARC
8
DEFAULT_255_1_388
10
23.1747814
20
68.271762
40
0.1296594
50
273.1293204
51
286.3125006
0
ARC
8
DEFAULT_255_1_388
10
23.1710324
20
68.3169586
40
0.1749979
50
269.9535313
51
273.5471598
0
ARC
8
DEFAULT_255_1_388
10
23.1697929
20
68.2923833
40
0.1504266
50
259.0487117
51
270.4180248
0
ARC
8
DEFAULT_255_1_388
10
23.1589542
20
68.2386783
40
0.0956414
50
239.7583641
51
259.3115656
0
ARC
8
DEFAULT_255_1_388
10
23.1498475
20
68.2217048
40
0.0763945
50
222.6243303
51
239.2473835
0
ARC
8
DEFAULT_255_1_388
10
23.1649646
20
68.2355572
40
0.0968985
50
182.9231258
51
222.598101
0
ARC
8
DEFAULT_255_1_388
10
23.1952845
20
68.2394696
40
0.1274004
50
179.9657458
51
183.9850364
0
LINE
8
DEFAULT_255_1_388
10
24.3834739
20
69.4674898
11
24.3834739
21
69.3735191
0
LINE
8
DEFAULT_255_1_388
10
24.3834739
20
69.3735191
11
23.8386246
21
68.1519
0
LINE
8
DEFAULT_255_1_388
10
23.8386246
20
68.1519
11
23.6633331
21
68.1519
0
LINE
8
DEFAULT_255_1_388
10
23.6633331
20
68.1519
11
24.2063753
21
69.330148
0
LINE
8
DEFAULT_255_1_388
10
24.2063753
20
69.330148
11
23.4943665
21
69.330148
0
LINE
8
DEFAULT_255_1_388
10
23.4943665
20
69.330148
11
23.4943665
21
69.4674898
0
LINE
8
DEFAULT_255_1_388
10
23.4943665
20
69.4674898
11
24.3834739
21
69.4674898
0
LINE
8
DEFAULT_255_1_388
10
22.8365716
20
76.0894
11
22.6612801
21
76.0894
0
LINE
8
DEFAULT_255_1_388
10
22.4724351
20
76.6821383
11
22.6350767
21
76.6821383
0
LINE
8
DEFAULT_255_1_388
10
22.6350767
20
76.6821383
11
22.6350767
21
76.7589413
0
LINE
8
DEFAULT_255_1_388
10
22.2176299
20
76.7959874
11
22.0495669
21
76.7959874
0
LINE
8
DEFAULT_255_1_388
10
22.8022361
20
76.7679769
11
22.8022361
21
76.3180018
0
LINE
8
DEFAULT_255_1_388
10
22.8365716
20
76.103857
11
22.8365716
21
76.0894
0
LINE
8
DEFAULT_255_1_388
10
22.6350767
20
76.36318
11
22.6350767
21
76.5637713
0
LINE
8
DEFAULT_255_1_388
10
22.6350767
20
76.5637713
11
22.5040599
21
76.5637713
0
ARC
8
DEFAULT_255_1_388
10
22.778195
20
76.14611
40
0.1299428
50
197.0784902
51
205.8758668
0
ARC
8
DEFAULT_255_1_388
10
22.9176536
20
76.1902959
40
0.2762313
50
192.2927663
51
197.3441989
0
ARC
8
DEFAULT_255_1_388
10
23.1372042
20
76.239076
40
0.5011345
50
189.1573793
51
192.3977084
0
ARC
8
DEFAULT_255_1_388
10
23.4536888
20
76.2906878
40
0.8217995
50
186.8686098
51
189.1982636
0
ARC
8
DEFAULT_255_1_388
10
22.3481979
20
76.464726
40
0.3975173
50
294.0079259
51
316.7603918
0
ARC
8
DEFAULT_255_1_388
10
22.3627162
20
76.4442902
40
0.3729755
50
269.5043226
51
293.2478373
0
ARC
8
DEFAULT_255_1_388
10
22.3560214
20
76.4893915
40
0.4180772
50
255.4034155
51
270.4753052
0
ARC
8
DEFAULT_255_1_388
10
22.3301427
20
76.3889652
40
0.3143705
50
228.6141063
51
255.3550831
0
ARC
8
DEFAULT_255_1_388
10
22.2927409
20
76.353154
40
0.2628114
50
181.8954381
51
229.5703134
0
ARC
8
DEFAULT_255_1_388
10
22.3592345
20
76.3603824
40
0.329546
50
179.9848815
51
182.7691528
0
ARC
8
DEFAULT_255_1_388
10
22.3499411
20
76.3642827
40
0.3202753
50
161.0342928
51
180.6822077
0
ARC
8
DEFAULT_255_1_388
10
22.3005026
20
76.3771422
40
0.2693695
50
125.0525065
51
160.2034058
0
ARC
8
DEFAULT_255_1_388
10
22.3749748
20
76.2755275
40
0.3953338
50
106.2670809
51
125.4300189
0
ARC
8
DEFAULT_255_1_388
10
22.4393789
20
76.0650795
40
0.6154041
50
95.4857579
51
106.5348562
0
ARC
8
DEFAULT_255_1_388
10
22.4701077
20
75.7838993
40
0.8982419
50
89.8515405
51
95.7222579
0
ARC
8
DEFAULT_255_1_388
10
22.3981658
20
76.7609925
40
0.2369198
50
359.5039339
51
14.3181205
0
ARC
8
DEFAULT_255_1_388
10
22.4627662
20
76.7777862
40
0.170173
50
14.2184556
51
45.2028524
0
ARC
8
DEFAULT_255_1_388
10
22.4668358
20
76.7793862
40
0.1661795
50
45.8098216
51
73.0032926
0
ARC
8
DEFAULT_255_1_388
10
22.4388185
20
76.693726
40
0.2562942
50
72.6112517
51
85.7231489
0
ARC
8
DEFAULT_255_1_388
10
22.4286969
20
76.5910339
40
0.3594635
50
85.335019
51
90.0855069
0
ARC
8
DEFAULT_255_1_388
10
22.4260402
20
76.6574472
40
0.2930574
50
89.5854741
51
103.459124
0
ARC
8
DEFAULT_255_1_388
10
22.4088941
20
76.7289134
40
0.2195632
50
103.448332
51
126.5403399
0
ARC
8
DEFAULT_255_1_388
10
22.3819918
20
76.7633224
40
0.1759039
50
126.1730306
51
141.5008224
0
ARC
8
DEFAULT_255_1_388
10
22.3394233
20
76.7967266
40
0.1217955
50
141.3332087
51
180.3477313
0
ARC
8
DEFAULT_255_1_388
10
22.2635656
20
76.7947904
40
0.214002
50
151.6373605
51
179.6795088
0
ARC
8
DEFAULT_255_1_388
10
22.3312892
20
76.7610768
40
0.2896224
50
142.4981529
51
152.1330509
0
ARC
8
DEFAULT_255_1_388
10
22.3670896
20
76.7329781
40
0.3351307
50
120.8284906
51
142.4132156
0
ARC
8
DEFAULT_255_1_388
10
22.4138872
20
76.6597185
40
0.4220297
50
113.9634885
51
121.1871733
0
ARC
8
DEFAULT_255_1_388
10
22.4292181
20
76.6223705
40
0.4623867
50
93.3784336
51
113.8197902
0
ARC
8
DEFAULT_255_1_388
10
22.4378563
20
76.5362549
40
0.5488732
50
89.9745993
51
93.7488475
0
ARC
8
DEFAULT_255_1_388
10
22.4417809
20
76.5403587
40
0.5447818
50
79.1327128
51
90.3871707
0
ARC
8
DEFAULT_255_1_388
10
22.4783573
20
76.7231597
40
0.3583662
50
60.1434453
51
79.365517
0
ARC
8
DEFAULT_255_1_388
10
22.5072339
20
76.7786195
40
0.2959028
50
48.6191018
51
59.6466565
0
ARC
8
DEFAULT_255_1_388
10
22.5126051
20
76.7857356
40
0.2870136
50
9.0349502
51
48.4845487
0
ARC
8
DEFAULT_255_1_388
10
22.391535
20
76.7593084
40
0.4107927
50
1.2091359
51
10.0234369
0
ARC
8
DEFAULT_255_1_388
10
23.6612798
20
76.3152422
40
0.8590481
50
179.8159449
51
185.3205667
0
ARC
8
DEFAULT_255_1_388
10
23.3580643
20
76.2862945
40
0.5544553
50
185.2475628
51
192.7952551
0
ARC
8
DEFAULT_255_1_388
10
23.1598467
20
76.2408024
40
0.3510853
50
192.7195981
51
202.9584216
0
ARC
8
DEFAULT_255_1_388
10
22.3838503
20
76.5105895
40
0.2937869
50
270.006916
51
300.503478
0
ARC
8
DEFAULT_255_1_388
10
22.3976438
20
76.4961888
40
0.2744162
50
299.5482616
51
315.609538
0
ARC
8
DEFAULT_255_1_388
10
22.4302734
20
76.4628072
40
0.2277499
50
315.8682065
51
334.0592465
0
ARC
8
DEFAULT_255_1_388
10
22.4991708
20
75.77919
40
0.7845965
50
89.64297
51
97.2867877
0
ARC
8
DEFAULT_255_1_388
10
22.4495305
20
76.1508936
40
0.4096042
50
96.9938706
51
109.7783917
0
ARC
8
DEFAULT_255_1_388
10
22.3746768
20
76.3512851
40
0.1957225
50
109.0087985
51
135.3265591
0
ARC
8
DEFAULT_255_1_388
10
22.3439187
20
76.3893764
40
0.1471704
50
137.4537784
51
182.1083946
0
ARC
8
DEFAULT_255_1_388
10
22.3859887
20
76.3821101
40
0.1891498
50
179.4390335
51
195.7201623
0
ARC
8
DEFAULT_255_1_388
10
22.3396922
20
76.3694585
40
0.1411576
50
195.8683556
51
230.157074
0
ARC
8
DEFAULT_255_1_388
10
22.3669645
20
76.4021228
40
0.1837102
50
230.1532486
51
259.7486257
0
ARC
8
DEFAULT_255_1_388
10
22.3825687
20
76.4756472
40
0.258848
50
259.2461118
51
270.2915316
0
ARC
8
DEFAULT_255_1_388
10
23.1882855
20
76.1781142
40
0.1204062
50
163.5412609
51
180.5084512
0
ARC
8
DEFAULT_255_1_388
10
23.1666754
20
76.183946
40
0.0980307
50
138.1652
51
163.2315563
0
ARC
8
DEFAULT_255_1_388
10
23.1540495
20
76.1946456
40
0.0814881
50
105.6860499
51
137.8492655
0
ARC
8
DEFAULT_255_1_388
10
23.1673696
20
76.1514109
40
0.126719
50
92.6078949
51
106.199173
0
ARC
8
DEFAULT_255_1_388
10
23.1707886
20
76.1068207
40
0.1714243
50
89.9659531
51
93.0713334
0
ARC
8
DEFAULT_255_1_388
10
23.1719922
20
76.1318484
40
0.1464007
50
78.4379126
51
90.4311892
0
ARC
8
DEFAULT_255_1_388
10
23.1828569
20
76.1825017
40
0.094599
50
56.8961942
51
78.7357785
0
ARC
8
DEFAULT_255_1_388
10
23.1899679
20
76.1949075
40
0.0803272
50
42.6503148
51
56.3122241
0
ARC
8
DEFAULT_255_1_388
10
23.1755581
20
76.1816661
40
0.099897
50
3.8141057
51
42.636595
0
ARC
8
DEFAULT_255_1_388
10
23.1432903
20
76.1771616
40
0.1324137
50
359.9498843
51
4.8301897
0
ARC
8
DEFAULT_255_1_388
10
23.168804
20
76.1759722
40
0.1069053
50
340.9378148
51
0.5753733
0
ARC
8
DEFAULT_255_1_388
10
23.1814623
20
76.1725569
40
0.0938301
50
316.0798885
51
340.3845117
0
ARC
8
DEFAULT_255_1_388
10
23.1879934
20
76.166552
40
0.0849605
50
285.8512844
51
315.941661
0
ARC
8
DEFAULT_255_1_388
10
23.1747814
20
76.209262
40
0.1296594
50
273.1293204
51
286.3125006
0
ARC
8
DEFAULT_255_1_388
10
23.1710324
20
76.2544586
40
0.1749979
50
269.9535313
51
273.5471598
0
ARC
8
DEFAULT_255_1_388
10
23.1697929
20
76.2298833
40
0.1504266
50
259.0487117
51
270.4180248
0
ARC
8
DEFAULT_255_1_388
10
23.1589542
20
76.1761783
40
0.0956414
50
239.7583641
51
259.3115656
0
ARC
8
DEFAULT_255_1_388
10
23.1498475
20
76.1592048
40
0.0763945
50
222.6243303
51
239.2473835
0
ARC
8
DEFAULT_255_1_388
10
23.1649646
20
76.1730572
40
0.0968985
50
182.9231258
51
222.598101
0
ARC
8
DEFAULT_255_1_388
10
23.1952845
20
76.1769696
40
0.1274004
50
179.9657458
51
183.9850364
0
LINE
8
DEFAULT_255_1_388
10
24.1602935
20
77.4058934
11
24.1901111
21
77.4058934
0
LINE
8
DEFAULT_255_1_388
10
24.1901111
20
77.4058934
11
24.1901111
21
77.2640338
0
LINE
8
DEFAULT_255_1_388
10
24.1901111
20
77.2640338
11
24.1593899
21
77.2640338
0
LINE
8
DEFAULT_255_1_388
10
23.5440625
20
76.5899747
11
23.5440625
21
76.6541278
0
LINE
8
DEFAULT_255_1_388
10
23.7121255
20
76.6324422
11
23.7121255
21
76.5709999
0
ARC
8
DEFAULT_255_1_388
10
24.1652791
20
76.7017826
40
0.562282
50
90.6001079
51
104.5146616
0
ARC
8
DEFAULT_255_1_388
10
24.121575
20
76.86431
40
0.3939917
50
104.2855758
51
133.8630124
0
ARC
8
DEFAULT_255_1_388
10
24.1400003
20
76.8521243
40
0.4155734
50
134.5304124
51
161.6210222
0
ARC
8
DEFAULT_255_1_388
10
24.3259935
20
76.7865421
40
0.6127682
50
161.2850533
51
174.2074364
0
ARC
8
DEFAULT_255_1_388
10
24.4849502
20
76.7646437
40
0.7731446
50
173.7817938
51
174.9251711
0
ARC
8
DEFAULT_255_1_388
10
23.9723696
20
76.609127
40
0.3412588
50
95.8332067
51
138.995412
0
ARC
8
DEFAULT_255_1_388
10
23.9974976
20
76.4652695
40
0.4870358
50
89.8755506
51
97.0540979
0
ARC
8
DEFAULT_255_1_388
10
24.0028365
20
76.5592841
40
0.3930432
50
71.6407016
51
90.6240821
0
ARC
8
DEFAULT_255_1_388
10
24.0197759
20
76.6216433
40
0.3285421
50
39.6368051
51
71.0190743
0
ARC
8
DEFAULT_255_1_388
10
23.9481666
20
76.5597586
40
0.4231706
50
10.6588054
51
39.9044509
0
ARC
8
DEFAULT_255_1_388
10
23.7740212
20
76.5219223
40
0.60133
50
359.6827842
51
11.1326896
0
ARC
8
DEFAULT_255_1_388
10
23.7695548
20
76.5139715
40
0.6058047
50
347.2485908
51
0.4371098
0
ARC
8
DEFAULT_255_1_388
10
23.9571333
20
76.4688379
40
0.4128987
50
318.1408565
51
347.6118497
0
ARC
8
DEFAULT_255_1_388
10
23.993693
20
76.4387903
40
0.3656244
50
275.6342406
51
317.824739
0
ARC
8
DEFAULT_255_1_388
10
23.9688451
20
76.5849827
40
0.513655
50
269.8872513
51
276.7916069
0
ARC
8
DEFAULT_255_1_388
10
23.9626643
20
76.4696181
40
0.398323
50
246.9139443
51
270.7436787
0
ARC
8
DEFAULT_255_1_388
10
23.9633839
20
76.4536044
40
0.3839368
50
218.1665534
51
245.8780431
0
ARC
8
DEFAULT_255_1_388
10
24.0623211
20
76.5363903
40
0.5128958
50
191.4115343
51
218.6077624
0
ARC
8
DEFAULT_255_1_388
10
24.2803528
20
76.5852777
40
0.7363054
50
179.6344971
51
191.7836758
0
ARC
8
DEFAULT_255_1_388
10
24.9083402
20
76.6616495
40
1.3642984
50
171.4523743
51
180.3158856
0
ARC
8
DEFAULT_255_1_388
10
24.4139129
20
76.7385895
40
0.8639311
50
157.9802296
51
171.6246761
0
ARC
8
DEFAULT_255_1_388
10
24.164848
20
76.8379038
40
0.5958004
50
141.4299236
51
157.8541251
0
ARC
8
DEFAULT_255_1_388
10
24.0926563
20
76.8889746
40
0.5075416
50
102.871586
51
140.8564533
0
ARC
8
DEFAULT_255_1_388
10
24.1655116
20
76.6144943
40
0.7914163
50
90.377773
51
103.5868422
0
ARC
8
DEFAULT_255_1_388
10
23.9699637
20
76.5464543
40
0.2667015
50
89.8751238
51
126.2072139
0
ARC
8
DEFAULT_255_1_388
10
23.9751108
20
76.5290847
40
0.2838229
50
124.9742447
51
144.8960197
0
ARC
8
DEFAULT_255_1_388
10
23.9553353
20
76.5451981
40
0.2583845
50
145.2974778
51
160.2660922
0
ARC
8
DEFAULT_255_1_388
10
24.3009841
20
76.5674151
40
0.5888695
50
179.6512124
51
190.285571
0
ARC
8
DEFAULT_255_1_388
10
24.1104321
20
76.5314968
40
0.3949683
50
190.0944895
51
207.5099647
0
ARC
8
DEFAULT_255_1_388
10
24.0467903
20
76.5012177
40
0.3245464
50
207.9585471
51
216.325377
0
ARC
8
DEFAULT_255_1_388
10
24.008554
20
76.4697712
40
0.2751259
50
215.7661336
51
232.5457193
0
ARC
8
DEFAULT_255_1_388
10
23.9654656
20
76.4150273
40
0.2054668
50
232.8005815
51
270.6605497
0
ARC
8
DEFAULT_255_1_388
10
23.970608
20
76.4559853
40
0.2464268
50
269.3550767
51
288.474612
0
ARC
8
DEFAULT_255_1_388
10
23.9810587
20
76.4166721
40
0.2058436
50
289.1831976
51
322.9685307
0
ARC
8
DEFAULT_255_1_388
10
23.9122689
20
76.4709279
40
0.2934408
50
322.6007085
51
346.5183319
0
ARC
8
DEFAULT_255_1_388
10
23.7820445
20
76.5041434
40
0.4278249
50
346.2584622
51
358.7739592
0
ARC
8
DEFAULT_255_1_388
10
23.666902
20
76.5103829
40
0.5430876
50
358.3757628
51
0.0082477
0
ARC
8
DEFAULT_255_1_388
10
23.7525838
20
76.5134856
40
0.4574157
50
359.6211417
51
11.28403
0
ARC
8
DEFAULT_255_1_388
10
23.8962445
20
76.5434535
40
0.3106708
50
11.0483152
51
31.8145585
0
ARC
8
DEFAULT_255_1_388
10
23.931015
20
76.5623045
40
0.2711963
50
32.3028554
51
38.0820598
0
ARC
8
DEFAULT_255_1_388
10
23.9783383
20
76.6051717
40
0.2075566
50
36.8249851
51
85.741667
0
ARC
8
DEFAULT_255_1_388
10
23.9707795
20
76.5488065
40
0.2643487
50
85.0150021
51
90.050843
0
LINE
8
DEFAULT_255_1_388
10
22.8365716
20
84.0269
11
22.6612801
21
84.0269
0
LINE
8
DEFAULT_255_1_388
10
22.4724351
20
84.6196383
11
22.6350767
21
84.6196383
0
LINE
8
DEFAULT_255_1_388
10
22.6350767
20
84.6196383
11
22.6350767
21
84.6964413
0
LINE
8
DEFAULT_255_1_388
10
22.2176299
20
84.7334874
11
22.0495669
21
84.7334874
0
LINE
8
DEFAULT_255_1_388
10
22.8022361
20
84.7054769
11
22.8022361
21
84.2555018
0
LINE
8
DEFAULT_255_1_388
10
22.8365716
20
84.041357
11
22.8365716
21
84.0269
0
LINE
8
DEFAULT_255_1_388
10
22.6350767
20
84.30068
11
22.6350767
21
84.5012713
0
LINE
8
DEFAULT_255_1_388
10
22.6350767
20
84.5012713
11
22.5040599
21
84.5012713
0
ARC
8
DEFAULT_255_1_388
10
22.778195
20
84.08361
40
0.1299428
50
197.0784902
51
205.8758668
0
ARC
8
DEFAULT_255_1_388
10
22.9176536
20
84.1277959
40
0.2762313
50
192.2927663
51
197.3441989
0
ARC
8
DEFAULT_255_1_388
10
23.1372042
20
84.176576
40
0.5011345
50
189.1573793
51
192.3977084
0
ARC
8
DEFAULT_255_1_388
10
23.4536888
20
84.2281878
40
0.8217995
50
186.8686098
51
189.1982636
0
ARC
8
DEFAULT_255_1_388
10
22.3481979
20
84.402226
40
0.3975173
50
294.0079259
51
316.7603918
0
ARC
8
DEFAULT_255_1_388
10
22.3627162
20
84.3817902
40
0.3729755
50
269.5043226
51
293.2478373
0
ARC
8
DEFAULT_255_1_388
10
22.3560214
20
84.4268915
40
0.4180772
50
255.4034155
51
270.4753052
0
ARC
8
DEFAULT_255_1_388
10
22.3301427
20
84.3264652
40
0.3143705
50
228.6141063
51
255.3550831
0
ARC
8
DEFAULT_255_1_388
10
22.2927409
20
84.290654
40
0.2628114
50
181.8954381
51
229.5703134
0
ARC
8
DEFAULT_255_1_388
10
22.3592345
20
84.2978824
40
0.329546
50
179.9848815
51
182.7691528
0
ARC
8
DEFAULT_255_1_388
10
22.3499411
20
84.3017827
40
0.3202753
50
161.0342928
51
180.6822077
0
ARC
8
DEFAULT_255_1_388
10
22.3005026
20
84.3146422
40
0.2693695
50
125.0525065
51
160.2034058
0
ARC
8
DEFAULT_255_1_388
10
22.3749748
20
84.2130275
40
0.3953338
50
106.2670809
51
125.4300189
0
ARC
8
DEFAULT_255_1_388
10
22.4393789
20
84.0025795
40
0.6154041
50
95.4857579
51
106.5348562
0
ARC
8
DEFAULT_255_1_388
10
22.4701077
20
83.7213993
40
0.8982419
50
89.8515405
51
95.7222579
0
ARC
8
DEFAULT_255_1_388
10
22.3981658
20
84.6984925
40
0.2369198
50
359.5039339
51
14.3181205
0
ARC
8
DEFAULT_255_1_388
10
22.4627662
20
84.7152862
40
0.170173
50
14.2184556
51
45.2028524
0
ARC
8
DEFAULT_255_1_388
10
22.4668358
20
84.7168862
40
0.1661795
50
45.8098216
51
73.0032926
0
ARC
8
DEFAULT_255_1_388
10
22.4388185
20
84.631226
40
0.2562942
50
72.6112517
51
85.7231489
0
ARC
8
DEFAULT_255_1_388
10
22.4286969
20
84.5285339
40
0.3594635
50
85.335019
51
90.0855069
0
ARC
8
DEFAULT_255_1_388
10
22.4260402
20
84.5949472
40
0.2930574
50
89.5854741
51
103.459124
0
ARC
8
DEFAULT_255_1_388
10
22.4088941
20
84.6664134
40
0.2195632
50
103.448332
51
126.5403399
0
ARC
8
DEFAULT_255_1_388
10
22.3819918
20
84.7008224
40
0.1759039
50
126.1730306
51
141.5008224
0
ARC
8
DEFAULT_255_1_388
10
22.3394233
20
84.7342266
40
0.1217955
50
141.3332087
51
180.3477313
0
ARC
8
DEFAULT_255_1_388
10
22.2635656
20
84.7322904
40
0.214002
50
151.6373605
51
179.6795088
0
ARC
8
DEFAULT_255_1_388
10
22.3312892
20
84.6985768
40
0.2896224
50
142.4981529
51
152.1330509
0
ARC
8
DEFAULT_255_1_388
10
22.3670896
20
84.6704781
40
0.3351307
50
120.8284906
51
142.4132156
0
ARC
8
DEFAULT_255_1_388
10
22.4138872
20
84.5972185
40
0.4220297
50
113.9634885
51
121.1871733
0
ARC
8
DEFAULT_255_1_388
10
22.4292181
20
84.5598705
40
0.4623867
50
93.3784336
51
113.8197902
0
ARC
8
DEFAULT_255_1_388
10
22.4378563
20
84.4737549
40
0.5488732
50
89.9745993
51
93.7488475
0
ARC
8
DEFAULT_255_1_388
10
22.4417809
20
84.4778587
40
0.5447818
50
79.1327128
51
90.3871707
0
ARC
8
DEFAULT_255_1_388
10
22.4783573
20
84.6606597
40
0.3583662
50
60.1434453
51
79.365517
0
ARC
8
DEFAULT_255_1_388
10
22.5072339
20
84.7161195
40
0.2959028
50
48.6191018
51
59.6466565
0
ARC
8
DEFAULT_255_1_388
10
22.5126051
20
84.7232356
40
0.2870136
50
9.0349502
51
48.4845487
0
ARC
8
DEFAULT_255_1_388
10
22.391535
20
84.6968084
40
0.4107927
50
1.2091359
51
10.0234369
0
ARC
8
DEFAULT_255_1_388
10
23.6612798
20
84.2527422
40
0.8590481
50
179.8159449
51
185.3205667
0
ARC
8
DEFAULT_255_1_388
10
23.3580643
20
84.2237945
40
0.5544553
50
185.2475628
51
192.7952551
0
ARC
8
DEFAULT_255_1_388
10
23.1598467
20
84.1783024
40
0.3510853
50
192.7195981
51
202.9584216
0
ARC
8
DEFAULT_255_1_388
10
22.3838503
20
84.4480895
40
0.2937869
50
270.006916
51
300.503478
0
ARC
8
DEFAULT_255_1_388
10
22.3976438
20
84.4336888
40
0.2744162
50
299.5482616
51
315.609538
0
ARC
8
DEFAULT_255_1_388
10
22.4302734
20
84.4003072
40
0.2277499
50
315.8682065
51
334.0592465
0
ARC
8
DEFAULT_255_1_388
10
22.4991708
20
83.71669
40
0.7845965
50
89.64297
51
97.2867877
0
ARC
8
DEFAULT_255_1_388
10
22.4495305
20
84.0883936
40
0.4096042
50
96.9938706
51
109.7783917
0
ARC
8
DEFAULT_255_1_388
10
22.3746768
20
84.2887851
40
0.1957225
50
109.0087985
51
135.3265591
0
ARC
8
DEFAULT_255_1_388
10
22.3439187
20
84.3268764
40
0.1471704
50
137.4537784
51
182.1083946
0
ARC
8
DEFAULT_255_1_388
10
22.3859887
20
84.3196101
40
0.1891498
50
179.4390335
51
195.7201623
0
ARC
8
DEFAULT_255_1_388
10
22.3396922
20
84.3069585
40
0.1411576
50
195.8683556
51
230.157074
0
ARC
8
DEFAULT_255_1_388
10
22.3669645
20
84.3396228
40
0.1837102
50
230.1532486
51
259.7486257
0
ARC
8
DEFAULT_255_1_388
10
22.3825687
20
84.4131472
40
0.258848
50
259.2461118
51
270.2915316
0
ARC
8
DEFAULT_255_1_388
10
23.1882855
20
84.1156142
40
0.1204062
50
163.5412609
51
180.5084512
0
ARC
8
DEFAULT_255_1_388
10
23.1666754
20
84.121446
40
0.0980307
50
138.1652
51
163.2315563
0
ARC
8
DEFAULT_255_1_388
10
23.1540495
20
84.1321456
40
0.0814881
50
105.6860499
51
137.8492655
0
ARC
8
DEFAULT_255_1_388
10
23.1673696
20
84.0889109
40
0.126719
50
92.6078949
51
106.199173
0
ARC
8
DEFAULT_255_1_388
10
23.1707886
20
84.0443207
40
0.1714243
50
89.9659531
51
93.0713334
0
ARC
8
DEFAULT_255_1_388
10
23.1719922
20
84.0693484
40
0.1464007
50
78.4379126
51
90.4311892
0
ARC
8
DEFAULT_255_1_388
10
23.1828569
20
84.1200017
40
0.094599
50
56.8961942
51
78.7357785
0
ARC
8
DEFAULT_255_1_388
10
23.1899679
20
84.1324075
40
0.0803272
50
42.6503148
51
56.3122241
0
ARC
8
DEFAULT_255_1_388
10
23.1755581
20
84.1191661
40
0.099897
50
3.8141057
51
42.636595
0
ARC
8
DEFAULT_255_1_388
10
23.1432903
20
84.1146616
40
0.1324137
50
359.9498843
51
4.8301897
0
ARC
8
DEFAULT_255_1_388
10
23.168804
20
84.1134722
40
0.1069053
50
340.9378148
51
0.5753733
0
ARC
8
DEFAULT_255_1_388
10
23.1814623
20
84.1100569
40
0.0938301
50
316.0798885
51
340.3845117
0
ARC
8
DEFAULT_255_1_388
10
23.1879934
20
84.104052
40
0.0849605
50
285.8512844
51
315.941661
0
ARC
8
DEFAULT_255_1_388
10
23.1747814
20
84.146762
40
0.1296594
50
273.1293204
51
286.3125006
0
ARC
8
DEFAULT_255_1_388
10
23.1710324
20
84.1919586
40
0.1749979
50
269.9535313
51
273.5471598
0
ARC
8
DEFAULT_255_1_388
10
23.1697929
20
84.1673833
40
0.1504266
50
259.0487117
51
270.4180248
0
ARC
8
DEFAULT_255_1_388
10
23.1589542
20
84.1136783
40
0.0956414
50
239.7583641
51
259.3115656
0
ARC
8
DEFAULT_255_1_388
10
23.1498475
20
84.0967048
40
0.0763945
50
222.6243303
51
239.2473835
0
ARC
8
DEFAULT_255_1_388
10
23.1649646
20
84.1105572
40
0.0968985
50
182.9231258
51
222.598101
0
ARC
8
DEFAULT_255_1_388
10
23.1952845
20
84.1144696
40
0.1274004
50
179.9657458
51
183.9850364
0
LINE
8
DEFAULT_255_1_388
10
23.7446539
20
84.6521666
11
23.6109263
21
84.6865021
0
LINE
8
DEFAULT_255_1_388
10
23.6109263
20
84.6865021
11
23.6777901
21
85.3424898
0
LINE
8
DEFAULT_255_1_388
10
23.6777901
20
85.3424898
11
24.3518492
21
85.3424898
0
LINE
8
DEFAULT_255_1_388
10
24.3518492
20
85.3424898
11
24.3518492
21
85.1879803
0
LINE
8
DEFAULT_255_1_388
10
24.3518492
20
85.1879803
11
23.8196497
21
85.1879803
0
LINE
8
DEFAULT_255_1_388
10
23.8196497
20
85.1879803
11
23.7798929
21
84.8292652
0
LINE
8
DEFAULT_255_1_388
10
23.563941
20
84.3729652
11
23.7220647
21
84.3729652
0
LINE
8
DEFAULT_255_1_388
10
23.7889285
20
84.6883092
11
23.7446539
21
84.6521666
0
ARC
8
DEFAULT_255_1_388
10
23.9885542
20
84.4715241
40
0.4141476
50
93.7181681
51
120.253934
0
ARC
8
DEFAULT_255_1_388
10
23.9991594
20
84.3806284
40
0.5055616
50
89.9660471
51
94.2495185
0
ARC
8
DEFAULT_255_1_388
10
24.0037416
20
84.4469154
40
0.4392953
50
73.8045384
51
90.5585736
0
ARC
8
DEFAULT_255_1_388
10
24.0301674
20
84.543452
40
0.3392225
50
41.3071072
51
73.543002
0
ARC
8
DEFAULT_255_1_388
10
23.9833494
20
84.5031461
40
0.4009977
50
13.5075837
51
41.2174839
0
ARC
8
DEFAULT_255_1_388
10
23.7986591
20
84.4547907
40
0.5918864
50
1.1330171
51
13.8830737
0
ARC
8
DEFAULT_255_1_388
10
23.6390237
20
84.4462522
40
0.7516787
50
359.9925091
51
1.5431298
0
ARC
8
DEFAULT_255_1_388
10
23.7834852
20
84.4416027
40
0.6072343
50
347.8572712
51
0.4294349
0
ARC
8
DEFAULT_255_1_388
10
23.9803987
20
84.3969898
40
0.4053482
50
323.6727442
51
348.1674594
0
ARC
8
DEFAULT_255_1_388
10
24.0134951
20
84.3768175
40
0.3667495
50
316.8171818
51
323.1486802
0
ARC
8
DEFAULT_255_1_388
10
24.0204075
20
84.3726612
40
0.358869
50
281.839603
51
316.5458142
0
ARC
8
DEFAULT_255_1_388
10
23.9781363
20
84.5476363
40
0.5388223
50
269.5770964
51
282.4214641
0
ARC
8
DEFAULT_255_1_388
10
23.9701283
20
84.523593
40
0.5147801
50
256.2425863
51
270.4486481
0
ARC
8
DEFAULT_255_1_388
10
23.9364811
20
84.3886124
40
0.3756708
50
228.9024379
51
256.33135
0
ARC
8
DEFAULT_255_1_388
10
23.9281791
20
84.3755054
40
0.360344
50
193.7536029
51
228.5272638
0
ARC
8
DEFAULT_255_1_388
10
24.0674356
20
84.4163463
40
0.5053599
50
184.9244437
51
194.4976052
0
ARC
8
DEFAULT_255_1_388
10
24.0890998
20
84.4203722
40
0.3700839
50
187.3596909
51
198.6733728
0
ARC
8
DEFAULT_255_1_388
10
23.9710241
20
84.3794373
40
0.2451195
50
198.4453795
51
217.7945479
0
ARC
8
DEFAULT_255_1_388
10
23.9377414
20
84.3558563
40
0.2043754
50
218.2887146
51
228.5613203
0
ARC
8
DEFAULT_255_1_388
10
23.948742
20
84.3706902
40
0.2227819
50
228.9652423
51
258.1237049
0
ARC
8
DEFAULT_255_1_388
10
23.9718858
20
84.4697964
40
0.3245374
50
257.7260585
51
270.4013717
0
ARC
8
DEFAULT_255_1_388
10
23.9769356
20
84.4197255
40
0.2744726
50
269.4204315
51
286.420998
0
ARC
8
DEFAULT_255_1_388
10
23.9936412
20
84.3590705
40
0.2115721
50
286.7250065
51
320.6004665
0
ARC
8
DEFAULT_255_1_388
10
23.9505327
20
84.3940527
40
0.2670878
50
320.6712228
51
344.5440474
0
ARC
8
DEFAULT_255_1_388
10
23.8204041
20
84.4322394
40
0.4026927
50
344.241448
51
356.735803
0
ARC
8
DEFAULT_255_1_388
10
23.6800348
20
84.4438656
40
0.5435085
50
356.3547471
51
0.0507222
0
ARC
8
DEFAULT_255_1_388
10
23.8302613
20
84.4473812
40
0.3932934
50
359.5579289
51
12.9534322
0
ARC
8
DEFAULT_255_1_388
10
23.9489453
20
84.4761586
40
0.2711827
50
12.6489751
51
41.608121
0
ARC
8
DEFAULT_255_1_388
10
23.9748613
20
84.4981946
40
0.2371737
50
41.7851122
51
85.9892156
0
ARC
8
DEFAULT_255_1_388
10
23.9609923
20
84.4066738
40
0.3295244
50
84.6965848
51
90.0672125
0
ARC
8
DEFAULT_255_1_388
10
23.9583491
20
84.3315118
40
0.4046926
50
89.6804991
51
99.161352
0
ARC
8
DEFAULT_255_1_388
10
23.93525
20
84.4695848
40
0.2647044
50
98.9836248
51
113.8905702
0
ARC
8
DEFAULT_255_1_388
10
23.9094175
20
84.5305118
40
0.1985386
50
114.195234
51
127.3641866
0
LINE
8
DEFAULT_255_1_388
10
23.3814318
20
92.1008382
11
23.3814318
21
91.9644
0
LINE
8
DEFAULT_255_1_388
10
23.3814318
20
91.9644
11
22.5194313
21
91.9644
0
LINE
8
DEFAULT_255_1_388
10
22.5194313
20
91.9644
11
22.5194313
21
92.0845741
0
LINE
8
DEFAULT_255_1_388
10
22.5194313
20
92.0845741
11
22.9748278
21
92.5905702
0
LINE
8
DEFAULT_255_1_388
10
22.6612909
20
92.8923607
11
22.4941315
21
92.8923607
0
LINE
8
DEFAULT_255_1_388
10
23.0733163
20
92.483046
11
22.7209262
21
92.1008382
0
LINE
8
DEFAULT_255_1_388
10
22.7209262
20
92.1008382
11
23.3814318
21
92.1008382
0
ARC
8
DEFAULT_255_1_388
10
21.4572337
20
93.9325983
40
2.0258655
50
318.5132526
51
320.7829045
0
ARC
8
DEFAULT_255_1_388
10
22.0520294
20
93.4484929
40
1.2589638
50
320.7372878
51
323.9739031
0
ARC
8
DEFAULT_255_1_388
10
22.4929226
20
93.1290554
40
0.7145141
50
323.8962701
51
328.64194
0
ARC
8
DEFAULT_255_1_388
10
22.7231484
20
92.9870545
40
0.4440242
50
328.8294576
51
331.7891185
0
ARC
8
DEFAULT_255_1_388
10
22.8353804
20
92.9291374
40
0.3177517
50
331.4254512
51
352.9365785
0
ARC
8
DEFAULT_255_1_388
10
22.8506804
20
92.925705
40
0.3021496
50
353.2257659
51
0.0166158
0
ARC
8
DEFAULT_255_1_388
10
22.8743564
20
92.9282894
40
0.2784847
50
359.486299
51
15.9343185
0
ARC
8
DEFAULT_255_1_388
10
22.9313831
20
92.9436269
40
0.2194403
50
16.1712913
51
43.5286088
0
ARC
8
DEFAULT_255_1_388
10
22.9400776
20
92.9523191
40
0.2071504
50
43.4417391
51
83.1661095
0
ARC
8
DEFAULT_255_1_388
10
22.9249937
20
92.8694316
40
0.2912888
50
82.160179
51
90.1505708
0
ARC
8
DEFAULT_255_1_388
10
22.9214418
20
92.8090279
40
0.3517025
50
89.5460741
51
102.5418361
0
ARC
8
DEFAULT_255_1_388
10
22.8941138
20
92.9249933
40
0.2325748
50
102.1738499
51
129.206123
0
ARC
8
DEFAULT_255_1_388
10
22.8852592
20
92.9389664
40
0.2161591
50
129.72865
51
135.753947
0
ARC
8
DEFAULT_255_1_388
10
22.8989074
20
92.9280728
40
0.2335433
50
136.1757367
51
166.3673339
0
ARC
8
DEFAULT_255_1_388
10
23.0121762
20
92.8977148
40
0.3507873
50
165.9090694
51
178.8684636
0
ARC
8
DEFAULT_255_1_388
10
23.1097534
20
92.8924263
40
0.4484624
50
178.4391136
51
180.0083808
0
ARC
8
DEFAULT_255_1_388
10
22.9518235
20
92.8968197
40
0.4577138
50
163.2878482
51
180.5581842
0
ARC
8
DEFAULT_255_1_388
10
22.8616276
20
92.9216393
40
0.3641968
50
133.4540601
51
162.947111
0
ARC
8
DEFAULT_255_1_388
10
22.8817158
20
92.9002789
40
0.3935189
50
100.7869829
51
133.4382499
0
ARC
8
DEFAULT_255_1_388
10
22.9208403
20
92.7260399
40
0.5720313
50
89.660664
51
101.3702276
0
ARC
8
DEFAULT_255_1_388
10
22.9283012
20
92.7329263
40
0.5651495
50
78.2172678
51
90.412935
0
ARC
8
DEFAULT_255_1_388
10
22.9682478
20
92.9156511
40
0.378122
50
55.9269121
51
78.4888449
0
ARC
8
DEFAULT_255_1_388
10
22.9903193
20
92.9537187
40
0.3342379
50
47.929771
51
55.4049217
0
ARC
8
DEFAULT_255_1_388
10
23.0017723
20
92.9653618
40
0.3179217
50
4.334829
51
48.0560205
0
ARC
8
DEFAULT_255_1_388
10
22.8785525
20
92.9462487
40
0.442341
50
359.9251713
51
5.5971671
0
ARC
8
DEFAULT_255_1_388
10
22.926768
20
92.9525728
40
0.3941854
50
337.8914027
51
358.9967534
0
ARC
8
DEFAULT_255_1_388
10
22.621525
20
93.0703295
40
0.7213271
50
326.9132501
51
338.3508308
0
ARC
8
DEFAULT_255_1_388
10
22.1731362
20
93.3577105
40
1.2538973
50
319.6471833
51
327.0959558
0
ARC
8
DEFAULT_255_1_388
10
21.741802
20
93.713505
40
1.8129975
50
317.2588228
51
319.9045804
0
LINE
8
DEFAULT_255_1_388
10
23.7762895
20
93.2799898
11
23.7762895
21
92.1062596
0
LINE
8
DEFAULT_255_1_388
10
23.7762895
20
92.1062596
11
24.3997489
21
92.1062596
0
LINE
8
DEFAULT_255_1_388
10
24.3997489
20
92.1062596
11
24.3997489
21
91.9644
0
LINE
8
DEFAULT_255_1_388
10
24.3997489
20
91.9644
11
23.6019015
21
91.9644
0
LINE
8
DEFAULT_255_1_388
10
23.6019015
20
91.9644
11
23.6019015
21
93.2799898
0
LINE
8
DEFAULT_255_1_388
10
23.6019015
20
93.2799898
11
23.7762895
21
93.2799898
0
LINE
8
DEFAULT_255_1_388
10
22.7042716
20
99.9019
11
22.5289801
21
99.9019
0
LINE
8
DEFAULT_255_1_388
10
22.3401351
20
100.4946383
11
22.5027767
21
100.4946383
0
LINE
8
DEFAULT_255_1_388
10
22.5027767
20
100.4946383
11
22.5027767
21
100.5714413
0
LINE
8
DEFAULT_255_1_388
10
22.0853299
20
100.6084874
11
21.9172669
21
100.6084874
0
LINE
8
DEFAULT_255_1_388
10
22.6699361
20
100.5804769
11
22.6699361
21
100.1305018
0
LINE
8
DEFAULT_255_1_388
10
22.7042716
20
99.916357
11
22.7042716
21
99.9019
0
LINE
8
DEFAULT_255_1_388
10
22.5027767
20
100.17568
11
22.5027767
21
100.3762713
0
LINE
8
DEFAULT_255_1_388
10
22.5027767
20
100.3762713
11
22.3717599
21
100.3762713
0
ARC
8
DEFAULT_255_1_388
10
22.645895
20
99.95861
40
0.1299428
50
197.0784902
51
205.8758668
0
ARC
8
DEFAULT_255_1_388
10
22.7853536
20
100.0027959
40
0.2762313
50
192.2927663
51
197.3441989
0
ARC
8
DEFAULT_255_1_388
10
23.0049042
20
100.051576
40
0.5011345
50
189.1573793
51
192.3977084
0
ARC
8
DEFAULT_255_1_388
10
23.3213888
20
100.1031878
40
0.8217995
50
186.8686098
51
189.1982636
0
ARC
8
DEFAULT_255_1_388
10
22.2158979
20
100.277226
40
0.3975173
50
294.0079259
51
316.7603918
0
ARC
8
DEFAULT_255_1_388
10
22.2304162
20
100.2567902
40
0.3729755
50
269.5043226
51
293.2478373
0
ARC
8
DEFAULT_255_1_388
10
22.2237214
20
100.3018915
40
0.4180772
50
255.4034155
51
270.4753052
0
ARC
8
DEFAULT_255_1_388
10
22.1978427
20
100.2014652
40
0.3143705
50
228.6141063
51
255.3550831
0
ARC
8
DEFAULT_255_1_388
10
22.1604409
20
100.165654
40
0.2628114
50
181.8954381
51
229.5703134
0
ARC
8
DEFAULT_255_1_388
10
22.2269345
20
100.1728824
40
0.329546
50
179.9848815
51
182.7691528
0
ARC
8
DEFAULT_255_1_388
10
22.2176411
20
100.1767827
40
0.3202753
50
161.0342928
51
180.6822077
0
ARC
8
DEFAULT_255_1_388
10
22.1682026
20
100.1896422
40
0.2693695
50
125.0525065
51
160.2034058
0
ARC
8
DEFAULT_255_1_388
10
22.2426748
20
100.0880275
40
0.3953338
50
106.2670809
51
125.4300189
0
ARC
8
DEFAULT_255_1_388
10
22.3070789
20
99.8775795
40
0.6154041
50
95.4857579
51
106.5348562
0
ARC
8
DEFAULT_255_1_388
10
22.3378077
20
99.5963993
40
0.8982419
50
89.8515405
51
95.7222579
0
ARC
8
DEFAULT_255_1_388
10
22.2658658
20
100.5734925
40
0.2369198
50
359.5039339
51
14.3181205
0
ARC
8
DEFAULT_255_1_388
10
22.3304662
20
100.5902862
40
0.170173
50
14.2184556
51
45.2028524
0
ARC
8
DEFAULT_255_1_388
10
22.3345358
20
100.5918862
40
0.1661795
50
45.8098216
51
73.0032926
0
ARC
8
DEFAULT_255_1_388
10
22.3065185
20
100.506226
40
0.2562942
50
72.6112517
51
85.7231489
0
ARC
8
DEFAULT_255_1_388
10
22.2963969
20
100.4035339
40
0.3594635
50
85.335019
51
90.0855069
0
ARC
8
DEFAULT_255_1_388
10
22.2937402
20
100.4699472
40
0.2930574
50
89.5854741
51
103.459124
0
ARC
8
DEFAULT_255_1_388
10
22.2765941
20
100.5414134
40
0.2195632
50
103.448332
51
126.5403399
0
ARC
8
DEFAULT_255_1_388
10
22.2496918
20
100.5758224
40
0.1759039
50
126.1730306
51
141.5008224
0
ARC
8
DEFAULT_255_1_388
10
22.2071233
20
100.6092266
40
0.1217955
50
141.3332087
51
180.3477313
0
ARC
8
DEFAULT_255_1_388
10
22.1312656
20
100.6072904
40
0.214002
50
151.6373605
51
179.6795088
0
ARC
8
DEFAULT_255_1_388
10
22.1989892
20
100.5735768
40
0.2896224
50
142.4981529
51
152.1330509
0
ARC
8
DEFAULT_255_1_388
10
22.2347896
20
100.5454781
40
0.3351307
50
120.8284906
51
142.4132156
0
ARC
8
DEFAULT_255_1_388
10
22.2815872
20
100.4722185
40
0.4220297
50
113.9634885
51
121.1871733
0
ARC
8
DEFAULT_255_1_388
10
22.2969181
20
100.4348705
40
0.4623867
50
93.3784336
51
113.8197902
0
ARC
8
DEFAULT_255_1_388
10
22.3055563
20
100.3487549
40
0.5488732
50
89.9745993
51
93.7488475
0
ARC
8
DEFAULT_255_1_388
10
22.3094809
20
100.3528587
40
0.5447818
50
79.1327128
51
90.3871707
0
ARC
8
DEFAULT_255_1_388
10
22.3460573
20
100.5356597
40
0.3583662
50
60.1434453
51
79.365517
0
ARC
8
DEFAULT_255_1_388
10
22.3749339
20
100.5911195
40
0.2959028
50
48.6191018
51
59.6466565
0
ARC
8
DEFAULT_255_1_388
10
22.3803051
20
100.5982356
40
0.2870136
50
9.0349502
51
48.4845487
0
ARC
8
DEFAULT_255_1_388
10
22.259235
20
100.5718084
40
0.4107927
50
1.2091359
51
10.0234369
0
ARC
8
DEFAULT_255_1_388
10
23.5289798
20
100.1277422
40
0.8590481
50
179.8159449
51
185.3205667
0
ARC
8
DEFAULT_255_1_388
10
23.2257643
20
100.0987945
40
0.5544553
50
185.2475628
51
192.7952551
0
ARC
8
DEFAULT_255_1_388
10
23.0275467
20
100.0533024
40
0.3510853
50
192.7195981
51
202.9584216
0
ARC
8
DEFAULT_255_1_388
10
22.2515503
20
100.3230895
40
0.2937869
50
270.006916
51
300.503478
0
ARC
8
DEFAULT_255_1_388
10
22.2653438
20
100.3086888
40
0.2744162
50
299.5482616
51
315.609538
0
ARC
8
DEFAULT_255_1_388
10
22.2979734
20
100.2753072
40
0.2277499
50
315.8682065
51
334.0592465
0
ARC
8
DEFAULT_255_1_388
10
22.3668708
20
99.59169
40
0.7845965
50
89.64297
51
97.2867877
0
ARC
8
DEFAULT_255_1_388
10
22.3172305
20
99.9633936
40
0.4096042
50
96.9938706
51
109.7783917
0
ARC
8
DEFAULT_255_1_388
10
22.2423768
20
100.1637851
40
0.1957225
50
109.0087985
51
135.3265591
0
ARC
8
DEFAULT_255_1_388
10
22.2116187
20
100.2018764
40
0.1471704
50
137.4537784
51
182.1083946
0
ARC
8
DEFAULT_255_1_388
10
22.2536887
20
100.1946101
40
0.1891498
50
179.4390335
51
195.7201623
0
ARC
8
DEFAULT_255_1_388
10
22.2073922
20
100.1819585
40
0.1411576
50
195.8683556
51
230.157074
0
ARC
8
DEFAULT_255_1_388
10
22.2346645
20
100.2146228
40
0.1837102
50
230.1532486
51
259.7486257
0
ARC
8
DEFAULT_255_1_388
10
22.2502687
20
100.2881472
40
0.258848
50
259.2461118
51
270.2915316
0
ARC
8
DEFAULT_255_1_388
10
23.0559855
20
99.9906142
40
0.1204062
50
163.5412609
51
180.5084512
0
ARC
8
DEFAULT_255_1_388
10
23.0343754
20
99.996446
40
0.0980307
50
138.1652
51
163.2315563
0
ARC
8
DEFAULT_255_1_388
10
23.0217495
20
100.0071456
40
0.0814881
50
105.6860499
51
137.8492655
0
ARC
8
DEFAULT_255_1_388
10
23.0350696
20
99.9639109
40
0.126719
50
92.6078949
51
106.199173
0
ARC
8
DEFAULT_255_1_388
10
23.0384886
20
99.9193207
40
0.1714243
50
89.9659531
51
93.0713334
0
ARC
8
DEFAULT_255_1_388
10
23.0396922
20
99.9443484
40
0.1464007
50
78.4379126
51
90.4311892
0
ARC
8
DEFAULT_255_1_388
10
23.0505569
20
99.9950017
40
0.094599
50
56.8961942
51
78.7357785
0
ARC
8
DEFAULT_255_1_388
10
23.0576679
20
100.0074075
40
0.0803272
50
42.6503148
51
56.3122241
0
ARC
8
DEFAULT_255_1_388
10
23.0432581
20
99.9941661
40
0.099897
50
3.8141057
51
42.636595
0
ARC
8
DEFAULT_255_1_388
10
23.0109903
20
99.9896616
40
0.1324137
50
359.9498843
51
4.8301897
0
ARC
8
DEFAULT_255_1_388
10
23.036504
20
99.9884722
40
0.1069053
50
340.9378148
51
0.5753733
0
ARC
8
DEFAULT_255_1_388
10
23.0491623
20
99.9850569
40
0.0938301
50
316.0798885
51
340.3845117
0
ARC
8
DEFAULT_255_1_388
10
23.0556934
20
99.979052
40
0.0849605
50
285.8512844
51
315.941661
0
ARC
8
DEFAULT_255_1_388
10
23.0424814
20
100.021762
40
0.1296594
50
273.1293204
51
286.3125006
0
ARC
8
DEFAULT_255_1_388
10
23.0387324
20
100.0669586
40
0.1749979
50
269.9535313
51
273.5471598
0
ARC
8
DEFAULT_255_1_388
10
23.0374929
20
100.0423833
40
0.1504266
50
259.0487117
51
270.4180248
0
ARC
8
DEFAULT_255_1_388
10
23.0266542
20
99.9886783
40
0.0956414
50
239.7583641
51
259.3115656
0
ARC
8
DEFAULT_255_1_388
10
23.0175475
20
99.9717048
40
0.0763945
50
222.6243303
51
239.2473835
0
ARC
8
DEFAULT_255_1_388
10
23.0326646
20
99.9855572
40
0.0968985
50
182.9231258
51
222.598101
0
ARC
8
DEFAULT_255_1_388
10
23.0629845
20
99.9894696
40
0.1274004
50
179.9657458
51
183.9850364
0
LINE
8
DEFAULT_255_1_388
10
24.1075072
20
101.2174898
11
24.1075072
21
100.343743
0
LINE
8
DEFAULT_255_1_388
10
24.1075072
20
100.343743
11
24.2900272
21
100.343743
0
LINE
8
DEFAULT_255_1_388
10
24.2900272
20
100.343743
11
24.2900272
21
100.2073048
0
LINE
8
DEFAULT_255_1_388
10
24.2900272
20
100.2073048
11
24.1075072
21
100.2073048
0
LINE
8
DEFAULT_255_1_388
10
24.1075072
20
100.2073048
11
24.1075072
21
99.9019
0
LINE
8
DEFAULT_255_1_388
10
24.1075072
20
99.9019
11
23.9394442
21
99.9019
0
LINE
8
DEFAULT_255_1_388
10
23.9394442
20
99.9019
11
23.9394442
21
100.2073048
0
LINE
8
DEFAULT_255_1_388
10
23.9394442
20
100.2073048
11
23.340381
21
100.2073048
0
LINE
8
DEFAULT_255_1_388
10
23.340381
20
100.2073048
11
23.340381
21
100.3057933
0
LINE
8
DEFAULT_255_1_388
10
23.340381
20
100.3057933
11
23.929505
21
101.2174898
0
LINE
8
DEFAULT_255_1_388
10
23.929505
20
101.2174898
11
24.1075072
21
101.2174898
0
LINE
8
DEFAULT_255_1_388
10
23.9195658
20
100.9527455
11
23.5301295
21
100.343743
0
LINE
8
DEFAULT_255_1_388
10
23.5301295
20
100.343743
11
23.9394442
21
100.343743
0
LINE
8
DEFAULT_255_1_388
10
23.9394442
20
100.343743
11
23.9394442
21
100.988888
0
LINE
8
DEFAULT_255_1_388
10
23.9394442
20
100.988888
11
23.9195658
21
100.9527455
0
LINE
8
DEFAULT_255_1_388
10
22.8365716
20
107.8394
11
22.6612801
21
107.8394
0
LINE
8
DEFAULT_255_1_388
10
22.4724351
20
108.4321383
11
22.6350767
21
108.4321383
0
LINE
8
DEFAULT_255_1_388
10
22.6350767
20
108.4321383
11
22.6350767
21
108.5089413
0
LINE
8
DEFAULT_255_1_388
10
22.2176299
20
108.5459874
11
22.0495669
21
108.5459874
0
LINE
8
DEFAULT_255_1_388
10
22.8022361
20
108.5179769
11
22.8022361
21
108.0680018
0
LINE
8
DEFAULT_255_1_388
10
22.8365716
20
107.853857
11
22.8365716
21
107.8394
0
LINE
8
DEFAULT_255_1_388
10
22.6350767
20
108.11318
11
22.6350767
21
108.3137713
0
LINE
8
DEFAULT_255_1_388
10
22.6350767
20
108.3137713
11
22.5040599
21
108.3137713
0
ARC
8
DEFAULT_255_1_388
10
22.778195
20
107.89611
40
0.1299428
50
197.0784902
51
205.8758668
0
ARC
8
DEFAULT_255_1_388
10
22.9176536
20
107.9402959
40
0.2762313
50
192.2927663
51
197.3441989
0
ARC
8
DEFAULT_255_1_388
10
23.1372042
20
107.989076
40
0.5011345
50
189.1573793
51
192.3977084
0
ARC
8
DEFAULT_255_1_388
10
23.4536888
20
108.0406878
40
0.8217995
50
186.8686098
51
189.1982636
0
ARC
8
DEFAULT_255_1_388
10
22.3481979
20
108.214726
40
0.3975173
50
294.0079259
51
316.7603918
0
ARC
8
DEFAULT_255_1_388
10
22.3627162
20
108.1942902
40
0.3729755
50
269.5043226
51
293.2478373
0
ARC
8
DEFAULT_255_1_388
10
22.3560214
20
108.2393915
40
0.4180772
50
255.4034155
51
270.4753052
0
ARC
8
DEFAULT_255_1_388
10
22.3301427
20
108.1389652
40
0.3143705
50
228.6141063
51
255.3550831
0
ARC
8
DEFAULT_255_1_388
10
22.2927409
20
108.103154
40
0.2628114
50
181.8954381
51
229.5703134
0
ARC
8
DEFAULT_255_1_388
10
22.3592345
20
108.1103824
40
0.329546
50
179.9848815
51
182.7691528
0
ARC
8
DEFAULT_255_1_388
10
22.3499411
20
108.1142827
40
0.3202753
50
161.0342928
51
180.6822077
0
ARC
8
DEFAULT_255_1_388
10
22.3005026
20
108.1271422
40
0.2693695
50
125.0525065
51
160.2034058
0
ARC
8
DEFAULT_255_1_388
10
22.3749748
20
108.0255275
40
0.3953338
50
106.2670809
51
125.4300189
0
ARC
8
DEFAULT_255_1_388
10
22.4393789
20
107.8150795
40
0.6154041
50
95.4857579
51
106.5348562
0
ARC
8
DEFAULT_255_1_388
10
22.4701077
20
107.5338993
40
0.8982419
50
89.8515405
51
95.7222579
0
ARC
8
DEFAULT_255_1_388
10
22.3981658
20
108.5109925
40
0.2369198
50
359.5039339
51
14.3181205
0
ARC
8
DEFAULT_255_1_388
10
22.4627662
20
108.5277862
40
0.170173
50
14.2184556
51
45.2028524
0
ARC
8
DEFAULT_255_1_388
10
22.4668358
20
108.5293862
40
0.1661795
50
45.8098216
51
73.0032926
0
ARC
8
DEFAULT_255_1_388
10
22.4388185
20
108.443726
40
0.2562942
50
72.6112517
51
85.7231489
0
ARC
8
DEFAULT_255_1_388
10
22.4286969
20
108.3410339
40
0.3594635
50
85.335019
51
90.0855069
0
ARC
8
DEFAULT_255_1_388
10
22.4260402
20
108.4074472
40
0.2930574
50
89.5854741
51
103.459124
0
ARC
8
DEFAULT_255_1_388
10
22.4088941
20
108.4789134
40
0.2195632
50
103.448332
51
126.5403399
0
ARC
8
DEFAULT_255_1_388
10
22.3819918
20
108.5133224
40
0.1759039
50
126.1730306
51
141.5008224
0
ARC
8
DEFAULT_255_1_388
10
22.3394233
20
108.5467266
40
0.1217955
50
141.3332087
51
180.3477313
0
ARC
8
DEFAULT_255_1_388
10
22.2635656
20
108.5447904
40
0.214002
50
151.6373605
51
179.6795088
0
ARC
8
DEFAULT_255_1_388
10
22.3312892
20
108.5110768
40
0.2896224
50
142.4981529
51
152.1330509
0
ARC
8
DEFAULT_255_1_388
10
22.3670896
20
108.4829781
40
0.3351307
50
120.8284906
51
142.4132156
0
ARC
8
DEFAULT_255_1_388
10
22.4138872
20
108.4097185
40
0.4220297
50
113.9634885
51
121.1871733
0
ARC
8
DEFAULT_255_1_388
10
22.4292181
20
108.3723705
40
0.4623867
50
93.3784336
51
113.8197902
0
ARC
8
DEFAULT_255_1_388
10
22.4378563
20
108.2862549
40
0.5488732
50
89.9745993
51
93.7488475
0
ARC
8
DEFAULT_255_1_388
10
22.4417809
20
108.2903587
40
0.5447818
50
79.1327128
51
90.3871707
0
ARC
8
DEFAULT_255_1_388
10
22.4783573
20
108.4731597
40
0.3583662
50
60.1434453
51
79.365517
0
ARC
8
DEFAULT_255_1_388
10
22.5072339
20
108.5286195
40
0.2959028
50
48.6191018
51
59.6466565
0
ARC
8
DEFAULT_255_1_388
10
22.5126051
20
108.5357356
40
0.2870136
50
9.0349502
51
48.4845487
0
ARC
8
DEFAULT_255_1_388
10
22.391535
20
108.5093084
40
0.4107927
50
1.2091359
51
10.0234369
0
ARC
8
DEFAULT_255_1_388
10
23.6612798
20
108.0652422
40
0.8590481
50
179.8159449
51
185.3205667
0
ARC
8
DEFAULT_255_1_388
10
23.3580643
20
108.0362945
40
0.5544553
50
185.2475628
51
192.7952551
0
ARC
8
DEFAULT_255_1_388
10
23.1598467
20
107.9908024
40
0.3510853
50
192.7195981
51
202.9584216
0
ARC
8
DEFAULT_255_1_388
10
22.3838503
20
108.2605895
40
0.2937869
50
270.006916
51
300.503478
0
ARC
8
DEFAULT_255_1_388
10
22.3976438
20
108.2461888
40
0.2744162
50
299.5482616
51
315.609538
0
ARC
8
DEFAULT_255_1_388
10
22.4302734
20
108.2128072
40
0.2277499
50
315.8682065
51
334.0592465
0
ARC
8
DEFAULT_255_1_388
10
22.4991708
20
107.52919
40
0.7845965
50
89.64297
51
97.2867877
0
ARC
8
DEFAULT_255_1_388
10
22.4495305
20
107.9008936
40
0.4096042
50
96.9938706
51
109.7783917
0
ARC
8
DEFAULT_255_1_388
10
22.3746768
20
108.1012851
40
0.1957225
50
109.0087985
51
135.3265591
0
ARC
8
DEFAULT_255_1_388
10
22.3439187
20
108.1393764
40
0.1471704
50
137.4537784
51
182.1083946
0
ARC
8
DEFAULT_255_1_388
10
22.3859887
20
108.1321101
40
0.1891498
50
179.4390335
51
195.7201623
0
ARC
8
DEFAULT_255_1_388
10
22.3396922
20
108.1194585
40
0.1411576
50
195.8683556
51
230.157074
0
ARC
8
DEFAULT_255_1_388
10
22.3669645
20
108.1521228
40
0.1837102
50
230.1532486
51
259.7486257
0
ARC
8
DEFAULT_255_1_388
10
22.3825687
20
108.2256472
40
0.258848
50
259.2461118
51
270.2915316
0
ARC
8
DEFAULT_255_1_388
10
23.1882855
20
107.9281142
40
0.1204062
50
163.5412609
51
180.5084512
0
ARC
8
DEFAULT_255_1_388
10
23.1666754
20
107.933946
40
0.0980307
50
138.1652
51
163.2315563
0
ARC
8
DEFAULT_255_1_388
10
23.1540495
20
107.9446456
40
0.0814881
50
105.6860499
51
137.8492655
0
ARC
8
DEFAULT_255_1_388
10
23.1673696
20
107.9014109
40
0.126719
50
92.6078949
51
106.199173
0
ARC
8
DEFAULT_255_1_388
10
23.1707886
20
107.8568207
40
0.1714243
50
89.9659531
51
93.0713334
0
ARC
8
DEFAULT_255_1_388
10
23.1719922
20
107.8818484
40
0.1464007
50
78.4379126
51
90.4311892
0
ARC
8
DEFAULT_255_1_388
10
23.1828569
20
107.9325017
40
0.094599
50
56.8961942
51
78.7357785
0
ARC
8
DEFAULT_255_1_388
10
23.1899679
20
107.9449075
40
0.0803272
50
42.6503148
51
56.3122241
0
ARC
8
DEFAULT_255_1_388
10
23.1755581
20
107.9316661
40
0.099897
50
3.8141057
51
42.636595
0
ARC
8
DEFAULT_255_1_388
10
23.1432903
20
107.9271616
40
0.1324137
50
359.9498843
51
4.8301897
0
ARC
8
DEFAULT_255_1_388
10
23.168804
20
107.9259722
40
0.1069053
50
340.9378148
51
0.5753733
0
ARC
8
DEFAULT_255_1_388
10
23.1814623
20
107.9225569
40
0.0938301
50
316.0798885
51
340.3845117
0
ARC
8
DEFAULT_255_1_388
10
23.1879934
20
107.916552
40
0.0849605
50
285.8512844
51
315.941661
0
ARC
8
DEFAULT_255_1_388
10
23.1747814
20
107.959262
40
0.1296594
50
273.1293204
51
286.3125006
0
ARC
8
DEFAULT_255_1_388
10
23.1710324
20
108.0044586
40
0.1749979
50
269.9535313
51
273.5471598
0
ARC
8
DEFAULT_255_1_388
10
23.1697929
20
107.9798833
40
0.1504266
50
259.0487117
51
270.4180248
0
ARC
8
DEFAULT_255_1_388
10
23.1589542
20
107.9261783
40
0.0956414
50
239.7583641
51
259.3115656
0
ARC
8
DEFAULT_255_1_388
10
23.1498475
20
107.9092048
40
0.0763945
50
222.6243303
51
239.2473835
0
ARC
8
DEFAULT_255_1_388
10
23.1649646
20
107.9230572
40
0.0968985
50
182.9231258
51
222.598101
0
ARC
8
DEFAULT_255_1_388
10
23.1952845
20
107.9269696
40
0.1274004
50
179.9657458
51
183.9850364
0
LINE
8
DEFAULT_255_1_388
10
23.7771822
20
108.4420775
11
23.7771822
21
108.5785157
0
LINE
8
DEFAULT_255_1_388
10
23.7771822
20
108.5785157
11
23.9027776
21
108.5785157
0
LINE
8
DEFAULT_255_1_388
10
23.6886329
20
108.8098282
11
23.5214734
21
108.8098282
0
LINE
8
DEFAULT_255_1_388
10
23.5097271
20
108.1863688
11
23.6777901
21
108.1863688
0
LINE
8
DEFAULT_255_1_388
10
23.9027776
20
108.4420775
11
23.7771822
21
108.4420775
0
ARC
8
DEFAULT_255_1_388
10
23.8995003
20
108.9601922
40
0.3816905
50
270.491971
51
281.8953028
0
ARC
8
DEFAULT_255_1_388
10
23.926643
20
108.8362199
40
0.2547877
50
281.6690378
51
301.2943765
0
ARC
8
DEFAULT_255_1_388
10
23.9457881
20
108.8011926
40
0.2149197
50
301.7834992
51
311.754567
0
ARC
8
DEFAULT_255_1_388
10
23.9560923
20
108.789765
40
0.1995326
50
311.7325027
51
354.2803031
0
ARC
8
DEFAULT_255_1_388
10
23.8743338
20
108.803828
40
0.2823461
50
353.0941646
51
0.1174696
0
ARC
8
DEFAULT_255_1_388
10
23.8224896
20
108.8091874
40
0.3342238
50
359.1804452
51
15.0452323
0
ARC
8
DEFAULT_255_1_388
10
23.9738955
20
108.8533546
40
0.1765747
50
13.957816
51
77.6713812
0
ARC
8
DEFAULT_255_1_388
10
23.930419
20
108.6975464
40
0.3381982
50
76.111571
51
90.7028736
0
ARC
8
DEFAULT_255_1_388
10
23.9237603
20
108.728325
40
0.3074046
50
89.5321574
51
103.5319393
0
ARC
8
DEFAULT_255_1_388
10
23.9011986
20
108.8182443
40
0.2147041
50
103.2930114
51
133.5619756
0
ARC
8
DEFAULT_255_1_388
10
23.8961928
20
108.8249351
40
0.2064084
50
133.8349761
51
173.5343225
0
ARC
8
DEFAULT_255_1_388
10
23.9775585
20
108.8105144
40
0.2889266
50
172.5097183
51
180.1360699
0
ARC
8
DEFAULT_255_1_388
10
23.8705349
20
108.814388
40
0.3490913
50
155.3483706
51
180.7484035
0
ARC
8
DEFAULT_255_1_388
10
23.8650325
20
108.8111519
40
0.3454798
50
131.5745177
51
154.4799474
0
ARC
8
DEFAULT_255_1_388
10
23.9002607
20
108.7755422
40
0.3955058
50
96.9874487
51
131.9690874
0
ARC
8
DEFAULT_255_1_388
10
23.92495
20
108.6354407
40
0.537622
50
89.8592909
51
97.7827481
0
ARC
8
DEFAULT_255_1_388
10
23.9303609
20
108.605936
40
0.5671399
50
78.3654493
51
90.4132586
0
ARC
8
DEFAULT_255_1_388
10
23.970625
20
108.7925918
40
0.3762034
50
56.6229818
51
78.6387103
0
ARC
8
DEFAULT_255_1_388
10
23.9948079
20
108.8348846
40
0.3275964
50
47.0254604
51
56.085558
0
ARC
8
DEFAULT_255_1_388
10
23.997033
20
108.8393189
40
0.3228382
50
10.9207523
51
46.777927
0
ARC
8
DEFAULT_255_1_388
10
23.8435924
20
108.8038401
40
0.4802559
50
359.6364235
51
11.6087615
0
ARC
8
DEFAULT_255_1_388
10
24.050009
20
108.8021404
40
0.273833
50
332.3549969
51
359.7179765
0
ARC
8
DEFAULT_255_1_388
10
23.9768491
20
108.8368285
40
0.3547505
50
325.2332381
51
332.8746682
0
ARC
8
DEFAULT_255_1_388
10
23.9940074
20
108.8248763
40
0.3338396
50
292.9803892
51
325.2391113
0
ARC
8
DEFAULT_255_1_388
10
23.9629269
20
108.8853679
40
0.4016959
50
292.542178
51
293.6931461
0
ARC
8
DEFAULT_255_1_388
10
24.0072841
20
108.1588036
40
0.372079
50
57.643292
51
72.8626085
0
ARC
8
DEFAULT_255_1_388
10
24.0471676
20
108.2234273
40
0.2961455
50
36.7246661
51
57.4701329
0
ARC
8
DEFAULT_255_1_388
10
24.0458833
20
108.224847
40
0.2963321
50
8.054535
51
36.3561529
0
ARC
8
DEFAULT_255_1_388
10
23.9488505
20
108.2074073
40
0.3948682
50
359.8316595
51
8.5873361
0
ARC
8
DEFAULT_255_1_388
10
23.9065979
20
108.201997
40
0.4371398
50
343.9831631
51
0.557075
0
ARC
8
DEFAULT_255_1_388
10
24.0063029
20
108.1746963
40
0.3337749
50
311.6358204
51
343.7652116
0
ARC
8
DEFAULT_255_1_388
10
23.9637283
20
108.2226955
40
0.3979351
50
279.7829743
51
311.625622
0
ARC
8
DEFAULT_255_1_388
10
23.9298418
20
108.3843642
40
0.5630417
50
269.7285092
51
280.3857694
0
ARC
8
DEFAULT_255_1_388
10
23.9228731
20
108.3797241
40
0.5584119
50
256.6827433
51
270.4412869
0
ARC
8
DEFAULT_255_1_388
10
23.8847717
20
108.2239698
40
0.3980715
50
229.4223821
51
256.8554507
0
ARC
8
DEFAULT_255_1_388
10
23.8381271
20
108.1714683
40
0.3278564
50
181.8183354
51
229.6455015
0
ARC
8
DEFAULT_255_1_388
10
23.955088
20
108.1861825
40
0.4453611
50
179.9760419
51
183.2330638
0
ARC
8
DEFAULT_255_1_388
10
23.9357433
20
108.1838781
40
0.2579652
50
179.4467996
51
196.2871626
0
ARC
8
DEFAULT_255_1_388
10
23.8808886
20
108.1688709
40
0.2011057
50
196.5661293
51
227.7059371
0
ARC
8
DEFAULT_255_1_388
10
23.8993493
20
108.1895155
40
0.2287994
50
227.7653015
51
257.8763321
0
ARC
8
DEFAULT_255_1_388
10
23.9246577
20
108.2955961
40
0.3378385
50
257.4583525
51
270.4267406
0
ARC
8
DEFAULT_255_1_388
10
23.9297826
20
108.328223
40
0.3704652
50
269.5965319
51
280.8788143
0
ARC
8
DEFAULT_255_1_388
10
23.9556054
20
108.1992529
40
0.2389415
50
280.6347277
51
299.8594068
0
ARC
8
DEFAULT_255_1_388
10
23.9770824
20
108.1584736
40
0.19289
50
300.3575552
51
314.5515667
0
ARC
8
DEFAULT_255_1_388
10
23.96775
20
108.1653025
40
0.204312
50
315.0730962
51
345.0429362
0
ARC
8
DEFAULT_255_1_388
10
23.8639007
20
108.1955539
40
0.31246
50
344.598526
51
357.9270698
0
ARC
8
DEFAULT_255_1_388
10
23.7629312
20
108.2024705
40
0.4136265
50
357.4755098
51
0.0224936
0
ARC
8
DEFAULT_255_1_388
10
23.8782189
20
108.2052099
40
0.2983498
50
359.5051035
51
13.4236939
0
ARC
8
DEFAULT_255_1_388
10
23.9757279
20
108.2301637
40
0.1977186
50
12.9497905
51
48.7550905
0
ARC
8
DEFAULT_255_1_388
10
23.9552201
20
108.2021373
40
0.2323321
50
49.509109
51
72.1832965
0
ARC
8
DEFAULT_255_1_388
10
23.914967
20
108.0826632
40
0.358397
50
71.9008458
51
84.3555134
0
ARC
8
DEFAULT_255_1_388
10
23.8968064
20
107.9294712
40
0.512641
50
84.019632
51
89.3326067
0
LINE
8
DEFAULT_255_1_388
10
22.8365716
20
115.7769
11
22.6612801
21
115.7769
0
LINE
8
DEFAULT_255_1_388
10
22.4724351
20
116.3696383
11
22.6350767
21
116.3696383
0
LINE
8
DEFAULT_255_1_388
10
22.6350767
20
116.3696383
11
22.6350767
21
116.4464413
0
LINE
8
DEFAULT_255_1_388
10
22.2176299
20
116.4834874
11
22.0495669
21
116.4834874
0
LINE
8
DEFAULT_255_1_388
10
22.8022361
20
116.4554769
11
22.8022361
21
116.0055018
0
LINE
8
DEFAULT_255_1_388
10
22.8365716
20
115.791357
11
22.8365716
21
115.7769
0
LINE
8
DEFAULT_255_1_388
10
22.6350767
20
116.05068
11
22.6350767
21
116.2512713
0
LINE
8
DEFAULT_255_1_388
10
22.6350767
20
116.2512713
11
22.5040599
21
116.2512713
0
ARC
8
DEFAULT_255_1_388
10
22.778195
20
115.83361
40
0.1299428
50
197.0784902
51
205.8758668
0
ARC
8
DEFAULT_255_1_388
10
22.9176536
20
115.8777959
40
0.2762313
50
192.2927663
51
197.3441989
0
ARC
8
DEFAULT_255_1_388
10
23.1372042
20
115.926576
40
0.5011345
50
189.1573793
51
192.3977084
0
ARC
8
DEFAULT_255_1_388
10
23.4536888
20
115.9781878
40
0.8217995
50
186.8686098
51
189.1982636
0
ARC
8
DEFAULT_255_1_388
10
22.3481979
20
116.152226
40
0.3975173
50
294.0079259
51
316.7603918
0
ARC
8
DEFAULT_255_1_388
10
22.3627162
20
116.1317902
40
0.3729755
50
269.5043226
51
293.2478373
0
ARC
8
DEFAULT_255_1_388
10
22.3560214
20
116.1768915
40
0.4180772
50
255.4034155
51
270.4753052
0
ARC
8
DEFAULT_255_1_388
10
22.3301427
20
116.0764652
40
0.3143705
50
228.6141063
51
255.3550831
0
ARC
8
DEFAULT_255_1_388
10
22.2927409
20
116.040654
40
0.2628114
50
181.8954381
51
229.5703134
0
ARC
8
DEFAULT_255_1_388
10
22.3592345
20
116.0478824
40
0.329546
50
179.9848815
51
182.7691528
0
ARC
8
DEFAULT_255_1_388
10
22.3499411
20
116.0517827
40
0.3202753
50
161.0342928
51
180.6822077
0
ARC
8
DEFAULT_255_1_388
10
22.3005026
20
116.0646422
40
0.2693695
50
125.0525065
51
160.2034058
0
ARC
8
DEFAULT_255_1_388
10
22.3749748
20
115.9630275
40
0.3953338
50
106.2670809
51
125.4300189
0
ARC
8
DEFAULT_255_1_388
10
22.4393789
20
115.7525795
40
0.6154041
50
95.4857579
51
106.5348562
0
ARC
8
DEFAULT_255_1_388
10
22.4701077
20
115.4713993
40
0.8982419
50
89.8515405
51
95.7222579
0
ARC
8
DEFAULT_255_1_388
10
22.3981658
20
116.4484925
40
0.2369198
50
359.5039339
51
14.3181205
0
ARC
8
DEFAULT_255_1_388
10
22.4627662
20
116.4652862
40
0.170173
50
14.2184556
51
45.2028524
0
ARC
8
DEFAULT_255_1_388
10
22.4668358
20
116.4668862
40
0.1661795
50
45.8098216
51
73.0032926
0
ARC
8
DEFAULT_255_1_388
10
22.4388185
20
116.381226
40
0.2562942
50
72.6112517
51
85.7231489
0
ARC
8
DEFAULT_255_1_388
10
22.4286969
20
116.2785339
40
0.3594635
50
85.335019
51
90.0855069
0
ARC
8
DEFAULT_255_1_388
10
22.4260402
20
116.3449472
40
0.2930574
50
89.5854741
51
103.459124
0
ARC
8
DEFAULT_255_1_388
10
22.4088941
20
116.4164134
40
0.2195632
50
103.448332
51
126.5403399
0
ARC
8
DEFAULT_255_1_388
10
22.3819918
20
116.4508224
40
0.1759039
50
126.1730306
51
141.5008224
0
ARC
8
DEFAULT_255_1_388
10
22.3394233
20
116.4842266
40
0.1217955
50
141.3332087
51
180.3477313
0
ARC
8
DEFAULT_255_1_388
10
22.2635656
20
116.4822904
40
0.214002
50
151.6373605
51
179.6795088
0
ARC
8
DEFAULT_255_1_388
10
22.3312892
20
116.4485768
40
0.2896224
50
142.4981529
51
152.1330509
0
ARC
8
DEFAULT_255_1_388
10
22.3670896
20
116.4204781
40
0.3351307
50
120.8284906
51
142.4132156
0
ARC
8
DEFAULT_255_1_388
10
22.4138872
20
116.3472185
40
0.4220297
50
113.9634885
51
121.1871733
0
ARC
8
DEFAULT_255_1_388
10
22.4292181
20
116.3098705
40
0.4623867
50
93.3784336
51
113.8197902
0
ARC
8
DEFAULT_255_1_388
10
22.4378563
20
116.2237549
40
0.5488732
50
89.9745993
51
93.7488475
0
ARC
8
DEFAULT_255_1_388
10
22.4417809
20
116.2278587
40
0.5447818
50
79.1327128
51
90.3871707
0
ARC
8
DEFAULT_255_1_388
10
22.4783573
20
116.4106597
40
0.3583662
50
60.1434453
51
79.365517
0
ARC
8
DEFAULT_255_1_388
10
22.5072339
20
116.4661195
40
0.2959028
50
48.6191018
51
59.6466565
0
ARC
8
DEFAULT_255_1_388
10
22.5126051
20
116.4732356
40
0.2870136
50
9.0349502
51
48.4845487
0
ARC
8
DEFAULT_255_1_388
10
22.391535
20
116.4468084
40
0.4107927
50
1.2091359
51
10.0234369
0
ARC
8
DEFAULT_255_1_388
10
23.6612798
20
116.0027422
40
0.8590481
50
179.8159449
51
185.3205667
0
ARC
8
DEFAULT_255_1_388
10
23.3580643
20
115.9737945
40
0.5544553
50
185.2475628
51
192.7952551
0
ARC
8
DEFAULT_255_1_388
10
23.1598467
20
115.9283024
40
0.3510853
50
192.7195981
51
202.9584216
0
ARC
8
DEFAULT_255_1_388
10
22.3838503
20
116.1980895
40
0.2937869
50
270.006916
51
300.503478
0
ARC
8
DEFAULT_255_1_388
10
22.3976438
20
116.1836888
40
0.2744162
50
299.5482616
51
315.609538
0
ARC
8
DEFAULT_255_1_388
10
22.4302734
20
116.1503072
40
0.2277499
50
315.8682065
51
334.0592465
0
ARC
8
DEFAULT_255_1_388
10
22.4991708
20
115.46669
40
0.7845965
50
89.64297
51
97.2867877
0
ARC
8
DEFAULT_255_1_388
10
22.4495305
20
115.8383936
40
0.4096042
50
96.9938706
51
109.7783917
0
ARC
8
DEFAULT_255_1_388
10
22.3746768
20
116.0387851
40
0.1957225
50
109.0087985
51
135.3265591
0
ARC
8
DEFAULT_255_1_388
10
22.3439187
20
116.0768764
40
0.1471704
50
137.4537784
51
182.1083946
0
ARC
8
DEFAULT_255_1_388
10
22.3859887
20
116.0696101
40
0.1891498
50
179.4390335
51
195.7201623
0
ARC
8
DEFAULT_255_1_388
10
22.3396922
20
116.0569585
40
0.1411576
50
195.8683556
51
230.157074
0
ARC
8
DEFAULT_255_1_388
10
22.3669645
20
116.0896228
40
0.1837102
50
230.1532486
51
259.7486257
0
ARC
8
DEFAULT_255_1_388
10
22.3825687
20
116.1631472
40
0.258848
50
259.2461118
51
270.2915316
0
ARC
8
DEFAULT_255_1_388
10
23.1882855
20
115.8656142
40
0.1204062
50
163.5412609
51
180.5084512
0
ARC
8
DEFAULT_255_1_388
10
23.1666754
20
115.871446
40
0.0980307
50
138.1652
51
163.2315563
0
ARC
8
DEFAULT_255_1_388
10
23.1540495
20
115.8821456
40
0.0814881
50
105.6860499
51
137.8492655
0
ARC
8
DEFAULT_255_1_388
10
23.1673696
20
115.8389109
40
0.126719
50
92.6078949
51
106.199173
0
ARC
8
DEFAULT_255_1_388
10
23.1707886
20
115.7943207
40
0.1714243
50
89.9659531
51
93.0713334
0
ARC
8
DEFAULT_255_1_388
10
23.1719922
20
115.8193484
40
0.1464007
50
78.4379126
51
90.4311892
0
ARC
8
DEFAULT_255_1_388
10
23.1828569
20
115.8700017
40
0.094599
50
56.8961942
51
78.7357785
0
ARC
8
DEFAULT_255_1_388
10
23.1899679
20
115.8824075
40
0.0803272
50
42.6503148
51
56.3122241
0
ARC
8
DEFAULT_255_1_388
10
23.1755581
20
115.8691661
40
0.099897
50
3.8141057
51
42.636595
0
ARC
8
DEFAULT_255_1_388
10
23.1432903
20
115.8646616
40
0.1324137
50
359.9498843
51
4.8301897
0
ARC
8
DEFAULT_255_1_388
10
23.168804
20
115.8634722
40
0.1069053
50
340.9378148
51
0.5753733
0
ARC
8
DEFAULT_255_1_388
10
23.1814623
20
115.8600569
40
0.0938301
50
316.0798885
51
340.3845117
0
ARC
8
DEFAULT_255_1_388
10
23.1879934
20
115.854052
40
0.0849605
50
285.8512844
51
315.941661
0
ARC
8
DEFAULT_255_1_388
10
23.1747814
20
115.896762
40
0.1296594
50
273.1293204
51
286.3125006
0
ARC
8
DEFAULT_255_1_388
10
23.1710324
20
115.9419586
40
0.1749979
50
269.9535313
51
273.5471598
0
ARC
8
DEFAULT_255_1_388
10
23.1697929
20
115.9173833
40
0.1504266
50
259.0487117
51
270.4180248
0
ARC
8
DEFAULT_255_1_388
10
23.1589542
20
115.8636783
40
0.0956414
50
239.7583641
51
259.3115656
0
ARC
8
DEFAULT_255_1_388
10
23.1498475
20
115.8467048
40
0.0763945
50
222.6243303
51
239.2473835
0
ARC
8
DEFAULT_255_1_388
10
23.1649646
20
115.8605572
40
0.0968985
50
182.9231258
51
222.598101
0
ARC
8
DEFAULT_255_1_388
10
23.1952845
20
115.8644696
40
0.1274004
50
179.9657458
51
183.9850364
0
LINE
8
DEFAULT_255_1_388
10
24.3961238
20
115.9133382
11
24.3961238
21
115.7769
0
LINE
8
DEFAULT_255_1_388
10
24.3961238
20
115.7769
11
23.5341233
21
115.7769
0
LINE
8
DEFAULT_255_1_388
10
23.5341233
20
115.7769
11
23.5341233
21
115.8970741
0
LINE
8
DEFAULT_255_1_388
10
23.5341233
20
115.8970741
11
23.9895198
21
116.4030702
0
LINE
8
DEFAULT_255_1_388
10
23.675983
20
116.7048607
11
23.5088235
21
116.7048607
0
LINE
8
DEFAULT_255_1_388
10
24.0880083
20
116.295546
11
23.7356182
21
115.9133382
0
LINE
8
DEFAULT_255_1_388
10
23.7356182
20
115.9133382
11
24.3961238
21
115.9133382
0
ARC
8
DEFAULT_255_1_388
10
22.4719258
20
117.7450983
40
2.0258655
50
318.5132526
51
320.7829045
0
ARC
8
DEFAULT_255_1_388
10
23.0667215
20
117.2609929
40
1.2589638
50
320.7372878
51
323.9739031
0
ARC
8
DEFAULT_255_1_388
10
23.5076146
20
116.9415554
40
0.7145141
50
323.8962701
51
328.64194
0
ARC
8
DEFAULT_255_1_388
10
23.7378404
20
116.7995545
40
0.4440242
50
328.8294576
51
331.7891185
0
ARC
8
DEFAULT_255_1_388
10
23.8500724
20
116.7416374
40
0.3177517
50
331.4254512
51
352.9365785
0
ARC
8
DEFAULT_255_1_388
10
23.8653724
20
116.738205
40
0.3021496
50
353.2257659
51
0.0166158
0
ARC
8
DEFAULT_255_1_388
10
23.8890485
20
116.7407894
40
0.2784847
50
359.486299
51
15.9343185
0
ARC
8
DEFAULT_255_1_388
10
23.9460751
20
116.7561269
40
0.2194403
50
16.1712913
51
43.5286088
0
ARC
8
DEFAULT_255_1_388
10
23.9547696
20
116.7648191
40
0.2071504
50
43.4417391
51
83.1661095
0
ARC
8
DEFAULT_255_1_388
10
23.9396857
20
116.6819316
40
0.2912888
50
82.160179
51
90.1505708
0
ARC
8
DEFAULT_255_1_388
10
23.9361339
20
116.6215279
40
0.3517025
50
89.5460741
51
102.5418361
0
ARC
8
DEFAULT_255_1_388
10
23.9088059
20
116.7374933
40
0.2325748
50
102.1738499
51
129.206123
0
ARC
8
DEFAULT_255_1_388
10
23.8999512
20
116.7514664
40
0.2161591
50
129.72865
51
135.753947
0
ARC
8
DEFAULT_255_1_388
10
23.9135994
20
116.7405728
40
0.2335433
50
136.1757367
51
166.3673339
0
ARC
8
DEFAULT_255_1_388
10
24.0268683
20
116.7102148
40
0.3507873
50
165.9090694
51
178.8684636
0
ARC
8
DEFAULT_255_1_388
10
24.1244454
20
116.7049263
40
0.4484624
50
178.4391136
51
180.0083808
0
ARC
8
DEFAULT_255_1_388
10
23.9665156
20
116.7093197
40
0.4577138
50
163.2878482
51
180.5581842
0
ARC
8
DEFAULT_255_1_388
10
23.8763197
20
116.7341393
40
0.3641968
50
133.4540601
51
162.947111
0
ARC
8
DEFAULT_255_1_388
10
23.8964079
20
116.7127789
40
0.3935189
50
100.7869829
51
133.4382499
0
ARC
8
DEFAULT_255_1_388
10
23.9355324
20
116.5385399
40
0.5720313
50
89.660664
51
101.3702276
0
ARC
8
DEFAULT_255_1_388
10
23.9429933
20
116.5454263
40
0.5651495
50
78.2172678
51
90.412935
0
ARC
8
DEFAULT_255_1_388
10
23.9829398
20
116.7281511
40
0.378122
50
55.9269121
51
78.4888449
0
ARC
8
DEFAULT_255_1_388
10
24.0050113
20
116.7662187
40
0.3342379
50
47.929771
51
55.4049217
0
ARC
8
DEFAULT_255_1_388
10
24.0164644
20
116.7778618
40
0.3179217
50
4.334829
51
48.0560205
0
ARC
8
DEFAULT_255_1_388
10
23.8932445
20
116.7587487
40
0.442341
50
359.9251713
51
5.5971671
0
ARC
8
DEFAULT_255_1_388
10
23.94146
20
116.7650728
40
0.3941854
50
337.8914027
51
358.9967534
0
ARC
8
DEFAULT_255_1_388
10
23.636217
20
116.8828295
40
0.7213271
50
326.9132501
51
338.3508308
0
ARC
8
DEFAULT_255_1_388
10
23.1878282
20
117.1702105
40
1.2538973
50
319.6471833
51
327.0959558
0
ARC
8
DEFAULT_255_1_388
10
22.756494
20
117.526005
40
1.8129975
50
317.2588228
51
319.9045804
0
LINE
8
DEFAULT_255_1_388
10
22.8439716
20
123.7144
11
22.6686801
21
123.7144
0
LINE
8
DEFAULT_255_1_388
10
22.4798351
20
124.3071383
11
22.6424767
21
124.3071383
0
LINE
8
DEFAULT_255_1_388
10
22.6424767
20
124.3071383
11
22.6424767
21
124.3839413
0
LINE
8
DEFAULT_255_1_388
10
22.2250299
20
124.4209874
11
22.0569669
21
124.4209874
0
LINE
8
DEFAULT_255_1_388
10
22.8096361
20
124.3929769
11
22.8096361
21
123.9430018
0
LINE
8
DEFAULT_255_1_388
10
22.8439716
20
123.728857
11
22.8439716
21
123.7144
0
LINE
8
DEFAULT_255_1_388
10
22.6424767
20
123.98818
11
22.6424767
21
124.1887713
0
LINE
8
DEFAULT_255_1_388
10
22.6424767
20
124.1887713
11
22.5114599
21
124.1887713
0
ARC
8
DEFAULT_255_1_388
10
22.785595
20
123.77111
40
0.1299428
50
197.0784902
51
205.8758668
0
ARC
8
DEFAULT_255_1_388
10
22.9250536
20
123.8152959
40
0.2762313
50
192.2927663
51
197.3441989
0
ARC
8
DEFAULT_255_1_388
10
23.1446042
20
123.864076
40
0.5011345
50
189.1573793
51
192.3977084
0
ARC
8
DEFAULT_255_1_388
10
23.4610888
20
123.9156878
40
0.8217995
50
186.8686098
51
189.1982636
0
ARC
8
DEFAULT_255_1_388
10
22.3555979
20
124.089726
40
0.3975173
50
294.0079259
51
316.7603918
0
ARC
8
DEFAULT_255_1_388
10
22.3701162
20
124.0692902
40
0.3729755
50
269.5043226
51
293.2478373
0
ARC
8
DEFAULT_255_1_388
10
22.3634214
20
124.1143915
40
0.4180772
50
255.4034155
51
270.4753052
0
ARC
8
DEFAULT_255_1_388
10
22.3375427
20
124.0139652
40
0.3143705
50
228.6141063
51
255.3550831
0
ARC
8
DEFAULT_255_1_388
10
22.3001409
20
123.978154
40
0.2628114
50
181.8954381
51
229.5703134
0
ARC
8
DEFAULT_255_1_388
10
22.3666345
20
123.9853824
40
0.329546
50
179.9848815
51
182.7691528
0
ARC
8
DEFAULT_255_1_388
10
22.3573411
20
123.9892827
40
0.3202753
50
161.0342928
51
180.6822077
0
ARC
8
DEFAULT_255_1_388
10
22.3079026
20
124.0021422
40
0.2693695
50
125.0525065
51
160.2034058
0
ARC
8
DEFAULT_255_1_388
10
22.3823748
20
123.9005275
40
0.3953338
50
106.2670809
51
125.4300189
0
ARC
8
DEFAULT_255_1_388
10
22.4467789
20
123.6900795
40
0.6154041
50
95.4857579
51
106.5348562
0
ARC
8
DEFAULT_255_1_388
10
22.4775077
20
123.4088993
40
0.8982419
50
89.8515405
51
95.7222579
0
ARC
8
DEFAULT_255_1_388
10
22.4055658
20
124.3859925
40
0.2369198
50
359.5039339
51
14.3181205
0
ARC
8
DEFAULT_255_1_388
10
22.4701662
20
124.4027862
40
0.170173
50
14.2184556
51
45.2028524
0
ARC
8
DEFAULT_255_1_388
10
22.4742358
20
124.4043862
40
0.1661795
50
45.8098216
51
73.0032926
0
ARC
8
DEFAULT_255_1_388
10
22.4462185
20
124.318726
40
0.2562942
50
72.6112517
51
85.7231489
0
ARC
8
DEFAULT_255_1_388
10
22.4360969
20
124.2160339
40
0.3594635
50
85.335019
51
90.0855069
0
ARC
8
DEFAULT_255_1_388
10
22.4334402
20
124.2824472
40
0.2930574
50
89.5854741
51
103.459124
0
ARC
8
DEFAULT_255_1_388
10
22.4162941
20
124.3539134
40
0.2195632
50
103.448332
51
126.5403399
0
ARC
8
DEFAULT_255_1_388
10
22.3893918
20
124.3883224
40
0.1759039
50
126.1730306
51
141.5008224
0
ARC
8
DEFAULT_255_1_388
10
22.3468233
20
124.4217266
40
0.1217955
50
141.3332087
51
180.3477313
0
ARC
8
DEFAULT_255_1_388
10
22.2709656
20
124.4197904
40
0.214002
50
151.6373605
51
179.6795088
0
ARC
8
DEFAULT_255_1_388
10
22.3386892
20
124.3860768
40
0.2896224
50
142.4981529
51
152.1330509
0
ARC
8
DEFAULT_255_1_388
10
22.3744896
20
124.3579781
40
0.3351307
50
120.8284906
51
142.4132156
0
ARC
8
DEFAULT_255_1_388
10
22.4212872
20
124.2847185
40
0.4220297
50
113.9634885
51
121.1871733
0
ARC
8
DEFAULT_255_1_388
10
22.4366181
20
124.2473705
40
0.4623867
50
93.3784336
51
113.8197902
0
ARC
8
DEFAULT_255_1_388
10
22.4452563
20
124.1612549
40
0.5488732
50
89.9745993
51
93.7488475
0
ARC
8
DEFAULT_255_1_388
10
22.4491809
20
124.1653587
40
0.5447818
50
79.1327128
51
90.3871707
0
ARC
8
DEFAULT_255_1_388
10
22.4857573
20
124.3481597
40
0.3583662
50
60.1434453
51
79.365517
0
ARC
8
DEFAULT_255_1_388
10
22.5146339
20
124.4036195
40
0.2959028
50
48.6191018
51
59.6466565
0
ARC
8
DEFAULT_255_1_388
10
22.5200051
20
124.4107356
40
0.2870136
50
9.0349502
51
48.4845487
0
ARC
8
DEFAULT_255_1_388
10
22.398935
20
124.3843084
40
0.4107927
50
1.2091359
51
10.0234369
0
ARC
8
DEFAULT_255_1_388
10
23.6686798
20
123.9402422
40
0.8590481
50
179.8159449
51
185.3205667
0
ARC
8
DEFAULT_255_1_388
10
23.3654643
20
123.9112945
40
0.5544553
50
185.2475628
51
192.7952551
0
ARC
8
DEFAULT_255_1_388
10
23.1672467
20
123.8658024
40
0.3510853
50
192.7195981
51
202.9584216
0
ARC
8
DEFAULT_255_1_388
10
22.3912503
20
124.1355895
40
0.2937869
50
270.006916
51
300.503478
0
ARC
8
DEFAULT_255_1_388
10
22.4050438
20
124.1211888
40
0.2744162
50
299.5482616
51
315.609538
0
ARC
8
DEFAULT_255_1_388
10
22.4376734
20
124.0878072
40
0.2277499
50
315.8682065
51
334.0592465
0
ARC
8
DEFAULT_255_1_388
10
22.5065708
20
123.40419
40
0.7845965
50
89.64297
51
97.2867877
0
ARC
8
DEFAULT_255_1_388
10
22.4569305
20
123.7758936
40
0.4096042
50
96.9938706
51
109.7783917
0
ARC
8
DEFAULT_255_1_388
10
22.3820768
20
123.9762851
40
0.1957225
50
109.0087985
51
135.3265591
0
ARC
8
DEFAULT_255_1_388
10
22.3513187
20
124.0143764
40
0.1471704
50
137.4537784
51
182.1083946
0
ARC
8
DEFAULT_255_1_388
10
22.3933887
20
124.0071101
40
0.1891498
50
179.4390335
51
195.7201623
0
ARC
8
DEFAULT_255_1_388
10
22.3470922
20
123.9944585
40
0.1411576
50
195.8683556
51
230.157074
0
ARC
8
DEFAULT_255_1_388
10
22.3743645
20
124.0271228
40
0.1837102
50
230.1532486
51
259.7486257
0
ARC
8
DEFAULT_255_1_388
10
22.3899687
20
124.1006472
40
0.258848
50
259.2461118
51
270.2915316
0
ARC
8
DEFAULT_255_1_388
10
23.1956855
20
123.8031142
40
0.1204062
50
163.5412609
51
180.5084512
0
ARC
8
DEFAULT_255_1_388
10
23.1740754
20
123.808946
40
0.0980307
50
138.1652
51
163.2315563
0
ARC
8
DEFAULT_255_1_388
10
23.1614495
20
123.8196456
40
0.0814881
50
105.6860499
51
137.8492655
0
ARC
8
DEFAULT_255_1_388
10
23.1747696
20
123.7764109
40
0.126719
50
92.6078949
51
106.199173
0
ARC
8
DEFAULT_255_1_388
10
23.1781886
20
123.7318207
40
0.1714243
50
89.9659531
51
93.0713334
0
ARC
8
DEFAULT_255_1_388
10
23.1793922
20
123.7568484
40
0.1464007
50
78.4379126
51
90.4311892
0
ARC
8
DEFAULT_255_1_388
10
23.1902569
20
123.8075017
40
0.094599
50
56.8961942
51
78.7357785
0
ARC
8
DEFAULT_255_1_388
10
23.1973679
20
123.8199075
40
0.0803272
50
42.6503148
51
56.3122241
0
ARC
8
DEFAULT_255_1_388
10
23.1829581
20
123.8066661
40
0.099897
50
3.8141057
51
42.636595
0
ARC
8
DEFAULT_255_1_388
10
23.1506903
20
123.8021616
40
0.1324137
50
359.9498843
51
4.8301897
0
ARC
8
DEFAULT_255_1_388
10
23.176204
20
123.8009722
40
0.1069053
50
340.9378148
51
0.5753733
0
ARC
8
DEFAULT_255_1_388
10
23.1888623
20
123.7975569
40
0.0938301
50
316.0798885
51
340.3845117
0
ARC
8
DEFAULT_255_1_388
10
23.1953934
20
123.791552
40
0.0849605
50
285.8512844
51
315.941661
0
ARC
8
DEFAULT_255_1_388
10
23.1821814
20
123.834262
40
0.1296594
50
273.1293204
51
286.3125006
0
ARC
8
DEFAULT_255_1_388
10
23.1784324
20
123.8794586
40
0.1749979
50
269.9535313
51
273.5471598
0
ARC
8
DEFAULT_255_1_388
10
23.1771929
20
123.8548833
40
0.1504266
50
259.0487117
51
270.4180248
0
ARC
8
DEFAULT_255_1_388
10
23.1663542
20
123.8011783
40
0.0956414
50
239.7583641
51
259.3115656
0
ARC
8
DEFAULT_255_1_388
10
23.1572475
20
123.7842048
40
0.0763945
50
222.6243303
51
239.2473835
0
ARC
8
DEFAULT_255_1_388
10
23.1723646
20
123.7980572
40
0.0968985
50
182.9231258
51
222.598101
0
ARC
8
DEFAULT_255_1_388
10
23.2026845
20
123.8019696
40
0.1274004
50
179.9657458
51
183.9850364
0
LINE
8
DEFAULT_255_1_388
10
24.0908905
20
125.0363148
11
24.0908905
21
123.7144
0
LINE
8
DEFAULT_255_1_388
10
24.0908905
20
123.7144
11
23.9228275
21
123.7144
0
LINE
8
DEFAULT_255_1_388
10
23.9228275
20
123.7144
11
23.9228275
21
124.828495
0
LINE
8
DEFAULT_255_1_388
10
23.9228275
20
124.828495
11
23.585798
21
124.7047066
0
LINE
8
DEFAULT_255_1_388
10
23.585798
20
124.7047066
11
23.585798
21
124.8565055
0
LINE
8
DEFAULT_255_1_388
10
23.585798
20
124.8565055
11
24.0646872
21
125.0363148
0
LINE
8
DEFAULT_255_1_388
10
24.0646872
20
125.0363148
11
24.0908905
21
125.0363148
0
LINE
8
DEFAULT_255_1_388
10
22.8365716
20
131.6519
11
22.6612801
21
131.6519
0
LINE
8
DEFAULT_255_1_388
10
22.4724351
20
132.2446383
11
22.6350767
21
132.2446383
0
LINE
8
DEFAULT_255_1_388
10
22.6350767
20
132.2446383
11
22.6350767
21
132.3214413
0
LINE
8
DEFAULT_255_1_388
10
22.2176299
20
132.3584874
11
22.0495669
21
132.3584874
0
LINE
8
DEFAULT_255_1_388
10
22.8022361
20
132.3304769
11
22.8022361
21
131.8805018
0
LINE
8
DEFAULT_255_1_388
10
22.8365716
20
131.666357
11
22.8365716
21
131.6519
0
LINE
8
DEFAULT_255_1_388
10
22.6350767
20
131.92568
11
22.6350767
21
132.1262713
0
LINE
8
DEFAULT_255_1_388
10
22.6350767
20
132.1262713
11
22.5040599
21
132.1262713
0
ARC
8
DEFAULT_255_1_388
10
22.778195
20
131.70861
40
0.1299428
50
197.0784902
51
205.8758668
0
ARC
8
DEFAULT_255_1_388
10
22.9176536
20
131.7527959
40
0.2762313
50
192.2927663
51
197.3441989
0
ARC
8
DEFAULT_255_1_388
10
23.1372042
20
131.801576
40
0.5011345
50
189.1573793
51
192.3977084
0
ARC
8
DEFAULT_255_1_388
10
23.4536888
20
131.8531878
40
0.8217995
50
186.8686098
51
189.1982636
0
ARC
8
DEFAULT_255_1_388
10
22.3481979
20
132.027226
40
0.3975173
50
294.0079259
51
316.7603918
0
ARC
8
DEFAULT_255_1_388
10
22.3627162
20
132.0067902
40
0.3729755
50
269.5043226
51
293.2478373
0
ARC
8
DEFAULT_255_1_388
10
22.3560214
20
132.0518915
40
0.4180772
50
255.4034155
51
270.4753052
0
ARC
8
DEFAULT_255_1_388
10
22.3301427
20
131.9514652
40
0.3143705
50
228.6141063
51
255.3550831
0
ARC
8
DEFAULT_255_1_388
10
22.2927409
20
131.915654
40
0.2628114
50
181.8954381
51
229.5703134
0
ARC
8
DEFAULT_255_1_388
10
22.3592345
20
131.9228824
40
0.329546
50
179.9848815
51
182.7691528
0
ARC
8
DEFAULT_255_1_388
10
22.3499411
20
131.9267827
40
0.3202753
50
161.0342928
51
180.6822077
0
ARC
8
DEFAULT_255_1_388
10
22.3005026
20
131.9396422
40
0.2693695
50
125.0525065
51
160.2034058
0
ARC
8
DEFAULT_255_1_388
10
22.3749748
20
131.8380275
40
0.3953338
50
106.2670809
51
125.4300189
0
ARC
8
DEFAULT_255_1_388
10
22.4393789
20
131.6275795
40
0.6154041
50
95.4857579
51
106.5348562
0
ARC
8
DEFAULT_255_1_388
10
22.4701077
20
131.3463993
40
0.8982419
50
89.8515405
51
95.7222579
0
ARC
8
DEFAULT_255_1_388
10
22.3981658
20
132.3234925
40
0.2369198
50
359.5039339
51
14.3181205
0
ARC
8
DEFAULT_255_1_388
10
22.4627662
20
132.3402862
40
0.170173
50
14.2184556
51
45.2028524
0
ARC
8
DEFAULT_255_1_388
10
22.4668358
20
132.3418862
40
0.1661795
50
45.8098216
51
73.0032926
0
ARC
8
DEFAULT_255_1_388
10
22.4388185
20
132.256226
40
0.2562942
50
72.6112517
51
85.7231489
0
ARC
8
DEFAULT_255_1_388
10
22.4286969
20
132.1535339
40
0.3594635
50
85.335019
51
90.0855069
0
ARC
8
DEFAULT_255_1_388
10
22.4260402
20
132.2199472
40
0.2930574
50
89.5854741
51
103.459124
0
ARC
8
DEFAULT_255_1_388
10
22.4088941
20
132.2914134
40
0.2195632
50
103.448332
51
126.5403399
0
ARC
8
DEFAULT_255_1_388
10
22.3819918
20
132.3258224
40
0.1759039
50
126.1730306
51
141.5008224
0
ARC
8
DEFAULT_255_1_388
10
22.3394233
20
132.3592266
40
0.1217955
50
141.3332087
51
180.3477313
0
ARC
8
DEFAULT_255_1_388
10
22.2635656
20
132.3572904
40
0.214002
50
151.6373605
51
179.6795088
0
ARC
8
DEFAULT_255_1_388
10
22.3312892
20
132.3235768
40
0.2896224
50
142.4981529
51
152.1330509
0
ARC
8
DEFAULT_255_1_388
10
22.3670896
20
132.2954781
40
0.3351307
50
120.8284906
51
142.4132156
0
ARC
8
DEFAULT_255_1_388
10
22.4138872
20
132.2222185
40
0.4220297
50
113.9634885
51
121.1871733
0
ARC
8
DEFAULT_255_1_388
10
22.4292181
20
132.1848705
40
0.4623867
50
93.3784336
51
113.8197902
0
ARC
8
DEFAULT_255_1_388
10
22.4378563
20
132.0987549
40
0.5488732
50
89.9745993
51
93.7488475
0
ARC
8
DEFAULT_255_1_388
10
22.4417809
20
132.1028587
40
0.5447818
50
79.1327128
51
90.3871707
0
ARC
8
DEFAULT_255_1_388
10
22.4783573
20
132.2856597
40
0.3583662
50
60.1434453
51
79.365517
0
ARC
8
DEFAULT_255_1_388
10
22.5072339
20
132.3411195
40
0.2959028
50
48.6191018
51
59.6466565
0
ARC
8
DEFAULT_255_1_388
10
22.5126051
20
132.3482356
40
0.2870136
50
9.0349502
51
48.4845487
0
ARC
8
DEFAULT_255_1_388
10
22.391535
20
132.3218084
40
0.4107927
50
1.2091359
51
10.0234369
0
ARC
8
DEFAULT_255_1_388
10
23.6612798
20
131.8777422
40
0.8590481
50
179.8159449
51
185.3205667
0
ARC
8
DEFAULT_255_1_388
10
23.3580643
20
131.8487945
40
0.5544553
50
185.2475628
51
192.7952551
0
ARC
8
DEFAULT_255_1_388
10
23.1598467
20
131.8033024
40
0.3510853
50
192.7195981
51
202.9584216
0
ARC
8
DEFAULT_255_1_388
10
22.3838503
20
132.0730895
40
0.2937869
50
270.006916
51
300.503478
0
ARC
8
DEFAULT_255_1_388
10
22.3976438
20
132.0586888
40
0.2744162
50
299.5482616
51
315.609538
0
ARC
8
DEFAULT_255_1_388
10
22.4302734
20
132.0253072
40
0.2277499
50
315.8682065
51
334.0592465
0
ARC
8
DEFAULT_255_1_388
10
22.4991708
20
131.34169
40
0.7845965
50
89.64297
51
97.2867877
0
ARC
8
DEFAULT_255_1_388
10
22.4495305
20
131.7133936
40
0.4096042
50
96.9938706
51
109.7783917
0
ARC
8
DEFAULT_255_1_388
10
22.3746768
20
131.9137851
40
0.1957225
50
109.0087985
51
135.3265591
0
ARC
8
DEFAULT_255_1_388
10
22.3439187
20
131.9518764
40
0.1471704
50
137.4537784
51
182.1083946
0
ARC
8
DEFAULT_255_1_388
10
22.3859887
20
131.9446101
40
0.1891498
50
179.4390335
51
195.7201623
0
ARC
8
DEFAULT_255_1_388
10
22.3396922
20
131.9319585
40
0.1411576
50
195.8683556
51
230.157074
0
ARC
8
DEFAULT_255_1_388
10
22.3669645
20
131.9646228
40
0.1837102
50
230.1532486
51
259.7486257
0
ARC
8
DEFAULT_255_1_388
10
22.3825687
20
132.0381472
40
0.258848
50
259.2461118
51
270.2915316
0
ARC
8
DEFAULT_255_1_388
10
23.1882855
20
131.7406142
40
0.1204062
50
163.5412609
51
180.5084512
0
ARC
8
DEFAULT_255_1_388
10
23.1666754
20
131.746446
40
0.0980307
50
138.1652
51
163.2315563
0
ARC
8
DEFAULT_255_1_388
10
23.1540495
20
131.7571456
40
0.0814881
50
105.6860499
51
137.8492655
0
ARC
8
DEFAULT_255_1_388
10
23.1673696
20
131.7139109
40
0.126719
50
92.6078949
51
106.199173
0
ARC
8
DEFAULT_255_1_388
10
23.1707886
20
131.6693207
40
0.1714243
50
89.9659531
51
93.0713334
0
ARC
8
DEFAULT_255_1_388
10
23.1719922
20
131.6943484
40
0.1464007
50
78.4379126
51
90.4311892
0
ARC
8
DEFAULT_255_1_388
10
23.1828569
20
131.7450017
40
0.094599
50
56.8961942
51
78.7357785
0
ARC
8
DEFAULT_255_1_388
10
23.1899679
20
131.7574075
40
0.0803272
50
42.6503148
51
56.3122241
0
ARC
8
DEFAULT_255_1_388
10
23.1755581
20
131.7441661
40
0.099897
50
3.8141057
51
42.636595
0
ARC
8
DEFAULT_255_1_388
10
23.1432903
20
131.7396616
40
0.1324137
50
359.9498843
51
4.8301897
0
ARC
8
DEFAULT_255_1_388
10
23.168804
20
131.7384722
40
0.1069053
50
340.9378148
51
0.5753733
0
ARC
8
DEFAULT_255_1_388
10
23.1814623
20
131.7350569
40
0.0938301
50
316.0798885
51
340.3845117
0
ARC
8
DEFAULT_255_1_388
10
23.1879934
20
131.729052
40
0.0849605
50
285.8512844
51
315.941661
0
ARC
8
DEFAULT_255_1_388
10
23.1747814
20
131.771762
40
0.1296594
50
273.1293204
51
286.3125006
0
ARC
8
DEFAULT_255_1_388
10
23.1710324
20
131.8169586
40
0.1749979
50
269.9535313
51
273.5471598
0
ARC
8
DEFAULT_255_1_388
10
23.1697929
20
131.7923833
40
0.1504266
50
259.0487117
51
270.4180248
0
ARC
8
DEFAULT_255_1_388
10
23.1589542
20
131.7386783
40
0.0956414
50
239.7583641
51
259.3115656
0
ARC
8
DEFAULT_255_1_388
10
23.1498475
20
131.7217048
40
0.0763945
50
222.6243303
51
239.2473835
0
ARC
8
DEFAULT_255_1_388
10
23.1649646
20
131.7355572
40
0.0968985
50
182.9231258
51
222.598101
0
ARC
8
DEFAULT_255_1_388
10
23.1952845
20
131.7394696
40
0.1274004
50
179.9657458
51
183.9850364
0
LINE
8
DEFAULT_255_1_388
10
24.3590777
20
132.429869
11
24.3590777
21
132.2130135
0
LINE
8
DEFAULT_255_1_388
10
23.528702
20
132.1904244
11
23.528702
21
132.4136048
0
LINE
8
DEFAULT_255_1_388
10
24.1919183
20
132.1678353
11
24.1919183
21
132.4416153
0
LINE
8
DEFAULT_255_1_388
10
23.6958614
20
132.4542652
11
23.6958614
21
132.1868102
0
ARC
8
DEFAULT_255_1_388
10
22.9813111
20
132.2075118
40
1.3777776
50
353.8440855
51
0.2287917
0
ARC
8
DEFAULT_255_1_388
10
23.5032128
20
132.1492414
40
0.852639
50
344.4934746
51
353.9763743
0
ARC
8
DEFAULT_255_1_388
10
23.8398935
20
132.0535191
40
0.5026273
50
329.2803599
51
344.7473406
0
ARC
8
DEFAULT_255_1_388
10
23.9514431
20
131.9923038
40
0.3754848
50
324.9361395
51
328.6153007
0
ARC
8
DEFAULT_255_1_388
10
23.9940081
20
131.9625586
40
0.3235566
50
280.5801797
51
324.9173226
0
ARC
8
DEFAULT_255_1_388
10
23.948871
20
132.1505236
40
0.5167077
50
269.5979457
51
281.6732777
0
ARC
8
DEFAULT_255_1_388
10
23.9407613
20
132.1370113
40
0.5032026
50
256.6228565
51
270.5105488
0
ARC
8
DEFAULT_255_1_388
10
23.8955356
20
131.9628345
40
0.3233092
50
215.8618351
51
257.2787793
0
ARC
8
DEFAULT_255_1_388
10
24.0104063
20
132.0399106
40
0.4615831
50
197.9695203
51
215.2622745
0
ARC
8
DEFAULT_255_1_388
10
24.2899739
20
132.1342641
40
0.7566307
50
187.8816486
51
198.2346584
0
ARC
8
DEFAULT_255_1_388
10
24.7352977
20
132.1985453
40
1.2065653
50
180.8977266
51
188.0054894
0
ARC
8
DEFAULT_255_1_388
10
25.040319
20
132.21004
40
1.5117443
50
180.7434591
51
181.152202
0
ARC
8
DEFAULT_255_1_388
10
24.8728186
20
132.4190371
40
1.3441277
50
173.7674302
51
180.2315596
0
ARC
8
DEFAULT_255_1_388
10
24.3646055
20
132.4764779
40
0.8326847
50
164.3058537
51
173.9000553
0
ARC
8
DEFAULT_255_1_388
10
24.0370055
20
132.5708652
40
0.4917711
50
148.7922028
51
164.5682288
0
ARC
8
DEFAULT_255_1_388
10
23.9300793
20
132.6305457
40
0.3694204
50
144.5883979
51
148.1161588
0
ARC
8
DEFAULT_255_1_388
10
23.8913538
20
132.6575667
40
0.322202
50
101.6440149
51
144.5142619
0
ARC
8
DEFAULT_255_1_388
10
23.939173
20
132.4675337
40
0.5180451
50
89.528284
51
102.5820197
0
ARC
8
DEFAULT_255_1_388
10
23.9480722
20
132.4631376
40
0.5224441
50
77.0437914
51
90.508231
0
ARC
8
DEFAULT_255_1_388
10
23.9932976
20
132.6479272
40
0.3322297
50
48.2777708
51
77.4996087
0
ARC
8
DEFAULT_255_1_388
10
24.0014716
20
132.6624557
40
0.315966
50
36.3141586
51
47.6307332
0
ARC
8
DEFAULT_255_1_388
10
23.9037438
20
132.5966159
40
0.4337313
50
18.2931065
51
35.6770203
0
ARC
8
DEFAULT_255_1_388
10
23.6176279
20
132.4984107
40
0.7362203
50
8.0246996
51
18.5605636
0
ARC
8
DEFAULT_255_1_388
10
23.1492634
20
132.4292432
40
1.2096583
50
1.127539
51
8.1718423
0
ARC
8
DEFAULT_255_1_388
10
22.7843768
20
132.4149374
40
1.5747719
50
0.5432713
51
1.38669
0
ARC
8
DEFAULT_255_1_388
10
22.9901146
20
132.4456163
40
1.2018103
50
359.8092569
51
4.9408001
0
ARC
8
DEFAULT_255_1_388
10
23.4637728
20
132.48789
40
0.7262727
50
4.8364937
51
12.2906017
0
ARC
8
DEFAULT_255_1_388
10
23.7737193
20
132.5569485
40
0.4087324
50
12.0806994
51
23.8171225
0
ARC
8
DEFAULT_255_1_388
10
23.9057589
20
132.6128508
40
0.2653719
50
24.2874621
51
31.3934353
0
ARC
8
DEFAULT_255_1_388
10
23.9648024
20
132.6514822
40
0.1948607
50
30.7407708
51
82.4658033
0
ARC
8
DEFAULT_255_1_388
10
23.9445685
20
132.5521017
40
0.2961198
50
81.1057101
51
90.2187368
0
ARC
8
DEFAULT_255_1_388
10
23.9405497
20
132.5811421
40
0.2670929
50
89.380395
51
105.6763916
0
ARC
8
DEFAULT_255_1_388
10
23.9199219
20
132.656132
40
0.1893189
50
105.7980655
51
149.7387869
0
ARC
8
DEFAULT_255_1_388
10
24.0396359
20
132.5841719
40
0.3289892
50
149.4208441
51
163.628295
0
ARC
8
DEFAULT_255_1_388
10
24.2748589
20
132.5124345
40
0.5749004
50
163.3764549
51
172.141138
0
ARC
8
DEFAULT_255_1_388
10
24.646131
20
132.4592582
40
0.9499585
50
172.0258462
51
178.0705453
0
ARC
8
DEFAULT_255_1_388
10
24.9882863
20
132.4430682
40
1.2924734
50
177.8639301
51
179.5036263
0
ARC
8
DEFAULT_255_1_388
10
24.8663882
20
132.1827151
40
1.170534
50
179.7995545
51
185.246089
0
ARC
8
DEFAULT_255_1_388
10
24.4115475
20
132.1396404
40
0.7136613
50
185.1411911
51
193.0082205
0
ARC
8
DEFAULT_255_1_388
10
24.1141736
20
132.0693441
40
0.4080987
50
192.7897338
51
205.2507384
0
ARC
8
DEFAULT_255_1_388
10
23.9963945
20
132.0167538
40
0.2791522
50
205.8001921
51
211.2545876
0
ARC
8
DEFAULT_255_1_388
10
23.9375485
20
131.9773132
40
0.2084074
50
210.3789935
51
238.4007996
0
ARC
8
DEFAULT_255_1_388
10
23.9353571
20
131.9825786
40
0.2117943
50
239.6521916
51
265.9793852
0
ARC
8
DEFAULT_255_1_388
10
23.944942
20
132.0582358
40
0.2879689
50
265.1324455
51
270.0603288
0
ARC
8
DEFAULT_255_1_388
10
23.9481797
20
132.0217418
40
0.2514919
50
269.3314378
51
287.2180039
0
ARC
8
DEFAULT_255_1_388
10
23.9636879
20
131.9651291
40
0.1928357
50
287.7957942
51
329.0808983
0
ARC
8
DEFAULT_255_1_388
10
23.8559636
20
132.0323651
40
0.319808
50
328.6635261
51
343.3325043
0
ARC
8
DEFAULT_255_1_388
10
23.6115095
20
132.1085195
40
0.5758408
50
343.0498092
51
351.9392499
0
ARC
8
DEFAULT_255_1_388
10
23.2214416
20
132.1660205
40
0.9701202
50
351.8071632
51
357.7957897
0
ARC
8
DEFAULT_255_1_388
10
22.8579893
20
132.1848724
40
1.3340376
50
357.5870923
51
359.2682493
0
LINE
8
DEFAULT_255_1_388
10
23.0687985
20
140.9113148
11
23.0687985
21
139.5894
0
LINE
8
DEFAULT_255_1_388
10
23.0687985
20
139.5894
11
22.9007355
21
139.5894
0
LINE
8
DEFAULT_255_1_388
10
22.9007355
20
139.5894
11
22.9007355
21
140.703495
0
LINE
8
DEFAULT_255_1_388
10
22.9007355
20
140.703495
11
22.563706
21
140.5797066
0
LINE
8
DEFAULT_255_1_388
10
22.563706
20
140.5797066
11
22.563706
21
140.7315055
0
LINE
8
DEFAULT_255_1_388
10
22.563706
20
140.7315055
11
23.0425951
21
140.9113148
0
LINE
8
DEFAULT_255_1_388
10
23.0425951
20
140.9113148
11
23.0687985
21
140.9113148
0
LINE
8
DEFAULT_255_1_388
10
23.7762895
20
140.9049898
11
23.7762895
21
139.7312596
0
LINE
8
DEFAULT_255_1_388
10
23.7762895
20
139.7312596
11
24.3997489
21
139.7312596
0
LINE
8
DEFAULT_255_1_388
10
24.3997489
20
139.7312596
11
24.3997489
21
139.5894
0
LINE
8
DEFAULT_255_1_388
10
24.3997489
20
139.5894
11
23.6019015
21
139.5894
0
LINE
8
DEFAULT_255_1_388
10
23.6019015
20
139.5894
11
23.6019015
21
140.9049898
0
LINE
8
DEFAULT_255_1_388
10
23.6019015
20
140.9049898
11
23.7762895
21
140.9049898
0
ENDSEC
0
EOF