0
SECTION
2
HEADER
9
$MEASUREMENT
70
1
0
ENDSEC
0
SECTION
2
TABLES
0
TABLE
2
LTYPE
0
LTYPE
72
65
70
64
2
CONTINUOUS
3
______
73
0
40
0
0
ENDTAB
0
TABLE
2
LAYER
0
LAYER
2
DEFAULT_255_2_778
70
0
62
255
6
CONTINUOUS
0
LAYER
2
DEFAULT_255_1_388
70
0
62
255
6
CONTINUOUS
0
LAYER
2
DEFAULT_255_2_778_1
70
0
62
255
6
CONTINUOUS
0
ENDTAB
0
ENDSEC
0
SECTION
2
ENTITIES
0
ARC
8
DEFAULT_255_2_778
10
3.5700693
20
107.5552026
40
0.7914215
50
129.1312896
51
180.1450914
0
ARC
8
DEFAULT_255_2_778
10
3.5703345
20
107.5556897
40
0.7912112
50
89.854026
51
129.1684493
0
ARC
8
DEFAULT_255_2_778
10
25.7993937
20
107.5553762
40
0.7915249
50
39.4792447
51
90.147911
0
ARC
8
DEFAULT_255_2_778
10
25.7999935
20
107.5552229
40
0.7911595
50
359.8533901
51
39.5154338
0
ARC
8
DEFAULT_255_2_778
10
25.7996693
20
-1.9863497
40
0.7914836
50
309.4761667
51
0.1482649
0
ARC
8
DEFAULT_255_2_778
10
25.799398
20
-1.9867808
40
0.7913235
50
269.8517415
51
309.511178
0
ARC
8
DEFAULT_255_2_778
10
3.570342
20
-1.9867226
40
0.7913815
50
219.1282118
51
270.1454017
0
ARC
8
DEFAULT_255_2_778
10
3.5700247
20
-1.9863401
40
0.7913769
50
179.8524075
51
219.1641908
0
LINE
8
DEFAULT_255_2_778
10
3.5723503
20
108.3468985
11
25.7973503
21
108.3468985
0
LINE
8
DEFAULT_255_2_778
10
26.5911503
20
107.5531985
11
26.5911503
21
-1.9843015
0
LINE
8
DEFAULT_255_2_778
10
25.7973503
20
-2.7781015
11
3.5723503
21
-2.7781015
0
LINE
8
DEFAULT_255_2_778
10
2.7786503
20
-1.9843015
11
2.7786503
21
107.5531985
0
LINE
8
DEFAULT_255_1_388
10
5.8608015
20
0.6766934
11
5.8906191
21
0.6766934
0
LINE
8
DEFAULT_255_1_388
10
5.8906191
20
0.6766934
11
5.8906191
21
0.5348338
0
LINE
8
DEFAULT_255_1_388
10
5.8906191
20
0.5348338
11
5.8598979
21
0.5348338
0
LINE
8
DEFAULT_255_1_388
10
5.2445705
20
-0.1392253
11
5.2445705
21
-0.0750722
0
LINE
8
DEFAULT_255_1_388
10
5.4126335
20
-0.0967578
11
5.4126335
21
-0.1582001
0
ARC
8
DEFAULT_255_1_388
10
5.8657871
20
-0.0274174
40
0.562282
50
90.6001079
51
104.5146616
0
ARC
8
DEFAULT_255_1_388
10
5.822083
20
0.13511
40
0.3939917
50
104.2855758
51
133.8630124
0
ARC
8
DEFAULT_255_1_388
10
5.8405083
20
0.1229243
40
0.4155734
50
134.5304124
51
161.6210222
0
ARC
8
DEFAULT_255_1_388
10
6.0265015
20
0.0573421
40
0.6127682
50
161.2850533
51
174.2074364
0
ARC
8
DEFAULT_255_1_388
10
6.1854582
20
0.0354437
40
0.7731446
50
173.7817938
51
174.9251711
0
ARC
8
DEFAULT_255_1_388
10
5.6728775
20
-0.120073
40
0.3412588
50
95.8332067
51
138.995412
0
ARC
8
DEFAULT_255_1_388
10
5.6980056
20
-0.2639305
40
0.4870358
50
89.8755506
51
97.0540979
0
ARC
8
DEFAULT_255_1_388
10
5.7033445
20
-0.1699159
40
0.3930432
50
71.6407016
51
90.6240821
0
ARC
8
DEFAULT_255_1_388
10
5.7202838
20
-0.1075567
40
0.3285421
50
39.6368051
51
71.0190743
0
ARC
8
DEFAULT_255_1_388
10
5.6486746
20
-0.1694414
40
0.4231706
50
10.6588054
51
39.9044509
0
ARC
8
DEFAULT_255_1_388
10
5.4745291
20
-0.2072777
40
0.60133
50
359.6827842
51
11.1326896
0
ARC
8
DEFAULT_255_1_388
10
5.4700627
20
-0.2152285
40
0.6058047
50
347.2485908
51
0.4371098
0
ARC
8
DEFAULT_255_1_388
10
5.6576413
20
-0.2603621
40
0.4128987
50
318.1408565
51
347.6118497
0
ARC
8
DEFAULT_255_1_388
10
5.6942009
20
-0.2904097
40
0.3656244
50
275.6342406
51
317.824739
0
ARC
8
DEFAULT_255_1_388
10
5.669353
20
-0.1442173
40
0.513655
50
269.8872513
51
276.7916069
0
ARC
8
DEFAULT_255_1_388
10
5.6631723
20
-0.2595819
40
0.398323
50
246.9139443
51
270.7436787
0
ARC
8
DEFAULT_255_1_388
10
5.6638919
20
-0.2755956
40
0.3839368
50
218.1665534
51
245.8780431
0
ARC
8
DEFAULT_255_1_388
10
5.7628291
20
-0.1928097
40
0.5128958
50
191.4115343
51
218.6077624
0
ARC
8
DEFAULT_255_1_388
10
5.9808607
20
-0.1439223
40
0.7363054
50
179.6344971
51
191.7836758
0
ARC
8
DEFAULT_255_1_388
10
6.6088482
20
-0.0675505
40
1.3642984
50
171.4523743
51
180.3158856
0
ARC
8
DEFAULT_255_1_388
10
6.1144209
20
0.0093895
40
0.8639311
50
157.9802296
51
171.6246761
0
ARC
8
DEFAULT_255_1_388
10
5.8653559
20
0.1087038
40
0.5958004
50
141.4299236
51
157.8541251
0
ARC
8
DEFAULT_255_1_388
10
5.7931643
20
0.1597746
40
0.5075416
50
102.871586
51
140.8564533
0
ARC
8
DEFAULT_255_1_388
10
5.8660195
20
-0.1147057
40
0.7914163
50
90.377773
51
103.5868422
0
ARC
8
DEFAULT_255_1_388
10
5.6704717
20
-0.1827457
40
0.2667015
50
89.8751238
51
126.2072139
0
ARC
8
DEFAULT_255_1_388
10
5.6756188
20
-0.2001153
40
0.2838229
50
124.9742447
51
144.8960197
0
ARC
8
DEFAULT_255_1_388
10
5.6558433
20
-0.1840019
40
0.2583845
50
145.2974778
51
160.2660922
0
ARC
8
DEFAULT_255_1_388
10
6.0014921
20
-0.1617849
40
0.5888695
50
179.6512124
51
190.285571
0
ARC
8
DEFAULT_255_1_388
10
5.8109401
20
-0.1977032
40
0.3949683
50
190.0944895
51
207.5099647
0
ARC
8
DEFAULT_255_1_388
10
5.7472982
20
-0.2279823
40
0.3245464
50
207.9585471
51
216.325377
0
ARC
8
DEFAULT_255_1_388
10
5.7090619
20
-0.2594288
40
0.2751259
50
215.7661336
51
232.5457193
0
ARC
8
DEFAULT_255_1_388
10
5.6659735
20
-0.3141727
40
0.2054668
50
232.8005815
51
270.6605497
0
ARC
8
DEFAULT_255_1_388
10
5.671116
20
-0.2732147
40
0.2464268
50
269.3550767
51
288.474612
0
ARC
8
DEFAULT_255_1_388
10
5.6815667
20
-0.3125279
40
0.2058436
50
289.1831976
51
322.9685307
0
ARC
8
DEFAULT_255_1_388
10
5.6127768
20
-0.2582721
40
0.2934408
50
322.6007085
51
346.5183319
0
ARC
8
DEFAULT_255_1_388
10
5.4825524
20
-0.2250566
40
0.4278249
50
346.2584622
51
358.7739592
0
ARC
8
DEFAULT_255_1_388
10
5.36741
20
-0.2188171
40
0.5430876
50
358.3757628
51
0.0082477
0
ARC
8
DEFAULT_255_1_388
10
5.4530918
20
-0.2157144
40
0.4574157
50
359.6211417
51
11.28403
0
ARC
8
DEFAULT_255_1_388
10
5.5967524
20
-0.1857465
40
0.3106708
50
11.0483152
51
31.8145585
0
ARC
8
DEFAULT_255_1_388
10
5.6315229
20
-0.1668955
40
0.2711963
50
32.3028554
51
38.0820598
0
ARC
8
DEFAULT_255_1_388
10
5.6788462
20
-0.1240283
40
0.2075566
50
36.8249851
51
85.741667
0
ARC
8
DEFAULT_255_1_388
10
5.6712875
20
-0.1803935
40
0.2643487
50
85.0150021
51
90.050843
0
LINE
8
DEFAULT_255_1_388
10
7.0607351
20
0.1101585
11
7.0607351
21
-0.0317011
0
LINE
8
DEFAULT_255_1_388
10
7.0607351
20
-0.0317011
11
6.4905859
21
-0.0317011
0
LINE
8
DEFAULT_255_1_388
10
6.4905859
20
-0.0317011
11
6.4905859
21
-0.4979404
0
LINE
8
DEFAULT_255_1_388
10
6.4905859
20
-0.4979404
11
7.1528986
21
-0.4979404
0
LINE
8
DEFAULT_255_1_388
10
7.1528986
20
-0.4979404
11
7.1528986
21
-0.6398
0
LINE
8
DEFAULT_255_1_388
10
7.1528986
20
-0.6398
11
6.3171015
21
-0.6398
0
LINE
8
DEFAULT_255_1_388
10
6.3171015
20
-0.6398
11
6.3171015
21
0.6757898
0
LINE
8
DEFAULT_255_1_388
10
6.3171015
20
0.6757898
11
7.143863
21
0.6757898
0
LINE
8
DEFAULT_255_1_388
10
7.143863
20
0.6757898
11
7.143863
21
0.5330267
0
LINE
8
DEFAULT_255_1_388
10
7.143863
20
0.5330267
11
6.4905859
21
0.5330267
0
LINE
8
DEFAULT_255_1_388
10
6.4905859
20
0.5330267
11
6.4905859
21
0.1101585
0
LINE
8
DEFAULT_255_1_388
10
6.4905859
20
0.1101585
11
7.0607351
21
0.1101585
0
LINE
8
DEFAULT_255_1_388
10
8.2416938
20
0.2953892
11
8.0673059
21
0.2953892
0
LINE
8
DEFAULT_255_1_388
10
7.2884333
20
-0.2584958
11
7.4628212
21
-0.2584958
0
ARC
8
DEFAULT_255_1_388
10
8.1413786
20
1.3017821
40
1.4087688
50
248.9196578
51
254.1442424
0
ARC
8
DEFAULT_255_1_388
10
7.9523666
20
0.8151805
40
0.8867498
50
241.6337352
51
249.0064643
0
ARC
8
DEFAULT_255_1_388
10
7.7803979
20
0.5000764
40
0.5277799
50
230.4982261
51
241.8087583
0
ARC
8
DEFAULT_255_1_388
10
7.692175
20
0.3876686
40
0.3849419
50
227.4062979
51
229.9877433
0
ARC
8
DEFAULT_255_1_388
10
7.6373097
20
0.3341155
40
0.3084129
50
200.6782127
51
228.1765252
0
ARC
8
DEFAULT_255_1_388
10
7.6454466
20
0.3324277
40
0.315461
50
179.506278
51
199.8695278
0
ARC
8
DEFAULT_255_1_388
10
7.6444054
20
0.3407671
40
0.3144584
50
132.4834401
51
181.0242352
0
ARC
8
DEFAULT_255_1_388
10
7.7113259
20
0.2775788
40
0.4063094
50
129.2526113
51
133.4249077
0
ARC
8
DEFAULT_255_1_388
10
7.7278851
20
0.2527619
40
0.436014
50
101.9878945
51
128.8741833
0
ARC
8
DEFAULT_255_1_388
10
7.7727267
20
0.059136
40
0.6347415
50
89.5906376
51
102.3170567
0
ARC
8
DEFAULT_255_1_388
10
7.7806578
20
0.0949586
40
0.5989122
50
77.2359491
51
90.3248968
0
ARC
8
DEFAULT_255_1_388
10
7.8039509
20
0.2037554
40
0.4876594
50
63.8379856
51
77.0808925
0
ARC
8
DEFAULT_255_1_388
10
7.8352043
20
0.2619882
40
0.4216191
50
45.9863127
51
64.1608798
0
ARC
8
DEFAULT_255_1_388
10
7.8645436
20
0.295499
40
0.3771394
50
32.2747934
51
45.6544796
0
ARC
8
DEFAULT_255_1_388
10
7.8720243
20
0.2976426
40
0.3696765
50
359.6507495
51
32.6129943
0
ARC
8
DEFAULT_255_1_388
10
7.7659425
20
0.2981788
40
0.3013762
50
359.469654
51
14.983205
0
ARC
8
DEFAULT_255_1_388
10
7.8452678
20
0.3194288
40
0.2192542
50
14.9781954
51
48.2004799
0
ARC
8
DEFAULT_255_1_388
10
7.8267788
20
0.2961937
40
0.2489048
50
48.5926661
51
74.1242559
0
ARC
8
DEFAULT_255_1_388
10
7.7892591
20
0.1723607
40
0.3782845
50
73.7889321
51
86.6653996
0
ARC
8
DEFAULT_255_1_388
10
7.7777405
20
0.0365955
40
0.5145025
50
86.2642725
51
90.0533288
0
ARC
8
DEFAULT_255_1_388
10
7.7745498
20
0.0810376
40
0.4700681
50
89.669455
51
99.2313411
0
ARC
8
DEFAULT_255_1_388
10
7.7472658
20
0.2435401
40
0.3052945
50
99.0695987
51
113.7659242
0
ARC
8
DEFAULT_255_1_388
10
7.7164652
20
0.3161772
40
0.226407
50
114.0402885
51
127.9848946
0
ARC
8
DEFAULT_255_1_388
10
7.6894129
20
0.3494884
40
0.1835045
50
127.7287217
51
176.7106493
0
ARC
8
DEFAULT_255_1_388
10
7.7657794
20
0.338121
40
0.2604907
50
175.1780759
51
180.0581213
0
ARC
8
DEFAULT_255_1_388
10
7.6709137
20
0.3367411
40
0.1656287
50
179.6140658
51
228.124674
0
ARC
8
DEFAULT_255_1_388
10
7.7206495
20
0.382794
40
0.2332038
50
226.5785315
51
230.8792476
0
ARC
8
DEFAULT_255_1_388
10
7.7735981
20
0.4530908
40
0.3211664
50
231.4636401
51
241.9261664
0
ARC
8
DEFAULT_255_1_388
10
7.9082765
20
0.7009349
40
0.6032345
50
241.7177136
51
248.3259138
0
ARC
8
DEFAULT_255_1_388
10
8.0641359
20
1.0870771
40
1.0196417
50
248.2007377
51
252.4527713
0
ARC
8
DEFAULT_255_1_388
10
8.1994886
20
1.5055092
40
1.4594143
50
252.3388938
51
254.347037
0
ARC
8
DEFAULT_255_1_388
10
7.3510187
20
-1.5292905
40
1.6917621
50
71.0197462
51
74.4085467
0
ARC
8
DEFAULT_255_1_388
10
7.5417275
20
-0.9787856
40
1.1091618
50
66.1845203
51
71.086519
0
ARC
8
DEFAULT_255_1_388
10
7.7167823
20
-0.5846561
40
0.6779073
50
59.3537334
51
66.269255
0
ARC
8
DEFAULT_255_1_388
10
7.8167549
20
-0.4155223
40
0.4814366
50
49.1021732
51
59.3294421
0
ARC
8
DEFAULT_255_1_388
10
7.9088538
20
-0.3105425
40
0.3417875
50
32.7924183
51
49.2503526
0
ARC
8
DEFAULT_255_1_388
10
7.9438152
20
-0.2855689
40
0.2988789
50
31.121225
51
32.3977355
0
ARC
8
DEFAULT_255_1_388
10
7.935033
20
-0.2888272
40
0.3080861
50
8.1116803
51
30.7958224
0
ARC
8
DEFAULT_255_1_388
10
7.8438675
20
-0.3043563
40
0.4005385
50
359.8390945
51
8.4707348
0
ARC
8
DEFAULT_255_1_388
10
7.9142723
20
-0.3098249
40
0.3301608
50
337.4732479
51
0.7538283
0
ARC
8
DEFAULT_255_1_388
10
7.9343748
20
-0.3120446
40
0.3107929
50
307.5917028
51
336.4313755
0
ARC
8
DEFAULT_255_1_388
10
7.8832806
20
-0.2552491
40
0.3870096
50
307.6560665
51
308.4561779
0
ARC
8
DEFAULT_255_1_388
10
7.8567022
20
-0.2144168
40
0.435591
50
284.3733666
51
307.1426212
0
ARC
8
DEFAULT_255_1_388
10
7.8009917
20
-0.0094609
40
0.6479685
50
272.4384566
51
284.6464689
0
ARC
8
DEFAULT_255_1_388
10
7.7867302
20
0.1929434
40
0.8508149
50
269.9708517
51
272.8180721
0
ARC
8
DEFAULT_255_1_388
10
7.7818984
20
-0.0362717
40
0.6216151
50
248.2707343
51
270.4054609
0
ARC
8
DEFAULT_255_1_388
10
7.7757856
20
-0.0577327
40
0.5994203
50
246.1380358
51
248.054058
0
ARC
8
DEFAULT_255_1_388
10
7.7286998
20
-0.1566295
40
0.4899388
50
233.1671897
51
246.4951656
0
ARC
8
DEFAULT_255_1_388
10
7.6663633
20
-0.2407863
40
0.3852115
50
215.3403381
51
233.084328
0
ARC
8
DEFAULT_255_1_388
10
7.6356997
20
-0.2630907
40
0.3472969
50
179.2419235
51
215.2648426
0
ARC
8
DEFAULT_255_1_388
10
7.7220548
20
-0.2615021
40
0.259251
50
179.3355796
51
199.1045873
0
ARC
8
DEFAULT_255_1_388
10
7.684669
20
-0.2712777
40
0.2207454
50
199.8830064
51
232.7061328
0
ARC
8
DEFAULT_255_1_388
10
7.7377965
20
-0.2044544
40
0.306101
50
232.3736206
51
255.5136621
0
ARC
8
DEFAULT_255_1_388
10
7.776147
20
-0.0644823
40
0.4512213
50
255.2447928
51
267.5318292
0
ARC
8
DEFAULT_255_1_388
10
7.7859937
20
0.0741709
40
0.5901825
50
267.1564563
51
270.0294721
0
ARC
8
DEFAULT_255_1_388
10
7.7891263
20
0.0242623
40
0.5402814
50
269.6999944
51
278.1662446
0
ARC
8
DEFAULT_255_1_388
10
7.817929
20
-0.1704026
40
0.3435003
50
278.0229022
51
290.6255326
0
ARC
8
DEFAULT_255_1_388
10
7.8570457
20
-0.2747453
40
0.2320666
50
290.6616368
51
307.0374127
0
ARC
8
DEFAULT_255_1_388
10
7.8908357
20
-0.316196
40
0.1786372
50
306.3942078
51
355.303191
0
ARC
8
DEFAULT_255_1_388
10
7.833265
20
-0.3075814
40
0.2367516
50
354.3662092
51
0.0709489
0
ARC
8
DEFAULT_255_1_388
10
7.8492518
20
-0.3050439
40
0.2207761
50
359.4175379
51
16.1975911
0
ARC
8
DEFAULT_255_1_388
10
7.9004636
20
-0.2910046
40
0.1676828
50
16.4721294
51
52.6261798
0
ARC
8
DEFAULT_255_1_388
10
7.8081144
20
-0.4129394
40
0.3206412
50
52.7381828
51
62.4979144
0
ARC
8
DEFAULT_255_1_388
10
7.6522896
20
-0.7061764
40
0.6527035
50
62.2517425
51
68.1219454
0
ARC
8
DEFAULT_255_1_388
10
7.4588384
20
-1.1816049
40
1.1659797
50
68.006043
51
71.8055127
0
ARC
8
DEFAULT_255_1_388
10
7.2568292
20
-1.7874277
40
1.8045908
50
71.718361
51
73.9260743
0
LINE
8
DEFAULT_255_1_388
10
9.2726608
20
0.6757898
11
9.2726608
21
0.5818191
0
LINE
8
DEFAULT_255_1_388
10
9.2726608
20
0.5818191
11
8.7278115
21
-0.6398
0
LINE
8
DEFAULT_255_1_388
10
8.7278115
20
-0.6398
11
8.55252
21
-0.6398
0
LINE
8
DEFAULT_255_1_388
10
8.55252
20
-0.6398
11
9.0955622
21
0.538448
0
LINE
8
DEFAULT_255_1_388
10
9.0955622
20
0.538448
11
8.3835534
21
0.538448
0
LINE
8
DEFAULT_255_1_388
10
8.3835534
20
0.538448
11
8.3835534
21
0.6757898
0
LINE
8
DEFAULT_255_1_388
10
8.3835534
20
0.6757898
11
9.2726608
21
0.6757898
0
LINE
8
DEFAULT_255_1_388
10
10.3244099
20
-0.5033618
11
10.3244099
21
-0.6398
0
LINE
8
DEFAULT_255_1_388
10
10.3244099
20
-0.6398
11
9.4624094
21
-0.6398
0
LINE
8
DEFAULT_255_1_388
10
9.4624094
20
-0.6398
11
9.4624094
21
-0.5196259
0
LINE
8
DEFAULT_255_1_388
10
9.4624094
20
-0.5196259
11
9.9178059
21
-0.0136298
0
LINE
8
DEFAULT_255_1_388
10
9.604269
20
0.2881607
11
9.4371096
21
0.2881607
0
LINE
8
DEFAULT_255_1_388
10
10.0162944
20
-0.121154
11
9.6639042
21
-0.5033618
0
LINE
8
DEFAULT_255_1_388
10
9.6639042
20
-0.5033618
11
10.3244099
21
-0.5033618
0
ARC
8
DEFAULT_255_1_388
10
8.4002118
20
1.3283983
40
2.0258655
50
318.5132526
51
320.7829045
0
ARC
8
DEFAULT_255_1_388
10
8.9950075
20
0.8442929
40
1.2589638
50
320.7372878
51
323.9739031
0
ARC
8
DEFAULT_255_1_388
10
9.4359007
20
0.5248554
40
0.7145141
50
323.8962701
51
328.64194
0
ARC
8
DEFAULT_255_1_388
10
9.6661264
20
0.3828545
40
0.4440242
50
328.8294576
51
331.7891185
0
ARC
8
DEFAULT_255_1_388
10
9.7783584
20
0.3249374
40
0.3177517
50
331.4254512
51
352.9365785
0
ARC
8
DEFAULT_255_1_388
10
9.7936584
20
0.321505
40
0.3021496
50
353.2257659
51
0.0166158
0
ARC
8
DEFAULT_255_1_388
10
9.8173345
20
0.3240894
40
0.2784847
50
359.486299
51
15.9343185
0
ARC
8
DEFAULT_255_1_388
10
9.8743612
20
0.3394269
40
0.2194403
50
16.1712913
51
43.5286088
0
ARC
8
DEFAULT_255_1_388
10
9.8830556
20
0.3481191
40
0.2071504
50
43.4417391
51
83.1661095
0
ARC
8
DEFAULT_255_1_388
10
9.8679717
20
0.2652316
40
0.2912888
50
82.160179
51
90.1505708
0
ARC
8
DEFAULT_255_1_388
10
9.8644199
20
0.2048279
40
0.3517025
50
89.5460741
51
102.5418361
0
ARC
8
DEFAULT_255_1_388
10
9.8370919
20
0.3207933
40
0.2325748
50
102.1738499
51
129.206123
0
ARC
8
DEFAULT_255_1_388
10
9.8282372
20
0.3347664
40
0.2161591
50
129.72865
51
135.753947
0
ARC
8
DEFAULT_255_1_388
10
9.8418855
20
0.3238728
40
0.2335433
50
136.1757367
51
166.3673339
0
ARC
8
DEFAULT_255_1_388
10
9.9551543
20
0.2935148
40
0.3507873
50
165.9090694
51
178.8684636
0
ARC
8
DEFAULT_255_1_388
10
10.0527314
20
0.2882263
40
0.4484624
50
178.4391136
51
180.0083808
0
ARC
8
DEFAULT_255_1_388
10
9.8948016
20
0.2926197
40
0.4577138
50
163.2878482
51
180.5581842
0
ARC
8
DEFAULT_255_1_388
10
9.8046057
20
0.3174393
40
0.3641968
50
133.4540601
51
162.947111
0
ARC
8
DEFAULT_255_1_388
10
9.8246939
20
0.2960789
40
0.3935189
50
100.7869829
51
133.4382499
0
ARC
8
DEFAULT_255_1_388
10
9.8638184
20
0.1218399
40
0.5720313
50
89.660664
51
101.3702276
0
ARC
8
DEFAULT_255_1_388
10
9.8712793
20
0.1287263
40
0.5651495
50
78.2172678
51
90.412935
0
ARC
8
DEFAULT_255_1_388
10
9.9112259
20
0.3114511
40
0.378122
50
55.9269121
51
78.4888449
0
ARC
8
DEFAULT_255_1_388
10
9.9332974
20
0.3495187
40
0.3342379
50
47.929771
51
55.4049217
0
ARC
8
DEFAULT_255_1_388
10
9.9447504
20
0.3611618
40
0.3179217
50
4.334829
51
48.0560205
0
ARC
8
DEFAULT_255_1_388
10
9.8215306
20
0.3420487
40
0.442341
50
359.9251713
51
5.5971671
0
ARC
8
DEFAULT_255_1_388
10
9.869746
20
0.3483728
40
0.3941854
50
337.8914027
51
358.9967534
0
ARC
8
DEFAULT_255_1_388
10
9.5645031
20
0.4661295
40
0.7213271
50
326.9132501
51
338.3508308
0
ARC
8
DEFAULT_255_1_388
10
9.1161142
20
0.7535105
40
1.2538973
50
319.6471833
51
327.0959558
0
ARC
8
DEFAULT_255_1_388
10
8.6847801
20
1.109305
40
1.8129975
50
317.2588228
51
319.9045804
0
LINE
8
DEFAULT_255_1_388
10
11.0508757
20
0.6821148
11
11.0508757
21
-0.6398
0
LINE
8
DEFAULT_255_1_388
10
11.0508757
20
-0.6398
11
10.8828127
21
-0.6398
0
LINE
8
DEFAULT_255_1_388
10
10.8828127
20
-0.6398
11
10.8828127
21
0.474295
0
LINE
8
DEFAULT_255_1_388
10
10.8828127
20
0.474295
11
10.5457832
21
0.3505066
0
LINE
8
DEFAULT_255_1_388
10
10.5457832
20
0.3505066
11
10.5457832
21
0.5023055
0
LINE
8
DEFAULT_255_1_388
10
10.5457832
20
0.5023055
11
11.0246723
21
0.6821148
0
LINE
8
DEFAULT_255_1_388
10
11.0246723
20
0.6821148
11
11.0508757
21
0.6821148
0
LINE
8
DEFAULT_255_1_388
10
12.4026081
20
-0.5033618
11
12.4026081
21
-0.6398
0
LINE
8
DEFAULT_255_1_388
10
12.4026081
20
-0.6398
11
11.5406076
21
-0.6398
0
LINE
8
DEFAULT_255_1_388
10
11.5406076
20
-0.6398
11
11.5406076
21
-0.5196259
0
LINE
8
DEFAULT_255_1_388
10
11.5406076
20
-0.5196259
11
11.9960041
21
-0.0136298
0
LINE
8
DEFAULT_255_1_388
10
11.6824672
20
0.2881607
11
11.5153078
21
0.2881607
0
LINE
8
DEFAULT_255_1_388
10
12.0944926
20
-0.121154
11
11.7421025
21
-0.5033618
0
LINE
8
DEFAULT_255_1_388
10
11.7421025
20
-0.5033618
11
12.4026081
21
-0.5033618
0
ARC
8
DEFAULT_255_1_388
10
10.4784101
20
1.3283983
40
2.0258655
50
318.5132526
51
320.7829045
0
ARC
8
DEFAULT_255_1_388
10
11.0732057
20
0.8442929
40
1.2589638
50
320.7372878
51
323.9739031
0
ARC
8
DEFAULT_255_1_388
10
11.5140989
20
0.5248554
40
0.7145141
50
323.8962701
51
328.64194
0
ARC
8
DEFAULT_255_1_388
10
11.7443247
20
0.3828545
40
0.4440242
50
328.8294576
51
331.7891185
0
ARC
8
DEFAULT_255_1_388
10
11.8565567
20
0.3249374
40
0.3177517
50
331.4254512
51
352.9365785
0
ARC
8
DEFAULT_255_1_388
10
11.8718567
20
0.321505
40
0.3021496
50
353.2257659
51
0.0166158
0
ARC
8
DEFAULT_255_1_388
10
11.8955327
20
0.3240894
40
0.2784847
50
359.486299
51
15.9343185
0
ARC
8
DEFAULT_255_1_388
10
11.9525594
20
0.3394269
40
0.2194403
50
16.1712913
51
43.5286088
0
ARC
8
DEFAULT_255_1_388
10
11.9612539
20
0.3481191
40
0.2071504
50
43.4417391
51
83.1661095
0
ARC
8
DEFAULT_255_1_388
10
11.94617
20
0.2652316
40
0.2912888
50
82.160179
51
90.1505708
0
ARC
8
DEFAULT_255_1_388
10
11.9426182
20
0.2048279
40
0.3517025
50
89.5460741
51
102.5418361
0
ARC
8
DEFAULT_255_1_388
10
11.9152902
20
0.3207933
40
0.2325748
50
102.1738499
51
129.206123
0
ARC
8
DEFAULT_255_1_388
10
11.9064355
20
0.3347664
40
0.2161591
50
129.72865
51
135.753947
0
ARC
8
DEFAULT_255_1_388
10
11.9200837
20
0.3238728
40
0.2335433
50
136.1757367
51
166.3673339
0
ARC
8
DEFAULT_255_1_388
10
12.0333526
20
0.2935148
40
0.3507873
50
165.9090694
51
178.8684636
0
ARC
8
DEFAULT_255_1_388
10
12.1309297
20
0.2882263
40
0.4484624
50
178.4391136
51
180.0083808
0
ARC
8
DEFAULT_255_1_388
10
11.9729998
20
0.2926197
40
0.4577138
50
163.2878482
51
180.5581842
0
ARC
8
DEFAULT_255_1_388
10
11.882804
20
0.3174393
40
0.3641968
50
133.4540601
51
162.947111
0
ARC
8
DEFAULT_255_1_388
10
11.9028921
20
0.2960789
40
0.3935189
50
100.7869829
51
133.4382499
0
ARC
8
DEFAULT_255_1_388
10
11.9420166
20
0.1218399
40
0.5720313
50
89.660664
51
101.3702276
0
ARC
8
DEFAULT_255_1_388
10
11.9494775
20
0.1287263
40
0.5651495
50
78.2172678
51
90.412935
0
ARC
8
DEFAULT_255_1_388
10
11.9894241
20
0.3114511
40
0.378122
50
55.9269121
51
78.4888449
0
ARC
8
DEFAULT_255_1_388
10
12.0114956
20
0.3495187
40
0.3342379
50
47.929771
51
55.4049217
0
ARC
8
DEFAULT_255_1_388
10
12.0229487
20
0.3611618
40
0.3179217
50
4.334829
51
48.0560205
0
ARC
8
DEFAULT_255_1_388
10
11.8997288
20
0.3420487
40
0.442341
50
359.9251713
51
5.5971671
0
ARC
8
DEFAULT_255_1_388
10
11.9479443
20
0.3483728
40
0.3941854
50
337.8914027
51
358.9967534
0
ARC
8
DEFAULT_255_1_388
10
11.6427013
20
0.4661295
40
0.7213271
50
326.9132501
51
338.3508308
0
ARC
8
DEFAULT_255_1_388
10
11.1943125
20
0.7535105
40
1.2538973
50
319.6471833
51
327.0959558
0
ARC
8
DEFAULT_255_1_388
10
10.7629783
20
1.109305
40
1.8129975
50
317.2588228
51
319.9045804
0
LINE
8
DEFAULT_255_1_388
10
12.9447468
20
-0.0127263
11
12.9447468
21
-0.1491645
0
LINE
8
DEFAULT_255_1_388
10
12.9447468
20
-0.1491645
11
12.5038073
21
-0.1491645
0
LINE
8
DEFAULT_255_1_388
10
12.5038073
20
-0.1491645
11
12.5038073
21
-0.0127263
0
LINE
8
DEFAULT_255_1_388
10
12.5038073
20
-0.0127263
11
12.9447468
21
-0.0127263
0
LINE
8
DEFAULT_255_1_388
10
13.6395878
20
0.6821148
11
13.6395878
21
-0.6398
0
LINE
8
DEFAULT_255_1_388
10
13.6395878
20
-0.6398
11
13.4715249
21
-0.6398
0
LINE
8
DEFAULT_255_1_388
10
13.4715249
20
-0.6398
11
13.4715249
21
0.474295
0
LINE
8
DEFAULT_255_1_388
10
13.4715249
20
0.474295
11
13.1344953
21
0.3505066
0
LINE
8
DEFAULT_255_1_388
10
13.1344953
20
0.3505066
11
13.1344953
21
0.5023055
0
LINE
8
DEFAULT_255_1_388
10
13.1344953
20
0.5023055
11
13.6133845
21
0.6821148
0
LINE
8
DEFAULT_255_1_388
10
13.6133845
20
0.6821148
11
13.6395878
21
0.6821148
0
LINE
8
DEFAULT_255_1_388
10
14.6289909
20
-0.6398
11
14.1726909
21
-0.6398
0
LINE
8
DEFAULT_255_1_388
10
14.1726909
20
-0.6398
11
14.1726909
21
0.6757898
0
LINE
8
DEFAULT_255_1_388
10
14.1726909
20
0.6757898
11
14.6027875
21
0.6757898
0
LINE
8
DEFAULT_255_1_388
10
14.6353159
20
-0.0244726
11
14.3461752
21
-0.0244726
0
LINE
8
DEFAULT_255_1_388
10
14.3461752
20
-0.0244726
11
14.3461752
21
-0.4979404
0
LINE
8
DEFAULT_255_1_388
10
14.3461752
20
-0.4979404
11
14.6326052
21
-0.4979404
0
LINE
8
DEFAULT_255_1_388
10
14.3461752
20
0.5330267
11
14.3461752
21
0.1146763
0
LINE
8
DEFAULT_255_1_388
10
14.3461752
20
0.1146763
11
14.6082089
21
0.1146763
0
LINE
8
DEFAULT_255_1_388
10
14.6027875
20
0.5330267
11
14.3461752
21
0.5330267
0
ARC
8
DEFAULT_255_1_388
10
14.6070296
20
-0.1530176
40
0.8288183
50
82.1256322
51
90.2932506
0
ARC
8
DEFAULT_255_1_388
10
14.6507871
20
0.152759
40
0.5199321
50
69.9044202
51
82.2857574
0
ARC
8
DEFAULT_255_1_388
10
14.7149863
20
0.3262993
40
0.3348993
50
51.1840204
51
70.018125
0
ARC
8
DEFAULT_255_1_388
10
14.7436696
20
0.3679945
40
0.2844579
50
12.1018086
51
50.421322
0
ARC
8
DEFAULT_255_1_388
10
14.5879567
20
0.3288937
40
0.4449429
50
359.5252354
51
12.8212369
0
ARC
8
DEFAULT_255_1_388
10
14.7656997
20
0.3210943
40
0.2672162
50
323.4907456
51
0.8818258
0
ARC
8
DEFAULT_255_1_388
10
14.7186409
20
0.3574523
40
0.3266736
50
298.6824053
51
323.2758285
0
ARC
8
DEFAULT_255_1_388
10
14.6779701
20
0.4250509
40
0.4055105
50
293.1994739
51
299.139634
0
ARC
8
DEFAULT_255_1_388
10
14.7536651
20
-0.2595349
40
0.3229926
50
54.0009997
51
74.9168635
0
ARC
8
DEFAULT_255_1_388
10
14.7667577
20
-0.2373489
40
0.2973581
50
36.3578854
51
53.5293172
0
ARC
8
DEFAULT_255_1_388
10
14.7524946
20
-0.247515
40
0.3148715
50
4.8189348
51
36.3090187
0
ARC
8
DEFAULT_255_1_388
10
14.664797
20
-0.2598617
40
0.4033265
50
359.9373213
51
5.5201284
0
ARC
8
DEFAULT_255_1_388
10
14.62833
20
-0.2644267
40
0.4398126
50
344.7479357
51
0.5372278
0
ARC
8
DEFAULT_255_1_388
10
14.7398198
20
-0.2944795
40
0.3243441
50
311.1785587
51
344.6887681
0
ARC
8
DEFAULT_255_1_388
10
14.7069742
20
-0.2535916
40
0.3767511
50
286.0417804
51
310.8440924
0
ARC
8
DEFAULT_255_1_388
10
14.6499151
20
-0.0683115
40
0.5705957
50
274.1044074
51
286.4070149
0
ARC
8
DEFAULT_255_1_388
10
14.6300366
20
0.1434901
40
0.7832907
50
269.9235077
51
274.4458593
0
ARC
8
DEFAULT_255_1_388
10
14.6352085
20
-0.1196538
40
0.3782955
50
269.6057074
51
281.3740795
0
ARC
8
DEFAULT_255_1_388
10
14.6611583
20
-0.2426431
40
0.2526069
50
281.105298
51
302.5134029
0
ARC
8
DEFAULT_255_1_388
10
14.6776971
20
-0.2723056
40
0.2187131
50
303.0365425
51
311.8818034
0
ARC
8
DEFAULT_255_1_388
10
14.6857148
20
-0.2818398
40
0.2062624
50
311.9916937
51
351.7143773
0
ARC
8
DEFAULT_255_1_388
10
14.5938173
20
-0.2632729
40
0.2999202
50
350.7343295
51
0.2221526
0
ARC
8
DEFAULT_255_1_388
10
14.5817261
20
-0.256913
40
0.3120525
50
359.045729
51
17.2295312
0
ARC
8
DEFAULT_255_1_388
10
14.6986291
20
-0.2221845
40
0.1901144
50
17.6685208
51
78.9940245
0
ARC
8
DEFAULT_255_1_388
10
14.6404652
20
-0.4309989
40
0.4065575
50
76.565218
51
90.7103392
0
LINE
8
DEFAULT_255_1_388
10
14.6354249
20
-0.0244726
11
14.6353159
21
-0.0244726
0
ARC
8
DEFAULT_255_1_388
10
14.6107478
20
0.4842949
40
0.3696273
50
269.6064514
51
281.4533785
0
ARC
8
DEFAULT_255_1_388
10
14.6358119
20
0.3660283
40
0.2487412
50
281.2044438
51
302.5143998
0
ARC
8
DEFAULT_255_1_388
10
14.6512372
20
0.3382576
40
0.2170405
50
303.0211308
51
309.8378766
0
ARC
8
DEFAULT_255_1_388
10
14.671849
20
0.3151486
40
0.1860946
50
309.5229446
51
356.9509628
0
ARC
8
DEFAULT_255_1_388
10
14.5972616
20
0.3258831
40
0.2612347
50
355.4699226
51
0.0498632
0
ARC
8
DEFAULT_255_1_388
10
14.5658289
20
0.3283789
40
0.2926762
50
359.5558955
51
11.2092924
0
ARC
8
DEFAULT_255_1_388
10
14.6735257
20
0.3506667
40
0.1827036
50
10.9185717
51
31.322519
0
ARC
8
DEFAULT_255_1_388
10
14.7056805
20
0.3685571
40
0.1459418
50
31.8850633
51
52.1415586
0
ARC
8
DEFAULT_255_1_388
10
14.6748234
20
0.3249674
40
0.1993088
50
52.8283418
51
71.9850132
0
ARC
8
DEFAULT_255_1_388
10
14.6325395
20
0.2005158
40
0.3307407
50
71.686634
51
82.8453416
0
ARC
8
DEFAULT_255_1_388
10
14.6056042
20
-0.0030108
40
0.536039
50
82.6981895
51
90.1730083
0
ARC
8
DEFAULT_255_1_388
10
14.6030873
20
0.0848836
40
0.4481429
50
89.8851568
51
90.0383283
0
LINE
8
DEFAULT_255_1_388
10
16.0683691
20
0.1101585
11
16.0683691
21
-0.0317011
0
LINE
8
DEFAULT_255_1_388
10
16.0683691
20
-0.0317011
11
15.4982199
21
-0.0317011
0
LINE
8
DEFAULT_255_1_388
10
15.4982199
20
-0.0317011
11
15.4982199
21
-0.4979404
0
LINE
8
DEFAULT_255_1_388
10
15.4982199
20
-0.4979404
11
16.1605327
21
-0.4979404
0
LINE
8
DEFAULT_255_1_388
10
16.1605327
20
-0.4979404
11
16.1605327
21
-0.6398
0
LINE
8
DEFAULT_255_1_388
10
16.1605327
20
-0.6398
11
15.3247355
21
-0.6398
0
LINE
8
DEFAULT_255_1_388
10
15.3247355
20
-0.6398
11
15.3247355
21
0.6757898
0
LINE
8
DEFAULT_255_1_388
10
15.3247355
20
0.6757898
11
16.151497
21
0.6757898
0
LINE
8
DEFAULT_255_1_388
10
16.151497
20
0.6757898
11
16.151497
21
0.5330267
0
LINE
8
DEFAULT_255_1_388
10
16.151497
20
0.5330267
11
15.4982199
21
0.5330267
0
LINE
8
DEFAULT_255_1_388
10
15.4982199
20
0.5330267
11
15.4982199
21
0.1101585
0
LINE
8
DEFAULT_255_1_388
10
15.4982199
20
0.1101585
11
16.0683691
21
0.1101585
0
LINE
8
DEFAULT_255_1_388
10
17.0387973
20
0.6757898
11
17.0387973
21
-0.197957
0
LINE
8
DEFAULT_255_1_388
10
17.0387973
20
-0.197957
11
17.2213173
21
-0.197957
0
LINE
8
DEFAULT_255_1_388
10
17.2213173
20
-0.197957
11
17.2213173
21
-0.3343952
0
LINE
8
DEFAULT_255_1_388
10
17.2213173
20
-0.3343952
11
17.0387973
21
-0.3343952
0
LINE
8
DEFAULT_255_1_388
10
17.0387973
20
-0.3343952
11
17.0387973
21
-0.6398
0
LINE
8
DEFAULT_255_1_388
10
17.0387973
20
-0.6398
11
16.8707343
21
-0.6398
0
LINE
8
DEFAULT_255_1_388
10
16.8707343
20
-0.6398
11
16.8707343
21
-0.3343952
0
LINE
8
DEFAULT_255_1_388
10
16.8707343
20
-0.3343952
11
16.2716711
21
-0.3343952
0
LINE
8
DEFAULT_255_1_388
10
16.2716711
20
-0.3343952
11
16.2716711
21
-0.2359067
0
LINE
8
DEFAULT_255_1_388
10
16.2716711
20
-0.2359067
11
16.8607951
21
0.6757898
0
LINE
8
DEFAULT_255_1_388
10
16.8607951
20
0.6757898
11
17.0387973
21
0.6757898
0
LINE
8
DEFAULT_255_1_388
10
16.8508559
20
0.4110455
11
16.4614196
21
-0.197957
0
LINE
8
DEFAULT_255_1_388
10
16.4614196
20
-0.197957
11
16.8707343
21
-0.197957
0
LINE
8
DEFAULT_255_1_388
10
16.8707343
20
-0.197957
11
16.8707343
21
0.447188
0
LINE
8
DEFAULT_255_1_388
10
16.8707343
20
0.447188
11
16.8508559
21
0.4110455
0
LINE
8
DEFAULT_255_1_388
10
18.1971669
20
0.138169
11
18.1971669
21
-0.0786865
0
LINE
8
DEFAULT_255_1_388
10
17.3667912
20
-0.1012756
11
17.3667912
21
0.1219048
0
LINE
8
DEFAULT_255_1_388
10
18.0300075
20
-0.1238647
11
18.0300075
21
0.1499153
0
LINE
8
DEFAULT_255_1_388
10
17.5339506
20
0.1625652
11
17.5339506
21
-0.1048898
0
ARC
8
DEFAULT_255_1_388
10
16.8194003
20
-0.0841882
40
1.3777776
50
353.8440855
51
0.2287917
0
ARC
8
DEFAULT_255_1_388
10
17.3413021
20
-0.1424586
40
0.852639
50
344.4934746
51
353.9763743
0
ARC
8
DEFAULT_255_1_388
10
17.6779828
20
-0.2381809
40
0.5026273
50
329.2803599
51
344.7473406
0
ARC
8
DEFAULT_255_1_388
10
17.7895324
20
-0.2993962
40
0.3754848
50
324.9361395
51
328.6153007
0
ARC
8
DEFAULT_255_1_388
10
17.8320973
20
-0.3291414
40
0.3235566
50
280.5801797
51
324.9173226
0
ARC
8
DEFAULT_255_1_388
10
17.7869602
20
-0.1411764
40
0.5167077
50
269.5979457
51
281.6732777
0
ARC
8
DEFAULT_255_1_388
10
17.7788506
20
-0.1546887
40
0.5032026
50
256.6228565
51
270.5105488
0
ARC
8
DEFAULT_255_1_388
10
17.7336248
20
-0.3288655
40
0.3233092
50
215.8618351
51
257.2787793
0
ARC
8
DEFAULT_255_1_388
10
17.8484955
20
-0.2517894
40
0.4615831
50
197.9695203
51
215.2622745
0
ARC
8
DEFAULT_255_1_388
10
18.1280631
20
-0.1574359
40
0.7566307
50
187.8816486
51
198.2346584
0
ARC
8
DEFAULT_255_1_388
10
18.5733869
20
-0.0931547
40
1.2065653
50
180.8977266
51
188.0054894
0
ARC
8
DEFAULT_255_1_388
10
18.8784083
20
-0.08166
40
1.5117443
50
180.7434591
51
181.152202
0
ARC
8
DEFAULT_255_1_388
10
18.7109079
20
0.1273371
40
1.3441277
50
173.7674302
51
180.2315596
0
ARC
8
DEFAULT_255_1_388
10
18.2026948
20
0.1847779
40
0.8326847
50
164.3058537
51
173.9000553
0
ARC
8
DEFAULT_255_1_388
10
17.8750948
20
0.2791652
40
0.4917711
50
148.7922028
51
164.5682288
0
ARC
8
DEFAULT_255_1_388
10
17.7681685
20
0.3388457
40
0.3694204
50
144.5883979
51
148.1161588
0
ARC
8
DEFAULT_255_1_388
10
17.7294431
20
0.3658667
40
0.322202
50
101.6440149
51
144.5142619
0
ARC
8
DEFAULT_255_1_388
10
17.7772623
20
0.1758337
40
0.5180451
50
89.528284
51
102.5820197
0
ARC
8
DEFAULT_255_1_388
10
17.7861615
20
0.1714376
40
0.5224441
50
77.0437914
51
90.508231
0
ARC
8
DEFAULT_255_1_388
10
17.8313868
20
0.3562272
40
0.3322297
50
48.2777708
51
77.4996087
0
ARC
8
DEFAULT_255_1_388
10
17.8395608
20
0.3707557
40
0.315966
50
36.3141586
51
47.6307332
0
ARC
8
DEFAULT_255_1_388
10
17.7418331
20
0.3049159
40
0.4337313
50
18.2931065
51
35.6770203
0
ARC
8
DEFAULT_255_1_388
10
17.4557171
20
0.2067107
40
0.7362203
50
8.0246996
51
18.5605636
0
ARC
8
DEFAULT_255_1_388
10
16.9873527
20
0.1375432
40
1.2096583
50
1.127539
51
8.1718423
0
ARC
8
DEFAULT_255_1_388
10
16.622466
20
0.1232374
40
1.5747719
50
0.5432713
51
1.38669
0
ARC
8
DEFAULT_255_1_388
10
16.8282039
20
0.1539163
40
1.2018103
50
359.8092569
51
4.9408001
0
ARC
8
DEFAULT_255_1_388
10
17.301862
20
0.19619
40
0.7262727
50
4.8364937
51
12.2906017
0
ARC
8
DEFAULT_255_1_388
10
17.6118085
20
0.2652485
40
0.4087324
50
12.0806994
51
23.8171225
0
ARC
8
DEFAULT_255_1_388
10
17.7438481
20
0.3211508
40
0.2653719
50
24.2874621
51
31.3934353
0
ARC
8
DEFAULT_255_1_388
10
17.8028917
20
0.3597822
40
0.1948607
50
30.7407708
51
82.4658033
0
ARC
8
DEFAULT_255_1_388
10
17.7826578
20
0.2604017
40
0.2961198
50
81.1057101
51
90.2187368
0
ARC
8
DEFAULT_255_1_388
10
17.778639
20
0.2894421
40
0.2670929
50
89.380395
51
105.6763916
0
ARC
8
DEFAULT_255_1_388
10
17.7580112
20
0.364432
40
0.1893189
50
105.7980655
51
149.7387869
0
ARC
8
DEFAULT_255_1_388
10
17.8777252
20
0.2924719
40
0.3289892
50
149.4208441
51
163.628295
0
ARC
8
DEFAULT_255_1_388
10
18.1129481
20
0.2207345
40
0.5749004
50
163.3764549
51
172.141138
0
ARC
8
DEFAULT_255_1_388
10
18.4842203
20
0.1675582
40
0.9499585
50
172.0258462
51
178.0705453
0
ARC
8
DEFAULT_255_1_388
10
18.8263756
20
0.1513682
40
1.2924734
50
177.8639301
51
179.5036263
0
ARC
8
DEFAULT_255_1_388
10
18.7044774
20
-0.1089849
40
1.170534
50
179.7995545
51
185.246089
0
ARC
8
DEFAULT_255_1_388
10
18.2496367
20
-0.1520596
40
0.7136613
50
185.1411911
51
193.0082205
0
ARC
8
DEFAULT_255_1_388
10
17.9522628
20
-0.2223559
40
0.4080987
50
192.7897338
51
205.2507384
0
ARC
8
DEFAULT_255_1_388
10
17.8344838
20
-0.2749462
40
0.2791522
50
205.8001921
51
211.2545876
0
ARC
8
DEFAULT_255_1_388
10
17.7756377
20
-0.3143868
40
0.2084074
50
210.3789935
51
238.4007996
0
ARC
8
DEFAULT_255_1_388
10
17.7734463
20
-0.3091214
40
0.2117943
50
239.6521916
51
265.9793852
0
ARC
8
DEFAULT_255_1_388
10
17.7830312
20
-0.2334642
40
0.2879689
50
265.1324455
51
270.0603288
0
ARC
8
DEFAULT_255_1_388
10
17.7862689
20
-0.2699582
40
0.2514919
50
269.3314378
51
287.2180039
0
ARC
8
DEFAULT_255_1_388
10
17.8017771
20
-0.3265709
40
0.1928357
50
287.7957942
51
329.0808983
0
ARC
8
DEFAULT_255_1_388
10
17.6940528
20
-0.2593349
40
0.319808
50
328.6635261
51
343.3325043
0
ARC
8
DEFAULT_255_1_388
10
17.4495987
20
-0.1831805
40
0.5758408
50
343.0498092
51
351.9392499
0
ARC
8
DEFAULT_255_1_388
10
17.0595309
20
-0.1256795
40
0.9701202
50
351.8071632
51
357.7957897
0
ARC
8
DEFAULT_255_1_388
10
16.6960786
20
-0.1068276
40
1.3340376
50
357.5870923
51
359.2682493
0
LINE
8
DEFAULT_255_1_388
10
18.7763518
20
-0.0127263
11
18.7763518
21
-0.1491645
0
LINE
8
DEFAULT_255_1_388
10
18.7763518
20
-0.1491645
11
18.3354123
21
-0.1491645
0
LINE
8
DEFAULT_255_1_388
10
18.3354123
20
-0.1491645
11
18.3354123
21
-0.0127263
0
LINE
8
DEFAULT_255_1_388
10
18.3354123
20
-0.0127263
11
18.7763518
21
-0.0127263
0
LINE
8
DEFAULT_255_1_388
10
19.74678
20
0.138169
11
19.74678
21
-0.0786865
0
LINE
8
DEFAULT_255_1_388
10
18.9164042
20
-0.1012756
11
18.9164042
21
0.1219048
0
LINE
8
DEFAULT_255_1_388
10
19.5796206
20
-0.1238647
11
19.5796206
21
0.1499153
0
LINE
8
DEFAULT_255_1_388
10
19.0835637
20
0.1625652
11
19.0835637
21
-0.1048898
0
ARC
8
DEFAULT_255_1_388
10
18.3690134
20
-0.0841882
40
1.3777776
50
353.8440855
51
0.2287917
0
ARC
8
DEFAULT_255_1_388
10
18.8909151
20
-0.1424586
40
0.852639
50
344.4934746
51
353.9763743
0
ARC
8
DEFAULT_255_1_388
10
19.2275958
20
-0.2381809
40
0.5026273
50
329.2803599
51
344.7473406
0
ARC
8
DEFAULT_255_1_388
10
19.3391454
20
-0.2993962
40
0.3754848
50
324.9361395
51
328.6153007
0
ARC
8
DEFAULT_255_1_388
10
19.3817104
20
-0.3291414
40
0.3235566
50
280.5801797
51
324.9173226
0
ARC
8
DEFAULT_255_1_388
10
19.3365733
20
-0.1411764
40
0.5167077
50
269.5979457
51
281.6732777
0
ARC
8
DEFAULT_255_1_388
10
19.3284636
20
-0.1546887
40
0.5032026
50
256.6228565
51
270.5105488
0
ARC
8
DEFAULT_255_1_388
10
19.2832379
20
-0.3288655
40
0.3233092
50
215.8618351
51
257.2787793
0
ARC
8
DEFAULT_255_1_388
10
19.3981086
20
-0.2517894
40
0.4615831
50
197.9695203
51
215.2622745
0
ARC
8
DEFAULT_255_1_388
10
19.6776761
20
-0.1574359
40
0.7566307
50
187.8816486
51
198.2346584
0
ARC
8
DEFAULT_255_1_388
10
20.123
20
-0.0931547
40
1.2065653
50
180.8977266
51
188.0054894
0
ARC
8
DEFAULT_255_1_388
10
20.4280213
20
-0.08166
40
1.5117443
50
180.7434591
51
181.152202
0
ARC
8
DEFAULT_255_1_388
10
20.2605209
20
0.1273371
40
1.3441277
50
173.7674302
51
180.2315596
0
ARC
8
DEFAULT_255_1_388
10
19.7523078
20
0.1847779
40
0.8326847
50
164.3058537
51
173.9000553
0
ARC
8
DEFAULT_255_1_388
10
19.4247078
20
0.2791652
40
0.4917711
50
148.7922028
51
164.5682288
0
ARC
8
DEFAULT_255_1_388
10
19.3177816
20
0.3388457
40
0.3694204
50
144.5883979
51
148.1161588
0
ARC
8
DEFAULT_255_1_388
10
19.2790561
20
0.3658667
40
0.322202
50
101.6440149
51
144.5142619
0
ARC
8
DEFAULT_255_1_388
10
19.3268753
20
0.1758337
40
0.5180451
50
89.528284
51
102.5820197
0
ARC
8
DEFAULT_255_1_388
10
19.3357745
20
0.1714376
40
0.5224441
50
77.0437914
51
90.508231
0
ARC
8
DEFAULT_255_1_388
10
19.3809999
20
0.3562272
40
0.3322297
50
48.2777708
51
77.4996087
0
ARC
8
DEFAULT_255_1_388
10
19.3891739
20
0.3707557
40
0.315966
50
36.3141586
51
47.6307332
0
ARC
8
DEFAULT_255_1_388
10
19.2914461
20
0.3049159
40
0.4337313
50
18.2931065
51
35.6770203
0
ARC
8
DEFAULT_255_1_388
10
19.0053302
20
0.2067107
40
0.7362203
50
8.0246996
51
18.5605636
0
ARC
8
DEFAULT_255_1_388
10
18.5369657
20
0.1375432
40
1.2096583
50
1.127539
51
8.1718423
0
ARC
8
DEFAULT_255_1_388
10
18.1720791
20
0.1232374
40
1.5747719
50
0.5432713
51
1.38669
0
ARC
8
DEFAULT_255_1_388
10
18.3778169
20
0.1539163
40
1.2018103
50
359.8092569
51
4.9408001
0
ARC
8
DEFAULT_255_1_388
10
18.8514751
20
0.19619
40
0.7262727
50
4.8364937
51
12.2906017
0
ARC
8
DEFAULT_255_1_388
10
19.1614216
20
0.2652485
40
0.4087324
50
12.0806994
51
23.8171225
0
ARC
8
DEFAULT_255_1_388
10
19.2934611
20
0.3211508
40
0.2653719
50
24.2874621
51
31.3934353
0
ARC
8
DEFAULT_255_1_388
10
19.3525047
20
0.3597822
40
0.1948607
50
30.7407708
51
82.4658033
0
ARC
8
DEFAULT_255_1_388
10
19.3322708
20
0.2604017
40
0.2961198
50
81.1057101
51
90.2187368
0
ARC
8
DEFAULT_255_1_388
10
19.328252
20
0.2894421
40
0.2670929
50
89.380395
51
105.6763916
0
ARC
8
DEFAULT_255_1_388
10
19.3076242
20
0.364432
40
0.1893189
50
105.7980655
51
149.7387869
0
ARC
8
DEFAULT_255_1_388
10
19.4273382
20
0.2924719
40
0.3289892
50
149.4208441
51
163.628295
0
ARC
8
DEFAULT_255_1_388
10
19.6625612
20
0.2207345
40
0.5749004
50
163.3764549
51
172.141138
0
ARC
8
DEFAULT_255_1_388
10
20.0338333
20
0.1675582
40
0.9499585
50
172.0258462
51
178.0705453
0
ARC
8
DEFAULT_255_1_388
10
20.3759886
20
0.1513682
40
1.2924734
50
177.8639301
51
179.5036263
0
ARC
8
DEFAULT_255_1_388
10
20.2540905
20
-0.1089849
40
1.170534
50
179.7995545
51
185.246089
0
ARC
8
DEFAULT_255_1_388
10
19.7992498
20
-0.1520596
40
0.7136613
50
185.1411911
51
193.0082205
0
ARC
8
DEFAULT_255_1_388
10
19.5018758
20
-0.2223559
40
0.4080987
50
192.7897338
51
205.2507384
0
ARC
8
DEFAULT_255_1_388
10
19.3840968
20
-0.2749462
40
0.2791522
50
205.8001921
51
211.2545876
0
ARC
8
DEFAULT_255_1_388
10
19.3252508
20
-0.3143868
40
0.2084074
50
210.3789935
51
238.4007996
0
ARC
8
DEFAULT_255_1_388
10
19.3230594
20
-0.3091214
40
0.2117943
50
239.6521916
51
265.9793852
0
ARC
8
DEFAULT_255_1_388
10
19.3326442
20
-0.2334642
40
0.2879689
50
265.1324455
51
270.0603288
0
ARC
8
DEFAULT_255_1_388
10
19.335882
20
-0.2699582
40
0.2514919
50
269.3314378
51
287.2180039
0
ARC
8
DEFAULT_255_1_388
10
19.3513902
20
-0.3265709
40
0.1928357
50
287.7957942
51
329.0808983
0
ARC
8
DEFAULT_255_1_388
10
19.2436659
20
-0.2593349
40
0.319808
50
328.6635261
51
343.3325043
0
ARC
8
DEFAULT_255_1_388
10
18.9992117
20
-0.1831805
40
0.5758408
50
343.0498092
51
351.9392499
0
ARC
8
DEFAULT_255_1_388
10
18.6091439
20
-0.1256795
40
0.9701202
50
351.8071632
51
357.7957897
0
ARC
8
DEFAULT_255_1_388
10
18.2456916
20
-0.1068276
40
1.3340376
50
357.5870923
51
359.2682493
0
LINE
8
DEFAULT_255_1_388
10
20.1163378
20
0.6757898
11
20.433489
21
0.1716009
0
LINE
8
DEFAULT_255_1_388
10
20.433489
20
0.1716009
11
20.748833
21
0.6757898
0
LINE
8
DEFAULT_255_1_388
10
20.748833
20
0.6757898
11
20.9530385
21
0.6757898
0
LINE
8
DEFAULT_255_1_388
10
20.9530385
20
0.6757898
11
20.5373989
21
0.0234163
0
LINE
8
DEFAULT_255_1_388
10
20.5373989
20
0.0234163
11
20.9629777
21
-0.6398
0
LINE
8
DEFAULT_255_1_388
10
20.9629777
20
-0.6398
11
20.756965
21
-0.6398
0
LINE
8
DEFAULT_255_1_388
10
20.756965
20
-0.6398
11
20.433489
21
-0.1265754
0
LINE
8
DEFAULT_255_1_388
10
20.433489
20
-0.1265754
11
20.1082058
21
-0.6398
0
LINE
8
DEFAULT_255_1_388
10
20.1082058
20
-0.6398
11
19.9030966
21
-0.6398
0
LINE
8
DEFAULT_255_1_388
10
19.9030966
20
-0.6398
11
20.3295791
21
0.0234163
0
LINE
8
DEFAULT_255_1_388
10
20.3295791
20
0.0234163
11
19.9130358
21
0.6757898
0
LINE
8
DEFAULT_255_1_388
10
19.9130358
20
0.6757898
11
20.1163378
21
0.6757898
0
LINE
8
DEFAULT_255_1_388
10
21.6207727
20
-0.6398
11
21.1644726
21
-0.6398
0
LINE
8
DEFAULT_255_1_388
10
21.1644726
20
-0.6398
11
21.1644726
21
0.6757898
0
LINE
8
DEFAULT_255_1_388
10
21.1644726
20
0.6757898
11
21.5945693
21
0.6757898
0
LINE
8
DEFAULT_255_1_388
10
21.6270976
20
-0.0244726
11
21.337957
21
-0.0244726
0
LINE
8
DEFAULT_255_1_388
10
21.337957
20
-0.0244726
11
21.337957
21
-0.4979404
0
LINE
8
DEFAULT_255_1_388
10
21.337957
20
-0.4979404
11
21.6243869
21
-0.4979404
0
LINE
8
DEFAULT_255_1_388
10
21.337957
20
0.5330267
11
21.337957
21
0.1146763
0
LINE
8
DEFAULT_255_1_388
10
21.337957
20
0.1146763
11
21.5999907
21
0.1146763
0
LINE
8
DEFAULT_255_1_388
10
21.5945693
20
0.5330267
11
21.337957
21
0.5330267
0
ARC
8
DEFAULT_255_1_388
10
21.5988113
20
-0.1530176
40
0.8288183
50
82.1256322
51
90.2932506
0
ARC
8
DEFAULT_255_1_388
10
21.6425688
20
0.152759
40
0.5199321
50
69.9044202
51
82.2857574
0
ARC
8
DEFAULT_255_1_388
10
21.7067681
20
0.3262993
40
0.3348993
50
51.1840204
51
70.018125
0
ARC
8
DEFAULT_255_1_388
10
21.7354513
20
0.3679945
40
0.2844579
50
12.1018086
51
50.421322
0
ARC
8
DEFAULT_255_1_388
10
21.5797384
20
0.3288937
40
0.4449429
50
359.5252354
51
12.8212369
0
ARC
8
DEFAULT_255_1_388
10
21.7574815
20
0.3210943
40
0.2672162
50
323.4907456
51
0.8818258
0
ARC
8
DEFAULT_255_1_388
10
21.7104227
20
0.3574523
40
0.3266736
50
298.6824053
51
323.2758285
0
ARC
8
DEFAULT_255_1_388
10
21.6697519
20
0.4250509
40
0.4055105
50
293.1994739
51
299.139634
0
ARC
8
DEFAULT_255_1_388
10
21.7454468
20
-0.2595349
40
0.3229926
50
54.0009997
51
74.9168635
0
ARC
8
DEFAULT_255_1_388
10
21.7585395
20
-0.2373489
40
0.2973581
50
36.3578854
51
53.5293172
0
ARC
8
DEFAULT_255_1_388
10
21.7442763
20
-0.247515
40
0.3148715
50
4.8189348
51
36.3090187
0
ARC
8
DEFAULT_255_1_388
10
21.6565787
20
-0.2598617
40
0.4033265
50
359.9373213
51
5.5201284
0
ARC
8
DEFAULT_255_1_388
10
21.6201117
20
-0.2644267
40
0.4398126
50
344.7479357
51
0.5372278
0
ARC
8
DEFAULT_255_1_388
10
21.7316016
20
-0.2944795
40
0.3243441
50
311.1785587
51
344.6887681
0
ARC
8
DEFAULT_255_1_388
10
21.6987559
20
-0.2535916
40
0.3767511
50
286.0417804
51
310.8440924
0
ARC
8
DEFAULT_255_1_388
10
21.6416968
20
-0.0683115
40
0.5705957
50
274.1044074
51
286.4070149
0
ARC
8
DEFAULT_255_1_388
10
21.6218184
20
0.1434901
40
0.7832907
50
269.9235077
51
274.4458593
0
ARC
8
DEFAULT_255_1_388
10
21.6269902
20
-0.1196538
40
0.3782955
50
269.6057074
51
281.3740795
0
ARC
8
DEFAULT_255_1_388
10
21.65294
20
-0.2426431
40
0.2526069
50
281.105298
51
302.5134029
0
ARC
8
DEFAULT_255_1_388
10
21.6694788
20
-0.2723056
40
0.2187131
50
303.0365425
51
311.8818034
0
ARC
8
DEFAULT_255_1_388
10
21.6774965
20
-0.2818398
40
0.2062624
50
311.9916937
51
351.7143773
0
ARC
8
DEFAULT_255_1_388
10
21.585599
20
-0.2632729
40
0.2999202
50
350.7343295
51
0.2221526
0
ARC
8
DEFAULT_255_1_388
10
21.5735078
20
-0.256913
40
0.3120525
50
359.045729
51
17.2295312
0
ARC
8
DEFAULT_255_1_388
10
21.6904109
20
-0.2221845
40
0.1901144
50
17.6685208
51
78.9940245
0
ARC
8
DEFAULT_255_1_388
10
21.6322469
20
-0.4309989
40
0.4065575
50
76.565218
51
90.7103392
0
LINE
8
DEFAULT_255_1_388
10
21.6272067
20
-0.0244726
11
21.6270976
21
-0.0244726
0
ARC
8
DEFAULT_255_1_388
10
21.6025295
20
0.4842949
40
0.3696273
50
269.6064514
51
281.4533785
0
ARC
8
DEFAULT_255_1_388
10
21.6275936
20
0.3660283
40
0.2487412
50
281.2044438
51
302.5143998
0
ARC
8
DEFAULT_255_1_388
10
21.643019
20
0.3382576
40
0.2170405
50
303.0211308
51
309.8378766
0
ARC
8
DEFAULT_255_1_388
10
21.6636307
20
0.3151486
40
0.1860946
50
309.5229446
51
356.9509628
0
ARC
8
DEFAULT_255_1_388
10
21.5890433
20
0.3258831
40
0.2612347
50
355.4699226
51
0.0498632
0
ARC
8
DEFAULT_255_1_388
10
21.5576107
20
0.3283789
40
0.2926762
50
359.5558955
51
11.2092924
0
ARC
8
DEFAULT_255_1_388
10
21.6653074
20
0.3506667
40
0.1827036
50
10.9185717
51
31.322519
0
ARC
8
DEFAULT_255_1_388
10
21.6974622
20
0.3685571
40
0.1459418
50
31.8850633
51
52.1415586
0
ARC
8
DEFAULT_255_1_388
10
21.6666051
20
0.3249674
40
0.1993088
50
52.8283418
51
71.9850132
0
ARC
8
DEFAULT_255_1_388
10
21.6243212
20
0.2005158
40
0.3307407
50
71.686634
51
82.8453416
0
ARC
8
DEFAULT_255_1_388
10
21.5973859
20
-0.0030108
40
0.536039
50
82.6981895
51
90.1730083
0
ARC
8
DEFAULT_255_1_388
10
21.5948691
20
0.0848836
40
0.4481429
50
89.8851568
51
90.0383283
0
LINE
8
DEFAULT_255_1_388
10
23.0981005
20
0.138169
11
23.0981005
21
-0.0786865
0
LINE
8
DEFAULT_255_1_388
10
22.2677248
20
-0.1012756
11
22.2677248
21
0.1219048
0
LINE
8
DEFAULT_255_1_388
10
22.9309411
20
-0.1238647
11
22.9309411
21
0.1499153
0
LINE
8
DEFAULT_255_1_388
10
22.4348842
20
0.1625652
11
22.4348842
21
-0.1048898
0
ARC
8
DEFAULT_255_1_388
10
21.7203339
20
-0.0841882
40
1.3777776
50
353.8440855
51
0.2287917
0
ARC
8
DEFAULT_255_1_388
10
22.2422357
20
-0.1424586
40
0.852639
50
344.4934746
51
353.9763743
0
ARC
8
DEFAULT_255_1_388
10
22.5789164
20
-0.2381809
40
0.5026273
50
329.2803599
51
344.7473406
0
ARC
8
DEFAULT_255_1_388
10
22.690466
20
-0.2993962
40
0.3754848
50
324.9361395
51
328.6153007
0
ARC
8
DEFAULT_255_1_388
10
22.7330309
20
-0.3291414
40
0.3235566
50
280.5801797
51
324.9173226
0
ARC
8
DEFAULT_255_1_388
10
22.6878938
20
-0.1411764
40
0.5167077
50
269.5979457
51
281.6732777
0
ARC
8
DEFAULT_255_1_388
10
22.6797842
20
-0.1546887
40
0.5032026
50
256.6228565
51
270.5105488
0
ARC
8
DEFAULT_255_1_388
10
22.6345584
20
-0.3288655
40
0.3233092
50
215.8618351
51
257.2787793
0
ARC
8
DEFAULT_255_1_388
10
22.7494291
20
-0.2517894
40
0.4615831
50
197.9695203
51
215.2622745
0
ARC
8
DEFAULT_255_1_388
10
23.0289967
20
-0.1574359
40
0.7566307
50
187.8816486
51
198.2346584
0
ARC
8
DEFAULT_255_1_388
10
23.4743205
20
-0.0931547
40
1.2065653
50
180.8977266
51
188.0054894
0
ARC
8
DEFAULT_255_1_388
10
23.7793419
20
-0.08166
40
1.5117443
50
180.7434591
51
181.152202
0
ARC
8
DEFAULT_255_1_388
10
23.6118415
20
0.1273371
40
1.3441277
50
173.7674302
51
180.2315596
0
ARC
8
DEFAULT_255_1_388
10
23.1036284
20
0.1847779
40
0.8326847
50
164.3058537
51
173.9000553
0
ARC
8
DEFAULT_255_1_388
10
22.7760284
20
0.2791652
40
0.4917711
50
148.7922028
51
164.5682288
0
ARC
8
DEFAULT_255_1_388
10
22.6691021
20
0.3388457
40
0.3694204
50
144.5883979
51
148.1161588
0
ARC
8
DEFAULT_255_1_388
10
22.6303766
20
0.3658667
40
0.322202
50
101.6440149
51
144.5142619
0
ARC
8
DEFAULT_255_1_388
10
22.6781959
20
0.1758337
40
0.5180451
50
89.528284
51
102.5820197
0
ARC
8
DEFAULT_255_1_388
10
22.6870951
20
0.1714376
40
0.5224441
50
77.0437914
51
90.508231
0
ARC
8
DEFAULT_255_1_388
10
22.7323204
20
0.3562272
40
0.3322297
50
48.2777708
51
77.4996087
0
ARC
8
DEFAULT_255_1_388
10
22.7404944
20
0.3707557
40
0.315966
50
36.3141586
51
47.6307332
0
ARC
8
DEFAULT_255_1_388
10
22.6427666
20
0.3049159
40
0.4337313
50
18.2931065
51
35.6770203
0
ARC
8
DEFAULT_255_1_388
10
22.3566507
20
0.2067107
40
0.7362203
50
8.0246996
51
18.5605636
0
ARC
8
DEFAULT_255_1_388
10
21.8882863
20
0.1375432
40
1.2096583
50
1.127539
51
8.1718423
0
ARC
8
DEFAULT_255_1_388
10
21.5233996
20
0.1232374
40
1.5747719
50
0.5432713
51
1.38669
0
ARC
8
DEFAULT_255_1_388
10
21.7291375
20
0.1539163
40
1.2018103
50
359.8092569
51
4.9408001
0
ARC
8
DEFAULT_255_1_388
10
22.2027956
20
0.19619
40
0.7262727
50
4.8364937
51
12.2906017
0
ARC
8
DEFAULT_255_1_388
10
22.5127421
20
0.2652485
40
0.4087324
50
12.0806994
51
23.8171225
0
ARC
8
DEFAULT_255_1_388
10
22.6447817
20
0.3211508
40
0.2653719
50
24.2874621
51
31.3934353
0
ARC
8
DEFAULT_255_1_388
10
22.7038253
20
0.3597822
40
0.1948607
50
30.7407708
51
82.4658033
0
ARC
8
DEFAULT_255_1_388
10
22.6835914
20
0.2604017
40
0.2961198
50
81.1057101
51
90.2187368
0
ARC
8
DEFAULT_255_1_388
10
22.6795726
20
0.2894421
40
0.2670929
50
89.380395
51
105.6763916
0
ARC
8
DEFAULT_255_1_388
10
22.6589448
20
0.364432
40
0.1893189
50
105.7980655
51
149.7387869
0
ARC
8
DEFAULT_255_1_388
10
22.7786588
20
0.2924719
40
0.3289892
50
149.4208441
51
163.628295
0
ARC
8
DEFAULT_255_1_388
10
23.0138817
20
0.2207345
40
0.5749004
50
163.3764549
51
172.141138
0
ARC
8
DEFAULT_255_1_388
10
23.3851539
20
0.1675582
40
0.9499585
50
172.0258462
51
178.0705453
0
ARC
8
DEFAULT_255_1_388
10
23.7273092
20
0.1513682
40
1.2924734
50
177.8639301
51
179.5036263
0
ARC
8
DEFAULT_255_1_388
10
23.605411
20
-0.1089849
40
1.170534
50
179.7995545
51
185.246089
0
ARC
8
DEFAULT_255_1_388
10
23.1505703
20
-0.1520596
40
0.7136613
50
185.1411911
51
193.0082205
0
ARC
8
DEFAULT_255_1_388
10
22.8531964
20
-0.2223559
40
0.4080987
50
192.7897338
51
205.2507384
0
ARC
8
DEFAULT_255_1_388
10
22.7354174
20
-0.2749462
40
0.2791522
50
205.8001921
51
211.2545876
0
ARC
8
DEFAULT_255_1_388
10
22.6765713
20
-0.3143868
40
0.2084074
50
210.3789935
51
238.4007996
0
ARC
8
DEFAULT_255_1_388
10
22.6743799
20
-0.3091214
40
0.2117943
50
239.6521916
51
265.9793852
0
ARC
8
DEFAULT_255_1_388
10
22.6839648
20
-0.2334642
40
0.2879689
50
265.1324455
51
270.0603288
0
ARC
8
DEFAULT_255_1_388
10
22.6872025
20
-0.2699582
40
0.2514919
50
269.3314378
51
287.2180039
0
ARC
8
DEFAULT_255_1_388
10
22.7027107
20
-0.3265709
40
0.1928357
50
287.7957942
51
329.0808983
0
ARC
8
DEFAULT_255_1_388
10
22.5949864
20
-0.2593349
40
0.319808
50
328.6635261
51
343.3325043
0
ARC
8
DEFAULT_255_1_388
10
22.3505323
20
-0.1831805
40
0.5758408
50
343.0498092
51
351.9392499
0
ARC
8
DEFAULT_255_1_388
10
21.9604645
20
-0.1256795
40
0.9701202
50
351.8071632
51
357.7957897
0
ARC
8
DEFAULT_255_1_388
10
21.5970122
20
-0.1068276
40
1.3340376
50
357.5870923
51
359.2682493
0
ARC
8
DEFAULT_255_2_778
10
7.7543439
20
107.8573128
40
3.0466403
50
251.6724781
51
258.5987661
0
ARC
8
DEFAULT_255_2_778
10
7.5400558
20
106.7761316
40
1.9444375
50
258.4907215
51
268.3974115
0
ARC
8
DEFAULT_255_2_778
10
7.5177542
20
106.3454995
40
1.5133848
50
268.7854544
51
269.9953942
0
ARC
8
DEFAULT_255_2_778
10
7.5280263
20
105.8961726
40
1.0641086
50
269.4403512
51
279.6841037
0
ARC
8
DEFAULT_255_2_778
10
7.6421978
20
105.2666567
40
0.4244099
50
278.7863046
51
300.3428271
0
ARC
8
DEFAULT_255_2_778
10
7.7612279
20
105.06403
40
0.1894089
50
300.2328316
51
1.9014863
0
ARC
8
DEFAULT_255_2_778
10
7.746508
20
105.0731715
40
0.2040445
50
359.1977832
51
359.9996968
0
ARC
8
DEFAULT_255_2_778
10
7.753075
20
105.0740013
40
0.1974794
50
359.7589479
51
47.2071953
0
ARC
8
DEFAULT_255_2_778
10
7.619013
20
104.9250429
40
0.3978723
50
47.6130098
51
60.824453
0
ARC
8
DEFAULT_255_2_778
10
7.0184997
20
103.9080677
40
1.5788249
50
59.7878046
51
64.8721208
0
ARC
8
DEFAULT_255_2_778
10
6.0925837
20
101.9768461
40
3.7205057
50
64.5916011
51
66.820345
0
ARC
8
DEFAULT_255_2_778
10
9.6378482
20
110.3349609
40
5.3584611
50
244.3087082
51
247.1497851
0
ARC
8
DEFAULT_255_2_778
10
8.548978
20
108.079372
40
2.8538059
50
240.2312866
51
244.3765687
0
ARC
8
DEFAULT_255_2_778
10
7.7796999
20
106.7449805
40
1.3135689
50
233.2094737
51
240.4596791
0
ARC
8
DEFAULT_255_2_778
10
7.3564445
20
106.1749409
40
0.603585
50
225.678902
51
232.9782433
0
ARC
8
DEFAULT_255_2_778
10
7.396701
20
106.1997518
40
0.6495632
50
178.2741582
51
224.667467
0
ARC
8
DEFAULT_255_2_778
10
7.506651
20
106.2331559
40
0.7593447
50
157.036112
51
181.044431
0
ARC
8
DEFAULT_255_2_778
10
7.3792854
20
106.2739246
40
0.6262846
50
124.9253006
51
155.9241303
0
ARC
8
DEFAULT_255_2_778
10
7.5965789
20
105.9655358
40
1.0035357
50
100.4079723
51
125.0168617
0
ARC
8
DEFAULT_255_2_778
10
7.6996521
20
105.4714723
40
1.5081396
50
89.6483922
51
100.8684975
0
ARC
8
DEFAULT_255_2_778
10
7.7088565
20
105.1192665
40
1.8603169
50
89.5079487
51
89.9984402
0
ARC
8
DEFAULT_255_2_778
10
7.7104896
20
105.0540371
40
1.9255311
50
83.9170631
51
89.5732113
0
ARC
8
DEFAULT_255_2_778
10
7.507684
20
103.0464635
40
3.9433074
50
80.7325723
51
84.0779772
0
ARC
8
DEFAULT_255_2_778
10
7.021378
20
100.0235497
40
7.0050837
50
78.5086351
51
80.7886813
0
ARC
8
DEFAULT_255_2_778
10
7.66255
20
104.6230221
40
1.9415426
50
67.135818
51
78.0934208
0
ARC
8
DEFAULT_255_2_778
10
7.7857137
20
105.1934486
40
1.3579807
50
78.2126325
51
89.7333975
0
ARC
8
DEFAULT_255_2_778
10
7.7799169
20
105.6078048
40
0.9436877
50
89.2643807
51
100.5577599
0
ARC
8
DEFAULT_255_2_778
10
7.6671349
20
106.1765957
40
0.3639224
50
99.5099416
51
124.0285213
0
ARC
8
DEFAULT_255_2_778
10
7.57092
20
106.3266933
40
0.1857341
50
125.3416971
51
182.2767689
0
ARC
8
DEFAULT_255_2_778
10
7.5504732
20
106.3200853
40
0.1651425
50
180.2673353
51
239.6912529
0
ARC
8
DEFAULT_255_2_778
10
7.9323524
20
106.918404
40
0.8748407
50
237.8744287
51
242.8176978
0
ARC
8
DEFAULT_255_2_778
10
9.4134979
20
109.7290997
40
4.0518771
50
242.3429481
51
244.0446069
0
ARC
8
DEFAULT_255_2_778
10
12.367478
20
115.7629499
40
10.7700062
50
243.963828
51
244.8175572
0
ARC
8
DEFAULT_255_2_778
10
15.3896528
20
122.1546513
40
17.8401724
50
244.7685545
51
244.971514
0
ARC
8
DEFAULT_255_2_778
10
5.8614283
20
101.6598652
40
4.7613433
50
62.2451122
51
65.4192096
0
ARC
8
DEFAULT_255_2_778
10
6.9259351
20
103.671774
40
2.4851839
50
57.2979848
51
62.3628589
0
ARC
8
DEFAULT_255_2_778
10
7.6805627
20
104.837458
40
1.0965802
50
48.7493094
51
57.571194
0
ARC
8
DEFAULT_255_2_778
10
8.0120821
20
105.2257759
40
0.586081
50
44.3424824
51
48.0852666
0
ARC
8
DEFAULT_255_2_778
10
7.9788325
20
105.2062146
40
0.6236013
50
1.3523843
51
43.4925744
0
ARC
8
DEFAULT_255_2_778
10
7.7108854
20
105.1732828
40
0.8926473
50
359.9763756
51
3.0599076
0
ARC
8
DEFAULT_255_2_778
10
7.8648098
20
105.1581968
40
0.7388693
50
333.0409438
51
1.1413791
0
ARC
8
DEFAULT_255_2_778
10
7.8953469
20
105.1650035
40
0.7150136
50
300.8436672
51
331.44521
0
ARC
8
DEFAULT_255_2_778
10
7.6951587
20
105.4790479
40
1.0873327
50
281.4188469
51
301.4162372
0
ARC
8
DEFAULT_255_2_778
10
7.5637994
20
106.0878698
40
1.7101299
50
270.2272327
51
281.6944092
0
ARC
8
DEFAULT_255_2_778
10
7.5459128
20
106.5635692
40
2.185955
50
269.9983113
51
270.6466065
0
LINE
8
DEFAULT_255_2_778
10
7.5458484
20
104.3776142
11
7.5443325
21
104.3776147
0
ARC
8
DEFAULT_255_2_778
10
7.5514484
20
107.5605647
40
3.1829579
50
256.2431122
51
269.871909
0
ARC
8
DEFAULT_255_2_778
10
21.7546021
20
107.7793817
40
2.9666503
50
251.5318157
51
258.7258279
0
ARC
8
DEFAULT_255_2_778
10
21.5543563
20
106.757451
40
1.9252941
50
258.62435
51
268.8252909
0
ARC
8
DEFAULT_255_2_778
10
21.5360665
20
106.3625972
40
1.5301823
50
269.2068806
51
269.9987259
0
ARC
8
DEFAULT_255_2_778
10
21.5479171
20
105.8983861
40
1.0660376
50
269.3612297
51
279.5899087
0
ARC
8
DEFAULT_255_2_778
10
21.6613762
20
105.2669001
40
0.424527
50
278.6895227
51
300.2363944
0
ARC
8
DEFAULT_255_2_778
10
21.7804406
20
105.063447
40
0.188796
50
300.1108484
51
1.9024905
0
ARC
8
DEFAULT_255_2_778
10
21.74449
20
105.0740898
40
0.2246851
50
358.8842611
51
0.0019649
0
ARC
8
DEFAULT_255_2_778
10
21.7775114
20
105.0780062
40
0.1917038
50
358.831716
51
47.0900458
0
ARC
8
DEFAULT_255_2_778
10
21.6382597
20
104.9195519
40
0.402612
50
47.9285592
51
61.0836101
0
ARC
8
DEFAULT_255_2_778
10
21.0435796
20
103.9012787
40
1.5817315
50
60.0631222
51
65.1602386
0
ARC
8
DEFAULT_255_2_778
10
20.1320272
20
101.975206
40
3.7125866
50
64.8807046
51
67.1209578
0
ARC
8
DEFAULT_255_2_778
10
23.628079
20
110.2646565
40
5.2839333
50
244.2656926
51
247.1407051
0
ARC
8
DEFAULT_255_2_778
10
22.560032
20
108.0564327
40
2.8309849
50
240.1545061
51
244.3326325
0
ARC
8
DEFAULT_255_2_778
10
21.7861871
20
106.7204023
40
1.2870531
50
232.697515
51
240.4357497
0
ARC
8
DEFAULT_255_2_778
10
21.3710829
20
106.1693895
40
0.5972006
50
225.5850892
51
232.3393736
0
ARC
8
DEFAULT_255_2_778
10
21.4139264
20
106.198961
40
0.6483829
50
178.7795739
51
224.7095916
0
ARC
8
DEFAULT_255_2_778
10
21.6674642
20
106.2229812
40
0.9018316
50
179.997867
51
180.6487041
0
ARC
8
DEFAULT_255_2_778
10
21.5173061
20
106.2367926
40
0.7517998
50
156.9195758
51
181.050088
0
ARC
8
DEFAULT_255_2_778
10
21.3933805
20
106.2762389
40
0.6224513
50
124.7111133
51
155.7879672
0
ARC
8
DEFAULT_255_2_778
10
21.6055077
20
105.9859843
40
0.9818859
50
101.7943006
51
125.2417472
0
ARC
8
DEFAULT_255_2_778
10
21.7300568
20
105.4325359
40
1.5491324
50
89.5237779
51
102.119608
0
ARC
8
DEFAULT_255_2_778
10
21.728565
20
104.8777684
40
2.1038954
50
83.2897778
51
89.6087235
0
ARC
8
DEFAULT_255_2_778
10
21.5240013
20
103.0654907
40
3.9276711
50
79.3121016
51
83.4152109
0
ARC
8
DEFAULT_255_2_778
10
21.2073148
20
101.3008502
40
5.7204535
50
78.2244786
51
79.4731175
0
ARC
8
DEFAULT_255_2_778
10
21.6839903
20
104.6345601
40
1.9313541
50
67.1320052
51
78.3124693
0
ARC
8
DEFAULT_255_2_778
10
21.8016805
20
105.186809
40
1.3667182
50
78.4541134
51
89.7546716
0
ARC
8
DEFAULT_255_2_778
10
21.7954662
20
105.6154688
40
0.9381236
50
89.263032
51
100.5789495
0
ARC
8
DEFAULT_255_2_778
10
21.6826638
20
106.1821991
40
0.3603816
50
99.4915893
51
124.3627674
0
ARC
8
DEFAULT_255_2_778
10
21.5877509
20
106.3292673
40
0.1854666
50
125.8028369
51
182.2896157
0
ARC
8
DEFAULT_255_2_778
10
21.5495799
20
106.321772
40
0.1471476
50
179.9666171
51
180.1001736
0
ARC
8
DEFAULT_255_2_778
10
21.5667858
20
106.3217311
40
0.1643535
50
180.0754351
51
239.8483251
0
ARC
8
DEFAULT_255_2_778
10
21.9360551
20
106.903813
40
0.8535847
50
238.0402264
51
243.0370307
0
ARC
8
DEFAULT_255_2_778
10
23.4793463
20
109.8559461
40
4.1847343
50
242.5305029
51
244.1852103
0
ARC
8
DEFAULT_255_2_778
10
26.6271515
20
116.3261116
40
11.3799845
50
244.1038809
51
244.9214171
0
ARC
8
DEFAULT_255_2_778
10
29.8777528
20
123.234826
40
19.0152051
50
244.8737354
51
245.0669821
0
ARC
8
DEFAULT_255_2_778
10
19.8882742
20
101.701571
40
4.7223648
50
62.036831
51
65.2981624
0
ARC
8
DEFAULT_255_2_778
10
20.9522164
20
103.6961714
40
2.4617531
50
57.1110762
51
62.1404081
0
ARC
8
DEFAULT_255_2_778
10
21.7048272
20
104.849297
40
1.0847836
50
48.3568195
51
57.4187314
0
ARC
8
DEFAULT_255_2_778
10
22.029546
20
105.2256639
40
0.5878002
50
44.453022
51
47.6325253
0
ARC
8
DEFAULT_255_2_778
10
21.9979779
20
105.2074098
40
0.6231843
50
1.0876759
51
43.6183889
0
ARC
8
DEFAULT_255_2_778
10
21.7310111
20
105.1753301
40
0.8911213
50
359.9797211
51
2.8243422
0
ARC
8
DEFAULT_255_2_778
10
21.8804151
20
105.1602736
40
0.7418639
50
333.2156265
51
1.138567
0
ARC
8
DEFAULT_255_2_778
10
21.9152495
20
105.1647363
40
0.7130495
50
300.9658303
51
331.6339563
0
ARC
8
DEFAULT_255_2_778
10
21.7187382
20
105.47397
40
1.0793606
50
281.9136331
51
301.4645182
0
ARC
8
DEFAULT_255_2_778
10
21.5855532
20
106.0711054
40
1.6911426
50
270.5804277
51
282.1523279
0
ARC
8
DEFAULT_255_2_778
10
21.5644102
20
106.5650177
40
2.1853034
50
269.9959061
51
271.0035609
0
LINE
8
DEFAULT_255_2_778
10
21.5642541
20
104.3797142
11
21.5627325
21
104.3797147
0
ARC
8
DEFAULT_255_2_778
10
21.5696949
20
107.5638913
40
3.1841842
50
256.2458002
51
269.8747201
0
LINE
8
DEFAULT_255_2_778
10
6.7963325
20
104.4704147
11
6.7963325
21
104.9652147
0
LINE
8
DEFAULT_255_2_778
10
8.4169325
20
106.8882147
11
8.4169325
21
106.4120147
0
LINE
8
DEFAULT_255_2_778
10
6.7945325
20
104.4689147
11
6.7963325
21
104.4704147
0
LINE
8
DEFAULT_255_2_778
10
8.9871325
20
106.9377147
11
9.6634325
21
106.9377147
0
LINE
8
DEFAULT_255_2_778
10
9.6634325
20
106.9377147
11
9.6634325
21
104.4302147
0
LINE
8
DEFAULT_255_2_778
10
9.6634325
20
104.4302147
11
8.9871325
21
104.4302147
0
LINE
8
DEFAULT_255_2_778
10
8.9871325
20
104.4302147
11
8.9871325
21
106.9377147
0
LINE
8
DEFAULT_255_2_778
10
10.2814325
20
104.4302147
11
10.2814325
21
106.9377147
0
LINE
8
DEFAULT_255_2_778
10
10.2814325
20
106.9377147
11
12.0137325
21
106.9377147
0
LINE
8
DEFAULT_255_2_778
10
12.0137325
20
106.9377147
11
12.0137325
21
106.4839147
0
LINE
8
DEFAULT_255_2_778
10
12.0137325
20
106.4839147
11
10.9326325
21
106.4839147
0
LINE
8
DEFAULT_255_2_778
10
10.9326325
20
106.4839147
11
10.9326325
21
105.9177147
0
LINE
8
DEFAULT_255_2_778
10
10.9326325
20
105.9177147
11
11.8740325
21
105.9177147
0
LINE
8
DEFAULT_255_2_778
10
11.8740325
20
105.9177147
11
11.8740325
21
105.5042147
0
LINE
8
DEFAULT_255_2_778
10
11.8740325
20
105.5042147
11
10.9326325
21
105.5042147
0
LINE
8
DEFAULT_255_2_778
10
10.9326325
20
105.5042147
11
10.9326325
21
104.9089147
0
LINE
8
DEFAULT_255_2_778
10
10.9326325
20
104.9089147
11
12.0417325
21
104.9089147
0
LINE
8
DEFAULT_255_2_778
10
12.0417325
20
104.9089147
11
12.0417325
21
104.4286147
0
LINE
8
DEFAULT_255_2_778
10
12.0417325
20
104.4286147
11
10.2814325
21
104.4302147
0
LINE
8
DEFAULT_255_2_778
10
12.4822325
20
104.4302147
11
12.4822325
21
106.9377147
0
LINE
8
DEFAULT_255_2_778
10
12.4822325
20
106.9377147
11
13.3580325
21
106.9377147
0
LINE
8
DEFAULT_255_2_778
10
13.3580325
20
106.9377147
11
13.9676325
21
105.3354147
0
LINE
8
DEFAULT_255_2_778
10
13.9676325
20
105.3354147
11
14.5902325
21
106.9377147
0
LINE
8
DEFAULT_255_2_778
10
14.5902325
20
106.9377147
11
15.4220325
21
106.9377147
0
LINE
8
DEFAULT_255_2_778
10
15.4220325
20
106.9377147
11
15.4220325
21
104.4302147
0
LINE
8
DEFAULT_255_2_778
10
15.4220325
20
104.4302147
11
14.7817325
21
104.4302147
0
LINE
8
DEFAULT_255_2_778
10
14.7817325
20
104.4302147
11
14.7817325
21
106.2061147
0
LINE
8
DEFAULT_255_2_778
10
14.7817325
20
106.2061147
11
14.0729325
21
104.4059147
0
LINE
8
DEFAULT_255_2_778
10
14.0729325
20
104.4059147
11
13.6520325
21
104.4059147
0
LINE
8
DEFAULT_255_2_778
10
13.6520325
20
104.4059147
11
12.9564325
21
106.2061147
0
LINE
8
DEFAULT_255_2_778
10
12.9564325
20
106.2061147
11
12.9564325
21
104.4300147
0
LINE
8
DEFAULT_255_2_778
10
12.9564325
20
104.4300147
11
12.4822325
21
104.4302147
0
LINE
8
DEFAULT_255_2_778
10
16.0414325
20
104.4302147
11
16.0414325
21
106.9377147
0
LINE
8
DEFAULT_255_2_778
10
16.0414325
20
106.9377147
11
17.7736325
21
106.9377147
0
LINE
8
DEFAULT_255_2_778
10
17.7736325
20
106.9377147
11
17.7736325
21
106.4839147
0
LINE
8
DEFAULT_255_2_778
10
17.7736325
20
106.4839147
11
16.6926325
21
106.4839147
0
LINE
8
DEFAULT_255_2_778
10
16.6926325
20
106.4839147
11
16.6926325
21
105.9177147
0
LINE
8
DEFAULT_255_2_778
10
16.6926325
20
105.9177147
11
17.6339325
21
105.9177147
0
LINE
8
DEFAULT_255_2_778
10
17.6339325
20
105.9177147
11
17.6339325
21
105.5042147
0
LINE
8
DEFAULT_255_2_778
10
17.6339325
20
105.5042147
11
16.6926325
21
105.5042147
0
LINE
8
DEFAULT_255_2_778
10
16.6926325
20
105.5042147
11
16.6926325
21
104.9089147
0
LINE
8
DEFAULT_255_2_778
10
16.6926325
20
104.9089147
11
17.8035325
21
104.9089147
0
LINE
8
DEFAULT_255_2_778
10
17.8035325
20
104.9089147
11
17.8035325
21
104.4286147
0
LINE
8
DEFAULT_255_2_778
10
17.8035325
20
104.4286147
11
16.0414325
21
104.4302147
0
LINE
8
DEFAULT_255_2_778
10
18.2459325
20
104.4302147
11
18.2459325
21
106.9377147
0
LINE
8
DEFAULT_255_2_778
10
18.2459325
20
106.9377147
11
19.0288325
21
106.9377147
0
LINE
8
DEFAULT_255_2_778
10
19.0288325
20
106.9377147
11
19.8591325
21
105.2589147
0
LINE
8
DEFAULT_255_2_778
10
19.8591325
20
105.2589147
11
19.8591325
21
106.9377147
0
LINE
8
DEFAULT_255_2_778
10
19.8591325
20
106.9377147
11
20.3348325
21
106.9377147
0
LINE
8
DEFAULT_255_2_778
10
20.3348325
20
106.9377147
11
20.3348325
21
104.4302147
0
LINE
8
DEFAULT_255_2_778
10
20.3348325
20
104.4302147
11
19.5744325
21
104.4302147
0
LINE
8
DEFAULT_255_2_778
10
19.5744325
20
104.4302147
11
18.7219325
21
106.1315147
0
LINE
8
DEFAULT_255_2_778
10
18.7219325
20
106.1315147
11
18.7219325
21
104.4302147
0
LINE
8
DEFAULT_255_2_778
10
18.7219325
20
104.4302147
11
18.2459325
21
104.4302147
0
LINE
8
DEFAULT_255_2_778
10
20.8148325
20
104.4707147
11
20.8148325
21
104.9655147
0
LINE
8
DEFAULT_255_2_778
10
22.3747325
20
106.9009147
11
22.4345325
21
106.8903147
0
LINE
8
DEFAULT_255_2_778
10
22.4345325
20
106.8903147
11
22.4345325
21
106.4141147
0
LINE
8
DEFAULT_255_2_778
10
20.8126325
20
104.4710147
11
20.8148325
21
104.4707147
0
LINE
8
DEFAULT_255_1_388
10
7.9879457
20
102.8214892
11
7.8135577
21
102.8214892
0
LINE
8
DEFAULT_255_1_388
10
7.0346852
20
102.2676042
11
7.2090731
21
102.2676042
0
ARC
8
DEFAULT_255_1_388
10
7.8876304
20
103.8278821
40
1.4087688
50
248.9196578
51
254.1442424
0
ARC
8
DEFAULT_255_1_388
10
7.6986184
20
103.3412805
40
0.8867498
50
241.6337352
51
249.0064643
0
ARC
8
DEFAULT_255_1_388
10
7.5266498
20
103.0261764
40
0.5277799
50
230.4982261
51
241.8087583
0
ARC
8
DEFAULT_255_1_388
10
7.4384269
20
102.9137686
40
0.3849419
50
227.4062979
51
229.9877433
0
ARC
8
DEFAULT_255_1_388
10
7.3835615
20
102.8602155
40
0.3084129
50
200.6782127
51
228.1765252
0
ARC
8
DEFAULT_255_1_388
10
7.3916984
20
102.8585277
40
0.315461
50
179.506278
51
199.8695278
0
ARC
8
DEFAULT_255_1_388
10
7.3906573
20
102.8668671
40
0.3144584
50
132.4834401
51
181.0242352
0
ARC
8
DEFAULT_255_1_388
10
7.4575777
20
102.8036788
40
0.4063094
50
129.2526113
51
133.4249077
0
ARC
8
DEFAULT_255_1_388
10
7.474137
20
102.7788619
40
0.436014
50
101.9878945
51
128.8741833
0
ARC
8
DEFAULT_255_1_388
10
7.5189785
20
102.585236
40
0.6347415
50
89.5906376
51
102.3170567
0
ARC
8
DEFAULT_255_1_388
10
7.5269097
20
102.6210586
40
0.5989122
50
77.2359491
51
90.3248968
0
ARC
8
DEFAULT_255_1_388
10
7.5502028
20
102.7298554
40
0.4876594
50
63.8379856
51
77.0808925
0
ARC
8
DEFAULT_255_1_388
10
7.5814561
20
102.7880882
40
0.4216191
50
45.9863127
51
64.1608798
0
ARC
8
DEFAULT_255_1_388
10
7.6107955
20
102.821599
40
0.3771394
50
32.2747934
51
45.6544796
0
ARC
8
DEFAULT_255_1_388
10
7.6182761
20
102.8237426
40
0.3696765
50
359.6507495
51
32.6129943
0
ARC
8
DEFAULT_255_1_388
10
7.5121944
20
102.8242788
40
0.3013762
50
359.469654
51
14.983205
0
ARC
8
DEFAULT_255_1_388
10
7.5915196
20
102.8455288
40
0.2192542
50
14.9781954
51
48.2004799
0
ARC
8
DEFAULT_255_1_388
10
7.5730307
20
102.8222937
40
0.2489048
50
48.5926661
51
74.1242559
0
ARC
8
DEFAULT_255_1_388
10
7.5355109
20
102.6984607
40
0.3782845
50
73.7889321
51
86.6653996
0
ARC
8
DEFAULT_255_1_388
10
7.5239924
20
102.5626955
40
0.5145025
50
86.2642725
51
90.0533288
0
ARC
8
DEFAULT_255_1_388
10
7.5208017
20
102.6071376
40
0.4700681
50
89.669455
51
99.2313411
0
ARC
8
DEFAULT_255_1_388
10
7.4935176
20
102.7696401
40
0.3052945
50
99.0695987
51
113.7659242
0
ARC
8
DEFAULT_255_1_388
10
7.4627171
20
102.8422772
40
0.226407
50
114.0402885
51
127.9848946
0
ARC
8
DEFAULT_255_1_388
10
7.4356647
20
102.8755884
40
0.1835045
50
127.7287217
51
176.7106493
0
ARC
8
DEFAULT_255_1_388
10
7.5120312
20
102.864221
40
0.2604907
50
175.1780759
51
180.0581213
0
ARC
8
DEFAULT_255_1_388
10
7.4171656
20
102.8628411
40
0.1656287
50
179.6140658
51
228.124674
0
ARC
8
DEFAULT_255_1_388
10
7.4669013
20
102.908894
40
0.2332038
50
226.5785315
51
230.8792476
0
ARC
8
DEFAULT_255_1_388
10
7.51985
20
102.9791908
40
0.3211664
50
231.4636401
51
241.9261664
0
ARC
8
DEFAULT_255_1_388
10
7.6545283
20
103.2270349
40
0.6032345
50
241.7177136
51
248.3259138
0
ARC
8
DEFAULT_255_1_388
10
7.8103878
20
103.6131771
40
1.0196417
50
248.2007377
51
252.4527713
0
ARC
8
DEFAULT_255_1_388
10
7.9457405
20
104.0316092
40
1.4594143
50
252.3388938
51
254.347037
0
ARC
8
DEFAULT_255_1_388
10
7.0972705
20
100.9968095
40
1.6917621
50
71.0197462
51
74.4085467
0
ARC
8
DEFAULT_255_1_388
10
7.2879793
20
101.5473144
40
1.1091618
50
66.1845203
51
71.086519
0
ARC
8
DEFAULT_255_1_388
10
7.4630342
20
101.9414439
40
0.6779073
50
59.3537334
51
66.269255
0
ARC
8
DEFAULT_255_1_388
10
7.5630068
20
102.1105777
40
0.4814366
50
49.1021732
51
59.3294421
0
ARC
8
DEFAULT_255_1_388
10
7.6551056
20
102.2155575
40
0.3417875
50
32.7924183
51
49.2503526
0
ARC
8
DEFAULT_255_1_388
10
7.690067
20
102.2405311
40
0.2988789
50
31.121225
51
32.3977355
0
ARC
8
DEFAULT_255_1_388
10
7.6812848
20
102.2372728
40
0.3080861
50
8.1116803
51
30.7958224
0
ARC
8
DEFAULT_255_1_388
10
7.5901194
20
102.2217437
40
0.4005385
50
359.8390945
51
8.4707348
0
ARC
8
DEFAULT_255_1_388
10
7.6605242
20
102.2162751
40
0.3301608
50
337.4732479
51
0.7538283
0
ARC
8
DEFAULT_255_1_388
10
7.6806267
20
102.2140554
40
0.3107929
50
307.5917028
51
336.4313755
0
ARC
8
DEFAULT_255_1_388
10
7.6295324
20
102.2708509
40
0.3870096
50
307.6560665
51
308.4561779
0
ARC
8
DEFAULT_255_1_388
10
7.6029541
20
102.3116832
40
0.435591
50
284.3733666
51
307.1426212
0
ARC
8
DEFAULT_255_1_388
10
7.5472435
20
102.5166391
40
0.6479685
50
272.4384566
51
284.6464689
0
ARC
8
DEFAULT_255_1_388
10
7.532982
20
102.7190434
40
0.8508149
50
269.9708517
51
272.8180721
0
ARC
8
DEFAULT_255_1_388
10
7.5281503
20
102.4898283
40
0.6216151
50
248.2707343
51
270.4054609
0
ARC
8
DEFAULT_255_1_388
10
7.5220374
20
102.4683673
40
0.5994203
50
246.1380358
51
248.054058
0
ARC
8
DEFAULT_255_1_388
10
7.4749517
20
102.3694705
40
0.4899388
50
233.1671897
51
246.4951656
0
ARC
8
DEFAULT_255_1_388
10
7.4126152
20
102.2853137
40
0.3852115
50
215.3403381
51
233.084328
0
ARC
8
DEFAULT_255_1_388
10
7.3819516
20
102.2630093
40
0.3472969
50
179.2419235
51
215.2648426
0
ARC
8
DEFAULT_255_1_388
10
7.4683067
20
102.2645979
40
0.259251
50
179.3355796
51
199.1045873
0
ARC
8
DEFAULT_255_1_388
10
7.4309209
20
102.2548223
40
0.2207454
50
199.8830064
51
232.7061328
0
ARC
8
DEFAULT_255_1_388
10
7.4840483
20
102.3216456
40
0.306101
50
232.3736206
51
255.5136621
0
ARC
8
DEFAULT_255_1_388
10
7.5223989
20
102.4616177
40
0.4512213
50
255.2447928
51
267.5318292
0
ARC
8
DEFAULT_255_1_388
10
7.5322456
20
102.6002709
40
0.5901825
50
267.1564563
51
270.0294721
0
ARC
8
DEFAULT_255_1_388
10
7.5353781
20
102.5503623
40
0.5402814
50
269.6999944
51
278.1662446
0
ARC
8
DEFAULT_255_1_388
10
7.5641809
20
102.3556974
40
0.3435003
50
278.0229022
51
290.6255326
0
ARC
8
DEFAULT_255_1_388
10
7.6032975
20
102.2513547
40
0.2320666
50
290.6616368
51
307.0374127
0
ARC
8
DEFAULT_255_1_388
10
7.6370875
20
102.209904
40
0.1786372
50
306.3942078
51
355.303191
0
ARC
8
DEFAULT_255_1_388
10
7.5795168
20
102.2185186
40
0.2367516
50
354.3662092
51
0.0709489
0
ARC
8
DEFAULT_255_1_388
10
7.5955037
20
102.2210561
40
0.2207761
50
359.4175379
51
16.1975911
0
ARC
8
DEFAULT_255_1_388
10
7.6467155
20
102.2350954
40
0.1676828
50
16.4721294
51
52.6261798
0
ARC
8
DEFAULT_255_1_388
10
7.5543662
20
102.1131606
40
0.3206412
50
52.7381828
51
62.4979144
0
ARC
8
DEFAULT_255_1_388
10
7.3985415
20
101.8199236
40
0.6527035
50
62.2517425
51
68.1219454
0
ARC
8
DEFAULT_255_1_388
10
7.2050903
20
101.3444951
40
1.1659797
50
68.006043
51
71.8055127
0
ARC
8
DEFAULT_255_1_388
10
7.0030811
20
100.7386723
40
1.8045908
50
71.718361
51
73.9260743
0
LINE
8
DEFAULT_255_1_388
10
8.3990675
20
103.2018898
11
8.3990675
21
101.8863
0
LINE
8
DEFAULT_255_1_388
10
8.3990675
20
101.8863
11
8.2255831
21
101.8863
0
LINE
8
DEFAULT_255_1_388
10
8.2255831
20
101.8863
11
8.2255831
21
103.2018898
0
LINE
8
DEFAULT_255_1_388
10
8.2255831
20
103.2018898
11
8.3990675
21
103.2018898
0
LINE
8
DEFAULT_255_1_388
10
8.7162186
20
103.2018898
11
8.9403026
21
103.2018898
0
LINE
8
DEFAULT_255_1_388
10
8.9403026
20
103.2018898
11
9.3703993
21
102.1284553
0
LINE
8
DEFAULT_255_1_388
10
9.3703993
20
102.1284553
11
9.8004959
21
103.2018898
0
LINE
8
DEFAULT_255_1_388
10
9.8004959
20
103.2018898
11
10.0254835
21
103.2018898
0
LINE
8
DEFAULT_255_1_388
10
10.0254835
20
103.2018898
11
10.0254835
21
101.8863
0
LINE
8
DEFAULT_255_1_388
10
10.0254835
20
101.8863
11
9.8519991
21
101.8863
0
LINE
8
DEFAULT_255_1_388
10
9.8519991
20
101.8863
11
9.8519991
21
102.398621
0
LINE
8
DEFAULT_255_1_388
10
9.8519991
20
102.398621
11
9.8682633
21
102.9516025
0
LINE
8
DEFAULT_255_1_388
10
9.8682633
20
102.9516025
11
9.4363595
21
101.8863
0
LINE
8
DEFAULT_255_1_388
10
9.4363595
20
101.8863
11
9.3035355
21
101.8863
0
LINE
8
DEFAULT_255_1_388
10
9.3035355
20
101.8863
11
8.8725353
21
102.9488918
0
LINE
8
DEFAULT_255_1_388
10
8.8725353
20
102.9488918
11
8.889703
21
102.398621
0
LINE
8
DEFAULT_255_1_388
10
8.889703
20
102.398621
11
8.889703
21
101.8863
0
LINE
8
DEFAULT_255_1_388
10
8.889703
20
101.8863
11
8.7162186
21
101.8863
0
LINE
8
DEFAULT_255_1_388
10
8.7162186
20
101.8863
11
8.7162186
21
103.2018898
0
LINE
8
DEFAULT_255_1_388
10
11.2001173
20
101.8863
11
11.0745218
21
102.2296545
0
LINE
8
DEFAULT_255_1_388
10
11.0745218
20
102.2296545
11
10.5233475
21
102.2296545
0
LINE
8
DEFAULT_255_1_388
10
10.5233475
20
102.2296545
11
10.3995592
21
101.8863
0
LINE
8
DEFAULT_255_1_388
10
10.3995592
20
101.8863
11
10.2206534
21
101.8863
0
LINE
8
DEFAULT_255_1_388
10
10.2206534
20
101.8863
11
10.7230353
21
103.2018898
0
LINE
8
DEFAULT_255_1_388
10
10.7230353
20
103.2018898
11
10.8748341
21
103.2018898
0
LINE
8
DEFAULT_255_1_388
10
10.8748341
20
103.2018898
11
11.3781195
21
101.8863
0
LINE
8
DEFAULT_255_1_388
10
11.3781195
20
101.8863
11
11.2001173
21
101.8863
0
LINE
8
DEFAULT_255_1_388
10
10.7989347
20
102.9877451
11
10.5757542
21
102.3724177
0
LINE
8
DEFAULT_255_1_388
10
10.5757542
20
102.3724177
11
11.0230187
21
102.3724177
0
LINE
8
DEFAULT_255_1_388
10
11.0230187
20
102.3724177
11
10.7989347
21
102.9877451
0
LINE
8
DEFAULT_255_1_388
10
12.3476441
20
103.2018898
11
12.3476441
21
103.0591267
0
LINE
8
DEFAULT_255_1_388
10
12.3476441
20
103.0591267
11
11.924776
21
103.0591267
0
LINE
8
DEFAULT_255_1_388
10
11.924776
20
103.0591267
11
11.924776
21
101.8863
0
LINE
8
DEFAULT_255_1_388
10
11.924776
20
101.8863
11
11.7521952
21
101.8863
0
LINE
8
DEFAULT_255_1_388
10
11.7521952
20
101.8863
11
11.7521952
21
103.0591267
0
LINE
8
DEFAULT_255_1_388
10
11.7521952
20
103.0591267
11
11.3302306
21
103.0591267
0
LINE
8
DEFAULT_255_1_388
10
11.3302306
20
103.0591267
11
11.3302306
21
103.2018898
0
LINE
8
DEFAULT_255_1_388
10
11.3302306
20
103.2018898
11
12.3476441
21
103.2018898
0
LINE
8
DEFAULT_255_1_388
10
12.7289483
20
103.2018898
11
12.7289483
21
101.8863
0
LINE
8
DEFAULT_255_1_388
10
12.7289483
20
101.8863
11
12.555464
21
101.8863
0
LINE
8
DEFAULT_255_1_388
10
12.555464
20
101.8863
11
12.555464
21
103.2018898
0
LINE
8
DEFAULT_255_1_388
10
12.555464
20
103.2018898
11
12.7289483
21
103.2018898
0
LINE
8
DEFAULT_255_1_388
10
13.8394291
20
102.3037468
11
14.013817
21
102.3037468
0
LINE
8
DEFAULT_255_1_388
10
13.0009212
20
102.4826525
11
13.0009212
21
102.6091516
0
LINE
8
DEFAULT_255_1_388
10
14.013817
20
102.7790217
11
13.8394291
21
102.7790217
0
LINE
8
DEFAULT_255_1_388
10
13.1753092
20
102.6046337
11
13.1753092
21
102.4772312
0
ARC
8
DEFAULT_255_1_388
10
13.3972404
20
102.3709329
40
0.6202263
50
340.1774904
51
353.7812217
0
ARC
8
DEFAULT_255_1_388
10
13.5740257
20
102.3050893
40
0.4315926
50
311.4560052
51
340.4420756
0
ARC
8
DEFAULT_255_1_388
10
13.5702796
20
102.3175665
40
0.4434573
50
282.4332229
51
310.7514507
0
ARC
8
DEFAULT_255_1_388
10
13.5208614
20
102.5217703
40
0.6535262
50
269.9358869
51
282.8096729
0
ARC
8
DEFAULT_255_1_388
10
13.5150554
20
102.6730329
40
0.8048043
50
269.9995752
51
270.3612856
0
ARC
8
DEFAULT_255_1_388
10
13.5091044
20
102.3931781
40
0.5249831
50
250.7885263
51
270.6488451
0
ARC
8
DEFAULT_255_1_388
10
13.4901868
20
102.3214853
40
0.4510942
50
219.3628377
51
250.0611024
0
ARC
8
DEFAULT_255_1_388
10
13.5834743
20
102.4007653
40
0.5735046
50
193.5480293
51
219.5755675
0
ARC
8
DEFAULT_255_1_388
10
13.8502952
20
102.470052
40
0.849146
50
181.1220183
51
193.8754971
0
ARC
8
DEFAULT_255_1_388
10
14.0826185
20
102.4824914
40
1.0816971
50
179.9914644
51
181.5398227
0
ARC
8
DEFAULT_255_1_388
10
13.8749495
20
102.6133586
40
0.8740384
50
169.5837606
51
180.275782
0
ARC
8
DEFAULT_255_1_388
10
13.6682844
20
102.6515439
40
0.6638751
50
155.0367033
51
169.6002779
0
ARC
8
DEFAULT_255_1_388
10
13.5405302
20
102.7131336
40
0.5220662
50
136.7831557
51
155.2472983
0
ARC
8
DEFAULT_255_1_388
10
13.4967092
20
102.7503577
40
0.4646502
50
121.7633063
51
136.4281161
0
ARC
8
DEFAULT_255_1_388
10
13.5118932
20
102.7223049
40
0.4964979
50
95.6460018
51
121.5489589
0
ARC
8
DEFAULT_255_1_388
10
13.5295907
20
102.5975704
40
0.6223912
50
89.9245727
51
96.1375919
0
ARC
8
DEFAULT_255_1_388
10
13.5352612
20
102.6109721
40
0.6090084
50
76.6779212
51
90.456405
0
ARC
8
DEFAULT_255_1_388
10
13.5795425
20
102.789906
40
0.42469
50
47.4858803
51
76.9287069
0
ARC
8
DEFAULT_255_1_388
10
13.5630038
20
102.7786623
40
0.4441778
50
16.5424081
51
46.8934505
0
ARC
8
DEFAULT_255_1_388
10
13.3821088
20
102.7192265
40
0.6345318
50
5.4072971
51
17.0363711
0
ARC
8
DEFAULT_255_1_388
10
13.2202813
20
102.6932304
40
0.6250632
50
7.8888693
51
15.9242022
0
ARC
8
DEFAULT_255_1_388
10
13.4437799
20
102.7581309
40
0.3923364
50
15.7650676
51
27.9410069
0
ARC
8
DEFAULT_255_1_388
10
13.5679968
20
102.8246317
40
0.2514401
50
27.8167196
51
46.4007942
0
ARC
8
DEFAULT_255_1_388
10
13.5735809
20
102.8239882
40
0.2480958
50
47.4372362
51
75.0695672
0
ARC
8
DEFAULT_255_1_388
10
13.5388646
20
102.7031277
40
0.3738281
50
74.7009379
51
87.8124314
0
ARC
8
DEFAULT_255_1_388
10
13.5306262
20
102.5847659
40
0.4924321
50
87.3802571
51
90.0251599
0
ARC
8
DEFAULT_255_1_388
10
13.526291
20
102.7167997
40
0.3604218
50
89.3451886
51
108.5744412
0
ARC
8
DEFAULT_255_1_388
10
13.5108902
20
102.7745836
40
0.3007661
50
109.2998307
51
143.3037387
0
ARC
8
DEFAULT_255_1_388
10
13.5966192
20
102.7086584
40
0.4089031
50
143.075267
51
163.1918576
0
ARC
8
DEFAULT_255_1_388
10
13.8162026
20
102.6393652
40
0.6391492
50
162.9375929
51
174.6208776
0
ARC
8
DEFAULT_255_1_388
10
14.1116408
20
102.6069711
40
0.9363344
50
174.342123
51
180.1430283
0
ARC
8
DEFAULT_255_1_388
10
14.0068949
20
102.4726117
40
0.8315986
50
179.6817261
51
189.150555
0
ARC
8
DEFAULT_255_1_388
10
13.7255698
20
102.4257559
40
0.5464044
50
188.9911061
51
203.5772363
0
ARC
8
DEFAULT_255_1_388
10
13.604099
20
102.3753539
40
0.4149206
50
203.9075402
51
215.1312435
0
ARC
8
DEFAULT_255_1_388
10
13.5002788
20
102.2948907
40
0.2837747
50
213.9071511
51
263.8848919
0
ARC
8
DEFAULT_255_1_388
10
13.5143781
20
102.3831519
40
0.3730641
50
263.1757928
51
270.1031044
0
ARC
8
DEFAULT_255_1_388
10
13.517986
20
102.5234511
40
0.5133712
50
269.6722503
51
279.0606936
0
ARC
8
DEFAULT_255_1_388
10
13.5480016
20
102.342015
40
0.3294739
50
278.8749101
51
293.6349581
0
ARC
8
DEFAULT_255_1_388
10
13.5840219
20
102.2574251
40
0.2375405
50
293.8553806
51
310.0518171
0
ARC
8
DEFAULT_255_1_388
10
13.5845728
20
102.2504021
40
0.2318463
50
311.0644687
51
332.0111037
0
ARC
8
DEFAULT_255_1_388
10
13.4504402
20
102.3243702
40
0.3850112
50
331.6586806
51
343.2877423
0
ARC
8
DEFAULT_255_1_388
10
13.2183867
20
102.3956806
40
0.6277712
50
343.1446576
51
351.0103568
0
ARC
8
DEFAULT_255_1_388
10
13.055119
20
102.4256873
40
0.7937327
50
350.71248
51
351.1626997
0
LINE
8
DEFAULT_255_1_388
10
15.5815013
20
102.8214892
11
15.4071134
21
102.8214892
0
LINE
8
DEFAULT_255_1_388
10
14.6282408
20
102.2676042
11
14.8026288
21
102.2676042
0
ARC
8
DEFAULT_255_1_388
10
15.4811861
20
103.8278821
40
1.4087688
50
248.9196578
51
254.1442424
0
ARC
8
DEFAULT_255_1_388
10
15.2921741
20
103.3412805
40
0.8867498
50
241.6337352
51
249.0064643
0
ARC
8
DEFAULT_255_1_388
10
15.1202054
20
103.0261764
40
0.5277799
50
230.4982261
51
241.8087583
0
ARC
8
DEFAULT_255_1_388
10
15.0319825
20
102.9137686
40
0.3849419
50
227.4062979
51
229.9877433
0
ARC
8
DEFAULT_255_1_388
10
14.9771172
20
102.8602155
40
0.3084129
50
200.6782127
51
228.1765252
0
ARC
8
DEFAULT_255_1_388
10
14.9852541
20
102.8585277
40
0.315461
50
179.506278
51
199.8695278
0
ARC
8
DEFAULT_255_1_388
10
14.984213
20
102.8668671
40
0.3144584
50
132.4834401
51
181.0242352
0
ARC
8
DEFAULT_255_1_388
10
15.0511334
20
102.8036788
40
0.4063094
50
129.2526113
51
133.4249077
0
ARC
8
DEFAULT_255_1_388
10
15.0676926
20
102.7788619
40
0.436014
50
101.9878945
51
128.8741833
0
ARC
8
DEFAULT_255_1_388
10
15.1125342
20
102.585236
40
0.6347415
50
89.5906376
51
102.3170567
0
ARC
8
DEFAULT_255_1_388
10
15.1204653
20
102.6210586
40
0.5989122
50
77.2359491
51
90.3248968
0
ARC
8
DEFAULT_255_1_388
10
15.1437584
20
102.7298554
40
0.4876594
50
63.8379856
51
77.0808925
0
ARC
8
DEFAULT_255_1_388
10
15.1750118
20
102.7880882
40
0.4216191
50
45.9863127
51
64.1608798
0
ARC
8
DEFAULT_255_1_388
10
15.2043511
20
102.821599
40
0.3771394
50
32.2747934
51
45.6544796
0
ARC
8
DEFAULT_255_1_388
10
15.2118318
20
102.8237426
40
0.3696765
50
359.6507495
51
32.6129943
0
ARC
8
DEFAULT_255_1_388
10
15.1057501
20
102.8242788
40
0.3013762
50
359.469654
51
14.983205
0
ARC
8
DEFAULT_255_1_388
10
15.1850753
20
102.8455288
40
0.2192542
50
14.9781954
51
48.2004799
0
ARC
8
DEFAULT_255_1_388
10
15.1665864
20
102.8222937
40
0.2489048
50
48.5926661
51
74.1242559
0
ARC
8
DEFAULT_255_1_388
10
15.1290666
20
102.6984607
40
0.3782845
50
73.7889321
51
86.6653996
0
ARC
8
DEFAULT_255_1_388
10
15.1175481
20
102.5626955
40
0.5145025
50
86.2642725
51
90.0533288
0
ARC
8
DEFAULT_255_1_388
10
15.1143573
20
102.6071376
40
0.4700681
50
89.669455
51
99.2313411
0
ARC
8
DEFAULT_255_1_388
10
15.0870733
20
102.7696401
40
0.3052945
50
99.0695987
51
113.7659242
0
ARC
8
DEFAULT_255_1_388
10
15.0562728
20
102.8422772
40
0.226407
50
114.0402885
51
127.9848946
0
ARC
8
DEFAULT_255_1_388
10
15.0292204
20
102.8755884
40
0.1835045
50
127.7287217
51
176.7106493
0
ARC
8
DEFAULT_255_1_388
10
15.1055869
20
102.864221
40
0.2604907
50
175.1780759
51
180.0581213
0
ARC
8
DEFAULT_255_1_388
10
15.0107212
20
102.8628411
40
0.1656287
50
179.6140658
51
228.124674
0
ARC
8
DEFAULT_255_1_388
10
15.060457
20
102.908894
40
0.2332038
50
226.5785315
51
230.8792476
0
ARC
8
DEFAULT_255_1_388
10
15.1134056
20
102.9791908
40
0.3211664
50
231.4636401
51
241.9261664
0
ARC
8
DEFAULT_255_1_388
10
15.248084
20
103.2270349
40
0.6032345
50
241.7177136
51
248.3259138
0
ARC
8
DEFAULT_255_1_388
10
15.4039435
20
103.6131771
40
1.0196417
50
248.2007377
51
252.4527713
0
ARC
8
DEFAULT_255_1_388
10
15.5392961
20
104.0316092
40
1.4594143
50
252.3388938
51
254.347037
0
ARC
8
DEFAULT_255_1_388
10
14.6908262
20
100.9968095
40
1.6917621
50
71.0197462
51
74.4085467
0
ARC
8
DEFAULT_255_1_388
10
14.881535
20
101.5473144
40
1.1091618
50
66.1845203
51
71.086519
0
ARC
8
DEFAULT_255_1_388
10
15.0565899
20
101.9414439
40
0.6779073
50
59.3537334
51
66.269255
0
ARC
8
DEFAULT_255_1_388
10
15.1565625
20
102.1105777
40
0.4814366
50
49.1021732
51
59.3294421
0
ARC
8
DEFAULT_255_1_388
10
15.2486613
20
102.2155575
40
0.3417875
50
32.7924183
51
49.2503526
0
ARC
8
DEFAULT_255_1_388
10
15.2836227
20
102.2405311
40
0.2988789
50
31.121225
51
32.3977355
0
ARC
8
DEFAULT_255_1_388
10
15.2748405
20
102.2372728
40
0.3080861
50
8.1116803
51
30.7958224
0
ARC
8
DEFAULT_255_1_388
10
15.1836751
20
102.2217437
40
0.4005385
50
359.8390945
51
8.4707348
0
ARC
8
DEFAULT_255_1_388
10
15.2540798
20
102.2162751
40
0.3301608
50
337.4732479
51
0.7538283
0
ARC
8
DEFAULT_255_1_388
10
15.2741823
20
102.2140554
40
0.3107929
50
307.5917028
51
336.4313755
0
ARC
8
DEFAULT_255_1_388
10
15.2230881
20
102.2708509
40
0.3870096
50
307.6560665
51
308.4561779
0
ARC
8
DEFAULT_255_1_388
10
15.1965098
20
102.3116832
40
0.435591
50
284.3733666
51
307.1426212
0
ARC
8
DEFAULT_255_1_388
10
15.1407992
20
102.5166391
40
0.6479685
50
272.4384566
51
284.6464689
0
ARC
8
DEFAULT_255_1_388
10
15.1265377
20
102.7190434
40
0.8508149
50
269.9708517
51
272.8180721
0
ARC
8
DEFAULT_255_1_388
10
15.1217059
20
102.4898283
40
0.6216151
50
248.2707343
51
270.4054609
0
ARC
8
DEFAULT_255_1_388
10
15.1155931
20
102.4683673
40
0.5994203
50
246.1380358
51
248.054058
0
ARC
8
DEFAULT_255_1_388
10
15.0685073
20
102.3694705
40
0.4899388
50
233.1671897
51
246.4951656
0
ARC
8
DEFAULT_255_1_388
10
15.0061709
20
102.2853137
40
0.3852115
50
215.3403381
51
233.084328
0
ARC
8
DEFAULT_255_1_388
10
14.9755073
20
102.2630093
40
0.3472969
50
179.2419235
51
215.2648426
0
ARC
8
DEFAULT_255_1_388
10
15.0618624
20
102.2645979
40
0.259251
50
179.3355796
51
199.1045873
0
ARC
8
DEFAULT_255_1_388
10
15.0244765
20
102.2548223
40
0.2207454
50
199.8830064
51
232.7061328
0
ARC
8
DEFAULT_255_1_388
10
15.077604
20
102.3216456
40
0.306101
50
232.3736206
51
255.5136621
0
ARC
8
DEFAULT_255_1_388
10
15.1159546
20
102.4616177
40
0.4512213
50
255.2447928
51
267.5318292
0
ARC
8
DEFAULT_255_1_388
10
15.1258013
20
102.6002709
40
0.5901825
50
267.1564563
51
270.0294721
0
ARC
8
DEFAULT_255_1_388
10
15.1289338
20
102.5503623
40
0.5402814
50
269.6999944
51
278.1662446
0
ARC
8
DEFAULT_255_1_388
10
15.1577365
20
102.3556974
40
0.3435003
50
278.0229022
51
290.6255326
0
ARC
8
DEFAULT_255_1_388
10
15.1968532
20
102.2513547
40
0.2320666
50
290.6616368
51
307.0374127
0
ARC
8
DEFAULT_255_1_388
10
15.2306432
20
102.209904
40
0.1786372
50
306.3942078
51
355.303191
0
ARC
8
DEFAULT_255_1_388
10
15.1730725
20
102.2185186
40
0.2367516
50
354.3662092
51
0.0709489
0
ARC
8
DEFAULT_255_1_388
10
15.1890594
20
102.2210561
40
0.2207761
50
359.4175379
51
16.1975911
0
ARC
8
DEFAULT_255_1_388
10
15.2402711
20
102.2350954
40
0.1676828
50
16.4721294
51
52.6261798
0
ARC
8
DEFAULT_255_1_388
10
15.1479219
20
102.1131606
40
0.3206412
50
52.7381828
51
62.4979144
0
ARC
8
DEFAULT_255_1_388
10
14.9920972
20
101.8199236
40
0.6527035
50
62.2517425
51
68.1219454
0
ARC
8
DEFAULT_255_1_388
10
14.798646
20
101.3444951
40
1.1659797
50
68.006043
51
71.8055127
0
ARC
8
DEFAULT_255_1_388
10
14.5966368
20
100.7386723
40
1.8045908
50
71.718361
51
73.9260743
0
LINE
8
DEFAULT_255_1_388
10
16.6124684
20
103.2018898
11
16.6124684
21
103.1079191
0
LINE
8
DEFAULT_255_1_388
10
16.6124684
20
103.1079191
11
16.067619
21
101.8863
0
LINE
8
DEFAULT_255_1_388
10
16.067619
20
101.8863
11
15.8923275
21
101.8863
0
LINE
8
DEFAULT_255_1_388
10
15.8923275
20
101.8863
11
16.4353697
21
103.064548
0
LINE
8
DEFAULT_255_1_388
10
16.4353697
20
103.064548
11
15.7233609
21
103.064548
0
LINE
8
DEFAULT_255_1_388
10
15.7233609
20
103.064548
11
15.7233609
21
103.2018898
0
LINE
8
DEFAULT_255_1_388
10
15.7233609
20
103.2018898
11
16.6124684
21
103.2018898
0
LINE
8
DEFAULT_255_1_388
10
17.1672569
20
102.5133737
11
17.1672569
21
102.3769355
0
LINE
8
DEFAULT_255_1_388
10
17.1672569
20
102.3769355
11
16.7263175
21
102.3769355
0
LINE
8
DEFAULT_255_1_388
10
16.7263175
20
102.3769355
11
16.7263175
21
102.5133737
0
LINE
8
DEFAULT_255_1_388
10
16.7263175
20
102.5133737
11
17.1672569
21
102.5133737
0
LINE
8
DEFAULT_255_1_388
10
17.862098
20
103.2082148
11
17.862098
21
101.8863
0
LINE
8
DEFAULT_255_1_388
10
17.862098
20
101.8863
11
17.694035
21
101.8863
0
LINE
8
DEFAULT_255_1_388
10
17.694035
20
101.8863
11
17.694035
21
103.000395
0
LINE
8
DEFAULT_255_1_388
10
17.694035
20
103.000395
11
17.3570055
21
102.8766066
0
LINE
8
DEFAULT_255_1_388
10
17.3570055
20
102.8766066
11
17.3570055
21
103.0284055
0
LINE
8
DEFAULT_255_1_388
10
17.3570055
20
103.0284055
11
17.8358946
21
103.2082148
0
LINE
8
DEFAULT_255_1_388
10
17.8358946
20
103.2082148
11
17.862098
21
103.2082148
0
LINE
8
DEFAULT_255_1_388
10
19.2138304
20
102.0227382
11
19.2138304
21
101.8863
0
LINE
8
DEFAULT_255_1_388
10
19.2138304
20
101.8863
11
18.3518299
21
101.8863
0
LINE
8
DEFAULT_255_1_388
10
18.3518299
20
101.8863
11
18.3518299
21
102.0064741
0
LINE
8
DEFAULT_255_1_388
10
18.3518299
20
102.0064741
11
18.8072264
21
102.5124702
0
LINE
8
DEFAULT_255_1_388
10
18.4936896
20
102.8142607
11
18.3265301
21
102.8142607
0
LINE
8
DEFAULT_255_1_388
10
18.9057149
20
102.404946
11
18.5533248
21
102.0227382
0
LINE
8
DEFAULT_255_1_388
10
18.5533248
20
102.0227382
11
19.2138304
21
102.0227382
0
ARC
8
DEFAULT_255_1_388
10
17.2896324
20
103.8544983
40
2.0258655
50
318.5132526
51
320.7829045
0
ARC
8
DEFAULT_255_1_388
10
17.8844281
20
103.3703929
40
1.2589638
50
320.7372878
51
323.9739031
0
ARC
8
DEFAULT_255_1_388
10
18.3253212
20
103.0509554
40
0.7145141
50
323.8962701
51
328.64194
0
ARC
8
DEFAULT_255_1_388
10
18.555547
20
102.9089545
40
0.4440242
50
328.8294576
51
331.7891185
0
ARC
8
DEFAULT_255_1_388
10
18.667779
20
102.8510374
40
0.3177517
50
331.4254512
51
352.9365785
0
ARC
8
DEFAULT_255_1_388
10
18.683079
20
102.847605
40
0.3021496
50
353.2257659
51
0.0166158
0
ARC
8
DEFAULT_255_1_388
10
18.7067551
20
102.8501894
40
0.2784847
50
359.486299
51
15.9343185
0
ARC
8
DEFAULT_255_1_388
10
18.7637817
20
102.8655269
40
0.2194403
50
16.1712913
51
43.5286088
0
ARC
8
DEFAULT_255_1_388
10
18.7724762
20
102.8742191
40
0.2071504
50
43.4417391
51
83.1661095
0
ARC
8
DEFAULT_255_1_388
10
18.7573923
20
102.7913316
40
0.2912888
50
82.160179
51
90.1505708
0
ARC
8
DEFAULT_255_1_388
10
18.7538405
20
102.7309279
40
0.3517025
50
89.5460741
51
102.5418361
0
ARC
8
DEFAULT_255_1_388
10
18.7265125
20
102.8468933
40
0.2325748
50
102.1738499
51
129.206123
0
ARC
8
DEFAULT_255_1_388
10
18.7176578
20
102.8608664
40
0.2161591
50
129.72865
51
135.753947
0
ARC
8
DEFAULT_255_1_388
10
18.731306
20
102.8499728
40
0.2335433
50
136.1757367
51
166.3673339
0
ARC
8
DEFAULT_255_1_388
10
18.8445749
20
102.8196148
40
0.3507873
50
165.9090694
51
178.8684636
0
ARC
8
DEFAULT_255_1_388
10
18.942152
20
102.8143263
40
0.4484624
50
178.4391136
51
180.0083808
0
ARC
8
DEFAULT_255_1_388
10
18.7842222
20
102.8187197
40
0.4577138
50
163.2878482
51
180.5581842
0
ARC
8
DEFAULT_255_1_388
10
18.6940263
20
102.8435393
40
0.3641968
50
133.4540601
51
162.947111
0
ARC
8
DEFAULT_255_1_388
10
18.7141145
20
102.8221789
40
0.3935189
50
100.7869829
51
133.4382499
0
ARC
8
DEFAULT_255_1_388
10
18.753239
20
102.6479399
40
0.5720313
50
89.660664
51
101.3702276
0
ARC
8
DEFAULT_255_1_388
10
18.7606998
20
102.6548263
40
0.5651495
50
78.2172678
51
90.412935
0
ARC
8
DEFAULT_255_1_388
10
18.8006464
20
102.8375511
40
0.378122
50
55.9269121
51
78.4888449
0
ARC
8
DEFAULT_255_1_388
10
18.8227179
20
102.8756187
40
0.3342379
50
47.929771
51
55.4049217
0
ARC
8
DEFAULT_255_1_388
10
18.834171
20
102.8872618
40
0.3179217
50
4.334829
51
48.0560205
0
ARC
8
DEFAULT_255_1_388
10
18.7109511
20
102.8681487
40
0.442341
50
359.9251713
51
5.5971671
0
ARC
8
DEFAULT_255_1_388
10
18.7591666
20
102.8744728
40
0.3941854
50
337.8914027
51
358.9967534
0
ARC
8
DEFAULT_255_1_388
10
18.4539236
20
102.9922295
40
0.7213271
50
326.9132501
51
338.3508308
0
ARC
8
DEFAULT_255_1_388
10
18.0055348
20
103.2796105
40
1.2538973
50
319.6471833
51
327.0959558
0
ARC
8
DEFAULT_255_1_388
10
17.5742006
20
103.635405
40
1.8129975
50
317.2588228
51
319.9045804
0
LINE
8
DEFAULT_255_1_388
10
20.2158834
20
102.664269
11
20.2158834
21
102.4474135
0
LINE
8
DEFAULT_255_1_388
10
19.3855077
20
102.4248244
11
19.3855077
21
102.6480048
0
LINE
8
DEFAULT_255_1_388
10
20.048724
20
102.4022353
11
20.048724
21
102.6760153
0
LINE
8
DEFAULT_255_1_388
10
19.5526671
20
102.6886652
11
19.5526671
21
102.4212102
0
ARC
8
DEFAULT_255_1_388
10
18.8381168
20
102.4419118
40
1.3777776
50
353.8440855
51
0.2287917
0
ARC
8
DEFAULT_255_1_388
10
19.3600185
20
102.3836414
40
0.852639
50
344.4934746
51
353.9763743
0
ARC
8
DEFAULT_255_1_388
10
19.6966993
20
102.2879191
40
0.5026273
50
329.2803599
51
344.7473406
0
ARC
8
DEFAULT_255_1_388
10
19.8082488
20
102.2267038
40
0.3754848
50
324.9361395
51
328.6153007
0
ARC
8
DEFAULT_255_1_388
10
19.8508138
20
102.1969586
40
0.3235566
50
280.5801797
51
324.9173226
0
ARC
8
DEFAULT_255_1_388
10
19.8056767
20
102.3849236
40
0.5167077
50
269.5979457
51
281.6732777
0
ARC
8
DEFAULT_255_1_388
10
19.797567
20
102.3714113
40
0.5032026
50
256.6228565
51
270.5105488
0
ARC
8
DEFAULT_255_1_388
10
19.7523413
20
102.1972345
40
0.3233092
50
215.8618351
51
257.2787793
0
ARC
8
DEFAULT_255_1_388
10
19.867212
20
102.2743106
40
0.4615831
50
197.9695203
51
215.2622745
0
ARC
8
DEFAULT_255_1_388
10
20.1467796
20
102.3686641
40
0.7566307
50
187.8816486
51
198.2346584
0
ARC
8
DEFAULT_255_1_388
10
20.5921034
20
102.4329453
40
1.2065653
50
180.8977266
51
188.0054894
0
ARC
8
DEFAULT_255_1_388
10
20.8971248
20
102.44444
40
1.5117443
50
180.7434591
51
181.152202
0
ARC
8
DEFAULT_255_1_388
10
20.7296243
20
102.6534371
40
1.3441277
50
173.7674302
51
180.2315596
0
ARC
8
DEFAULT_255_1_388
10
20.2214112
20
102.7108779
40
0.8326847
50
164.3058537
51
173.9000553
0
ARC
8
DEFAULT_255_1_388
10
19.8938112
20
102.8052652
40
0.4917711
50
148.7922028
51
164.5682288
0
ARC
8
DEFAULT_255_1_388
10
19.786885
20
102.8649457
40
0.3694204
50
144.5883979
51
148.1161588
0
ARC
8
DEFAULT_255_1_388
10
19.7481595
20
102.8919667
40
0.322202
50
101.6440149
51
144.5142619
0
ARC
8
DEFAULT_255_1_388
10
19.7959787
20
102.7019337
40
0.5180451
50
89.528284
51
102.5820197
0
ARC
8
DEFAULT_255_1_388
10
19.8048779
20
102.6975376
40
0.5224441
50
77.0437914
51
90.508231
0
ARC
8
DEFAULT_255_1_388
10
19.8501033
20
102.8823272
40
0.3322297
50
48.2777708
51
77.4996087
0
ARC
8
DEFAULT_255_1_388
10
19.8582773
20
102.8968557
40
0.315966
50
36.3141586
51
47.6307332
0
ARC
8
DEFAULT_255_1_388
10
19.7605495
20
102.8310159
40
0.4337313
50
18.2931065
51
35.6770203
0
ARC
8
DEFAULT_255_1_388
10
19.4744336
20
102.7328107
40
0.7362203
50
8.0246996
51
18.5605636
0
ARC
8
DEFAULT_255_1_388
10
19.0060691
20
102.6636432
40
1.2096583
50
1.127539
51
8.1718423
0
ARC
8
DEFAULT_255_1_388
10
18.6411825
20
102.6493374
40
1.5747719
50
0.5432713
51
1.38669
0
ARC
8
DEFAULT_255_1_388
10
18.8469204
20
102.6800163
40
1.2018103
50
359.8092569
51
4.9408001
0
ARC
8
DEFAULT_255_1_388
10
19.3205785
20
102.72229
40
0.7262727
50
4.8364937
51
12.2906017
0
ARC
8
DEFAULT_255_1_388
10
19.630525
20
102.7913485
40
0.4087324
50
12.0806994
51
23.8171225
0
ARC
8
DEFAULT_255_1_388
10
19.7625646
20
102.8472508
40
0.2653719
50
24.2874621
51
31.3934353
0
ARC
8
DEFAULT_255_1_388
10
19.8216082
20
102.8858822
40
0.1948607
50
30.7407708
51
82.4658033
0
ARC
8
DEFAULT_255_1_388
10
19.8013742
20
102.7865017
40
0.2961198
50
81.1057101
51
90.2187368
0
ARC
8
DEFAULT_255_1_388
10
19.7973554
20
102.8155421
40
0.2670929
50
89.380395
51
105.6763916
0
ARC
8
DEFAULT_255_1_388
10
19.7767276
20
102.890532
40
0.1893189
50
105.7980655
51
149.7387869
0
ARC
8
DEFAULT_255_1_388
10
19.8964416
20
102.8185719
40
0.3289892
50
149.4208441
51
163.628295
0
ARC
8
DEFAULT_255_1_388
10
20.1316646
20
102.7468345
40
0.5749004
50
163.3764549
51
172.141138
0
ARC
8
DEFAULT_255_1_388
10
20.5029367
20
102.6936582
40
0.9499585
50
172.0258462
51
178.0705453
0
ARC
8
DEFAULT_255_1_388
10
20.845092
20
102.6774682
40
1.2924734
50
177.8639301
51
179.5036263
0
ARC
8
DEFAULT_255_1_388
10
20.7231939
20
102.4171151
40
1.170534
50
179.7995545
51
185.246089
0
ARC
8
DEFAULT_255_1_388
10
20.2683532
20
102.3740404
40
0.7136613
50
185.1411911
51
193.0082205
0
ARC
8
DEFAULT_255_1_388
10
19.9709793
20
102.3037441
40
0.4080987
50
192.7897338
51
205.2507384
0
ARC
8
DEFAULT_255_1_388
10
19.8532003
20
102.2511538
40
0.2791522
50
205.8001921
51
211.2545876
0
ARC
8
DEFAULT_255_1_388
10
19.7943542
20
102.2117132
40
0.2084074
50
210.3789935
51
238.4007996
0
ARC
8
DEFAULT_255_1_388
10
19.7921628
20
102.2169786
40
0.2117943
50
239.6521916
51
265.9793852
0
ARC
8
DEFAULT_255_1_388
10
19.8017477
20
102.2926358
40
0.2879689
50
265.1324455
51
270.0603288
0
ARC
8
DEFAULT_255_1_388
10
19.8049854
20
102.2561418
40
0.2514919
50
269.3314378
51
287.2180039
0
ARC
8
DEFAULT_255_1_388
10
19.8204936
20
102.1995291
40
0.1928357
50
287.7957942
51
329.0808983
0
ARC
8
DEFAULT_255_1_388
10
19.7127693
20
102.2667651
40
0.319808
50
328.6635261
51
343.3325043
0
ARC
8
DEFAULT_255_1_388
10
19.4683152
20
102.3429195
40
0.5758408
50
343.0498092
51
351.9392499
0
ARC
8
DEFAULT_255_1_388
10
19.0782473
20
102.4004205
40
0.9701202
50
351.8071632
51
357.7957897
0
ARC
8
DEFAULT_255_1_388
10
18.714795
20
102.4192724
40
1.3340376
50
357.5870923
51
359.2682493
0
LINE
8
DEFAULT_255_1_388
10
21.2549825
20
102.664269
11
21.2549825
21
102.4474135
0
LINE
8
DEFAULT_255_1_388
10
20.4246068
20
102.4248244
11
20.4246068
21
102.6480048
0
LINE
8
DEFAULT_255_1_388
10
21.0878231
20
102.4022353
11
21.0878231
21
102.6760153
0
LINE
8
DEFAULT_255_1_388
10
20.5917662
20
102.6886652
11
20.5917662
21
102.4212102
0
ARC
8
DEFAULT_255_1_388
10
19.8772159
20
102.4419118
40
1.3777776
50
353.8440855
51
0.2287917
0
ARC
8
DEFAULT_255_1_388
10
20.3991177
20
102.3836414
40
0.852639
50
344.4934746
51
353.9763743
0
ARC
8
DEFAULT_255_1_388
10
20.7357984
20
102.2879191
40
0.5026273
50
329.2803599
51
344.7473406
0
ARC
8
DEFAULT_255_1_388
10
20.8473479
20
102.2267038
40
0.3754848
50
324.9361395
51
328.6153007
0
ARC
8
DEFAULT_255_1_388
10
20.8899129
20
102.1969586
40
0.3235566
50
280.5801797
51
324.9173226
0
ARC
8
DEFAULT_255_1_388
10
20.8447758
20
102.3849236
40
0.5167077
50
269.5979457
51
281.6732777
0
ARC
8
DEFAULT_255_1_388
10
20.8366661
20
102.3714113
40
0.5032026
50
256.6228565
51
270.5105488
0
ARC
8
DEFAULT_255_1_388
10
20.7914404
20
102.1972345
40
0.3233092
50
215.8618351
51
257.2787793
0
ARC
8
DEFAULT_255_1_388
10
20.9063111
20
102.2743106
40
0.4615831
50
197.9695203
51
215.2622745
0
ARC
8
DEFAULT_255_1_388
10
21.1858787
20
102.3686641
40
0.7566307
50
187.8816486
51
198.2346584
0
ARC
8
DEFAULT_255_1_388
10
21.6312025
20
102.4329453
40
1.2065653
50
180.8977266
51
188.0054894
0
ARC
8
DEFAULT_255_1_388
10
21.9362239
20
102.44444
40
1.5117443
50
180.7434591
51
181.152202
0
ARC
8
DEFAULT_255_1_388
10
21.7687235
20
102.6534371
40
1.3441277
50
173.7674302
51
180.2315596
0
ARC
8
DEFAULT_255_1_388
10
21.2605104
20
102.7108779
40
0.8326847
50
164.3058537
51
173.9000553
0
ARC
8
DEFAULT_255_1_388
10
20.9329104
20
102.8052652
40
0.4917711
50
148.7922028
51
164.5682288
0
ARC
8
DEFAULT_255_1_388
10
20.8259841
20
102.8649457
40
0.3694204
50
144.5883979
51
148.1161588
0
ARC
8
DEFAULT_255_1_388
10
20.7872586
20
102.8919667
40
0.322202
50
101.6440149
51
144.5142619
0
ARC
8
DEFAULT_255_1_388
10
20.8350779
20
102.7019337
40
0.5180451
50
89.528284
51
102.5820197
0
ARC
8
DEFAULT_255_1_388
10
20.843977
20
102.6975376
40
0.5224441
50
77.0437914
51
90.508231
0
ARC
8
DEFAULT_255_1_388
10
20.8892024
20
102.8823272
40
0.3322297
50
48.2777708
51
77.4996087
0
ARC
8
DEFAULT_255_1_388
10
20.8973764
20
102.8968557
40
0.315966
50
36.3141586
51
47.6307332
0
ARC
8
DEFAULT_255_1_388
10
20.7996486
20
102.8310159
40
0.4337313
50
18.2931065
51
35.6770203
0
ARC
8
DEFAULT_255_1_388
10
20.5135327
20
102.7328107
40
0.7362203
50
8.0246996
51
18.5605636
0
ARC
8
DEFAULT_255_1_388
10
20.0451683
20
102.6636432
40
1.2096583
50
1.127539
51
8.1718423
0
ARC
8
DEFAULT_255_1_388
10
19.6802816
20
102.6493374
40
1.5747719
50
0.5432713
51
1.38669
0
ARC
8
DEFAULT_255_1_388
10
19.8860195
20
102.6800163
40
1.2018103
50
359.8092569
51
4.9408001
0
ARC
8
DEFAULT_255_1_388
10
20.3596776
20
102.72229
40
0.7262727
50
4.8364937
51
12.2906017
0
ARC
8
DEFAULT_255_1_388
10
20.6696241
20
102.7913485
40
0.4087324
50
12.0806994
51
23.8171225
0
ARC
8
DEFAULT_255_1_388
10
20.8016637
20
102.8472508
40
0.2653719
50
24.2874621
51
31.3934353
0
ARC
8
DEFAULT_255_1_388
10
20.8607073
20
102.8858822
40
0.1948607
50
30.7407708
51
82.4658033
0
ARC
8
DEFAULT_255_1_388
10
20.8404734
20
102.7865017
40
0.2961198
50
81.1057101
51
90.2187368
0
ARC
8
DEFAULT_255_1_388
10
20.8364545
20
102.8155421
40
0.2670929
50
89.380395
51
105.6763916
0
ARC
8
DEFAULT_255_1_388
10
20.8158267
20
102.890532
40
0.1893189
50
105.7980655
51
149.7387869
0
ARC
8
DEFAULT_255_1_388
10
20.9355407
20
102.8185719
40
0.3289892
50
149.4208441
51
163.628295
0
ARC
8
DEFAULT_255_1_388
10
21.1707637
20
102.7468345
40
0.5749004
50
163.3764549
51
172.141138
0
ARC
8
DEFAULT_255_1_388
10
21.5420359
20
102.6936582
40
0.9499585
50
172.0258462
51
178.0705453
0
ARC
8
DEFAULT_255_1_388
10
21.8841911
20
102.6774682
40
1.2924734
50
177.8639301
51
179.5036263
0
ARC
8
DEFAULT_255_1_388
10
21.762293
20
102.4171151
40
1.170534
50
179.7995545
51
185.246089
0
ARC
8
DEFAULT_255_1_388
10
21.3074523
20
102.3740404
40
0.7136613
50
185.1411911
51
193.0082205
0
ARC
8
DEFAULT_255_1_388
10
21.0100784
20
102.3037441
40
0.4080987
50
192.7897338
51
205.2507384
0
ARC
8
DEFAULT_255_1_388
10
20.8922994
20
102.2511538
40
0.2791522
50
205.8001921
51
211.2545876
0
ARC
8
DEFAULT_255_1_388
10
20.8334533
20
102.2117132
40
0.2084074
50
210.3789935
51
238.4007996
0
ARC
8
DEFAULT_255_1_388
10
20.8312619
20
102.2169786
40
0.2117943
50
239.6521916
51
265.9793852
0
ARC
8
DEFAULT_255_1_388
10
20.8408468
20
102.2926358
40
0.2879689
50
265.1324455
51
270.0603288
0
ARC
8
DEFAULT_255_1_388
10
20.8440845
20
102.2561418
40
0.2514919
50
269.3314378
51
287.2180039
0
ARC
8
DEFAULT_255_1_388
10
20.8595927
20
102.1995291
40
0.1928357
50
287.7957942
51
329.0808983
0
ARC
8
DEFAULT_255_1_388
10
20.7518684
20
102.2667651
40
0.319808
50
328.6635261
51
343.3325043
0
ARC
8
DEFAULT_255_1_388
10
20.5074143
20
102.3429195
40
0.5758408
50
343.0498092
51
351.9392499
0
ARC
8
DEFAULT_255_1_388
10
20.1173464
20
102.4004205
40
0.9701202
50
351.8071632
51
357.7957897
0
ARC
8
DEFAULT_255_1_388
10
19.7538941
20
102.4192724
40
1.3340376
50
357.5870923
51
359.2682493
0
LINE
8
DEFAULT_255_2_778
10
9.3932417
20
92.4718829
11
10.7161417
21
92.4718829
0
LINE
8
DEFAULT_255_2_778
10
10.7161417
20
92.4718829
11
10.7161417
21
63.3676829
0
LINE
8
DEFAULT_255_2_778
10
9.3932834
20
63.3677333
11
12.0390834
21
63.3677333
0
LINE
8
DEFAULT_255_2_778
10
12.0390834
20
63.3677333
11
12.0390834
21
58.0760333
0
LINE
8
DEFAULT_255_2_778
10
12.0390834
20
58.0760333
11
9.3932834
21
58.0760333
0
LINE
8
DEFAULT_255_2_778
10
9.3932834
20
58.0760333
11
9.3932834
21
63.3677333
0
LINE
8
DEFAULT_255_2_778
10
10.187
20
58.6052666
11
10.187
21
62.8385666
0
LINE
8
DEFAULT_255_2_778
10
9.9224167
20
62.044875
11
10.1870167
21
62.838575
0
LINE
8
DEFAULT_255_2_778
10
10.1870167
20
62.838575
11
10.4516167
21
62.044875
0
LINE
8
DEFAULT_255_2_778
10
10.4516167
20
62.044875
11
9.9224167
21
62.044875
0
LINE
8
DEFAULT_255_2_778
10
11.2453
20
62.8385666
11
11.2453
21
58.6052666
0
LINE
8
DEFAULT_255_2_778
10
10.9807167
20
59.398975
11
11.2453167
21
58.605275
0
LINE
8
DEFAULT_255_2_778
10
11.2453167
20
58.605275
11
11.5099167
21
59.398975
0
LINE
8
DEFAULT_255_2_778
10
11.5099167
20
59.398975
11
10.9807167
21
59.398975
0
LINE
8
DEFAULT_255_2_778
10
17.3307834
20
67.3364333
11
19.9765834
21
67.3364333
0
LINE
8
DEFAULT_255_2_778
10
19.9765834
20
67.3364333
11
19.9765834
21
62.0447333
0
LINE
8
DEFAULT_255_2_778
10
19.9765834
20
62.0447333
11
17.3307834
21
62.0447333
0
LINE
8
DEFAULT_255_2_778
10
17.3307834
20
62.0447333
11
17.3307834
21
67.3364333
0
LINE
8
DEFAULT_255_2_778
10
18.1245
20
66.5426833
11
18.1245
21
62.8384833
0
ARC
8
DEFAULT_255_2_778
10
19.0496335
20
66.1466666
40
0.3960095
50
89.8710075
51
180.1289967
0
ARC
8
DEFAULT_255_2_778
10
19.051338
20
66.1466878
40
0.395988
50
359.8679252
51
90.1176342
0
ARC
8
DEFAULT_255_2_778
10
19.0513595
20
66.1449405
40
0.3959664
50
269.8792548
51
0.1207452
0
ARC
8
DEFAULT_255_2_778
10
19.0496123
20
66.1449621
40
0.3959881
50
179.8823802
51
270.1320647
0
LINE
8
DEFAULT_255_2_778
10
18.653625
20
66.145775
11
18.653625
21
66.145775
0
ARC
8
DEFAULT_255_2_778
10
19.0496335
20
63.2362666
40
0.3960095
50
89.8710075
51
180.1289967
0
ARC
8
DEFAULT_255_2_778
10
19.051338
20
63.2362878
40
0.395988
50
359.8679252
51
90.1176342
0
ARC
8
DEFAULT_255_2_778
10
19.0513595
20
63.2345405
40
0.3959664
50
269.8792548
51
0.1207452
0
ARC
8
DEFAULT_255_2_778
10
19.0496123
20
63.2345621
40
0.3959881
50
179.8823802
51
270.1320647
0
LINE
8
DEFAULT_255_2_778
10
18.653625
20
63.235375
11
18.653625
21
63.235375
0
LINE
8
DEFAULT_255_2_778
10
10.7161335
20
58.0760991
11
10.7161335
21
28.9718991
0
LINE
8
DEFAULT_255_2_778
10
10.7161335
20
28.9718991
11
9.3932335
21
28.9718991
0
LINE
8
DEFAULT_255_2_778
10
19.9765335
20
92.4718991
11
18.6536335
21
92.4718991
0
LINE
8
DEFAULT_255_2_778
10
18.6536335
20
92.4718991
11
18.6536335
21
67.3364991
0
LINE
8
DEFAULT_255_2_778
10
18.6536335
20
62.0447991
11
18.6536335
21
36.9093991
0
LINE
8
DEFAULT_255_2_778
10
18.6536335
20
36.9093991
11
19.9765335
21
36.9093991
0
LINE
8
DEFAULT_255_2_778
10
9.3932834
20
15.7427333
11
12.0390834
21
15.7427333
0
LINE
8
DEFAULT_255_2_778
10
12.0390834
20
15.7427333
11
12.0390834
21
10.4510333
0
LINE
8
DEFAULT_255_2_778
10
12.0390834
20
10.4510333
11
9.3932834
21
10.4510333
0
LINE
8
DEFAULT_255_2_778
10
9.3932834
20
10.4510333
11
9.3932834
21
15.7427333
0
ARC
8
DEFAULT_255_2_778_1
10
13.1928591
20
10.553477
40
4.816461
50
120.9442904
51
122.351755
0
ARC
8
DEFAULT_255_2_778_1
10
12.7462523
20
11.2571039
40
3.9830657
50
122.3407904
51
124.1946752
0
ARC
8
DEFAULT_255_2_778_1
10
12.3063464
20
11.9036306
40
3.2010724
50
124.1855758
51
126.4338849
0
ARC
8
DEFAULT_255_2_778_1
10
11.9204129
20
12.4263611
40
2.5513094
50
126.4326926
51
128.8877368
0
ARC
8
DEFAULT_255_2_778_1
10
11.5855968
20
12.8407658
40
2.0185498
50
128.8749205
51
131.8726567
0
ARC
8
DEFAULT_255_2_778_1
10
11.2884677
20
13.1717854
40
1.5737356
50
131.8616166
51
135.4168838
0
ARC
8
DEFAULT_255_2_778_1
10
11.025668
20
13.4299765
40
1.2053256
50
135.3893975
51
139.9687014
0
ARC
8
DEFAULT_255_2_778_1
10
10.7927889
20
13.6248102
40
0.9016937
50
139.9301659
51
145.9260426
0
ARC
8
DEFAULT_255_2_778_1
10
10.596654
20
13.7568104
40
0.6652776
50
145.8787362
51
153.8146208
0
ARC
8
DEFAULT_255_2_778_1
10
10.4445553
20
13.8311797
40
0.4959714
50
153.770634
51
164.3484794
0
ARC
8
DEFAULT_255_2_778_1
10
10.3432387
20
13.8593786
40
0.3908039
50
164.3220276
51
179.8083066
0
ARC
8
DEFAULT_255_2_778_1
10
10.3642789
20
13.867515
40
0.4118985
50
180.9499449
51
213.8111542
0
ARC
8
DEFAULT_255_2_778_1
10
10.6401828
20
14.0370896
40
0.73561
50
212.8271214
51
224.258472
0
ARC
8
DEFAULT_255_2_778_1
10
11.0230335
20
14.4064236
40
1.267567
50
224.1376218
51
231.4508261
0
ARC
8
DEFAULT_255_2_778_1
10
11.6657195
20
15.2094168
40
2.2960809
50
231.3955893
51
236.1256478
0
ARC
8
DEFAULT_255_2_778_1
10
13.4980223
20
17.9559293
40
5.5976905
50
236.2233172
51
239.1314682
0
ARC
8
DEFAULT_255_2_778_1
10
25.447927
20
37.6836568
40
28.6623793
50
238.8606853
51
239.0711101
0
ARC
8
DEFAULT_255_2_778_1
10
6.2757281
20
5.5865653
40
8.7248518
50
57.2420924
51
59.4062964
0
ARC
8
DEFAULT_255_2_778_1
10
9.5034241
20
10.6175102
40
2.747542
50
52.8289294
51
57.079028
0
ARC
8
DEFAULT_255_2_778_1
10
10.2780783
20
11.6378488
40
1.466457
50
46.3041868
51
52.8596521
0
ARC
8
DEFAULT_255_2_778_1
10
10.7103073
20
12.0879842
40
0.8424061
50
36.2174211
51
46.4090895
0
ARC
8
DEFAULT_255_2_778_1
10
10.9948088
20
12.2928128
40
0.4918609
50
17.400375
51
36.5489745
0
ARC
8
DEFAULT_255_2_778_1
10
11.1088994
20
12.3326754
40
0.3710912
50
0.0676858
51
16.7951297
0
ARC
8
DEFAULT_255_2_778_1
10
11.0878613
20
12.3345428
40
0.3921317
50
343.8035191
51
359.7912046
0
ARC
8
DEFAULT_255_2_778_1
10
10.9815912
20
12.3650167
40
0.5026844
50
333.2506233
51
343.8465691
0
ARC
8
DEFAULT_255_2_778_1
10
10.8277757
20
12.4417313
40
0.6745679
50
325.6600948
51
333.3122657
0
ARC
8
DEFAULT_255_2_778_1
10
10.6323344
20
12.5745296
40
0.9108568
50
319.7560915
51
325.6976089
0
ARC
8
DEFAULT_255_2_778_1
10
10.404199
20
12.7663002
40
1.2088854
50
315.4577584
51
319.8037947
0
ARC
8
DEFAULT_255_2_778_1
10
10.1408127
20
13.0251507
40
1.5781764
50
311.7298824
51
315.4670864
0
ARC
8
DEFAULT_255_2_778_1
10
9.8317879
20
13.3707074
40
2.0417554
50
308.723055
51
311.7470879
0
ARC
8
DEFAULT_255_2_778_1
10
9.477589
20
13.8119492
40
2.6075745
50
306.1165163
51
308.7300151
0
ARC
8
DEFAULT_255_2_778_1
10
9.0746091
20
14.3632523
40
3.2904564
50
303.9559446
51
306.1266333
0
ARC
8
DEFAULT_255_2_778_1
10
8.6630432
20
14.972515
40
4.0257023
50
302.3733397
51
303.9712246
0
ARC
8
DEFAULT_255_2_778_1
10
8.2434347
20
15.6340058
40
4.8090549
50
300.9434827
51
302.3758078
0
LINE
8
DEFAULT_255_2_778
10
9.3932417
20
21.0343998
11
10.7161417
21
21.0343998
0
LINE
8
DEFAULT_255_2_778
10
10.7161417
20
21.0343998
11
10.7161417
21
15.7426998
0
LINE
8
DEFAULT_255_2_778
10
10.7161417
20
10.4510998
11
10.7161417
21
5.1593998
0
LINE
8
DEFAULT_255_2_778
10
10.7161417
20
5.1593998
11
9.3932417
21
5.1593998
0
LINE
8
DEFAULT_255_1_388
10
4.1640903
20
101.2174898
11
4.1640903
21
100.0437596
0
LINE
8
DEFAULT_255_1_388
10
4.1640903
20
100.0437596
11
4.7875498
21
100.0437596
0
LINE
8
DEFAULT_255_1_388
10
4.7875498
20
100.0437596
11
4.7875498
21
99.9019
0
LINE
8
DEFAULT_255_1_388
10
4.7875498
20
99.9019
11
3.9897024
21
99.9019
0
LINE
8
DEFAULT_255_1_388
10
3.9897024
20
99.9019
11
3.9897024
21
101.2174898
0
LINE
8
DEFAULT_255_1_388
10
3.9897024
20
101.2174898
11
4.1640903
21
101.2174898
0
LINE
8
DEFAULT_255_1_388
10
5.4914265
20
101.2238148
11
5.4914265
21
99.9019
0
LINE
8
DEFAULT_255_1_388
10
5.4914265
20
99.9019
11
5.3233635
21
99.9019
0
LINE
8
DEFAULT_255_1_388
10
5.3233635
20
99.9019
11
5.3233635
21
101.015995
0
LINE
8
DEFAULT_255_1_388
10
5.3233635
20
101.015995
11
4.986334
21
100.8922066
0
LINE
8
DEFAULT_255_1_388
10
4.986334
20
100.8922066
11
4.986334
21
101.0440055
0
LINE
8
DEFAULT_255_1_388
10
4.986334
20
101.0440055
11
5.4652231
21
101.2238148
0
LINE
8
DEFAULT_255_1_388
10
5.4652231
20
101.2238148
11
5.4914265
21
101.2238148
0
LINE
8
DEFAULT_255_1_388
10
4.4961985
20
5.9738148
11
4.4961985
21
4.6519
0
LINE
8
DEFAULT_255_1_388
10
4.4961985
20
4.6519
11
4.3281355
21
4.6519
0
LINE
8
DEFAULT_255_1_388
10
4.3281355
20
4.6519
11
4.3281355
21
5.765995
0
LINE
8
DEFAULT_255_1_388
10
4.3281355
20
5.765995
11
3.991106
21
5.6422066
0
LINE
8
DEFAULT_255_1_388
10
3.991106
20
5.6422066
11
3.991106
21
5.7940055
0
LINE
8
DEFAULT_255_1_388
10
3.991106
20
5.7940055
11
4.4699951
21
5.9738148
0
LINE
8
DEFAULT_255_1_388
10
4.4699951
20
5.9738148
11
4.4961985
21
5.9738148
0
LINE
8
DEFAULT_255_1_388
10
4.7799856
20
13.367369
11
4.7799856
21
13.1505135
0
LINE
8
DEFAULT_255_1_388
10
3.9496099
20
13.1279244
11
3.9496099
21
13.3511048
0
LINE
8
DEFAULT_255_1_388
10
4.6128262
20
13.1053353
11
4.6128262
21
13.3791153
0
LINE
8
DEFAULT_255_1_388
10
4.1167693
20
13.3917652
11
4.1167693
21
13.1243102
0
ARC
8
DEFAULT_255_1_388
10
3.402219
20
13.1450118
40
1.3777776
50
353.8440855
51
0.2287917
0
ARC
8
DEFAULT_255_1_388
10
3.9241208
20
13.0867414
40
0.852639
50
344.4934746
51
353.9763743
0
ARC
8
DEFAULT_255_1_388
10
4.2608015
20
12.9910191
40
0.5026273
50
329.2803599
51
344.7473406
0
ARC
8
DEFAULT_255_1_388
10
4.3723511
20
12.9298038
40
0.3754848
50
324.9361395
51
328.6153007
0
ARC
8
DEFAULT_255_1_388
10
4.4149161
20
12.9000586
40
0.3235566
50
280.5801797
51
324.9173226
0
ARC
8
DEFAULT_255_1_388
10
4.3697789
20
13.0880236
40
0.5167077
50
269.5979457
51
281.6732777
0
ARC
8
DEFAULT_255_1_388
10
4.3616693
20
13.0745113
40
0.5032026
50
256.6228565
51
270.5105488
0
ARC
8
DEFAULT_255_1_388
10
4.3164435
20
12.9003345
40
0.3233092
50
215.8618351
51
257.2787793
0
ARC
8
DEFAULT_255_1_388
10
4.4313142
20
12.9774106
40
0.4615831
50
197.9695203
51
215.2622745
0
ARC
8
DEFAULT_255_1_388
10
4.7108818
20
13.0717641
40
0.7566307
50
187.8816486
51
198.2346584
0
ARC
8
DEFAULT_255_1_388
10
5.1562056
20
13.1360453
40
1.2065653
50
180.8977266
51
188.0054894
0
ARC
8
DEFAULT_255_1_388
10
5.461227
20
13.14754
40
1.5117443
50
180.7434591
51
181.152202
0
ARC
8
DEFAULT_255_1_388
10
5.2937266
20
13.3565371
40
1.3441277
50
173.7674302
51
180.2315596
0
ARC
8
DEFAULT_255_1_388
10
4.7855135
20
13.4139779
40
0.8326847
50
164.3058537
51
173.9000553
0
ARC
8
DEFAULT_255_1_388
10
4.4579135
20
13.5083652
40
0.4917711
50
148.7922028
51
164.5682288
0
ARC
8
DEFAULT_255_1_388
10
4.3509872
20
13.5680457
40
0.3694204
50
144.5883979
51
148.1161588
0
ARC
8
DEFAULT_255_1_388
10
4.3122618
20
13.5950667
40
0.322202
50
101.6440149
51
144.5142619
0
ARC
8
DEFAULT_255_1_388
10
4.360081
20
13.4050337
40
0.5180451
50
89.528284
51
102.5820197
0
ARC
8
DEFAULT_255_1_388
10
4.3689802
20
13.4006376
40
0.5224441
50
77.0437914
51
90.508231
0
ARC
8
DEFAULT_255_1_388
10
4.4142055
20
13.5854272
40
0.3322297
50
48.2777708
51
77.4996087
0
ARC
8
DEFAULT_255_1_388
10
4.4223795
20
13.5999557
40
0.315966
50
36.3141586
51
47.6307332
0
ARC
8
DEFAULT_255_1_388
10
4.3246518
20
13.5341159
40
0.4337313
50
18.2931065
51
35.6770203
0
ARC
8
DEFAULT_255_1_388
10
4.0385358
20
13.4359107
40
0.7362203
50
8.0246996
51
18.5605636
0
ARC
8
DEFAULT_255_1_388
10
3.5701714
20
13.3667432
40
1.2096583
50
1.127539
51
8.1718423
0
ARC
8
DEFAULT_255_1_388
10
3.2052847
20
13.3524374
40
1.5747719
50
0.5432713
51
1.38669
0
ARC
8
DEFAULT_255_1_388
10
3.4110226
20
13.3831163
40
1.2018103
50
359.8092569
51
4.9408001
0
ARC
8
DEFAULT_255_1_388
10
3.8846807
20
13.42539
40
0.7262727
50
4.8364937
51
12.2906017
0
ARC
8
DEFAULT_255_1_388
10
4.1946272
20
13.4944485
40
0.4087324
50
12.0806994
51
23.8171225
0
ARC
8
DEFAULT_255_1_388
10
4.3266668
20
13.5503508
40
0.2653719
50
24.2874621
51
31.3934353
0
ARC
8
DEFAULT_255_1_388
10
4.3857104
20
13.5889822
40
0.1948607
50
30.7407708
51
82.4658033
0
ARC
8
DEFAULT_255_1_388
10
4.3654765
20
13.4896017
40
0.2961198
50
81.1057101
51
90.2187368
0
ARC
8
DEFAULT_255_1_388
10
4.3614577
20
13.5186421
40
0.2670929
50
89.380395
51
105.6763916
0
ARC
8
DEFAULT_255_1_388
10
4.3408299
20
13.593632
40
0.1893189
50
105.7980655
51
149.7387869
0
ARC
8
DEFAULT_255_1_388
10
4.4605439
20
13.5216719
40
0.3289892
50
149.4208441
51
163.628295
0
ARC
8
DEFAULT_255_1_388
10
4.6957668
20
13.4499345
40
0.5749004
50
163.3764549
51
172.141138
0
ARC
8
DEFAULT_255_1_388
10
5.067039
20
13.3967582
40
0.9499585
50
172.0258462
51
178.0705453
0
ARC
8
DEFAULT_255_1_388
10
5.4091943
20
13.3805682
40
1.2924734
50
177.8639301
51
179.5036263
0
ARC
8
DEFAULT_255_1_388
10
5.2872961
20
13.1202151
40
1.170534
50
179.7995545
51
185.246089
0
ARC
8
DEFAULT_255_1_388
10
4.8324554
20
13.0771404
40
0.7136613
50
185.1411911
51
193.0082205
0
ARC
8
DEFAULT_255_1_388
10
4.5350815
20
13.0068441
40
0.4080987
50
192.7897338
51
205.2507384
0
ARC
8
DEFAULT_255_1_388
10
4.4173025
20
12.9542538
40
0.2791522
50
205.8001921
51
211.2545876
0
ARC
8
DEFAULT_255_1_388
10
4.3584564
20
12.9148132
40
0.2084074
50
210.3789935
51
238.4007996
0
ARC
8
DEFAULT_255_1_388
10
4.356265
20
12.9200786
40
0.2117943
50
239.6521916
51
265.9793852
0
ARC
8
DEFAULT_255_1_388
10
4.3658499
20
12.9957358
40
0.2879689
50
265.1324455
51
270.0603288
0
ARC
8
DEFAULT_255_1_388
10
4.3690876
20
12.9592418
40
0.2514919
50
269.3314378
51
287.2180039
0
ARC
8
DEFAULT_255_1_388
10
4.3845958
20
12.9026291
40
0.1928357
50
287.7957942
51
329.0808983
0
ARC
8
DEFAULT_255_1_388
10
4.2768715
20
12.9698651
40
0.319808
50
328.6635261
51
343.3325043
0
ARC
8
DEFAULT_255_1_388
10
4.0324174
20
13.0460195
40
0.5758408
50
343.0498092
51
351.9392499
0
ARC
8
DEFAULT_255_1_388
10
3.6423496
20
13.1035205
40
0.9701202
50
351.8071632
51
357.7957897
0
ARC
8
DEFAULT_255_1_388
10
3.2788973
20
13.1223724
40
1.3340376
50
357.5870923
51
359.2682493
0
LINE
8
DEFAULT_255_1_388
10
4.8083318
20
20.6633382
11
4.8083318
21
20.5269
0
LINE
8
DEFAULT_255_1_388
10
4.8083318
20
20.5269
11
3.9463313
21
20.5269
0
LINE
8
DEFAULT_255_1_388
10
3.9463313
20
20.5269
11
3.9463313
21
20.6470741
0
LINE
8
DEFAULT_255_1_388
10
3.9463313
20
20.6470741
11
4.4017278
21
21.1530702
0
LINE
8
DEFAULT_255_1_388
10
4.0881909
20
21.4548607
11
3.9210315
21
21.4548607
0
LINE
8
DEFAULT_255_1_388
10
4.5002163
20
21.045546
11
4.1478262
21
20.6633382
0
LINE
8
DEFAULT_255_1_388
10
4.1478262
20
20.6633382
11
4.8083318
21
20.6633382
0
ARC
8
DEFAULT_255_1_388
10
2.8841337
20
22.4950983
40
2.0258655
50
318.5132526
51
320.7829045
0
ARC
8
DEFAULT_255_1_388
10
3.4789294
20
22.0109929
40
1.2589638
50
320.7372878
51
323.9739031
0
ARC
8
DEFAULT_255_1_388
10
3.9198226
20
21.6915554
40
0.7145141
50
323.8962701
51
328.64194
0
ARC
8
DEFAULT_255_1_388
10
4.1500484
20
21.5495545
40
0.4440242
50
328.8294576
51
331.7891185
0
ARC
8
DEFAULT_255_1_388
10
4.2622804
20
21.4916374
40
0.3177517
50
331.4254512
51
352.9365785
0
ARC
8
DEFAULT_255_1_388
10
4.2775804
20
21.488205
40
0.3021496
50
353.2257659
51
0.0166158
0
ARC
8
DEFAULT_255_1_388
10
4.3012564
20
21.4907894
40
0.2784847
50
359.486299
51
15.9343185
0
ARC
8
DEFAULT_255_1_388
10
4.3582831
20
21.5061269
40
0.2194403
50
16.1712913
51
43.5286088
0
ARC
8
DEFAULT_255_1_388
10
4.3669776
20
21.5148191
40
0.2071504
50
43.4417391
51
83.1661095
0
ARC
8
DEFAULT_255_1_388
10
4.3518937
20
21.4319316
40
0.2912888
50
82.160179
51
90.1505708
0
ARC
8
DEFAULT_255_1_388
10
4.3483418
20
21.3715279
40
0.3517025
50
89.5460741
51
102.5418361
0
ARC
8
DEFAULT_255_1_388
10
4.3210138
20
21.4874933
40
0.2325748
50
102.1738499
51
129.206123
0
ARC
8
DEFAULT_255_1_388
10
4.3121592
20
21.5014664
40
0.2161591
50
129.72865
51
135.753947
0
ARC
8
DEFAULT_255_1_388
10
4.3258074
20
21.4905728
40
0.2335433
50
136.1757367
51
166.3673339
0
ARC
8
DEFAULT_255_1_388
10
4.4390762
20
21.4602148
40
0.3507873
50
165.9090694
51
178.8684636
0
ARC
8
DEFAULT_255_1_388
10
4.5366534
20
21.4549263
40
0.4484624
50
178.4391136
51
180.0083808
0
ARC
8
DEFAULT_255_1_388
10
4.3787235
20
21.4593197
40
0.4577138
50
163.2878482
51
180.5581842
0
ARC
8
DEFAULT_255_1_388
10
4.2885276
20
21.4841393
40
0.3641968
50
133.4540601
51
162.947111
0
ARC
8
DEFAULT_255_1_388
10
4.3086158
20
21.4627789
40
0.3935189
50
100.7869829
51
133.4382499
0
ARC
8
DEFAULT_255_1_388
10
4.3477403
20
21.2885399
40
0.5720313
50
89.660664
51
101.3702276
0
ARC
8
DEFAULT_255_1_388
10
4.3552012
20
21.2954263
40
0.5651495
50
78.2172678
51
90.412935
0
ARC
8
DEFAULT_255_1_388
10
4.3951478
20
21.4781511
40
0.378122
50
55.9269121
51
78.4888449
0
ARC
8
DEFAULT_255_1_388
10
4.4172193
20
21.5162187
40
0.3342379
50
47.929771
51
55.4049217
0
ARC
8
DEFAULT_255_1_388
10
4.4286723
20
21.5278618
40
0.3179217
50
4.334829
51
48.0560205
0
ARC
8
DEFAULT_255_1_388
10
4.3054525
20
21.5087487
40
0.442341
50
359.9251713
51
5.5971671
0
ARC
8
DEFAULT_255_1_388
10
4.353668
20
21.5150728
40
0.3941854
50
337.8914027
51
358.9967534
0
ARC
8
DEFAULT_255_1_388
10
4.048425
20
21.6328295
40
0.7213271
50
326.9132501
51
338.3508308
0
ARC
8
DEFAULT_255_1_388
10
3.6000362
20
21.9202105
40
1.2538973
50
319.6471833
51
327.0959558
0
ARC
8
DEFAULT_255_1_388
10
3.168702
20
22.276005
40
1.8129975
50
317.2588228
51
319.9045804
0
LINE
8
DEFAULT_255_1_388
10
5.0288015
20
21.8424898
11
5.2528855
21
21.8424898
0
LINE
8
DEFAULT_255_1_388
10
5.2528855
20
21.8424898
11
5.6829822
21
20.7690553
0
LINE
8
DEFAULT_255_1_388
10
5.6829822
20
20.7690553
11
6.1130789
21
21.8424898
0
LINE
8
DEFAULT_255_1_388
10
6.1130789
20
21.8424898
11
6.3380664
21
21.8424898
0
LINE
8
DEFAULT_255_1_388
10
6.3380664
20
21.8424898
11
6.3380664
21
20.5269
0
LINE
8
DEFAULT_255_1_388
10
6.3380664
20
20.5269
11
6.164582
21
20.5269
0
LINE
8
DEFAULT_255_1_388
10
6.164582
20
20.5269
11
6.164582
21
21.039221
0
LINE
8
DEFAULT_255_1_388
10
6.164582
20
21.039221
11
6.1808462
21
21.5922025
0
LINE
8
DEFAULT_255_1_388
10
6.1808462
20
21.5922025
11
5.7489424
21
20.5269
0
LINE
8
DEFAULT_255_1_388
10
5.7489424
20
20.5269
11
5.6161184
21
20.5269
0
LINE
8
DEFAULT_255_1_388
10
5.6161184
20
20.5269
11
5.1851182
21
21.5894918
0
LINE
8
DEFAULT_255_1_388
10
5.1851182
20
21.5894918
11
5.2022859
21
21.039221
0
LINE
8
DEFAULT_255_1_388
10
5.2022859
20
21.039221
11
5.2022859
21
20.5269
0
LINE
8
DEFAULT_255_1_388
10
5.2022859
20
20.5269
11
5.0288015
21
20.5269
0
LINE
8
DEFAULT_255_1_388
10
5.0288015
20
20.5269
11
5.0288015
21
21.8424898
0
LINE
8
DEFAULT_255_1_388
10
4.7518716
20
28.4644
11
4.5765801
21
28.4644
0
LINE
8
DEFAULT_255_1_388
10
4.3877351
20
29.0571383
11
4.5503767
21
29.0571383
0
LINE
8
DEFAULT_255_1_388
10
4.5503767
20
29.0571383
11
4.5503767
21
29.1339413
0
LINE
8
DEFAULT_255_1_388
10
4.1329299
20
29.1709874
11
3.9648669
21
29.1709874
0
LINE
8
DEFAULT_255_1_388
10
4.7175361
20
29.1429769
11
4.7175361
21
28.6930018
0
LINE
8
DEFAULT_255_1_388
10
4.7518716
20
28.478857
11
4.7518716
21
28.4644
0
LINE
8
DEFAULT_255_1_388
10
4.5503767
20
28.73818
11
4.5503767
21
28.9387713
0
LINE
8
DEFAULT_255_1_388
10
4.5503767
20
28.9387713
11
4.4193599
21
28.9387713
0
ARC
8
DEFAULT_255_1_388
10
4.693495
20
28.52111
40
0.1299428
50
197.0784902
51
205.8758668
0
ARC
8
DEFAULT_255_1_388
10
4.8329536
20
28.5652959
40
0.2762313
50
192.2927663
51
197.3441989
0
ARC
8
DEFAULT_255_1_388
10
5.0525042
20
28.614076
40
0.5011345
50
189.1573793
51
192.3977084
0
ARC
8
DEFAULT_255_1_388
10
5.3689888
20
28.6656878
40
0.8217995
50
186.8686098
51
189.1982636
0
ARC
8
DEFAULT_255_1_388
10
4.2634979
20
28.839726
40
0.3975173
50
294.0079259
51
316.7603918
0
ARC
8
DEFAULT_255_1_388
10
4.2780162
20
28.8192902
40
0.3729755
50
269.5043226
51
293.2478373
0
ARC
8
DEFAULT_255_1_388
10
4.2713214
20
28.8643915
40
0.4180772
50
255.4034155
51
270.4753052
0
ARC
8
DEFAULT_255_1_388
10
4.2454427
20
28.7639652
40
0.3143705
50
228.6141063
51
255.3550831
0
ARC
8
DEFAULT_255_1_388
10
4.2080409
20
28.728154
40
0.2628114
50
181.8954381
51
229.5703134
0
ARC
8
DEFAULT_255_1_388
10
4.2745345
20
28.7353824
40
0.329546
50
179.9848815
51
182.7691528
0
ARC
8
DEFAULT_255_1_388
10
4.2652411
20
28.7392827
40
0.3202753
50
161.0342928
51
180.6822077
0
ARC
8
DEFAULT_255_1_388
10
4.2158026
20
28.7521422
40
0.2693695
50
125.0525065
51
160.2034058
0
ARC
8
DEFAULT_255_1_388
10
4.2902748
20
28.6505275
40
0.3953338
50
106.2670809
51
125.4300189
0
ARC
8
DEFAULT_255_1_388
10
4.3546789
20
28.4400795
40
0.6154041
50
95.4857579
51
106.5348562
0
ARC
8
DEFAULT_255_1_388
10
4.3854077
20
28.1588993
40
0.8982419
50
89.8515405
51
95.7222579
0
ARC
8
DEFAULT_255_1_388
10
4.3134658
20
29.1359925
40
0.2369198
50
359.5039339
51
14.3181205
0
ARC
8
DEFAULT_255_1_388
10
4.3780662
20
29.1527862
40
0.170173
50
14.2184556
51
45.2028524
0
ARC
8
DEFAULT_255_1_388
10
4.3821358
20
29.1543862
40
0.1661795
50
45.8098216
51
73.0032926
0
ARC
8
DEFAULT_255_1_388
10
4.3541185
20
29.068726
40
0.2562942
50
72.6112517
51
85.7231489
0
ARC
8
DEFAULT_255_1_388
10
4.3439969
20
28.9660339
40
0.3594635
50
85.335019
51
90.0855069
0
ARC
8
DEFAULT_255_1_388
10
4.3413402
20
29.0324472
40
0.2930574
50
89.5854741
51
103.459124
0
ARC
8
DEFAULT_255_1_388
10
4.3241941
20
29.1039134
40
0.2195632
50
103.448332
51
126.5403399
0
ARC
8
DEFAULT_255_1_388
10
4.2972918
20
29.1383224
40
0.1759039
50
126.1730306
51
141.5008224
0
ARC
8
DEFAULT_255_1_388
10
4.2547233
20
29.1717266
40
0.1217955
50
141.3332087
51
180.3477313
0
ARC
8
DEFAULT_255_1_388
10
4.1788656
20
29.1697904
40
0.214002
50
151.6373605
51
179.6795088
0
ARC
8
DEFAULT_255_1_388
10
4.2465892
20
29.1360768
40
0.2896224
50
142.4981529
51
152.1330509
0
ARC
8
DEFAULT_255_1_388
10
4.2823896
20
29.1079781
40
0.3351307
50
120.8284906
51
142.4132156
0
ARC
8
DEFAULT_255_1_388
10
4.3291872
20
29.0347185
40
0.4220297
50
113.9634885
51
121.1871733
0
ARC
8
DEFAULT_255_1_388
10
4.3445181
20
28.9973705
40
0.4623867
50
93.3784336
51
113.8197902
0
ARC
8
DEFAULT_255_1_388
10
4.3531563
20
28.9112549
40
0.5488732
50
89.9745993
51
93.7488475
0
ARC
8
DEFAULT_255_1_388
10
4.3570809
20
28.9153587
40
0.5447818
50
79.1327128
51
90.3871707
0
ARC
8
DEFAULT_255_1_388
10
4.3936573
20
29.0981597
40
0.3583662
50
60.1434453
51
79.365517
0
ARC
8
DEFAULT_255_1_388
10
4.4225339
20
29.1536195
40
0.2959028
50
48.6191018
51
59.6466565
0
ARC
8
DEFAULT_255_1_388
10
4.4279051
20
29.1607356
40
0.2870136
50
9.0349502
51
48.4845487
0
ARC
8
DEFAULT_255_1_388
10
4.306835
20
29.1343084
40
0.4107927
50
1.2091359
51
10.0234369
0
ARC
8
DEFAULT_255_1_388
10
5.5765798
20
28.6902422
40
0.8590481
50
179.8159449
51
185.3205667
0
ARC
8
DEFAULT_255_1_388
10
5.2733643
20
28.6612945
40
0.5544553
50
185.2475628
51
192.7952551
0
ARC
8
DEFAULT_255_1_388
10
5.0751467
20
28.6158024
40
0.3510853
50
192.7195981
51
202.9584216
0
ARC
8
DEFAULT_255_1_388
10
4.2991503
20
28.8855895
40
0.2937869
50
270.006916
51
300.503478
0
ARC
8
DEFAULT_255_1_388
10
4.3129438
20
28.8711888
40
0.2744162
50
299.5482616
51
315.609538
0
ARC
8
DEFAULT_255_1_388
10
4.3455734
20
28.8378072
40
0.2277499
50
315.8682065
51
334.0592465
0
ARC
8
DEFAULT_255_1_388
10
4.4144708
20
28.15419
40
0.7845965
50
89.64297
51
97.2867877
0
ARC
8
DEFAULT_255_1_388
10
4.3648305
20
28.5258936
40
0.4096042
50
96.9938706
51
109.7783917
0
ARC
8
DEFAULT_255_1_388
10
4.2899768
20
28.7262851
40
0.1957225
50
109.0087985
51
135.3265591
0
ARC
8
DEFAULT_255_1_388
10
4.2592187
20
28.7643764
40
0.1471704
50
137.4537784
51
182.1083946
0
ARC
8
DEFAULT_255_1_388
10
4.3012887
20
28.7571101
40
0.1891498
50
179.4390335
51
195.7201623
0
ARC
8
DEFAULT_255_1_388
10
4.2549922
20
28.7444585
40
0.1411576
50
195.8683556
51
230.157074
0
ARC
8
DEFAULT_255_1_388
10
4.2822645
20
28.7771228
40
0.1837102
50
230.1532486
51
259.7486257
0
ARC
8
DEFAULT_255_1_388
10
4.2978687
20
28.8506472
40
0.258848
50
259.2461118
51
270.2915316
0
ARC
8
DEFAULT_255_1_388
10
5.1035855
20
28.5531142
40
0.1204062
50
163.5412609
51
180.5084512
0
ARC
8
DEFAULT_255_1_388
10
5.0819754
20
28.558946
40
0.0980307
50
138.1652
51
163.2315563
0
ARC
8
DEFAULT_255_1_388
10
5.0693495
20
28.5696456
40
0.0814881
50
105.6860499
51
137.8492655
0
ARC
8
DEFAULT_255_1_388
10
5.0826696
20
28.5264109
40
0.126719
50
92.6078949
51
106.199173
0
ARC
8
DEFAULT_255_1_388
10
5.0860886
20
28.4818207
40
0.1714243
50
89.9659531
51
93.0713334
0
ARC
8
DEFAULT_255_1_388
10
5.0872922
20
28.5068484
40
0.1464007
50
78.4379126
51
90.4311892
0
ARC
8
DEFAULT_255_1_388
10
5.0981569
20
28.5575017
40
0.094599
50
56.8961942
51
78.7357785
0
ARC
8
DEFAULT_255_1_388
10
5.1052679
20
28.5699075
40
0.0803272
50
42.6503148
51
56.3122241
0
ARC
8
DEFAULT_255_1_388
10
5.0908581
20
28.5566661
40
0.099897
50
3.8141057
51
42.636595
0
ARC
8
DEFAULT_255_1_388
10
5.0585903
20
28.5521616
40
0.1324137
50
359.9498843
51
4.8301897
0
ARC
8
DEFAULT_255_1_388
10
5.084104
20
28.5509722
40
0.1069053
50
340.9378148
51
0.5753733
0
ARC
8
DEFAULT_255_1_388
10
5.0967623
20
28.5475569
40
0.0938301
50
316.0798885
51
340.3845117
0
ARC
8
DEFAULT_255_1_388
10
5.1032934
20
28.541552
40
0.0849605
50
285.8512844
51
315.941661
0
ARC
8
DEFAULT_255_1_388
10
5.0900814
20
28.584262
40
0.1296594
50
273.1293204
51
286.3125006
0
ARC
8
DEFAULT_255_1_388
10
5.0863324
20
28.6294586
40
0.1749979
50
269.9535313
51
273.5471598
0
ARC
8
DEFAULT_255_1_388
10
5.0850929
20
28.6048833
40
0.1504266
50
259.0487117
51
270.4180248
0
ARC
8
DEFAULT_255_1_388
10
5.0742542
20
28.5511783
40
0.0956414
50
239.7583641
51
259.3115656
0
ARC
8
DEFAULT_255_1_388
10
5.0651475
20
28.5342048
40
0.0763945
50
222.6243303
51
239.2473835
0
ARC
8
DEFAULT_255_1_388
10
5.0802646
20
28.5480572
40
0.0968985
50
182.9231258
51
222.598101
0
ARC
8
DEFAULT_255_1_388
10
5.1105845
20
28.5519696
40
0.1274004
50
179.9657458
51
183.9850364
0
LINE
8
DEFAULT_255_1_388
10
6.2987739
20
29.7799898
11
6.2987739
21
29.6860191
0
LINE
8
DEFAULT_255_1_388
10
6.2987739
20
29.6860191
11
5.7539246
21
28.4644
0
LINE
8
DEFAULT_255_1_388
10
5.7539246
20
28.4644
11
5.5786331
21
28.4644
0
LINE
8
DEFAULT_255_1_388
10
5.5786331
20
28.4644
11
6.1216753
21
29.642648
0
LINE
8
DEFAULT_255_1_388
10
6.1216753
20
29.642648
11
5.4096665
21
29.642648
0
LINE
8
DEFAULT_255_1_388
10
5.4096665
20
29.642648
11
5.4096665
21
29.7799898
0
LINE
8
DEFAULT_255_1_388
10
5.4096665
20
29.7799898
11
6.2987739
21
29.7799898
0
LINE
8
DEFAULT_255_1_388
10
4.7518716
20
36.4019
11
4.5765801
21
36.4019
0
LINE
8
DEFAULT_255_1_388
10
4.3877351
20
36.9946383
11
4.5503767
21
36.9946383
0
LINE
8
DEFAULT_255_1_388
10
4.5503767
20
36.9946383
11
4.5503767
21
37.0714413
0
LINE
8
DEFAULT_255_1_388
10
4.1329299
20
37.1084874
11
3.9648669
21
37.1084874
0
LINE
8
DEFAULT_255_1_388
10
4.7175361
20
37.0804769
11
4.7175361
21
36.6305018
0
LINE
8
DEFAULT_255_1_388
10
4.7518716
20
36.416357
11
4.7518716
21
36.4019
0
LINE
8
DEFAULT_255_1_388
10
4.5503767
20
36.67568
11
4.5503767
21
36.8762713
0
LINE
8
DEFAULT_255_1_388
10
4.5503767
20
36.8762713
11
4.4193599
21
36.8762713
0
ARC
8
DEFAULT_255_1_388
10
4.693495
20
36.45861
40
0.1299428
50
197.0784902
51
205.8758668
0
ARC
8
DEFAULT_255_1_388
10
4.8329536
20
36.5027959
40
0.2762313
50
192.2927663
51
197.3441989
0
ARC
8
DEFAULT_255_1_388
10
5.0525042
20
36.551576
40
0.5011345
50
189.1573793
51
192.3977084
0
ARC
8
DEFAULT_255_1_388
10
5.3689888
20
36.6031878
40
0.8217995
50
186.8686098
51
189.1982636
0
ARC
8
DEFAULT_255_1_388
10
4.2634979
20
36.777226
40
0.3975173
50
294.0079259
51
316.7603918
0
ARC
8
DEFAULT_255_1_388
10
4.2780162
20
36.7567902
40
0.3729755
50
269.5043226
51
293.2478373
0
ARC
8
DEFAULT_255_1_388
10
4.2713214
20
36.8018915
40
0.4180772
50
255.4034155
51
270.4753052
0
ARC
8
DEFAULT_255_1_388
10
4.2454427
20
36.7014652
40
0.3143705
50
228.6141063
51
255.3550831
0
ARC
8
DEFAULT_255_1_388
10
4.2080409
20
36.665654
40
0.2628114
50
181.8954381
51
229.5703134
0
ARC
8
DEFAULT_255_1_388
10
4.2745345
20
36.6728824
40
0.329546
50
179.9848815
51
182.7691528
0
ARC
8
DEFAULT_255_1_388
10
4.2652411
20
36.6767827
40
0.3202753
50
161.0342928
51
180.6822077
0
ARC
8
DEFAULT_255_1_388
10
4.2158026
20
36.6896422
40
0.2693695
50
125.0525065
51
160.2034058
0
ARC
8
DEFAULT_255_1_388
10
4.2902748
20
36.5880275
40
0.3953338
50
106.2670809
51
125.4300189
0
ARC
8
DEFAULT_255_1_388
10
4.3546789
20
36.3775795
40
0.6154041
50
95.4857579
51
106.5348562
0
ARC
8
DEFAULT_255_1_388
10
4.3854077
20
36.0963993
40
0.8982419
50
89.8515405
51
95.7222579
0
ARC
8
DEFAULT_255_1_388
10
4.3134658
20
37.0734925
40
0.2369198
50
359.5039339
51
14.3181205
0
ARC
8
DEFAULT_255_1_388
10
4.3780662
20
37.0902862
40
0.170173
50
14.2184556
51
45.2028524
0
ARC
8
DEFAULT_255_1_388
10
4.3821358
20
37.0918862
40
0.1661795
50
45.8098216
51
73.0032926
0
ARC
8
DEFAULT_255_1_388
10
4.3541185
20
37.006226
40
0.2562942
50
72.6112517
51
85.7231489
0
ARC
8
DEFAULT_255_1_388
10
4.3439969
20
36.9035339
40
0.3594635
50
85.335019
51
90.0855069
0
ARC
8
DEFAULT_255_1_388
10
4.3413402
20
36.9699472
40
0.2930574
50
89.5854741
51
103.459124
0
ARC
8
DEFAULT_255_1_388
10
4.3241941
20
37.0414134
40
0.2195632
50
103.448332
51
126.5403399
0
ARC
8
DEFAULT_255_1_388
10
4.2972918
20
37.0758224
40
0.1759039
50
126.1730306
51
141.5008224
0
ARC
8
DEFAULT_255_1_388
10
4.2547233
20
37.1092266
40
0.1217955
50
141.3332087
51
180.3477313
0
ARC
8
DEFAULT_255_1_388
10
4.1788656
20
37.1072904
40
0.214002
50
151.6373605
51
179.6795088
0
ARC
8
DEFAULT_255_1_388
10
4.2465892
20
37.0735768
40
0.2896224
50
142.4981529
51
152.1330509
0
ARC
8
DEFAULT_255_1_388
10
4.2823896
20
37.0454781
40
0.3351307
50
120.8284906
51
142.4132156
0
ARC
8
DEFAULT_255_1_388
10
4.3291872
20
36.9722185
40
0.4220297
50
113.9634885
51
121.1871733
0
ARC
8
DEFAULT_255_1_388
10
4.3445181
20
36.9348705
40
0.4623867
50
93.3784336
51
113.8197902
0
ARC
8
DEFAULT_255_1_388
10
4.3531563
20
36.8487549
40
0.5488732
50
89.9745993
51
93.7488475
0
ARC
8
DEFAULT_255_1_388
10
4.3570809
20
36.8528587
40
0.5447818
50
79.1327128
51
90.3871707
0
ARC
8
DEFAULT_255_1_388
10
4.3936573
20
37.0356597
40
0.3583662
50
60.1434453
51
79.365517
0
ARC
8
DEFAULT_255_1_388
10
4.4225339
20
37.0911195
40
0.2959028
50
48.6191018
51
59.6466565
0
ARC
8
DEFAULT_255_1_388
10
4.4279051
20
37.0982356
40
0.2870136
50
9.0349502
51
48.4845487
0
ARC
8
DEFAULT_255_1_388
10
4.306835
20
37.0718084
40
0.4107927
50
1.2091359
51
10.0234369
0
ARC
8
DEFAULT_255_1_388
10
5.5765798
20
36.6277422
40
0.8590481
50
179.8159449
51
185.3205667
0
ARC
8
DEFAULT_255_1_388
10
5.2733643
20
36.5987945
40
0.5544553
50
185.2475628
51
192.7952551
0
ARC
8
DEFAULT_255_1_388
10
5.0751467
20
36.5533024
40
0.3510853
50
192.7195981
51
202.9584216
0
ARC
8
DEFAULT_255_1_388
10
4.2991503
20
36.8230895
40
0.2937869
50
270.006916
51
300.503478
0
ARC
8
DEFAULT_255_1_388
10
4.3129438
20
36.8086888
40
0.2744162
50
299.5482616
51
315.609538
0
ARC
8
DEFAULT_255_1_388
10
4.3455734
20
36.7753072
40
0.2277499
50
315.8682065
51
334.0592465
0
ARC
8
DEFAULT_255_1_388
10
4.4144708
20
36.09169
40
0.7845965
50
89.64297
51
97.2867877
0
ARC
8
DEFAULT_255_1_388
10
4.3648305
20
36.4633936
40
0.4096042
50
96.9938706
51
109.7783917
0
ARC
8
DEFAULT_255_1_388
10
4.2899768
20
36.6637851
40
0.1957225
50
109.0087985
51
135.3265591
0
ARC
8
DEFAULT_255_1_388
10
4.2592187
20
36.7018764
40
0.1471704
50
137.4537784
51
182.1083946
0
ARC
8
DEFAULT_255_1_388
10
4.3012887
20
36.6946101
40
0.1891498
50
179.4390335
51
195.7201623
0
ARC
8
DEFAULT_255_1_388
10
4.2549922
20
36.6819585
40
0.1411576
50
195.8683556
51
230.157074
0
ARC
8
DEFAULT_255_1_388
10
4.2822645
20
36.7146228
40
0.1837102
50
230.1532486
51
259.7486257
0
ARC
8
DEFAULT_255_1_388
10
4.2978687
20
36.7881472
40
0.258848
50
259.2461118
51
270.2915316
0
ARC
8
DEFAULT_255_1_388
10
5.1035855
20
36.4906142
40
0.1204062
50
163.5412609
51
180.5084512
0
ARC
8
DEFAULT_255_1_388
10
5.0819754
20
36.496446
40
0.0980307
50
138.1652
51
163.2315563
0
ARC
8
DEFAULT_255_1_388
10
5.0693495
20
36.5071456
40
0.0814881
50
105.6860499
51
137.8492655
0
ARC
8
DEFAULT_255_1_388
10
5.0826696
20
36.4639109
40
0.126719
50
92.6078949
51
106.199173
0
ARC
8
DEFAULT_255_1_388
10
5.0860886
20
36.4193207
40
0.1714243
50
89.9659531
51
93.0713334
0
ARC
8
DEFAULT_255_1_388
10
5.0872922
20
36.4443484
40
0.1464007
50
78.4379126
51
90.4311892
0
ARC
8
DEFAULT_255_1_388
10
5.0981569
20
36.4950017
40
0.094599
50
56.8961942
51
78.7357785
0
ARC
8
DEFAULT_255_1_388
10
5.1052679
20
36.5074075
40
0.0803272
50
42.6503148
51
56.3122241
0
ARC
8
DEFAULT_255_1_388
10
5.0908581
20
36.4941661
40
0.099897
50
3.8141057
51
42.636595
0
ARC
8
DEFAULT_255_1_388
10
5.0585903
20
36.4896616
40
0.1324137
50
359.9498843
51
4.8301897
0
ARC
8
DEFAULT_255_1_388
10
5.084104
20
36.4884722
40
0.1069053
50
340.9378148
51
0.5753733
0
ARC
8
DEFAULT_255_1_388
10
5.0967623
20
36.4850569
40
0.0938301
50
316.0798885
51
340.3845117
0
ARC
8
DEFAULT_255_1_388
10
5.1032934
20
36.479052
40
0.0849605
50
285.8512844
51
315.941661
0
ARC
8
DEFAULT_255_1_388
10
5.0900814
20
36.521762
40
0.1296594
50
273.1293204
51
286.3125006
0
ARC
8
DEFAULT_255_1_388
10
5.0863324
20
36.5669586
40
0.1749979
50
269.9535313
51
273.5471598
0
ARC
8
DEFAULT_255_1_388
10
5.0850929
20
36.5423833
40
0.1504266
50
259.0487117
51
270.4180248
0
ARC
8
DEFAULT_255_1_388
10
5.0742542
20
36.4886783
40
0.0956414
50
239.7583641
51
259.3115656
0
ARC
8
DEFAULT_255_1_388
10
5.0651475
20
36.4717048
40
0.0763945
50
222.6243303
51
239.2473835
0
ARC
8
DEFAULT_255_1_388
10
5.0802646
20
36.4855572
40
0.0968985
50
182.9231258
51
222.598101
0
ARC
8
DEFAULT_255_1_388
10
5.1105845
20
36.4894696
40
0.1274004
50
179.9657458
51
183.9850364
0
LINE
8
DEFAULT_255_1_388
10
6.0755935
20
37.7183934
11
6.1054111
21
37.7183934
0
LINE
8
DEFAULT_255_1_388
10
6.1054111
20
37.7183934
11
6.1054111
21
37.5765338
0
LINE
8
DEFAULT_255_1_388
10
6.1054111
20
37.5765338
11
6.0746899
21
37.5765338
0
LINE
8
DEFAULT_255_1_388
10
5.4593625
20
36.9024747
11
5.4593625
21
36.9666278
0
LINE
8
DEFAULT_255_1_388
10
5.6274255
20
36.9449422
11
5.6274255
21
36.8834999
0
ARC
8
DEFAULT_255_1_388
10
6.0805791
20
37.0142826
40
0.562282
50
90.6001079
51
104.5146616
0
ARC
8
DEFAULT_255_1_388
10
6.036875
20
37.17681
40
0.3939917
50
104.2855758
51
133.8630124
0
ARC
8
DEFAULT_255_1_388
10
6.0553003
20
37.1646243
40
0.4155734
50
134.5304124
51
161.6210222
0
ARC
8
DEFAULT_255_1_388
10
6.2412935
20
37.0990421
40
0.6127682
50
161.2850533
51
174.2074364
0
ARC
8
DEFAULT_255_1_388
10
6.4002502
20
37.0771437
40
0.7731446
50
173.7817938
51
174.9251711
0
ARC
8
DEFAULT_255_1_388
10
5.8876696
20
36.921627
40
0.3412588
50
95.8332067
51
138.995412
0
ARC
8
DEFAULT_255_1_388
10
5.9127976
20
36.7777695
40
0.4870358
50
89.8755506
51
97.0540979
0
ARC
8
DEFAULT_255_1_388
10
5.9181365
20
36.8717841
40
0.3930432
50
71.6407016
51
90.6240821
0
ARC
8
DEFAULT_255_1_388
10
5.9350759
20
36.9341433
40
0.3285421
50
39.6368051
51
71.0190743
0
ARC
8
DEFAULT_255_1_388
10
5.8634666
20
36.8722586
40
0.4231706
50
10.6588054
51
39.9044509
0
ARC
8
DEFAULT_255_1_388
10
5.6893212
20
36.8344223
40
0.60133
50
359.6827842
51
11.1326896
0
ARC
8
DEFAULT_255_1_388
10
5.6848548
20
36.8264715
40
0.6058047
50
347.2485908
51
0.4371098
0
ARC
8
DEFAULT_255_1_388
10
5.8724333
20
36.7813379
40
0.4128987
50
318.1408565
51
347.6118497
0
ARC
8
DEFAULT_255_1_388
10
5.908993
20
36.7512903
40
0.3656244
50
275.6342406
51
317.824739
0
ARC
8
DEFAULT_255_1_388
10
5.8841451
20
36.8974827
40
0.513655
50
269.8872513
51
276.7916069
0
ARC
8
DEFAULT_255_1_388
10
5.8779643
20
36.7821181
40
0.398323
50
246.9139443
51
270.7436787
0
ARC
8
DEFAULT_255_1_388
10
5.8786839
20
36.7661044
40
0.3839368
50
218.1665534
51
245.8780431
0
ARC
8
DEFAULT_255_1_388
10
5.9776211
20
36.8488903
40
0.5128958
50
191.4115343
51
218.6077624
0
ARC
8
DEFAULT_255_1_388
10
6.1956528
20
36.8977777
40
0.7363054
50
179.6344971
51
191.7836758
0
ARC
8
DEFAULT_255_1_388
10
6.8236402
20
36.9741495
40
1.3642984
50
171.4523743
51
180.3158856
0
ARC
8
DEFAULT_255_1_388
10
6.3292129
20
37.0510895
40
0.8639311
50
157.9802296
51
171.6246761
0
ARC
8
DEFAULT_255_1_388
10
6.080148
20
37.1504038
40
0.5958004
50
141.4299236
51
157.8541251
0
ARC
8
DEFAULT_255_1_388
10
6.0079563
20
37.2014746
40
0.5075416
50
102.871586
51
140.8564533
0
ARC
8
DEFAULT_255_1_388
10
6.0808116
20
36.9269943
40
0.7914163
50
90.377773
51
103.5868422
0
ARC
8
DEFAULT_255_1_388
10
5.8852637
20
36.8589543
40
0.2667015
50
89.8751238
51
126.2072139
0
ARC
8
DEFAULT_255_1_388
10
5.8904108
20
36.8415847
40
0.2838229
50
124.9742447
51
144.8960197
0
ARC
8
DEFAULT_255_1_388
10
5.8706353
20
36.8576981
40
0.2583845
50
145.2974778
51
160.2660922
0
ARC
8
DEFAULT_255_1_388
10
6.2162841
20
36.8799151
40
0.5888695
50
179.6512124
51
190.285571
0
ARC
8
DEFAULT_255_1_388
10
6.0257321
20
36.8439968
40
0.3949683
50
190.0944895
51
207.5099647
0
ARC
8
DEFAULT_255_1_388
10
5.9620903
20
36.8137177
40
0.3245464
50
207.9585471
51
216.325377
0
ARC
8
DEFAULT_255_1_388
10
5.923854
20
36.7822712
40
0.2751259
50
215.7661336
51
232.5457193
0
ARC
8
DEFAULT_255_1_388
10
5.8807656
20
36.7275273
40
0.2054668
50
232.8005815
51
270.6605497
0
ARC
8
DEFAULT_255_1_388
10
5.885908
20
36.7684853
40
0.2464268
50
269.3550767
51
288.474612
0
ARC
8
DEFAULT_255_1_388
10
5.8963587
20
36.7291721
40
0.2058436
50
289.1831976
51
322.9685307
0
ARC
8
DEFAULT_255_1_388
10
5.8275689
20
36.7834279
40
0.2934408
50
322.6007085
51
346.5183319
0
ARC
8
DEFAULT_255_1_388
10
5.6973445
20
36.8166434
40
0.4278249
50
346.2584622
51
358.7739592
0
ARC
8
DEFAULT_255_1_388
10
5.582202
20
36.8228829
40
0.5430876
50
358.3757628
51
0.0082477
0
ARC
8
DEFAULT_255_1_388
10
5.6678838
20
36.8259856
40
0.4574157
50
359.6211417
51
11.28403
0
ARC
8
DEFAULT_255_1_388
10
5.8115445
20
36.8559535
40
0.3106708
50
11.0483152
51
31.8145585
0
ARC
8
DEFAULT_255_1_388
10
5.846315
20
36.8748045
40
0.2711963
50
32.3028554
51
38.0820598
0
ARC
8
DEFAULT_255_1_388
10
5.8936383
20
36.9176717
40
0.2075566
50
36.8249851
51
85.741667
0
ARC
8
DEFAULT_255_1_388
10
5.8860795
20
36.8613065
40
0.2643487
50
85.0150021
51
90.050843
0
LINE
8
DEFAULT_255_1_388
10
4.7518716
20
44.3394
11
4.5765801
21
44.3394
0
LINE
8
DEFAULT_255_1_388
10
4.3877351
20
44.9321383
11
4.5503767
21
44.9321383
0
LINE
8
DEFAULT_255_1_388
10
4.5503767
20
44.9321383
11
4.5503767
21
45.0089413
0
LINE
8
DEFAULT_255_1_388
10
4.1329299
20
45.0459874
11
3.9648669
21
45.0459874
0
LINE
8
DEFAULT_255_1_388
10
4.7175361
20
45.0179769
11
4.7175361
21
44.5680018
0
LINE
8
DEFAULT_255_1_388
10
4.7518716
20
44.353857
11
4.7518716
21
44.3394
0
LINE
8
DEFAULT_255_1_388
10
4.5503767
20
44.61318
11
4.5503767
21
44.8137713
0
LINE
8
DEFAULT_255_1_388
10
4.5503767
20
44.8137713
11
4.4193599
21
44.8137713
0
ARC
8
DEFAULT_255_1_388
10
4.693495
20
44.39611
40
0.1299428
50
197.0784902
51
205.8758668
0
ARC
8
DEFAULT_255_1_388
10
4.8329536
20
44.4402959
40
0.2762313
50
192.2927663
51
197.3441989
0
ARC
8
DEFAULT_255_1_388
10
5.0525042
20
44.489076
40
0.5011345
50
189.1573793
51
192.3977084
0
ARC
8
DEFAULT_255_1_388
10
5.3689888
20
44.5406878
40
0.8217995
50
186.8686098
51
189.1982636
0
ARC
8
DEFAULT_255_1_388
10
4.2634979
20
44.714726
40
0.3975173
50
294.0079259
51
316.7603918
0
ARC
8
DEFAULT_255_1_388
10
4.2780162
20
44.6942902
40
0.3729755
50
269.5043226
51
293.2478373
0
ARC
8
DEFAULT_255_1_388
10
4.2713214
20
44.7393915
40
0.4180772
50
255.4034155
51
270.4753052
0
ARC
8
DEFAULT_255_1_388
10
4.2454427
20
44.6389652
40
0.3143705
50
228.6141063
51
255.3550831
0
ARC
8
DEFAULT_255_1_388
10
4.2080409
20
44.603154
40
0.2628114
50
181.8954381
51
229.5703134
0
ARC
8
DEFAULT_255_1_388
10
4.2745345
20
44.6103824
40
0.329546
50
179.9848815
51
182.7691528
0
ARC
8
DEFAULT_255_1_388
10
4.2652411
20
44.6142827
40
0.3202753
50
161.0342928
51
180.6822077
0
ARC
8
DEFAULT_255_1_388
10
4.2158026
20
44.6271422
40
0.2693695
50
125.0525065
51
160.2034058
0
ARC
8
DEFAULT_255_1_388
10
4.2902748
20
44.5255275
40
0.3953338
50
106.2670809
51
125.4300189
0
ARC
8
DEFAULT_255_1_388
10
4.3546789
20
44.3150795
40
0.6154041
50
95.4857579
51
106.5348562
0
ARC
8
DEFAULT_255_1_388
10
4.3854077
20
44.0338993
40
0.8982419
50
89.8515405
51
95.7222579
0
ARC
8
DEFAULT_255_1_388
10
4.3134658
20
45.0109925
40
0.2369198
50
359.5039339
51
14.3181205
0
ARC
8
DEFAULT_255_1_388
10
4.3780662
20
45.0277862
40
0.170173
50
14.2184556
51
45.2028524
0
ARC
8
DEFAULT_255_1_388
10
4.3821358
20
45.0293862
40
0.1661795
50
45.8098216
51
73.0032926
0
ARC
8
DEFAULT_255_1_388
10
4.3541185
20
44.943726
40
0.2562942
50
72.6112517
51
85.7231489
0
ARC
8
DEFAULT_255_1_388
10
4.3439969
20
44.8410339
40
0.3594635
50
85.335019
51
90.0855069
0
ARC
8
DEFAULT_255_1_388
10
4.3413402
20
44.9074472
40
0.2930574
50
89.5854741
51
103.459124
0
ARC
8
DEFAULT_255_1_388
10
4.3241941
20
44.9789134
40
0.2195632
50
103.448332
51
126.5403399
0
ARC
8
DEFAULT_255_1_388
10
4.2972918
20
45.0133224
40
0.1759039
50
126.1730306
51
141.5008224
0
ARC
8
DEFAULT_255_1_388
10
4.2547233
20
45.0467266
40
0.1217955
50
141.3332087
51
180.3477313
0
ARC
8
DEFAULT_255_1_388
10
4.1788656
20
45.0447904
40
0.214002
50
151.6373605
51
179.6795088
0
ARC
8
DEFAULT_255_1_388
10
4.2465892
20
45.0110768
40
0.2896224
50
142.4981529
51
152.1330509
0
ARC
8
DEFAULT_255_1_388
10
4.2823896
20
44.9829781
40
0.3351307
50
120.8284906
51
142.4132156
0
ARC
8
DEFAULT_255_1_388
10
4.3291872
20
44.9097185
40
0.4220297
50
113.9634885
51
121.1871733
0
ARC
8
DEFAULT_255_1_388
10
4.3445181
20
44.8723705
40
0.4623867
50
93.3784336
51
113.8197902
0
ARC
8
DEFAULT_255_1_388
10
4.3531563
20
44.7862549
40
0.5488732
50
89.9745993
51
93.7488475
0
ARC
8
DEFAULT_255_1_388
10
4.3570809
20
44.7903587
40
0.5447818
50
79.1327128
51
90.3871707
0
ARC
8
DEFAULT_255_1_388
10
4.3936573
20
44.9731597
40
0.3583662
50
60.1434453
51
79.365517
0
ARC
8
DEFAULT_255_1_388
10
4.4225339
20
45.0286195
40
0.2959028
50
48.6191018
51
59.6466565
0
ARC
8
DEFAULT_255_1_388
10
4.4279051
20
45.0357356
40
0.2870136
50
9.0349502
51
48.4845487
0
ARC
8
DEFAULT_255_1_388
10
4.306835
20
45.0093084
40
0.4107927
50
1.2091359
51
10.0234369
0
ARC
8
DEFAULT_255_1_388
10
5.5765798
20
44.5652422
40
0.8590481
50
179.8159449
51
185.3205667
0
ARC
8
DEFAULT_255_1_388
10
5.2733643
20
44.5362945
40
0.5544553
50
185.2475628
51
192.7952551
0
ARC
8
DEFAULT_255_1_388
10
5.0751467
20
44.4908024
40
0.3510853
50
192.7195981
51
202.9584216
0
ARC
8
DEFAULT_255_1_388
10
4.2991503
20
44.7605895
40
0.2937869
50
270.006916
51
300.503478
0
ARC
8
DEFAULT_255_1_388
10
4.3129438
20
44.7461888
40
0.2744162
50
299.5482616
51
315.609538
0
ARC
8
DEFAULT_255_1_388
10
4.3455734
20
44.7128072
40
0.2277499
50
315.8682065
51
334.0592465
0
ARC
8
DEFAULT_255_1_388
10
4.4144708
20
44.02919
40
0.7845965
50
89.64297
51
97.2867877
0
ARC
8
DEFAULT_255_1_388
10
4.3648305
20
44.4008936
40
0.4096042
50
96.9938706
51
109.7783917
0
ARC
8
DEFAULT_255_1_388
10
4.2899768
20
44.6012851
40
0.1957225
50
109.0087985
51
135.3265591
0
ARC
8
DEFAULT_255_1_388
10
4.2592187
20
44.6393764
40
0.1471704
50
137.4537784
51
182.1083946
0
ARC
8
DEFAULT_255_1_388
10
4.3012887
20
44.6321101
40
0.1891498
50
179.4390335
51
195.7201623
0
ARC
8
DEFAULT_255_1_388
10
4.2549922
20
44.6194585
40
0.1411576
50
195.8683556
51
230.157074
0
ARC
8
DEFAULT_255_1_388
10
4.2822645
20
44.6521228
40
0.1837102
50
230.1532486
51
259.7486257
0
ARC
8
DEFAULT_255_1_388
10
4.2978687
20
44.7256472
40
0.258848
50
259.2461118
51
270.2915316
0
ARC
8
DEFAULT_255_1_388
10
5.1035855
20
44.4281142
40
0.1204062
50
163.5412609
51
180.5084512
0
ARC
8
DEFAULT_255_1_388
10
5.0819754
20
44.433946
40
0.0980307
50
138.1652
51
163.2315563
0
ARC
8
DEFAULT_255_1_388
10
5.0693495
20
44.4446456
40
0.0814881
50
105.6860499
51
137.8492655
0
ARC
8
DEFAULT_255_1_388
10
5.0826696
20
44.4014109
40
0.126719
50
92.6078949
51
106.199173
0
ARC
8
DEFAULT_255_1_388
10
5.0860886
20
44.3568207
40
0.1714243
50
89.9659531
51
93.0713334
0
ARC
8
DEFAULT_255_1_388
10
5.0872922
20
44.3818484
40
0.1464007
50
78.4379126
51
90.4311892
0
ARC
8
DEFAULT_255_1_388
10
5.0981569
20
44.4325017
40
0.094599
50
56.8961942
51
78.7357785
0
ARC
8
DEFAULT_255_1_388
10
5.1052679
20
44.4449075
40
0.0803272
50
42.6503148
51
56.3122241
0
ARC
8
DEFAULT_255_1_388
10
5.0908581
20
44.4316661
40
0.099897
50
3.8141057
51
42.636595
0
ARC
8
DEFAULT_255_1_388
10
5.0585903
20
44.4271616
40
0.1324137
50
359.9498843
51
4.8301897
0
ARC
8
DEFAULT_255_1_388
10
5.084104
20
44.4259722
40
0.1069053
50
340.9378148
51
0.5753733
0
ARC
8
DEFAULT_255_1_388
10
5.0967623
20
44.4225569
40
0.0938301
50
316.0798885
51
340.3845117
0
ARC
8
DEFAULT_255_1_388
10
5.1032934
20
44.416552
40
0.0849605
50
285.8512844
51
315.941661
0
ARC
8
DEFAULT_255_1_388
10
5.0900814
20
44.459262
40
0.1296594
50
273.1293204
51
286.3125006
0
ARC
8
DEFAULT_255_1_388
10
5.0863324
20
44.5044586
40
0.1749979
50
269.9535313
51
273.5471598
0
ARC
8
DEFAULT_255_1_388
10
5.0850929
20
44.4798833
40
0.1504266
50
259.0487117
51
270.4180248
0
ARC
8
DEFAULT_255_1_388
10
5.0742542
20
44.4261783
40
0.0956414
50
239.7583641
51
259.3115656
0
ARC
8
DEFAULT_255_1_388
10
5.0651475
20
44.4092048
40
0.0763945
50
222.6243303
51
239.2473835
0
ARC
8
DEFAULT_255_1_388
10
5.0802646
20
44.4230572
40
0.0968985
50
182.9231258
51
222.598101
0
ARC
8
DEFAULT_255_1_388
10
5.1105845
20
44.4269696
40
0.1274004
50
179.9657458
51
183.9850364
0
LINE
8
DEFAULT_255_1_388
10
5.6599539
20
44.9646666
11
5.5262263
21
44.9990021
0
LINE
8
DEFAULT_255_1_388
10
5.5262263
20
44.9990021
11
5.5930901
21
45.6549898
0
LINE
8
DEFAULT_255_1_388
10
5.5930901
20
45.6549898
11
6.2671492
21
45.6549898
0
LINE
8
DEFAULT_255_1_388
10
6.2671492
20
45.6549898
11
6.2671492
21
45.5004803
0
LINE
8
DEFAULT_255_1_388
10
6.2671492
20
45.5004803
11
5.7349497
21
45.5004803
0
LINE
8
DEFAULT_255_1_388
10
5.7349497
20
45.5004803
11
5.6951929
21
45.1417652
0
LINE
8
DEFAULT_255_1_388
10
5.479241
20
44.6854652
11
5.6373647
21
44.6854652
0
LINE
8
DEFAULT_255_1_388
10
5.7042285
20
45.0008092
11
5.6599539
21
44.9646666
0
ARC
8
DEFAULT_255_1_388
10
5.9038542
20
44.7840241
40
0.4141476
50
93.7181681
51
120.253934
0
ARC
8
DEFAULT_255_1_388
10
5.9144594
20
44.6931284
40
0.5055616
50
89.9660471
51
94.2495185
0
ARC
8
DEFAULT_255_1_388
10
5.9190416
20
44.7594154
40
0.4392953
50
73.8045384
51
90.5585736
0
ARC
8
DEFAULT_255_1_388
10
5.9454674
20
44.855952
40
0.3392225
50
41.3071072
51
73.543002
0
ARC
8
DEFAULT_255_1_388
10
5.8986494
20
44.8156461
40
0.4009977
50
13.5075837
51
41.2174839
0
ARC
8
DEFAULT_255_1_388
10
5.7139591
20
44.7672907
40
0.5918864
50
1.1330171
51
13.8830737
0
ARC
8
DEFAULT_255_1_388
10
5.5543237
20
44.7587522
40
0.7516787
50
359.9925091
51
1.5431298
0
ARC
8
DEFAULT_255_1_388
10
5.6987852
20
44.7541027
40
0.6072343
50
347.8572712
51
0.4294349
0
ARC
8
DEFAULT_255_1_388
10
5.8956987
20
44.7094898
40
0.4053482
50
323.6727442
51
348.1674594
0
ARC
8
DEFAULT_255_1_388
10
5.9287951
20
44.6893175
40
0.3667495
50
316.8171818
51
323.1486802
0
ARC
8
DEFAULT_255_1_388
10
5.9357075
20
44.6851612
40
0.358869
50
281.839603
51
316.5458142
0
ARC
8
DEFAULT_255_1_388
10
5.8934363
20
44.8601363
40
0.5388223
50
269.5770964
51
282.4214641
0
ARC
8
DEFAULT_255_1_388
10
5.8854283
20
44.836093
40
0.5147801
50
256.2425863
51
270.4486481
0
ARC
8
DEFAULT_255_1_388
10
5.8517811
20
44.7011124
40
0.3756708
50
228.9024379
51
256.33135
0
ARC
8
DEFAULT_255_1_388
10
5.8434791
20
44.6880054
40
0.360344
50
193.7536029
51
228.5272638
0
ARC
8
DEFAULT_255_1_388
10
5.9827356
20
44.7288463
40
0.5053599
50
184.9244437
51
194.4976052
0
ARC
8
DEFAULT_255_1_388
10
6.0043998
20
44.7328722
40
0.3700839
50
187.3596909
51
198.6733728
0
ARC
8
DEFAULT_255_1_388
10
5.8863241
20
44.6919373
40
0.2451195
50
198.4453795
51
217.7945479
0
ARC
8
DEFAULT_255_1_388
10
5.8530414
20
44.6683563
40
0.2043754
50
218.2887146
51
228.5613203
0
ARC
8
DEFAULT_255_1_388
10
5.864042
20
44.6831902
40
0.2227819
50
228.9652423
51
258.1237049
0
ARC
8
DEFAULT_255_1_388
10
5.8871858
20
44.7822964
40
0.3245374
50
257.7260585
51
270.4013717
0
ARC
8
DEFAULT_255_1_388
10
5.8922356
20
44.7322255
40
0.2744726
50
269.4204315
51
286.420998
0
ARC
8
DEFAULT_255_1_388
10
5.9089412
20
44.6715705
40
0.2115721
50
286.7250065
51
320.6004665
0
ARC
8
DEFAULT_255_1_388
10
5.8658327
20
44.7065527
40
0.2670878
50
320.6712228
51
344.5440474
0
ARC
8
DEFAULT_255_1_388
10
5.7357041
20
44.7447394
40
0.4026927
50
344.241448
51
356.735803
0
ARC
8
DEFAULT_255_1_388
10
5.5953348
20
44.7563656
40
0.5435085
50
356.3547471
51
0.0507222
0
ARC
8
DEFAULT_255_1_388
10
5.7455613
20
44.7598812
40
0.3932934
50
359.5579289
51
12.9534322
0
ARC
8
DEFAULT_255_1_388
10
5.8642453
20
44.7886586
40
0.2711827
50
12.6489751
51
41.608121
0
ARC
8
DEFAULT_255_1_388
10
5.8901613
20
44.8106946
40
0.2371737
50
41.7851122
51
85.9892156
0
ARC
8
DEFAULT_255_1_388
10
5.8762923
20
44.7191738
40
0.3295244
50
84.6965848
51
90.0672125
0
ARC
8
DEFAULT_255_1_388
10
5.8736491
20
44.6440118
40
0.4046926
50
89.6804991
51
99.161352
0
ARC
8
DEFAULT_255_1_388
10
5.85055
20
44.7820848
40
0.2647044
50
98.9836248
51
113.8905702
0
ARC
8
DEFAULT_255_1_388
10
5.8247175
20
44.8430118
40
0.1985386
50
114.195234
51
127.3641866
0
LINE
8
DEFAULT_255_1_388
10
4.8841716
20
52.2769
11
4.7088801
21
52.2769
0
LINE
8
DEFAULT_255_1_388
10
4.5200351
20
52.8696383
11
4.6826767
21
52.8696383
0
LINE
8
DEFAULT_255_1_388
10
4.6826767
20
52.8696383
11
4.6826767
21
52.9464413
0
LINE
8
DEFAULT_255_1_388
10
4.2652299
20
52.9834874
11
4.0971669
21
52.9834874
0
LINE
8
DEFAULT_255_1_388
10
4.8498361
20
52.9554769
11
4.8498361
21
52.5055018
0
LINE
8
DEFAULT_255_1_388
10
4.8841716
20
52.291357
11
4.8841716
21
52.2769
0
LINE
8
DEFAULT_255_1_388
10
4.6826767
20
52.55068
11
4.6826767
21
52.7512713
0
LINE
8
DEFAULT_255_1_388
10
4.6826767
20
52.7512713
11
4.5516599
21
52.7512713
0
ARC
8
DEFAULT_255_1_388
10
4.825795
20
52.33361
40
0.1299428
50
197.0784902
51
205.8758668
0
ARC
8
DEFAULT_255_1_388
10
4.9652536
20
52.3777959
40
0.2762313
50
192.2927663
51
197.3441989
0
ARC
8
DEFAULT_255_1_388
10
5.1848042
20
52.426576
40
0.5011345
50
189.1573793
51
192.3977084
0
ARC
8
DEFAULT_255_1_388
10
5.5012888
20
52.4781878
40
0.8217995
50
186.8686098
51
189.1982636
0
ARC
8
DEFAULT_255_1_388
10
4.3957979
20
52.652226
40
0.3975173
50
294.0079259
51
316.7603918
0
ARC
8
DEFAULT_255_1_388
10
4.4103162
20
52.6317902
40
0.3729755
50
269.5043226
51
293.2478373
0
ARC
8
DEFAULT_255_1_388
10
4.4036214
20
52.6768915
40
0.4180772
50
255.4034155
51
270.4753052
0
ARC
8
DEFAULT_255_1_388
10
4.3777427
20
52.5764652
40
0.3143705
50
228.6141063
51
255.3550831
0
ARC
8
DEFAULT_255_1_388
10
4.3403409
20
52.540654
40
0.2628114
50
181.8954381
51
229.5703134
0
ARC
8
DEFAULT_255_1_388
10
4.4068345
20
52.5478824
40
0.329546
50
179.9848815
51
182.7691528
0
ARC
8
DEFAULT_255_1_388
10
4.3975411
20
52.5517827
40
0.3202753
50
161.0342928
51
180.6822077
0
ARC
8
DEFAULT_255_1_388
10
4.3481026
20
52.5646422
40
0.2693695
50
125.0525065
51
160.2034058
0
ARC
8
DEFAULT_255_1_388
10
4.4225748
20
52.4630275
40
0.3953338
50
106.2670809
51
125.4300189
0
ARC
8
DEFAULT_255_1_388
10
4.4869789
20
52.2525795
40
0.6154041
50
95.4857579
51
106.5348562
0
ARC
8
DEFAULT_255_1_388
10
4.5177077
20
51.9713993
40
0.8982419
50
89.8515405
51
95.7222579
0
ARC
8
DEFAULT_255_1_388
10
4.4457658
20
52.9484925
40
0.2369198
50
359.5039339
51
14.3181205
0
ARC
8
DEFAULT_255_1_388
10
4.5103662
20
52.9652862
40
0.170173
50
14.2184556
51
45.2028524
0
ARC
8
DEFAULT_255_1_388
10
4.5144358
20
52.9668862
40
0.1661795
50
45.8098216
51
73.0032926
0
ARC
8
DEFAULT_255_1_388
10
4.4864185
20
52.881226
40
0.2562942
50
72.6112517
51
85.7231489
0
ARC
8
DEFAULT_255_1_388
10
4.4762969
20
52.7785339
40
0.3594635
50
85.335019
51
90.0855069
0
ARC
8
DEFAULT_255_1_388
10
4.4736402
20
52.8449472
40
0.2930574
50
89.5854741
51
103.459124
0
ARC
8
DEFAULT_255_1_388
10
4.4564941
20
52.9164134
40
0.2195632
50
103.448332
51
126.5403399
0
ARC
8
DEFAULT_255_1_388
10
4.4295918
20
52.9508224
40
0.1759039
50
126.1730306
51
141.5008224
0
ARC
8
DEFAULT_255_1_388
10
4.3870233
20
52.9842266
40
0.1217955
50
141.3332087
51
180.3477313
0
ARC
8
DEFAULT_255_1_388
10
4.3111656
20
52.9822904
40
0.214002
50
151.6373605
51
179.6795088
0
ARC
8
DEFAULT_255_1_388
10
4.3788892
20
52.9485768
40
0.2896224
50
142.4981529
51
152.1330509
0
ARC
8
DEFAULT_255_1_388
10
4.4146896
20
52.9204781
40
0.3351307
50
120.8284906
51
142.4132156
0
ARC
8
DEFAULT_255_1_388
10
4.4614872
20
52.8472185
40
0.4220297
50
113.9634885
51
121.1871733
0
ARC
8
DEFAULT_255_1_388
10
4.4768181
20
52.8098705
40
0.4623867
50
93.3784336
51
113.8197902
0
ARC
8
DEFAULT_255_1_388
10
4.4854563
20
52.7237549
40
0.5488732
50
89.9745993
51
93.7488475
0
ARC
8
DEFAULT_255_1_388
10
4.4893809
20
52.7278587
40
0.5447818
50
79.1327128
51
90.3871707
0
ARC
8
DEFAULT_255_1_388
10
4.5259573
20
52.9106597
40
0.3583662
50
60.1434453
51
79.365517
0
ARC
8
DEFAULT_255_1_388
10
4.5548339
20
52.9661195
40
0.2959028
50
48.6191018
51
59.6466565
0
ARC
8
DEFAULT_255_1_388
10
4.5602051
20
52.9732356
40
0.2870136
50
9.0349502
51
48.4845487
0
ARC
8
DEFAULT_255_1_388
10
4.439135
20
52.9468084
40
0.4107927
50
1.2091359
51
10.0234369
0
ARC
8
DEFAULT_255_1_388
10
5.7088798
20
52.5027422
40
0.8590481
50
179.8159449
51
185.3205667
0
ARC
8
DEFAULT_255_1_388
10
5.4056643
20
52.4737945
40
0.5544553
50
185.2475628
51
192.7952551
0
ARC
8
DEFAULT_255_1_388
10
5.2074467
20
52.4283024
40
0.3510853
50
192.7195981
51
202.9584216
0
ARC
8
DEFAULT_255_1_388
10
4.4314503
20
52.6980895
40
0.2937869
50
270.006916
51
300.503478
0
ARC
8
DEFAULT_255_1_388
10
4.4452438
20
52.6836888
40
0.2744162
50
299.5482616
51
315.609538
0
ARC
8
DEFAULT_255_1_388
10
4.4778734
20
52.6503072
40
0.2277499
50
315.8682065
51
334.0592465
0
ARC
8
DEFAULT_255_1_388
10
4.5467708
20
51.96669
40
0.7845965
50
89.64297
51
97.2867877
0
ARC
8
DEFAULT_255_1_388
10
4.4971305
20
52.3383936
40
0.4096042
50
96.9938706
51
109.7783917
0
ARC
8
DEFAULT_255_1_388
10
4.4222768
20
52.5387851
40
0.1957225
50
109.0087985
51
135.3265591
0
ARC
8
DEFAULT_255_1_388
10
4.3915187
20
52.5768764
40
0.1471704
50
137.4537784
51
182.1083946
0
ARC
8
DEFAULT_255_1_388
10
4.4335887
20
52.5696101
40
0.1891498
50
179.4390335
51
195.7201623
0
ARC
8
DEFAULT_255_1_388
10
4.3872922
20
52.5569585
40
0.1411576
50
195.8683556
51
230.157074
0
ARC
8
DEFAULT_255_1_388
10
4.4145645
20
52.5896228
40
0.1837102
50
230.1532486
51
259.7486257
0
ARC
8
DEFAULT_255_1_388
10
4.4301687
20
52.6631472
40
0.258848
50
259.2461118
51
270.2915316
0
ARC
8
DEFAULT_255_1_388
10
5.2358855
20
52.3656142
40
0.1204062
50
163.5412609
51
180.5084512
0
ARC
8
DEFAULT_255_1_388
10
5.2142754
20
52.371446
40
0.0980307
50
138.1652
51
163.2315563
0
ARC
8
DEFAULT_255_1_388
10
5.2016495
20
52.3821456
40
0.0814881
50
105.6860499
51
137.8492655
0
ARC
8
DEFAULT_255_1_388
10
5.2149696
20
52.3389109
40
0.126719
50
92.6078949
51
106.199173
0
ARC
8
DEFAULT_255_1_388
10
5.2183886
20
52.2943207
40
0.1714243
50
89.9659531
51
93.0713334
0
ARC
8
DEFAULT_255_1_388
10
5.2195922
20
52.3193484
40
0.1464007
50
78.4379126
51
90.4311892
0
ARC
8
DEFAULT_255_1_388
10
5.2304569
20
52.3700017
40
0.094599
50
56.8961942
51
78.7357785
0
ARC
8
DEFAULT_255_1_388
10
5.2375679
20
52.3824075
40
0.0803272
50
42.6503148
51
56.3122241
0
ARC
8
DEFAULT_255_1_388
10
5.2231581
20
52.3691661
40
0.099897
50
3.8141057
51
42.636595
0
ARC
8
DEFAULT_255_1_388
10
5.1908903
20
52.3646616
40
0.1324137
50
359.9498843
51
4.8301897
0
ARC
8
DEFAULT_255_1_388
10
5.216404
20
52.3634722
40
0.1069053
50
340.9378148
51
0.5753733
0
ARC
8
DEFAULT_255_1_388
10
5.2290623
20
52.3600569
40
0.0938301
50
316.0798885
51
340.3845117
0
ARC
8
DEFAULT_255_1_388
10
5.2355934
20
52.354052
40
0.0849605
50
285.8512844
51
315.941661
0
ARC
8
DEFAULT_255_1_388
10
5.2223814
20
52.396762
40
0.1296594
50
273.1293204
51
286.3125006
0
ARC
8
DEFAULT_255_1_388
10
5.2186324
20
52.4419586
40
0.1749979
50
269.9535313
51
273.5471598
0
ARC
8
DEFAULT_255_1_388
10
5.2173929
20
52.4173833
40
0.1504266
50
259.0487117
51
270.4180248
0
ARC
8
DEFAULT_255_1_388
10
5.2065542
20
52.3636783
40
0.0956414
50
239.7583641
51
259.3115656
0
ARC
8
DEFAULT_255_1_388
10
5.1974475
20
52.3467048
40
0.0763945
50
222.6243303
51
239.2473835
0
ARC
8
DEFAULT_255_1_388
10
5.2125646
20
52.3605572
40
0.0968985
50
182.9231258
51
222.598101
0
ARC
8
DEFAULT_255_1_388
10
5.2428845
20
52.3644696
40
0.1274004
50
179.9657458
51
183.9850364
0
LINE
8
DEFAULT_255_1_388
10
6.2874072
20
53.5924898
11
6.2874072
21
52.718743
0
LINE
8
DEFAULT_255_1_388
10
6.2874072
20
52.718743
11
6.4699272
21
52.718743
0
LINE
8
DEFAULT_255_1_388
10
6.4699272
20
52.718743
11
6.4699272
21
52.5823048
0
LINE
8
DEFAULT_255_1_388
10
6.4699272
20
52.5823048
11
6.2874072
21
52.5823048
0
LINE
8
DEFAULT_255_1_388
10
6.2874072
20
52.5823048
11
6.2874072
21
52.2769
0
LINE
8
DEFAULT_255_1_388
10
6.2874072
20
52.2769
11
6.1193442
21
52.2769
0
LINE
8
DEFAULT_255_1_388
10
6.1193442
20
52.2769
11
6.1193442
21
52.5823048
0
LINE
8
DEFAULT_255_1_388
10
6.1193442
20
52.5823048
11
5.520281
21
52.5823048
0
LINE
8
DEFAULT_255_1_388
10
5.520281
20
52.5823048
11
5.520281
21
52.6807933
0
LINE
8
DEFAULT_255_1_388
10
5.520281
20
52.6807933
11
6.109405
21
53.5924898
0
LINE
8
DEFAULT_255_1_388
10
6.109405
20
53.5924898
11
6.2874072
21
53.5924898
0
LINE
8
DEFAULT_255_1_388
10
6.0994658
20
53.3277455
11
5.7100295
21
52.718743
0
LINE
8
DEFAULT_255_1_388
10
5.7100295
20
52.718743
11
6.1193442
21
52.718743
0
LINE
8
DEFAULT_255_1_388
10
6.1193442
20
52.718743
11
6.1193442
21
53.363888
0
LINE
8
DEFAULT_255_1_388
10
6.1193442
20
53.363888
11
6.0994658
21
53.3277455
0
LINE
8
DEFAULT_255_1_388
10
4.7518716
20
60.2144
11
4.5765801
21
60.2144
0
LINE
8
DEFAULT_255_1_388
10
4.3877351
20
60.8071383
11
4.5503767
21
60.8071383
0
LINE
8
DEFAULT_255_1_388
10
4.5503767
20
60.8071383
11
4.5503767
21
60.8839413
0
LINE
8
DEFAULT_255_1_388
10
4.1329299
20
60.9209874
11
3.9648669
21
60.9209874
0
LINE
8
DEFAULT_255_1_388
10
4.7175361
20
60.8929769
11
4.7175361
21
60.4430018
0
LINE
8
DEFAULT_255_1_388
10
4.7518716
20
60.228857
11
4.7518716
21
60.2144
0
LINE
8
DEFAULT_255_1_388
10
4.5503767
20
60.48818
11
4.5503767
21
60.6887713
0
LINE
8
DEFAULT_255_1_388
10
4.5503767
20
60.6887713
11
4.4193599
21
60.6887713
0
ARC
8
DEFAULT_255_1_388
10
4.693495
20
60.27111
40
0.1299428
50
197.0784902
51
205.8758668
0
ARC
8
DEFAULT_255_1_388
10
4.8329536
20
60.3152959
40
0.2762313
50
192.2927663
51
197.3441989
0
ARC
8
DEFAULT_255_1_388
10
5.0525042
20
60.364076
40
0.5011345
50
189.1573793
51
192.3977084
0
ARC
8
DEFAULT_255_1_388
10
5.3689888
20
60.4156878
40
0.8217995
50
186.8686098
51
189.1982636
0
ARC
8
DEFAULT_255_1_388
10
4.2634979
20
60.589726
40
0.3975173
50
294.0079259
51
316.7603918
0
ARC
8
DEFAULT_255_1_388
10
4.2780162
20
60.5692902
40
0.3729755
50
269.5043226
51
293.2478373
0
ARC
8
DEFAULT_255_1_388
10
4.2713214
20
60.6143915
40
0.4180772
50
255.4034155
51
270.4753052
0
ARC
8
DEFAULT_255_1_388
10
4.2454427
20
60.5139652
40
0.3143705
50
228.6141063
51
255.3550831
0
ARC
8
DEFAULT_255_1_388
10
4.2080409
20
60.478154
40
0.2628114
50
181.8954381
51
229.5703134
0
ARC
8
DEFAULT_255_1_388
10
4.2745345
20
60.4853824
40
0.329546
50
179.9848815
51
182.7691528
0
ARC
8
DEFAULT_255_1_388
10
4.2652411
20
60.4892827
40
0.3202753
50
161.0342928
51
180.6822077
0
ARC
8
DEFAULT_255_1_388
10
4.2158026
20
60.5021422
40
0.2693695
50
125.0525065
51
160.2034058
0
ARC
8
DEFAULT_255_1_388
10
4.2902748
20
60.4005275
40
0.3953338
50
106.2670809
51
125.4300189
0
ARC
8
DEFAULT_255_1_388
10
4.3546789
20
60.1900795
40
0.6154041
50
95.4857579
51
106.5348562
0
ARC
8
DEFAULT_255_1_388
10
4.3854077
20
59.9088993
40
0.8982419
50
89.8515405
51
95.7222579
0
ARC
8
DEFAULT_255_1_388
10
4.3134658
20
60.8859925
40
0.2369198
50
359.5039339
51
14.3181205
0
ARC
8
DEFAULT_255_1_388
10
4.3780662
20
60.9027862
40
0.170173
50
14.2184556
51
45.2028524
0
ARC
8
DEFAULT_255_1_388
10
4.3821358
20
60.9043862
40
0.1661795
50
45.8098216
51
73.0032926
0
ARC
8
DEFAULT_255_1_388
10
4.3541185
20
60.818726
40
0.2562942
50
72.6112517
51
85.7231489
0
ARC
8
DEFAULT_255_1_388
10
4.3439969
20
60.7160339
40
0.3594635
50
85.335019
51
90.0855069
0
ARC
8
DEFAULT_255_1_388
10
4.3413402
20
60.7824472
40
0.2930574
50
89.5854741
51
103.459124
0
ARC
8
DEFAULT_255_1_388
10
4.3241941
20
60.8539134
40
0.2195632
50
103.448332
51
126.5403399
0
ARC
8
DEFAULT_255_1_388
10
4.2972918
20
60.8883224
40
0.1759039
50
126.1730306
51
141.5008224
0
ARC
8
DEFAULT_255_1_388
10
4.2547233
20
60.9217266
40
0.1217955
50
141.3332087
51
180.3477313
0
ARC
8
DEFAULT_255_1_388
10
4.1788656
20
60.9197904
40
0.214002
50
151.6373605
51
179.6795088
0
ARC
8
DEFAULT_255_1_388
10
4.2465892
20
60.8860768
40
0.2896224
50
142.4981529
51
152.1330509
0
ARC
8
DEFAULT_255_1_388
10
4.2823896
20
60.8579781
40
0.3351307
50
120.8284906
51
142.4132156
0
ARC
8
DEFAULT_255_1_388
10
4.3291872
20
60.7847185
40
0.4220297
50
113.9634885
51
121.1871733
0
ARC
8
DEFAULT_255_1_388
10
4.3445181
20
60.7473705
40
0.4623867
50
93.3784336
51
113.8197902
0
ARC
8
DEFAULT_255_1_388
10
4.3531563
20
60.6612549
40
0.5488732
50
89.9745993
51
93.7488475
0
ARC
8
DEFAULT_255_1_388
10
4.3570809
20
60.6653587
40
0.5447818
50
79.1327128
51
90.3871707
0
ARC
8
DEFAULT_255_1_388
10
4.3936573
20
60.8481597
40
0.3583662
50
60.1434453
51
79.365517
0
ARC
8
DEFAULT_255_1_388
10
4.4225339
20
60.9036195
40
0.2959028
50
48.6191018
51
59.6466565
0
ARC
8
DEFAULT_255_1_388
10
4.4279051
20
60.9107356
40
0.2870136
50
9.0349502
51
48.4845487
0
ARC
8
DEFAULT_255_1_388
10
4.306835
20
60.8843084
40
0.4107927
50
1.2091359
51
10.0234369
0
ARC
8
DEFAULT_255_1_388
10
5.5765798
20
60.4402422
40
0.8590481
50
179.8159449
51
185.3205667
0
ARC
8
DEFAULT_255_1_388
10
5.2733643
20
60.4112945
40
0.5544553
50
185.2475628
51
192.7952551
0
ARC
8
DEFAULT_255_1_388
10
5.0751467
20
60.3658024
40
0.3510853
50
192.7195981
51
202.9584216
0
ARC
8
DEFAULT_255_1_388
10
4.2991503
20
60.6355895
40
0.2937869
50
270.006916
51
300.503478
0
ARC
8
DEFAULT_255_1_388
10
4.3129438
20
60.6211888
40
0.2744162
50
299.5482616
51
315.609538
0
ARC
8
DEFAULT_255_1_388
10
4.3455734
20
60.5878072
40
0.2277499
50
315.8682065
51
334.0592465
0
ARC
8
DEFAULT_255_1_388
10
4.4144708
20
59.90419
40
0.7845965
50
89.64297
51
97.2867877
0
ARC
8
DEFAULT_255_1_388
10
4.3648305
20
60.2758936
40
0.4096042
50
96.9938706
51
109.7783917
0
ARC
8
DEFAULT_255_1_388
10
4.2899768
20
60.4762851
40
0.1957225
50
109.0087985
51
135.3265591
0
ARC
8
DEFAULT_255_1_388
10
4.2592187
20
60.5143764
40
0.1471704
50
137.4537784
51
182.1083946
0
ARC
8
DEFAULT_255_1_388
10
4.3012887
20
60.5071101
40
0.1891498
50
179.4390335
51
195.7201623
0
ARC
8
DEFAULT_255_1_388
10
4.2549922
20
60.4944585
40
0.1411576
50
195.8683556
51
230.157074
0
ARC
8
DEFAULT_255_1_388
10
4.2822645
20
60.5271228
40
0.1837102
50
230.1532486
51
259.7486257
0
ARC
8
DEFAULT_255_1_388
10
4.2978687
20
60.6006472
40
0.258848
50
259.2461118
51
270.2915316
0
ARC
8
DEFAULT_255_1_388
10
5.1035855
20
60.3031142
40
0.1204062
50
163.5412609
51
180.5084512
0
ARC
8
DEFAULT_255_1_388
10
5.0819754
20
60.308946
40
0.0980307
50
138.1652
51
163.2315563
0
ARC
8
DEFAULT_255_1_388
10
5.0693495
20
60.3196456
40
0.0814881
50
105.6860499
51
137.8492655
0
ARC
8
DEFAULT_255_1_388
10
5.0826696
20
60.2764109
40
0.126719
50
92.6078949
51
106.199173
0
ARC
8
DEFAULT_255_1_388
10
5.0860886
20
60.2318207
40
0.1714243
50
89.9659531
51
93.0713334
0
ARC
8
DEFAULT_255_1_388
10
5.0872922
20
60.2568484
40
0.1464007
50
78.4379126
51
90.4311892
0
ARC
8
DEFAULT_255_1_388
10
5.0981569
20
60.3075017
40
0.094599
50
56.8961942
51
78.7357785
0
ARC
8
DEFAULT_255_1_388
10
5.1052679
20
60.3199075
40
0.0803272
50
42.6503148
51
56.3122241
0
ARC
8
DEFAULT_255_1_388
10
5.0908581
20
60.3066661
40
0.099897
50
3.8141057
51
42.636595
0
ARC
8
DEFAULT_255_1_388
10
5.0585903
20
60.3021616
40
0.1324137
50
359.9498843
51
4.8301897
0
ARC
8
DEFAULT_255_1_388
10
5.084104
20
60.3009722
40
0.1069053
50
340.9378148
51
0.5753733
0
ARC
8
DEFAULT_255_1_388
10
5.0967623
20
60.2975569
40
0.0938301
50
316.0798885
51
340.3845117
0
ARC
8
DEFAULT_255_1_388
10
5.1032934
20
60.291552
40
0.0849605
50
285.8512844
51
315.941661
0
ARC
8
DEFAULT_255_1_388
10
5.0900814
20
60.334262
40
0.1296594
50
273.1293204
51
286.3125006
0
ARC
8
DEFAULT_255_1_388
10
5.0863324
20
60.3794586
40
0.1749979
50
269.9535313
51
273.5471598
0
ARC
8
DEFAULT_255_1_388
10
5.0850929
20
60.3548833
40
0.1504266
50
259.0487117
51
270.4180248
0
ARC
8
DEFAULT_255_1_388
10
5.0742542
20
60.3011783
40
0.0956414
50
239.7583641
51
259.3115656
0
ARC
8
DEFAULT_255_1_388
10
5.0651475
20
60.2842048
40
0.0763945
50
222.6243303
51
239.2473835
0
ARC
8
DEFAULT_255_1_388
10
5.0802646
20
60.2980572
40
0.0968985
50
182.9231258
51
222.598101
0
ARC
8
DEFAULT_255_1_388
10
5.1105845
20
60.3019696
40
0.1274004
50
179.9657458
51
183.9850364
0
LINE
8
DEFAULT_255_1_388
10
5.6924822
20
60.8170775
11
5.6924822
21
60.9535157
0
LINE
8
DEFAULT_255_1_388
10
5.6924822
20
60.9535157
11
5.8180776
21
60.9535157
0
LINE
8
DEFAULT_255_1_388
10
5.6039329
20
61.1848282
11
5.4367734
21
61.1848282
0
LINE
8
DEFAULT_255_1_388
10
5.4250271
20
60.5613688
11
5.5930901
21
60.5613688
0
LINE
8
DEFAULT_255_1_388
10
5.8180776
20
60.8170775
11
5.6924822
21
60.8170775
0
ARC
8
DEFAULT_255_1_388
10
5.8148003
20
61.3351922
40
0.3816905
50
270.491971
51
281.8953028
0
ARC
8
DEFAULT_255_1_388
10
5.841943
20
61.2112199
40
0.2547877
50
281.6690378
51
301.2943765
0
ARC
8
DEFAULT_255_1_388
10
5.8610881
20
61.1761926
40
0.2149197
50
301.7834992
51
311.754567
0
ARC
8
DEFAULT_255_1_388
10
5.8713923
20
61.164765
40
0.1995326
50
311.7325027
51
354.2803031
0
ARC
8
DEFAULT_255_1_388
10
5.7896338
20
61.178828
40
0.2823461
50
353.0941646
51
0.1174696
0
ARC
8
DEFAULT_255_1_388
10
5.7377896
20
61.1841874
40
0.3342238
50
359.1804452
51
15.0452323
0
ARC
8
DEFAULT_255_1_388
10
5.8891955
20
61.2283546
40
0.1765747
50
13.957816
51
77.6713812
0
ARC
8
DEFAULT_255_1_388
10
5.845719
20
61.0725464
40
0.3381982
50
76.111571
51
90.7028736
0
ARC
8
DEFAULT_255_1_388
10
5.8390603
20
61.103325
40
0.3074046
50
89.5321574
51
103.5319393
0
ARC
8
DEFAULT_255_1_388
10
5.8164986
20
61.1932443
40
0.2147041
50
103.2930114
51
133.5619756
0
ARC
8
DEFAULT_255_1_388
10
5.8114928
20
61.1999351
40
0.2064084
50
133.8349761
51
173.5343225
0
ARC
8
DEFAULT_255_1_388
10
5.8928585
20
61.1855144
40
0.2889266
50
172.5097183
51
180.1360699
0
ARC
8
DEFAULT_255_1_388
10
5.7858349
20
61.189388
40
0.3490913
50
155.3483706
51
180.7484035
0
ARC
8
DEFAULT_255_1_388
10
5.7803325
20
61.1861519
40
0.3454798
50
131.5745177
51
154.4799474
0
ARC
8
DEFAULT_255_1_388
10
5.8155607
20
61.1505422
40
0.3955058
50
96.9874487
51
131.9690874
0
ARC
8
DEFAULT_255_1_388
10
5.84025
20
61.0104407
40
0.537622
50
89.8592909
51
97.7827481
0
ARC
8
DEFAULT_255_1_388
10
5.8456609
20
60.980936
40
0.5671399
50
78.3654493
51
90.4132586
0
ARC
8
DEFAULT_255_1_388
10
5.885925
20
61.1675918
40
0.3762034
50
56.6229818
51
78.6387103
0
ARC
8
DEFAULT_255_1_388
10
5.9101079
20
61.2098846
40
0.3275964
50
47.0254604
51
56.085558
0
ARC
8
DEFAULT_255_1_388
10
5.912333
20
61.2143189
40
0.3228382
50
10.9207523
51
46.777927
0
ARC
8
DEFAULT_255_1_388
10
5.7588924
20
61.1788401
40
0.4802559
50
359.6364235
51
11.6087615
0
ARC
8
DEFAULT_255_1_388
10
5.965309
20
61.1771404
40
0.273833
50
332.3549969
51
359.7179765
0
ARC
8
DEFAULT_255_1_388
10
5.8921491
20
61.2118285
40
0.3547505
50
325.2332381
51
332.8746682
0
ARC
8
DEFAULT_255_1_388
10
5.9093074
20
61.1998763
40
0.3338396
50
292.9803892
51
325.2391113
0
ARC
8
DEFAULT_255_1_388
10
5.8782269
20
61.2603679
40
0.4016959
50
292.542178
51
293.6931461
0
ARC
8
DEFAULT_255_1_388
10
5.9225841
20
60.5338036
40
0.372079
50
57.643292
51
72.8626085
0
ARC
8
DEFAULT_255_1_388
10
5.9624676
20
60.5984273
40
0.2961455
50
36.7246661
51
57.4701329
0
ARC
8
DEFAULT_255_1_388
10
5.9611833
20
60.599847
40
0.2963321
50
8.054535
51
36.3561529
0
ARC
8
DEFAULT_255_1_388
10
5.8641505
20
60.5824073
40
0.3948682
50
359.8316595
51
8.5873361
0
ARC
8
DEFAULT_255_1_388
10
5.8218979
20
60.576997
40
0.4371398
50
343.9831631
51
0.557075
0
ARC
8
DEFAULT_255_1_388
10
5.9216029
20
60.5496963
40
0.3337749
50
311.6358204
51
343.7652116
0
ARC
8
DEFAULT_255_1_388
10
5.8790283
20
60.5976955
40
0.3979351
50
279.7829743
51
311.625622
0
ARC
8
DEFAULT_255_1_388
10
5.8451418
20
60.7593642
40
0.5630417
50
269.7285092
51
280.3857694
0
ARC
8
DEFAULT_255_1_388
10
5.8381731
20
60.7547241
40
0.5584119
50
256.6827433
51
270.4412869
0
ARC
8
DEFAULT_255_1_388
10
5.8000717
20
60.5989698
40
0.3980715
50
229.4223821
51
256.8554507
0
ARC
8
DEFAULT_255_1_388
10
5.7534271
20
60.5464683
40
0.3278564
50
181.8183354
51
229.6455015
0
ARC
8
DEFAULT_255_1_388
10
5.870388
20
60.5611825
40
0.4453611
50
179.9760419
51
183.2330638
0
ARC
8
DEFAULT_255_1_388
10
5.8510433
20
60.5588781
40
0.2579652
50
179.4467996
51
196.2871626
0
ARC
8
DEFAULT_255_1_388
10
5.7961886
20
60.5438709
40
0.2011057
50
196.5661293
51
227.7059371
0
ARC
8
DEFAULT_255_1_388
10
5.8146493
20
60.5645155
40
0.2287994
50
227.7653015
51
257.8763321
0
ARC
8
DEFAULT_255_1_388
10
5.8399577
20
60.6705961
40
0.3378385
50
257.4583525
51
270.4267406
0
ARC
8
DEFAULT_255_1_388
10
5.8450826
20
60.703223
40
0.3704652
50
269.5965319
51
280.8788143
0
ARC
8
DEFAULT_255_1_388
10
5.8709054
20
60.5742529
40
0.2389415
50
280.6347277
51
299.8594068
0
ARC
8
DEFAULT_255_1_388
10
5.8923824
20
60.5334736
40
0.19289
50
300.3575552
51
314.5515667
0
ARC
8
DEFAULT_255_1_388
10
5.88305
20
60.5403025
40
0.204312
50
315.0730962
51
345.0429362
0
ARC
8
DEFAULT_255_1_388
10
5.7792007
20
60.5705539
40
0.31246
50
344.598526
51
357.9270698
0
ARC
8
DEFAULT_255_1_388
10
5.6782312
20
60.5774705
40
0.4136265
50
357.4755098
51
0.0224936
0
ARC
8
DEFAULT_255_1_388
10
5.7935189
20
60.5802099
40
0.2983498
50
359.5051035
51
13.4236939
0
ARC
8
DEFAULT_255_1_388
10
5.8910279
20
60.6051637
40
0.1977186
50
12.9497905
51
48.7550905
0
ARC
8
DEFAULT_255_1_388
10
5.8705201
20
60.5771373
40
0.2323321
50
49.509109
51
72.1832965
0
ARC
8
DEFAULT_255_1_388
10
5.830267
20
60.4576632
40
0.358397
50
71.9008458
51
84.3555134
0
ARC
8
DEFAULT_255_1_388
10
5.8121064
20
60.3044712
40
0.512641
50
84.019632
51
89.3326067
0
LINE
8
DEFAULT_255_1_388
10
4.7518716
20
68.1519
11
4.5765801
21
68.1519
0
LINE
8
DEFAULT_255_1_388
10
4.3877351
20
68.7446383
11
4.5503767
21
68.7446383
0
LINE
8
DEFAULT_255_1_388
10
4.5503767
20
68.7446383
11
4.5503767
21
68.8214413
0
LINE
8
DEFAULT_255_1_388
10
4.1329299
20
68.8584874
11
3.9648669
21
68.8584874
0
LINE
8
DEFAULT_255_1_388
10
4.7175361
20
68.8304769
11
4.7175361
21
68.3805018
0
LINE
8
DEFAULT_255_1_388
10
4.7518716
20
68.166357
11
4.7518716
21
68.1519
0
LINE
8
DEFAULT_255_1_388
10
4.5503767
20
68.42568
11
4.5503767
21
68.6262713
0
LINE
8
DEFAULT_255_1_388
10
4.5503767
20
68.6262713
11
4.4193599
21
68.6262713
0
ARC
8
DEFAULT_255_1_388
10
4.693495
20
68.20861
40
0.1299428
50
197.0784902
51
205.8758668
0
ARC
8
DEFAULT_255_1_388
10
4.8329536
20
68.2527959
40
0.2762313
50
192.2927663
51
197.3441989
0
ARC
8
DEFAULT_255_1_388
10
5.0525042
20
68.301576
40
0.5011345
50
189.1573793
51
192.3977084
0
ARC
8
DEFAULT_255_1_388
10
5.3689888
20
68.3531878
40
0.8217995
50
186.8686098
51
189.1982636
0
ARC
8
DEFAULT_255_1_388
10
4.2634979
20
68.527226
40
0.3975173
50
294.0079259
51
316.7603918
0
ARC
8
DEFAULT_255_1_388
10
4.2780162
20
68.5067902
40
0.3729755
50
269.5043226
51
293.2478373
0
ARC
8
DEFAULT_255_1_388
10
4.2713214
20
68.5518915
40
0.4180772
50
255.4034155
51
270.4753052
0
ARC
8
DEFAULT_255_1_388
10
4.2454427
20
68.4514652
40
0.3143705
50
228.6141063
51
255.3550831
0
ARC
8
DEFAULT_255_1_388
10
4.2080409
20
68.415654
40
0.2628114
50
181.8954381
51
229.5703134
0
ARC
8
DEFAULT_255_1_388
10
4.2745345
20
68.4228824
40
0.329546
50
179.9848815
51
182.7691528
0
ARC
8
DEFAULT_255_1_388
10
4.2652411
20
68.4267827
40
0.3202753
50
161.0342928
51
180.6822077
0
ARC
8
DEFAULT_255_1_388
10
4.2158026
20
68.4396422
40
0.2693695
50
125.0525065
51
160.2034058
0
ARC
8
DEFAULT_255_1_388
10
4.2902748
20
68.3380275
40
0.3953338
50
106.2670809
51
125.4300189
0
ARC
8
DEFAULT_255_1_388
10
4.3546789
20
68.1275795
40
0.6154041
50
95.4857579
51
106.5348562
0
ARC
8
DEFAULT_255_1_388
10
4.3854077
20
67.8463993
40
0.8982419
50
89.8515405
51
95.7222579
0
ARC
8
DEFAULT_255_1_388
10
4.3134658
20
68.8234925
40
0.2369198
50
359.5039339
51
14.3181205
0
ARC
8
DEFAULT_255_1_388
10
4.3780662
20
68.8402862
40
0.170173
50
14.2184556
51
45.2028524
0
ARC
8
DEFAULT_255_1_388
10
4.3821358
20
68.8418862
40
0.1661795
50
45.8098216
51
73.0032926
0
ARC
8
DEFAULT_255_1_388
10
4.3541185
20
68.756226
40
0.2562942
50
72.6112517
51
85.7231489
0
ARC
8
DEFAULT_255_1_388
10
4.3439969
20
68.6535339
40
0.3594635
50
85.335019
51
90.0855069
0
ARC
8
DEFAULT_255_1_388
10
4.3413402
20
68.7199472
40
0.2930574
50
89.5854741
51
103.459124
0
ARC
8
DEFAULT_255_1_388
10
4.3241941
20
68.7914134
40
0.2195632
50
103.448332
51
126.5403399
0
ARC
8
DEFAULT_255_1_388
10
4.2972918
20
68.8258224
40
0.1759039
50
126.1730306
51
141.5008224
0
ARC
8
DEFAULT_255_1_388
10
4.2547233
20
68.8592266
40
0.1217955
50
141.3332087
51
180.3477313
0
ARC
8
DEFAULT_255_1_388
10
4.1788656
20
68.8572904
40
0.214002
50
151.6373605
51
179.6795088
0
ARC
8
DEFAULT_255_1_388
10
4.2465892
20
68.8235768
40
0.2896224
50
142.4981529
51
152.1330509
0
ARC
8
DEFAULT_255_1_388
10
4.2823896
20
68.7954781
40
0.3351307
50
120.8284906
51
142.4132156
0
ARC
8
DEFAULT_255_1_388
10
4.3291872
20
68.7222185
40
0.4220297
50
113.9634885
51
121.1871733
0
ARC
8
DEFAULT_255_1_388
10
4.3445181
20
68.6848705
40
0.4623867
50
93.3784336
51
113.8197902
0
ARC
8
DEFAULT_255_1_388
10
4.3531563
20
68.5987549
40
0.5488732
50
89.9745993
51
93.7488475
0
ARC
8
DEFAULT_255_1_388
10
4.3570809
20
68.6028587
40
0.5447818
50
79.1327128
51
90.3871707
0
ARC
8
DEFAULT_255_1_388
10
4.3936573
20
68.7856597
40
0.3583662
50
60.1434453
51
79.365517
0
ARC
8
DEFAULT_255_1_388
10
4.4225339
20
68.8411195
40
0.2959028
50
48.6191018
51
59.6466565
0
ARC
8
DEFAULT_255_1_388
10
4.4279051
20
68.8482356
40
0.2870136
50
9.0349502
51
48.4845487
0
ARC
8
DEFAULT_255_1_388
10
4.306835
20
68.8218084
40
0.4107927
50
1.2091359
51
10.0234369
0
ARC
8
DEFAULT_255_1_388
10
5.5765798
20
68.3777422
40
0.8590481
50
179.8159449
51
185.3205667
0
ARC
8
DEFAULT_255_1_388
10
5.2733643
20
68.3487945
40
0.5544553
50
185.2475628
51
192.7952551
0
ARC
8
DEFAULT_255_1_388
10
5.0751467
20
68.3033024
40
0.3510853
50
192.7195981
51
202.9584216
0
ARC
8
DEFAULT_255_1_388
10
4.2991503
20
68.5730895
40
0.2937869
50
270.006916
51
300.503478
0
ARC
8
DEFAULT_255_1_388
10
4.3129438
20
68.5586888
40
0.2744162
50
299.5482616
51
315.609538
0
ARC
8
DEFAULT_255_1_388
10
4.3455734
20
68.5253072
40
0.2277499
50
315.8682065
51
334.0592465
0
ARC
8
DEFAULT_255_1_388
10
4.4144708
20
67.84169
40
0.7845965
50
89.64297
51
97.2867877
0
ARC
8
DEFAULT_255_1_388
10
4.3648305
20
68.2133936
40
0.4096042
50
96.9938706
51
109.7783917
0
ARC
8
DEFAULT_255_1_388
10
4.2899768
20
68.4137851
40
0.1957225
50
109.0087985
51
135.3265591
0
ARC
8
DEFAULT_255_1_388
10
4.2592187
20
68.4518764
40
0.1471704
50
137.4537784
51
182.1083946
0
ARC
8
DEFAULT_255_1_388
10
4.3012887
20
68.4446101
40
0.1891498
50
179.4390335
51
195.7201623
0
ARC
8
DEFAULT_255_1_388
10
4.2549922
20
68.4319585
40
0.1411576
50
195.8683556
51
230.157074
0
ARC
8
DEFAULT_255_1_388
10
4.2822645
20
68.4646228
40
0.1837102
50
230.1532486
51
259.7486257
0
ARC
8
DEFAULT_255_1_388
10
4.2978687
20
68.5381472
40
0.258848
50
259.2461118
51
270.2915316
0
ARC
8
DEFAULT_255_1_388
10
5.1035855
20
68.2406142
40
0.1204062
50
163.5412609
51
180.5084512
0
ARC
8
DEFAULT_255_1_388
10
5.0819754
20
68.246446
40
0.0980307
50
138.1652
51
163.2315563
0
ARC
8
DEFAULT_255_1_388
10
5.0693495
20
68.2571456
40
0.0814881
50
105.6860499
51
137.8492655
0
ARC
8
DEFAULT_255_1_388
10
5.0826696
20
68.2139109
40
0.126719
50
92.6078949
51
106.199173
0
ARC
8
DEFAULT_255_1_388
10
5.0860886
20
68.1693207
40
0.1714243
50
89.9659531
51
93.0713334
0
ARC
8
DEFAULT_255_1_388
10
5.0872922
20
68.1943484
40
0.1464007
50
78.4379126
51
90.4311892
0
ARC
8
DEFAULT_255_1_388
10
5.0981569
20
68.2450017
40
0.094599
50
56.8961942
51
78.7357785
0
ARC
8
DEFAULT_255_1_388
10
5.1052679
20
68.2574075
40
0.0803272
50
42.6503148
51
56.3122241
0
ARC
8
DEFAULT_255_1_388
10
5.0908581
20
68.2441661
40
0.099897
50
3.8141057
51
42.636595
0
ARC
8
DEFAULT_255_1_388
10
5.0585903
20
68.2396616
40
0.1324137
50
359.9498843
51
4.8301897
0
ARC
8
DEFAULT_255_1_388
10
5.084104
20
68.2384722
40
0.1069053
50
340.9378148
51
0.5753733
0
ARC
8
DEFAULT_255_1_388
10
5.0967623
20
68.2350569
40
0.0938301
50
316.0798885
51
340.3845117
0
ARC
8
DEFAULT_255_1_388
10
5.1032934
20
68.229052
40
0.0849605
50
285.8512844
51
315.941661
0
ARC
8
DEFAULT_255_1_388
10
5.0900814
20
68.271762
40
0.1296594
50
273.1293204
51
286.3125006
0
ARC
8
DEFAULT_255_1_388
10
5.0863324
20
68.3169586
40
0.1749979
50
269.9535313
51
273.5471598
0
ARC
8
DEFAULT_255_1_388
10
5.0850929
20
68.2923833
40
0.1504266
50
259.0487117
51
270.4180248
0
ARC
8
DEFAULT_255_1_388
10
5.0742542
20
68.2386783
40
0.0956414
50
239.7583641
51
259.3115656
0
ARC
8
DEFAULT_255_1_388
10
5.0651475
20
68.2217048
40
0.0763945
50
222.6243303
51
239.2473835
0
ARC
8
DEFAULT_255_1_388
10
5.0802646
20
68.2355572
40
0.0968985
50
182.9231258
51
222.598101
0
ARC
8
DEFAULT_255_1_388
10
5.1105845
20
68.2394696
40
0.1274004
50
179.9657458
51
183.9850364
0
LINE
8
DEFAULT_255_1_388
10
6.3114238
20
68.2883382
11
6.3114238
21
68.1519
0
LINE
8
DEFAULT_255_1_388
10
6.3114238
20
68.1519
11
5.4494233
21
68.1519
0
LINE
8
DEFAULT_255_1_388
10
5.4494233
20
68.1519
11
5.4494233
21
68.2720741
0
LINE
8
DEFAULT_255_1_388
10
5.4494233
20
68.2720741
11
5.9048198
21
68.7780702
0
LINE
8
DEFAULT_255_1_388
10
5.591283
20
69.0798607
11
5.4241235
21
69.0798607
0
LINE
8
DEFAULT_255_1_388
10
6.0033083
20
68.670546
11
5.6509182
21
68.2883382
0
LINE
8
DEFAULT_255_1_388
10
5.6509182
20
68.2883382
11
6.3114238
21
68.2883382
0
ARC
8
DEFAULT_255_1_388
10
4.3872258
20
70.1200983
40
2.0258655
50
318.5132526
51
320.7829045
0
ARC
8
DEFAULT_255_1_388
10
4.9820215
20
69.6359929
40
1.2589638
50
320.7372878
51
323.9739031
0
ARC
8
DEFAULT_255_1_388
10
5.4229146
20
69.3165554
40
0.7145141
50
323.8962701
51
328.64194
0
ARC
8
DEFAULT_255_1_388
10
5.6531404
20
69.1745545
40
0.4440242
50
328.8294576
51
331.7891185
0
ARC
8
DEFAULT_255_1_388
10
5.7653724
20
69.1166374
40
0.3177517
50
331.4254512
51
352.9365785
0
ARC
8
DEFAULT_255_1_388
10
5.7806724
20
69.113205
40
0.3021496
50
353.2257659
51
0.0166158
0
ARC
8
DEFAULT_255_1_388
10
5.8043485
20
69.1157894
40
0.2784847
50
359.486299
51
15.9343185
0
ARC
8
DEFAULT_255_1_388
10
5.8613751
20
69.1311269
40
0.2194403
50
16.1712913
51
43.5286088
0
ARC
8
DEFAULT_255_1_388
10
5.8700696
20
69.1398191
40
0.2071504
50
43.4417391
51
83.1661095
0
ARC
8
DEFAULT_255_1_388
10
5.8549857
20
69.0569316
40
0.2912888
50
82.160179
51
90.1505708
0
ARC
8
DEFAULT_255_1_388
10
5.8514339
20
68.9965279
40
0.3517025
50
89.5460741
51
102.5418361
0
ARC
8
DEFAULT_255_1_388
10
5.8241059
20
69.1124933
40
0.2325748
50
102.1738499
51
129.206123
0
ARC
8
DEFAULT_255_1_388
10
5.8152512
20
69.1264664
40
0.2161591
50
129.72865
51
135.753947
0
ARC
8
DEFAULT_255_1_388
10
5.8288994
20
69.1155728
40
0.2335433
50
136.1757367
51
166.3673339
0
ARC
8
DEFAULT_255_1_388
10
5.9421683
20
69.0852148
40
0.3507873
50
165.9090694
51
178.8684636
0
ARC
8
DEFAULT_255_1_388
10
6.0397454
20
69.0799263
40
0.4484624
50
178.4391136
51
180.0083808
0
ARC
8
DEFAULT_255_1_388
10
5.8818156
20
69.0843197
40
0.4577138
50
163.2878482
51
180.5581842
0
ARC
8
DEFAULT_255_1_388
10
5.7916197
20
69.1091393
40
0.3641968
50
133.4540601
51
162.947111
0
ARC
8
DEFAULT_255_1_388
10
5.8117079
20
69.0877789
40
0.3935189
50
100.7869829
51
133.4382499
0
ARC
8
DEFAULT_255_1_388
10
5.8508324
20
68.9135399
40
0.5720313
50
89.660664
51
101.3702276
0
ARC
8
DEFAULT_255_1_388
10
5.8582933
20
68.9204263
40
0.5651495
50
78.2172678
51
90.412935
0
ARC
8
DEFAULT_255_1_388
10
5.8982398
20
69.1031511
40
0.378122
50
55.9269121
51
78.4888449
0
ARC
8
DEFAULT_255_1_388
10
5.9203113
20
69.1412187
40
0.3342379
50
47.929771
51
55.4049217
0
ARC
8
DEFAULT_255_1_388
10
5.9317644
20
69.1528618
40
0.3179217
50
4.334829
51
48.0560205
0
ARC
8
DEFAULT_255_1_388
10
5.8085445
20
69.1337487
40
0.442341
50
359.9251713
51
5.5971671
0
ARC
8
DEFAULT_255_1_388
10
5.85676
20
69.1400728
40
0.3941854
50
337.8914027
51
358.9967534
0
ARC
8
DEFAULT_255_1_388
10
5.551517
20
69.2578295
40
0.7213271
50
326.9132501
51
338.3508308
0
ARC
8
DEFAULT_255_1_388
10
5.1031282
20
69.5452105
40
1.2538973
50
319.6471833
51
327.0959558
0
ARC
8
DEFAULT_255_1_388
10
4.671794
20
69.901005
40
1.8129975
50
317.2588228
51
319.9045804
0
LINE
8
DEFAULT_255_1_388
10
4.7443716
20
76.0894
11
4.5690801
21
76.0894
0
LINE
8
DEFAULT_255_1_388
10
4.3802351
20
76.6821383
11
4.5428767
21
76.6821383
0
LINE
8
DEFAULT_255_1_388
10
4.5428767
20
76.6821383
11
4.5428767
21
76.7589413
0
LINE
8
DEFAULT_255_1_388
10
4.1254299
20
76.7959874
11
3.9573669
21
76.7959874
0
LINE
8
DEFAULT_255_1_388
10
4.7100361
20
76.7679769
11
4.7100361
21
76.3180018
0
LINE
8
DEFAULT_255_1_388
10
4.7443716
20
76.103857
11
4.7443716
21
76.0894
0
LINE
8
DEFAULT_255_1_388
10
4.5428767
20
76.36318
11
4.5428767
21
76.5637713
0
LINE
8
DEFAULT_255_1_388
10
4.5428767
20
76.5637713
11
4.4118599
21
76.5637713
0
ARC
8
DEFAULT_255_1_388
10
4.685995
20
76.14611
40
0.1299428
50
197.0784902
51
205.8758668
0
ARC
8
DEFAULT_255_1_388
10
4.8254536
20
76.1902959
40
0.2762313
50
192.2927663
51
197.3441989
0
ARC
8
DEFAULT_255_1_388
10
5.0450042
20
76.239076
40
0.5011345
50
189.1573793
51
192.3977084
0
ARC
8
DEFAULT_255_1_388
10
5.3614888
20
76.2906878
40
0.8217995
50
186.8686098
51
189.1982636
0
ARC
8
DEFAULT_255_1_388
10
4.2559979
20
76.464726
40
0.3975173
50
294.0079259
51
316.7603918
0
ARC
8
DEFAULT_255_1_388
10
4.2705162
20
76.4442902
40
0.3729755
50
269.5043226
51
293.2478373
0
ARC
8
DEFAULT_255_1_388
10
4.2638214
20
76.4893915
40
0.4180772
50
255.4034155
51
270.4753052
0
ARC
8
DEFAULT_255_1_388
10
4.2379427
20
76.3889652
40
0.3143705
50
228.6141063
51
255.3550831
0
ARC
8
DEFAULT_255_1_388
10
4.2005409
20
76.353154
40
0.2628114
50
181.8954381
51
229.5703134
0
ARC
8
DEFAULT_255_1_388
10
4.2670345
20
76.3603824
40
0.329546
50
179.9848815
51
182.7691528
0
ARC
8
DEFAULT_255_1_388
10
4.2577411
20
76.3642827
40
0.3202753
50
161.0342928
51
180.6822077
0
ARC
8
DEFAULT_255_1_388
10
4.2083026
20
76.3771422
40
0.2693695
50
125.0525065
51
160.2034058
0
ARC
8
DEFAULT_255_1_388
10
4.2827748
20
76.2755275
40
0.3953338
50
106.2670809
51
125.4300189
0
ARC
8
DEFAULT_255_1_388
10
4.3471789
20
76.0650795
40
0.6154041
50
95.4857579
51
106.5348562
0
ARC
8
DEFAULT_255_1_388
10
4.3779077
20
75.7838993
40
0.8982419
50
89.8515405
51
95.7222579
0
ARC
8
DEFAULT_255_1_388
10
4.3059658
20
76.7609925
40
0.2369198
50
359.5039339
51
14.3181205
0
ARC
8
DEFAULT_255_1_388
10
4.3705662
20
76.7777862
40
0.170173
50
14.2184556
51
45.2028524
0
ARC
8
DEFAULT_255_1_388
10
4.3746358
20
76.7793862
40
0.1661795
50
45.8098216
51
73.0032926
0
ARC
8
DEFAULT_255_1_388
10
4.3466185
20
76.693726
40
0.2562942
50
72.6112517
51
85.7231489
0
ARC
8
DEFAULT_255_1_388
10
4.3364969
20
76.5910339
40
0.3594635
50
85.335019
51
90.0855069
0
ARC
8
DEFAULT_255_1_388
10
4.3338402
20
76.6574472
40
0.2930574
50
89.5854741
51
103.459124
0
ARC
8
DEFAULT_255_1_388
10
4.3166941
20
76.7289134
40
0.2195632
50
103.448332
51
126.5403399
0
ARC
8
DEFAULT_255_1_388
10
4.2897918
20
76.7633224
40
0.1759039
50
126.1730306
51
141.5008224
0
ARC
8
DEFAULT_255_1_388
10
4.2472233
20
76.7967266
40
0.1217955
50
141.3332087
51
180.3477313
0
ARC
8
DEFAULT_255_1_388
10
4.1713656
20
76.7947904
40
0.214002
50
151.6373605
51
179.6795088
0
ARC
8
DEFAULT_255_1_388
10
4.2390892
20
76.7610768
40
0.2896224
50
142.4981529
51
152.1330509
0
ARC
8
DEFAULT_255_1_388
10
4.2748896
20
76.7329781
40
0.3351307
50
120.8284906
51
142.4132156
0
ARC
8
DEFAULT_255_1_388
10
4.3216872
20
76.6597185
40
0.4220297
50
113.9634885
51
121.1871733
0
ARC
8
DEFAULT_255_1_388
10
4.3370181
20
76.6223705
40
0.4623867
50
93.3784336
51
113.8197902
0
ARC
8
DEFAULT_255_1_388
10
4.3456563
20
76.5362549
40
0.5488732
50
89.9745993
51
93.7488475
0
ARC
8
DEFAULT_255_1_388
10
4.3495809
20
76.5403587
40
0.5447818
50
79.1327128
51
90.3871707
0
ARC
8
DEFAULT_255_1_388
10
4.3861573
20
76.7231597
40
0.3583662
50
60.1434453
51
79.365517
0
ARC
8
DEFAULT_255_1_388
10
4.4150339
20
76.7786195
40
0.2959028
50
48.6191018
51
59.6466565
0
ARC
8
DEFAULT_255_1_388
10
4.4204051
20
76.7857356
40
0.2870136
50
9.0349502
51
48.4845487
0
ARC
8
DEFAULT_255_1_388
10
4.299335
20
76.7593084
40
0.4107927
50
1.2091359
51
10.0234369
0
ARC
8
DEFAULT_255_1_388
10
5.5690798
20
76.3152422
40
0.8590481
50
179.8159449
51
185.3205667
0
ARC
8
DEFAULT_255_1_388
10
5.2658643
20
76.2862945
40
0.5544553
50
185.2475628
51
192.7952551
0
ARC
8
DEFAULT_255_1_388
10
5.0676467
20
76.2408024
40
0.3510853
50
192.7195981
51
202.9584216
0
ARC
8
DEFAULT_255_1_388
10
4.2916503
20
76.5105895
40
0.2937869
50
270.006916
51
300.503478
0
ARC
8
DEFAULT_255_1_388
10
4.3054438
20
76.4961888
40
0.2744162
50
299.5482616
51
315.609538
0
ARC
8
DEFAULT_255_1_388
10
4.3380734
20
76.4628072
40
0.2277499
50
315.8682065
51
334.0592465
0
ARC
8
DEFAULT_255_1_388
10
4.4069708
20
75.77919
40
0.7845965
50
89.64297
51
97.2867877
0
ARC
8
DEFAULT_255_1_388
10
4.3573305
20
76.1508936
40
0.4096042
50
96.9938706
51
109.7783917
0
ARC
8
DEFAULT_255_1_388
10
4.2824768
20
76.3512851
40
0.1957225
50
109.0087985
51
135.3265591
0
ARC
8
DEFAULT_255_1_388
10
4.2517187
20
76.3893764
40
0.1471704
50
137.4537784
51
182.1083946
0
ARC
8
DEFAULT_255_1_388
10
4.2937887
20
76.3821101
40
0.1891498
50
179.4390335
51
195.7201623
0
ARC
8
DEFAULT_255_1_388
10
4.2474922
20
76.3694585
40
0.1411576
50
195.8683556
51
230.157074
0
ARC
8
DEFAULT_255_1_388
10
4.2747645
20
76.4021228
40
0.1837102
50
230.1532486
51
259.7486257
0
ARC
8
DEFAULT_255_1_388
10
4.2903687
20
76.4756472
40
0.258848
50
259.2461118
51
270.2915316
0
ARC
8
DEFAULT_255_1_388
10
5.0960855
20
76.1781142
40
0.1204062
50
163.5412609
51
180.5084512
0
ARC
8
DEFAULT_255_1_388
10
5.0744754
20
76.183946
40
0.0980307
50
138.1652
51
163.2315563
0
ARC
8
DEFAULT_255_1_388
10
5.0618495
20
76.1946456
40
0.0814881
50
105.6860499
51
137.8492655
0
ARC
8
DEFAULT_255_1_388
10
5.0751696
20
76.1514109
40
0.126719
50
92.6078949
51
106.199173
0
ARC
8
DEFAULT_255_1_388
10
5.0785886
20
76.1068207
40
0.1714243
50
89.9659531
51
93.0713334
0
ARC
8
DEFAULT_255_1_388
10
5.0797922
20
76.1318484
40
0.1464007
50
78.4379126
51
90.4311892
0
ARC
8
DEFAULT_255_1_388
10
5.0906569
20
76.1825017
40
0.094599
50
56.8961942
51
78.7357785
0
ARC
8
DEFAULT_255_1_388
10
5.0977679
20
76.1949075
40
0.0803272
50
42.6503148
51
56.3122241
0
ARC
8
DEFAULT_255_1_388
10
5.0833581
20
76.1816661
40
0.099897
50
3.8141057
51
42.636595
0
ARC
8
DEFAULT_255_1_388
10
5.0510903
20
76.1771616
40
0.1324137
50
359.9498843
51
4.8301897
0
ARC
8
DEFAULT_255_1_388
10
5.076604
20
76.1759722
40
0.1069053
50
340.9378148
51
0.5753733
0
ARC
8
DEFAULT_255_1_388
10
5.0892623
20
76.1725569
40
0.0938301
50
316.0798885
51
340.3845117
0
ARC
8
DEFAULT_255_1_388
10
5.0957934
20
76.166552
40
0.0849605
50
285.8512844
51
315.941661
0
ARC
8
DEFAULT_255_1_388
10
5.0825814
20
76.209262
40
0.1296594
50
273.1293204
51
286.3125006
0
ARC
8
DEFAULT_255_1_388
10
5.0788324
20
76.2544586
40
0.1749979
50
269.9535313
51
273.5471598
0
ARC
8
DEFAULT_255_1_388
10
5.0775929
20
76.2298833
40
0.1504266
50
259.0487117
51
270.4180248
0
ARC
8
DEFAULT_255_1_388
10
5.0667542
20
76.1761783
40
0.0956414
50
239.7583641
51
259.3115656
0
ARC
8
DEFAULT_255_1_388
10
5.0576475
20
76.1592048
40
0.0763945
50
222.6243303
51
239.2473835
0
ARC
8
DEFAULT_255_1_388
10
5.0727646
20
76.1730572
40
0.0968985
50
182.9231258
51
222.598101
0
ARC
8
DEFAULT_255_1_388
10
5.1030845
20
76.1769696
40
0.1274004
50
179.9657458
51
183.9850364
0
LINE
8
DEFAULT_255_1_388
10
5.9912905
20
77.4113148
11
5.9912905
21
76.0894
0
LINE
8
DEFAULT_255_1_388
10
5.9912905
20
76.0894
11
5.8232275
21
76.0894
0
LINE
8
DEFAULT_255_1_388
10
5.8232275
20
76.0894
11
5.8232275
21
77.203495
0
LINE
8
DEFAULT_255_1_388
10
5.8232275
20
77.203495
11
5.486198
21
77.0797066
0
LINE
8
DEFAULT_255_1_388
10
5.486198
20
77.0797066
11
5.486198
21
77.2315055
0
LINE
8
DEFAULT_255_1_388
10
5.486198
20
77.2315055
11
5.9650872
21
77.4113148
0
LINE
8
DEFAULT_255_1_388
10
5.9650872
20
77.4113148
11
5.9912905
21
77.4113148
0
LINE
8
DEFAULT_255_1_388
10
4.7518716
20
84.0269
11
4.5765801
21
84.0269
0
LINE
8
DEFAULT_255_1_388
10
4.3877351
20
84.6196383
11
4.5503767
21
84.6196383
0
LINE
8
DEFAULT_255_1_388
10
4.5503767
20
84.6196383
11
4.5503767
21
84.6964413
0
LINE
8
DEFAULT_255_1_388
10
4.1329299
20
84.7334874
11
3.9648669
21
84.7334874
0
LINE
8
DEFAULT_255_1_388
10
4.7175361
20
84.7054769
11
4.7175361
21
84.2555018
0
LINE
8
DEFAULT_255_1_388
10
4.7518716
20
84.041357
11
4.7518716
21
84.0269
0
LINE
8
DEFAULT_255_1_388
10
4.5503767
20
84.30068
11
4.5503767
21
84.5012713
0
LINE
8
DEFAULT_255_1_388
10
4.5503767
20
84.5012713
11
4.4193599
21
84.5012713
0
ARC
8
DEFAULT_255_1_388
10
4.693495
20
84.08361
40
0.1299428
50
197.0784902
51
205.8758668
0
ARC
8
DEFAULT_255_1_388
10
4.8329536
20
84.1277959
40
0.2762313
50
192.2927663
51
197.3441989
0
ARC
8
DEFAULT_255_1_388
10
5.0525042
20
84.176576
40
0.5011345
50
189.1573793
51
192.3977084
0
ARC
8
DEFAULT_255_1_388
10
5.3689888
20
84.2281878
40
0.8217995
50
186.8686098
51
189.1982636
0
ARC
8
DEFAULT_255_1_388
10
4.2634979
20
84.402226
40
0.3975173
50
294.0079259
51
316.7603918
0
ARC
8
DEFAULT_255_1_388
10
4.2780162
20
84.3817902
40
0.3729755
50
269.5043226
51
293.2478373
0
ARC
8
DEFAULT_255_1_388
10
4.2713214
20
84.4268915
40
0.4180772
50
255.4034155
51
270.4753052
0
ARC
8
DEFAULT_255_1_388
10
4.2454427
20
84.3264652
40
0.3143705
50
228.6141063
51
255.3550831
0
ARC
8
DEFAULT_255_1_388
10
4.2080409
20
84.290654
40
0.2628114
50
181.8954381
51
229.5703134
0
ARC
8
DEFAULT_255_1_388
10
4.2745345
20
84.2978824
40
0.329546
50
179.9848815
51
182.7691528
0
ARC
8
DEFAULT_255_1_388
10
4.2652411
20
84.3017827
40
0.3202753
50
161.0342928
51
180.6822077
0
ARC
8
DEFAULT_255_1_388
10
4.2158026
20
84.3146422
40
0.2693695
50
125.0525065
51
160.2034058
0
ARC
8
DEFAULT_255_1_388
10
4.2902748
20
84.2130275
40
0.3953338
50
106.2670809
51
125.4300189
0
ARC
8
DEFAULT_255_1_388
10
4.3546789
20
84.0025795
40
0.6154041
50
95.4857579
51
106.5348562
0
ARC
8
DEFAULT_255_1_388
10
4.3854077
20
83.7213993
40
0.8982419
50
89.8515405
51
95.7222579
0
ARC
8
DEFAULT_255_1_388
10
4.3134658
20
84.6984925
40
0.2369198
50
359.5039339
51
14.3181205
0
ARC
8
DEFAULT_255_1_388
10
4.3780662
20
84.7152862
40
0.170173
50
14.2184556
51
45.2028524
0
ARC
8
DEFAULT_255_1_388
10
4.3821358
20
84.7168862
40
0.1661795
50
45.8098216
51
73.0032926
0
ARC
8
DEFAULT_255_1_388
10
4.3541185
20
84.631226
40
0.2562942
50
72.6112517
51
85.7231489
0
ARC
8
DEFAULT_255_1_388
10
4.3439969
20
84.5285339
40
0.3594635
50
85.335019
51
90.0855069
0
ARC
8
DEFAULT_255_1_388
10
4.3413402
20
84.5949472
40
0.2930574
50
89.5854741
51
103.459124
0
ARC
8
DEFAULT_255_1_388
10
4.3241941
20
84.6664134
40
0.2195632
50
103.448332
51
126.5403399
0
ARC
8
DEFAULT_255_1_388
10
4.2972918
20
84.7008224
40
0.1759039
50
126.1730306
51
141.5008224
0
ARC
8
DEFAULT_255_1_388
10
4.2547233
20
84.7342266
40
0.1217955
50
141.3332087
51
180.3477313
0
ARC
8
DEFAULT_255_1_388
10
4.1788656
20
84.7322904
40
0.214002
50
151.6373605
51
179.6795088
0
ARC
8
DEFAULT_255_1_388
10
4.2465892
20
84.6985768
40
0.2896224
50
142.4981529
51
152.1330509
0
ARC
8
DEFAULT_255_1_388
10
4.2823896
20
84.6704781
40
0.3351307
50
120.8284906
51
142.4132156
0
ARC
8
DEFAULT_255_1_388
10
4.3291872
20
84.5972185
40
0.4220297
50
113.9634885
51
121.1871733
0
ARC
8
DEFAULT_255_1_388
10
4.3445181
20
84.5598705
40
0.4623867
50
93.3784336
51
113.8197902
0
ARC
8
DEFAULT_255_1_388
10
4.3531563
20
84.4737549
40
0.5488732
50
89.9745993
51
93.7488475
0
ARC
8
DEFAULT_255_1_388
10
4.3570809
20
84.4778587
40
0.5447818
50
79.1327128
51
90.3871707
0
ARC
8
DEFAULT_255_1_388
10
4.3936573
20
84.6606597
40
0.3583662
50
60.1434453
51
79.365517
0
ARC
8
DEFAULT_255_1_388
10
4.4225339
20
84.7161195
40
0.2959028
50
48.6191018
51
59.6466565
0
ARC
8
DEFAULT_255_1_388
10
4.4279051
20
84.7232356
40
0.2870136
50
9.0349502
51
48.4845487
0
ARC
8
DEFAULT_255_1_388
10
4.306835
20
84.6968084
40
0.4107927
50
1.2091359
51
10.0234369
0
ARC
8
DEFAULT_255_1_388
10
5.5765798
20
84.2527422
40
0.8590481
50
179.8159449
51
185.3205667
0
ARC
8
DEFAULT_255_1_388
10
5.2733643
20
84.2237945
40
0.5544553
50
185.2475628
51
192.7952551
0
ARC
8
DEFAULT_255_1_388
10
5.0751467
20
84.1783024
40
0.3510853
50
192.7195981
51
202.9584216
0
ARC
8
DEFAULT_255_1_388
10
4.2991503
20
84.4480895
40
0.2937869
50
270.006916
51
300.503478
0
ARC
8
DEFAULT_255_1_388
10
4.3129438
20
84.4336888
40
0.2744162
50
299.5482616
51
315.609538
0
ARC
8
DEFAULT_255_1_388
10
4.3455734
20
84.4003072
40
0.2277499
50
315.8682065
51
334.0592465
0
ARC
8
DEFAULT_255_1_388
10
4.4144708
20
83.71669
40
0.7845965
50
89.64297
51
97.2867877
0
ARC
8
DEFAULT_255_1_388
10
4.3648305
20
84.0883936
40
0.4096042
50
96.9938706
51
109.7783917
0
ARC
8
DEFAULT_255_1_388
10
4.2899768
20
84.2887851
40
0.1957225
50
109.0087985
51
135.3265591
0
ARC
8
DEFAULT_255_1_388
10
4.2592187
20
84.3268764
40
0.1471704
50
137.4537784
51
182.1083946
0
ARC
8
DEFAULT_255_1_388
10
4.3012887
20
84.3196101
40
0.1891498
50
179.4390335
51
195.7201623
0
ARC
8
DEFAULT_255_1_388
10
4.2549922
20
84.3069585
40
0.1411576
50
195.8683556
51
230.157074
0
ARC
8
DEFAULT_255_1_388
10
4.2822645
20
84.3396228
40
0.1837102
50
230.1532486
51
259.7486257
0
ARC
8
DEFAULT_255_1_388
10
4.2978687
20
84.4131472
40
0.258848
50
259.2461118
51
270.2915316
0
ARC
8
DEFAULT_255_1_388
10
5.1035855
20
84.1156142
40
0.1204062
50
163.5412609
51
180.5084512
0
ARC
8
DEFAULT_255_1_388
10
5.0819754
20
84.121446
40
0.0980307
50
138.1652
51
163.2315563
0
ARC
8
DEFAULT_255_1_388
10
5.0693495
20
84.1321456
40
0.0814881
50
105.6860499
51
137.8492655
0
ARC
8
DEFAULT_255_1_388
10
5.0826696
20
84.0889109
40
0.126719
50
92.6078949
51
106.199173
0
ARC
8
DEFAULT_255_1_388
10
5.0860886
20
84.0443207
40
0.1714243
50
89.9659531
51
93.0713334
0
ARC
8
DEFAULT_255_1_388
10
5.0872922
20
84.0693484
40
0.1464007
50
78.4379126
51
90.4311892
0
ARC
8
DEFAULT_255_1_388
10
5.0981569
20
84.1200017
40
0.094599
50
56.8961942
51
78.7357785
0
ARC
8
DEFAULT_255_1_388
10
5.1052679
20
84.1324075
40
0.0803272
50
42.6503148
51
56.3122241
0
ARC
8
DEFAULT_255_1_388
10
5.0908581
20
84.1191661
40
0.099897
50
3.8141057
51
42.636595
0
ARC
8
DEFAULT_255_1_388
10
5.0585903
20
84.1146616
40
0.1324137
50
359.9498843
51
4.8301897
0
ARC
8
DEFAULT_255_1_388
10
5.084104
20
84.1134722
40
0.1069053
50
340.9378148
51
0.5753733
0
ARC
8
DEFAULT_255_1_388
10
5.0967623
20
84.1100569
40
0.0938301
50
316.0798885
51
340.3845117
0
ARC
8
DEFAULT_255_1_388
10
5.1032934
20
84.104052
40
0.0849605
50
285.8512844
51
315.941661
0
ARC
8
DEFAULT_255_1_388
10
5.0900814
20
84.146762
40
0.1296594
50
273.1293204
51
286.3125006
0
ARC
8
DEFAULT_255_1_388
10
5.0863324
20
84.1919586
40
0.1749979
50
269.9535313
51
273.5471598
0
ARC
8
DEFAULT_255_1_388
10
5.0850929
20
84.1673833
40
0.1504266
50
259.0487117
51
270.4180248
0
ARC
8
DEFAULT_255_1_388
10
5.0742542
20
84.1136783
40
0.0956414
50
239.7583641
51
259.3115656
0
ARC
8
DEFAULT_255_1_388
10
5.0651475
20
84.0967048
40
0.0763945
50
222.6243303
51
239.2473835
0
ARC
8
DEFAULT_255_1_388
10
5.0802646
20
84.1105572
40
0.0968985
50
182.9231258
51
222.598101
0
ARC
8
DEFAULT_255_1_388
10
5.1105845
20
84.1144696
40
0.1274004
50
179.9657458
51
183.9850364
0
LINE
8
DEFAULT_255_1_388
10
6.2743777
20
84.804869
11
6.2743777
21
84.5880135
0
LINE
8
DEFAULT_255_1_388
10
5.444002
20
84.5654244
11
5.444002
21
84.7886048
0
LINE
8
DEFAULT_255_1_388
10
6.1072183
20
84.5428353
11
6.1072183
21
84.8166153
0
LINE
8
DEFAULT_255_1_388
10
5.6111614
20
84.8292652
11
5.6111614
21
84.5618102
0
ARC
8
DEFAULT_255_1_388
10
4.8966111
20
84.5825118
40
1.3777776
50
353.8440855
51
0.2287917
0
ARC
8
DEFAULT_255_1_388
10
5.4185128
20
84.5242414
40
0.852639
50
344.4934746
51
353.9763743
0
ARC
8
DEFAULT_255_1_388
10
5.7551935
20
84.4285191
40
0.5026273
50
329.2803599
51
344.7473406
0
ARC
8
DEFAULT_255_1_388
10
5.8667431
20
84.3673038
40
0.3754848
50
324.9361395
51
328.6153007
0
ARC
8
DEFAULT_255_1_388
10
5.9093081
20
84.3375586
40
0.3235566
50
280.5801797
51
324.9173226
0
ARC
8
DEFAULT_255_1_388
10
5.864171
20
84.5255236
40
0.5167077
50
269.5979457
51
281.6732777
0
ARC
8
DEFAULT_255_1_388
10
5.8560613
20
84.5120113
40
0.5032026
50
256.6228565
51
270.5105488
0
ARC
8
DEFAULT_255_1_388
10
5.8108356
20
84.3378345
40
0.3233092
50
215.8618351
51
257.2787793
0
ARC
8
DEFAULT_255_1_388
10
5.9257063
20
84.4149106
40
0.4615831
50
197.9695203
51
215.2622745
0
ARC
8
DEFAULT_255_1_388
10
6.2052739
20
84.5092641
40
0.7566307
50
187.8816486
51
198.2346584
0
ARC
8
DEFAULT_255_1_388
10
6.6505977
20
84.5735453
40
1.2065653
50
180.8977266
51
188.0054894
0
ARC
8
DEFAULT_255_1_388
10
6.955619
20
84.58504
40
1.5117443
50
180.7434591
51
181.152202
0
ARC
8
DEFAULT_255_1_388
10
6.7881186
20
84.7940371
40
1.3441277
50
173.7674302
51
180.2315596
0
ARC
8
DEFAULT_255_1_388
10
6.2799055
20
84.8514779
40
0.8326847
50
164.3058537
51
173.9000553
0
ARC
8
DEFAULT_255_1_388
10
5.9523055
20
84.9458652
40
0.4917711
50
148.7922028
51
164.5682288
0
ARC
8
DEFAULT_255_1_388
10
5.8453793
20
85.0055457
40
0.3694204
50
144.5883979
51
148.1161588
0
ARC
8
DEFAULT_255_1_388
10
5.8066538
20
85.0325667
40
0.322202
50
101.6440149
51
144.5142619
0
ARC
8
DEFAULT_255_1_388
10
5.854473
20
84.8425337
40
0.5180451
50
89.528284
51
102.5820197
0
ARC
8
DEFAULT_255_1_388
10
5.8633722
20
84.8381376
40
0.5224441
50
77.0437914
51
90.508231
0
ARC
8
DEFAULT_255_1_388
10
5.9085976
20
85.0229272
40
0.3322297
50
48.2777708
51
77.4996087
0
ARC
8
DEFAULT_255_1_388
10
5.9167716
20
85.0374557
40
0.315966
50
36.3141586
51
47.6307332
0
ARC
8
DEFAULT_255_1_388
10
5.8190438
20
84.9716159
40
0.4337313
50
18.2931065
51
35.6770203
0
ARC
8
DEFAULT_255_1_388
10
5.5329279
20
84.8734107
40
0.7362203
50
8.0246996
51
18.5605636
0
ARC
8
DEFAULT_255_1_388
10
5.0645634
20
84.8042432
40
1.2096583
50
1.127539
51
8.1718423
0
ARC
8
DEFAULT_255_1_388
10
4.6996768
20
84.7899374
40
1.5747719
50
0.5432713
51
1.38669
0
ARC
8
DEFAULT_255_1_388
10
4.9054146
20
84.8206163
40
1.2018103
50
359.8092569
51
4.9408001
0
ARC
8
DEFAULT_255_1_388
10
5.3790728
20
84.86289
40
0.7262727
50
4.8364937
51
12.2906017
0
ARC
8
DEFAULT_255_1_388
10
5.6890193
20
84.9319485
40
0.4087324
50
12.0806994
51
23.8171225
0
ARC
8
DEFAULT_255_1_388
10
5.8210589
20
84.9878508
40
0.2653719
50
24.2874621
51
31.3934353
0
ARC
8
DEFAULT_255_1_388
10
5.8801024
20
85.0264822
40
0.1948607
50
30.7407708
51
82.4658033
0
ARC
8
DEFAULT_255_1_388
10
5.8598685
20
84.9271017
40
0.2961198
50
81.1057101
51
90.2187368
0
ARC
8
DEFAULT_255_1_388
10
5.8558497
20
84.9561421
40
0.2670929
50
89.380395
51
105.6763916
0
ARC
8
DEFAULT_255_1_388
10
5.8352219
20
85.031132
40
0.1893189
50
105.7980655
51
149.7387869
0
ARC
8
DEFAULT_255_1_388
10
5.9549359
20
84.9591719
40
0.3289892
50
149.4208441
51
163.628295
0
ARC
8
DEFAULT_255_1_388
10
6.1901589
20
84.8874345
40
0.5749004
50
163.3764549
51
172.141138
0
ARC
8
DEFAULT_255_1_388
10
6.561431
20
84.8342582
40
0.9499585
50
172.0258462
51
178.0705453
0
ARC
8
DEFAULT_255_1_388
10
6.9035863
20
84.8180682
40
1.2924734
50
177.8639301
51
179.5036263
0
ARC
8
DEFAULT_255_1_388
10
6.7816882
20
84.5577151
40
1.170534
50
179.7995545
51
185.246089
0
ARC
8
DEFAULT_255_1_388
10
6.3268475
20
84.5146404
40
0.7136613
50
185.1411911
51
193.0082205
0
ARC
8
DEFAULT_255_1_388
10
6.0294736
20
84.4443441
40
0.4080987
50
192.7897338
51
205.2507384
0
ARC
8
DEFAULT_255_1_388
10
5.9116945
20
84.3917538
40
0.2791522
50
205.8001921
51
211.2545876
0
ARC
8
DEFAULT_255_1_388
10
5.8528485
20
84.3523132
40
0.2084074
50
210.3789935
51
238.4007996
0
ARC
8
DEFAULT_255_1_388
10
5.8506571
20
84.3575786
40
0.2117943
50
239.6521916
51
265.9793852
0
ARC
8
DEFAULT_255_1_388
10
5.860242
20
84.4332358
40
0.2879689
50
265.1324455
51
270.0603288
0
ARC
8
DEFAULT_255_1_388
10
5.8634797
20
84.3967418
40
0.2514919
50
269.3314378
51
287.2180039
0
ARC
8
DEFAULT_255_1_388
10
5.8789879
20
84.3401291
40
0.1928357
50
287.7957942
51
329.0808983
0
ARC
8
DEFAULT_255_1_388
10
5.7712636
20
84.4073651
40
0.319808
50
328.6635261
51
343.3325043
0
ARC
8
DEFAULT_255_1_388
10
5.5268095
20
84.4835195
40
0.5758408
50
343.0498092
51
351.9392499
0
ARC
8
DEFAULT_255_1_388
10
5.1367416
20
84.5410205
40
0.9701202
50
351.8071632
51
357.7957897
0
ARC
8
DEFAULT_255_1_388
10
4.7732893
20
84.5598724
40
1.3340376
50
357.5870923
51
359.2682493
0
LINE
8
DEFAULT_255_1_388
10
4.4956985
20
93.2863148
11
4.4956985
21
91.9644
0
LINE
8
DEFAULT_255_1_388
10
4.4956985
20
91.9644
11
4.3276355
21
91.9644
0
LINE
8
DEFAULT_255_1_388
10
4.3276355
20
91.9644
11
4.3276355
21
93.078495
0
LINE
8
DEFAULT_255_1_388
10
4.3276355
20
93.078495
11
3.990606
21
92.9547066
0
LINE
8
DEFAULT_255_1_388
10
3.990606
20
92.9547066
11
3.990606
21
93.1065055
0
LINE
8
DEFAULT_255_1_388
10
3.990606
20
93.1065055
11
4.4694951
21
93.2863148
0
LINE
8
DEFAULT_255_1_388
10
4.4694951
20
93.2863148
11
4.4956985
21
93.2863148
0
LINE
8
DEFAULT_255_1_388
10
5.0288015
20
93.2799898
11
5.2528855
21
93.2799898
0
LINE
8
DEFAULT_255_1_388
10
5.2528855
20
93.2799898
11
5.6829822
21
92.2065553
0
LINE
8
DEFAULT_255_1_388
10
5.6829822
20
92.2065553
11
6.1130789
21
93.2799898
0
LINE
8
DEFAULT_255_1_388
10
6.1130789
20
93.2799898
11
6.3380664
21
93.2799898
0
LINE
8
DEFAULT_255_1_388
10
6.3380664
20
93.2799898
11
6.3380664
21
91.9644
0
LINE
8
DEFAULT_255_1_388
10
6.3380664
20
91.9644
11
6.164582
21
91.9644
0
LINE
8
DEFAULT_255_1_388
10
6.164582
20
91.9644
11
6.164582
21
92.476721
0
LINE
8
DEFAULT_255_1_388
10
6.164582
20
92.476721
11
6.1808462
21
93.0297025
0
LINE
8
DEFAULT_255_1_388
10
6.1808462
20
93.0297025
11
5.7489424
21
91.9644
0
LINE
8
DEFAULT_255_1_388
10
5.7489424
20
91.9644
11
5.6161184
21
91.9644
0
LINE
8
DEFAULT_255_1_388
10
5.6161184
20
91.9644
11
5.1851182
21
93.0269918
0
LINE
8
DEFAULT_255_1_388
10
5.1851182
20
93.0269918
11
5.2022859
21
92.476721
0
LINE
8
DEFAULT_255_1_388
10
5.2022859
20
92.476721
11
5.2022859
21
91.9644
0
LINE
8
DEFAULT_255_1_388
10
5.2022859
20
91.9644
11
5.0288015
21
91.9644
0
LINE
8
DEFAULT_255_1_388
10
5.0288015
20
91.9644
11
5.0288015
21
93.2799898
0
LINE
8
DEFAULT_255_1_388
10
24.316391
20
101.2174898
11
24.316391
21
99.9019
0
LINE
8
DEFAULT_255_1_388
10
24.316391
20
99.9019
11
24.1420031
21
99.9019
0
LINE
8
DEFAULT_255_1_388
10
24.1420031
20
99.9019
11
23.4796903
21
100.9156993
0
LINE
8
DEFAULT_255_1_388
10
23.4796903
20
100.9156993
11
23.4796903
21
99.9019
0
LINE
8
DEFAULT_255_1_388
10
23.4796903
20
99.9019
11
23.3053024
21
99.9019
0
LINE
8
DEFAULT_255_1_388
10
23.3053024
20
99.9019
11
23.3053024
21
101.2174898
0
LINE
8
DEFAULT_255_1_388
10
23.3053024
20
101.2174898
11
23.4796903
21
101.2174898
0
LINE
8
DEFAULT_255_1_388
10
23.4796903
20
101.2174898
11
24.1438102
21
100.1991727
0
LINE
8
DEFAULT_255_1_388
10
24.1438102
20
100.1991727
11
24.1438102
21
101.2174898
0
LINE
8
DEFAULT_255_1_388
10
24.1438102
20
101.2174898
11
24.316391
21
101.2174898
0
LINE
8
DEFAULT_255_1_388
10
23.0092024
20
21.8424898
11
23.2332864
21
21.8424898
0
LINE
8
DEFAULT_255_1_388
10
23.2332864
20
21.8424898
11
23.6633831
21
20.7690553
0
LINE
8
DEFAULT_255_1_388
10
23.6633831
20
20.7690553
11
24.0934797
21
21.8424898
0
LINE
8
DEFAULT_255_1_388
10
24.0934797
20
21.8424898
11
24.3184673
21
21.8424898
0
LINE
8
DEFAULT_255_1_388
10
24.3184673
20
21.8424898
11
24.3184673
21
20.5269
0
LINE
8
DEFAULT_255_1_388
10
24.3184673
20
20.5269
11
24.1449829
21
20.5269
0
LINE
8
DEFAULT_255_1_388
10
24.1449829
20
20.5269
11
24.1449829
21
21.039221
0
LINE
8
DEFAULT_255_1_388
10
24.1449829
20
21.039221
11
24.1612471
21
21.5922025
0
LINE
8
DEFAULT_255_1_388
10
24.1612471
20
21.5922025
11
23.7293433
21
20.5269
0
LINE
8
DEFAULT_255_1_388
10
23.7293433
20
20.5269
11
23.5965193
21
20.5269
0
LINE
8
DEFAULT_255_1_388
10
23.5965193
20
20.5269
11
23.165519
21
21.5894918
0
LINE
8
DEFAULT_255_1_388
10
23.165519
20
21.5894918
11
23.1826868
21
21.039221
0
LINE
8
DEFAULT_255_1_388
10
23.1826868
20
21.039221
11
23.1826868
21
20.5269
0
LINE
8
DEFAULT_255_1_388
10
23.1826868
20
20.5269
11
23.0092024
21
20.5269
0
LINE
8
DEFAULT_255_1_388
10
23.0092024
20
20.5269
11
23.0092024
21
21.8424898
0
LINE
8
DEFAULT_255_1_388
10
22.7519903
20
29.7799898
11
22.7519903
21
28.6062596
0
LINE
8
DEFAULT_255_1_388
10
22.7519903
20
28.6062596
11
23.3754498
21
28.6062596
0
LINE
8
DEFAULT_255_1_388
10
23.3754498
20
28.6062596
11
23.3754498
21
28.4644
0
LINE
8
DEFAULT_255_1_388
10
23.3754498
20
28.4644
11
22.5776024
21
28.4644
0
LINE
8
DEFAULT_255_1_388
10
22.5776024
20
28.4644
11
22.5776024
21
29.7799898
0
LINE
8
DEFAULT_255_1_388
10
22.5776024
20
29.7799898
11
22.7519903
21
29.7799898
0
LINE
8
DEFAULT_255_1_388
10
24.0260162
20
29.5540987
11
24.0260162
21
29.1700838
0
LINE
8
DEFAULT_255_1_388
10
24.0260162
20
29.1700838
11
24.3928634
21
29.1700838
0
LINE
8
DEFAULT_255_1_388
10
24.3928634
20
29.1700838
11
24.3928634
21
29.0119601
0
LINE
8
DEFAULT_255_1_388
10
24.3928634
20
29.0119601
11
24.0260162
21
29.0119601
0
LINE
8
DEFAULT_255_1_388
10
24.0260162
20
29.0119601
11
24.0260162
21
28.5963204
0
LINE
8
DEFAULT_255_1_388
10
24.0260162
20
28.5963204
11
23.8579532
21
28.5963204
0
LINE
8
DEFAULT_255_1_388
10
23.8579532
20
28.5963204
11
23.8579532
21
29.0119601
0
LINE
8
DEFAULT_255_1_388
10
23.8579532
20
29.0119601
11
23.4911061
21
29.0119601
0
LINE
8
DEFAULT_255_1_388
10
23.4911061
20
29.0119601
11
23.4911061
21
29.1700838
0
LINE
8
DEFAULT_255_1_388
10
23.4911061
20
29.1700838
11
23.8579532
21
29.1700838
0
LINE
8
DEFAULT_255_1_388
10
23.8579532
20
29.1700838
11
23.8579532
21
29.5540987
0
LINE
8
DEFAULT_255_1_388
10
23.8579532
20
29.5540987
11
24.0260162
21
29.5540987
0
LINE
8
DEFAULT_255_1_388
10
22.8382716
20
36.4019
11
22.6629801
21
36.4019
0
LINE
8
DEFAULT_255_1_388
10
22.4741351
20
36.9946383
11
22.6367767
21
36.9946383
0
LINE
8
DEFAULT_255_1_388
10
22.6367767
20
36.9946383
11
22.6367767
21
37.0714413
0
LINE
8
DEFAULT_255_1_388
10
22.2193299
20
37.1084874
11
22.0512669
21
37.1084874
0
LINE
8
DEFAULT_255_1_388
10
22.8039361
20
37.0804769
11
22.8039361
21
36.6305018
0
LINE
8
DEFAULT_255_1_388
10
22.8382716
20
36.416357
11
22.8382716
21
36.4019
0
LINE
8
DEFAULT_255_1_388
10
22.6367767
20
36.67568
11
22.6367767
21
36.8762713
0
LINE
8
DEFAULT_255_1_388
10
22.6367767
20
36.8762713
11
22.5057599
21
36.8762713
0
ARC
8
DEFAULT_255_1_388
10
22.779895
20
36.45861
40
0.1299428
50
197.0784902
51
205.8758668
0
ARC
8
DEFAULT_255_1_388
10
22.9193536
20
36.5027959
40
0.2762313
50
192.2927663
51
197.3441989
0
ARC
8
DEFAULT_255_1_388
10
23.1389042
20
36.551576
40
0.5011345
50
189.1573793
51
192.3977084
0
ARC
8
DEFAULT_255_1_388
10
23.4553888
20
36.6031878
40
0.8217995
50
186.8686098
51
189.1982636
0
ARC
8
DEFAULT_255_1_388
10
22.3498979
20
36.777226
40
0.3975173
50
294.0079259
51
316.7603918
0
ARC
8
DEFAULT_255_1_388
10
22.3644162
20
36.7567902
40
0.3729755
50
269.5043226
51
293.2478373
0
ARC
8
DEFAULT_255_1_388
10
22.3577214
20
36.8018915
40
0.4180772
50
255.4034155
51
270.4753052
0
ARC
8
DEFAULT_255_1_388
10
22.3318427
20
36.7014652
40
0.3143705
50
228.6141063
51
255.3550831
0
ARC
8
DEFAULT_255_1_388
10
22.2944409
20
36.665654
40
0.2628114
50
181.8954381
51
229.5703134
0
ARC
8
DEFAULT_255_1_388
10
22.3609345
20
36.6728824
40
0.329546
50
179.9848815
51
182.7691528
0
ARC
8
DEFAULT_255_1_388
10
22.3516411
20
36.6767827
40
0.3202753
50
161.0342928
51
180.6822077
0
ARC
8
DEFAULT_255_1_388
10
22.3022026
20
36.6896422
40
0.2693695
50
125.0525065
51
160.2034058
0
ARC
8
DEFAULT_255_1_388
10
22.3766748
20
36.5880275
40
0.3953338
50
106.2670809
51
125.4300189
0
ARC
8
DEFAULT_255_1_388
10
22.4410789
20
36.3775795
40
0.6154041
50
95.4857579
51
106.5348562
0
ARC
8
DEFAULT_255_1_388
10
22.4718077
20
36.0963993
40
0.8982419
50
89.8515405
51
95.7222579
0
ARC
8
DEFAULT_255_1_388
10
22.3998658
20
37.0734925
40
0.2369198
50
359.5039339
51
14.3181205
0
ARC
8
DEFAULT_255_1_388
10
22.4644662
20
37.0902862
40
0.170173
50
14.2184556
51
45.2028524
0
ARC
8
DEFAULT_255_1_388
10
22.4685358
20
37.0918862
40
0.1661795
50
45.8098216
51
73.0032926
0
ARC
8
DEFAULT_255_1_388
10
22.4405185
20
37.006226
40
0.2562942
50
72.6112517
51
85.7231489
0
ARC
8
DEFAULT_255_1_388
10
22.4303969
20
36.9035339
40
0.3594635
50
85.335019
51
90.0855069
0
ARC
8
DEFAULT_255_1_388
10
22.4277402
20
36.9699472
40
0.2930574
50
89.5854741
51
103.459124
0
ARC
8
DEFAULT_255_1_388
10
22.4105941
20
37.0414134
40
0.2195632
50
103.448332
51
126.5403399
0
ARC
8
DEFAULT_255_1_388
10
22.3836918
20
37.0758224
40
0.1759039
50
126.1730306
51
141.5008224
0
ARC
8
DEFAULT_255_1_388
10
22.3411233
20
37.1092266
40
0.1217955
50
141.3332087
51
180.3477313
0
ARC
8
DEFAULT_255_1_388
10
22.2652656
20
37.1072904
40
0.214002
50
151.6373605
51
179.6795088
0
ARC
8
DEFAULT_255_1_388
10
22.3329892
20
37.0735768
40
0.2896224
50
142.4981529
51
152.1330509
0
ARC
8
DEFAULT_255_1_388
10
22.3687896
20
37.0454781
40
0.3351307
50
120.8284906
51
142.4132156
0
ARC
8
DEFAULT_255_1_388
10
22.4155872
20
36.9722185
40
0.4220297
50
113.9634885
51
121.1871733
0
ARC
8
DEFAULT_255_1_388
10
22.4309181
20
36.9348705
40
0.4623867
50
93.3784336
51
113.8197902
0
ARC
8
DEFAULT_255_1_388
10
22.4395563
20
36.8487549
40
0.5488732
50
89.9745993
51
93.7488475
0
ARC
8
DEFAULT_255_1_388
10
22.4434809
20
36.8528587
40
0.5447818
50
79.1327128
51
90.3871707
0
ARC
8
DEFAULT_255_1_388
10
22.4800573
20
37.0356597
40
0.3583662
50
60.1434453
51
79.365517
0
ARC
8
DEFAULT_255_1_388
10
22.5089339
20
37.0911195
40
0.2959028
50
48.6191018
51
59.6466565
0
ARC
8
DEFAULT_255_1_388
10
22.5143051
20
37.0982356
40
0.2870136
50
9.0349502
51
48.4845487
0
ARC
8
DEFAULT_255_1_388
10
22.393235
20
37.0718084
40
0.4107927
50
1.2091359
51
10.0234369
0
ARC
8
DEFAULT_255_1_388
10
23.6629798
20
36.6277422
40
0.8590481
50
179.8159449
51
185.3205667
0
ARC
8
DEFAULT_255_1_388
10
23.3597643
20
36.5987945
40
0.5544553
50
185.2475628
51
192.7952551
0
ARC
8
DEFAULT_255_1_388
10
23.1615467
20
36.5533024
40
0.3510853
50
192.7195981
51
202.9584216
0
ARC
8
DEFAULT_255_1_388
10
22.3855503
20
36.8230895
40
0.2937869
50
270.006916
51
300.503478
0
ARC
8
DEFAULT_255_1_388
10
22.3993438
20
36.8086888
40
0.2744162
50
299.5482616
51
315.609538
0
ARC
8
DEFAULT_255_1_388
10
22.4319734
20
36.7753072
40
0.2277499
50
315.8682065
51
334.0592465
0
ARC
8
DEFAULT_255_1_388
10
22.5008708
20
36.09169
40
0.7845965
50
89.64297
51
97.2867877
0
ARC
8
DEFAULT_255_1_388
10
22.4512305
20
36.4633936
40
0.4096042
50
96.9938706
51
109.7783917
0
ARC
8
DEFAULT_255_1_388
10
22.3763768
20
36.6637851
40
0.1957225
50
109.0087985
51
135.3265591
0
ARC
8
DEFAULT_255_1_388
10
22.3456187
20
36.7018764
40
0.1471704
50
137.4537784
51
182.1083946
0
ARC
8
DEFAULT_255_1_388
10
22.3876887
20
36.6946101
40
0.1891498
50
179.4390335
51
195.7201623
0
ARC
8
DEFAULT_255_1_388
10
22.3413922
20
36.6819585
40
0.1411576
50
195.8683556
51
230.157074
0
ARC
8
DEFAULT_255_1_388
10
22.3686645
20
36.7146228
40
0.1837102
50
230.1532486
51
259.7486257
0
ARC
8
DEFAULT_255_1_388
10
22.3842687
20
36.7881472
40
0.258848
50
259.2461118
51
270.2915316
0
ARC
8
DEFAULT_255_1_388
10
23.1899855
20
36.4906142
40
0.1204062
50
163.5412609
51
180.5084512
0
ARC
8
DEFAULT_255_1_388
10
23.1683754
20
36.496446
40
0.0980307
50
138.1652
51
163.2315563
0
ARC
8
DEFAULT_255_1_388
10
23.1557495
20
36.5071456
40
0.0814881
50
105.6860499
51
137.8492655
0
ARC
8
DEFAULT_255_1_388
10
23.1690696
20
36.4639109
40
0.126719
50
92.6078949
51
106.199173
0
ARC
8
DEFAULT_255_1_388
10
23.1724886
20
36.4193207
40
0.1714243
50
89.9659531
51
93.0713334
0
ARC
8
DEFAULT_255_1_388
10
23.1736922
20
36.4443484
40
0.1464007
50
78.4379126
51
90.4311892
0
ARC
8
DEFAULT_255_1_388
10
23.1845569
20
36.4950017
40
0.094599
50
56.8961942
51
78.7357785
0
ARC
8
DEFAULT_255_1_388
10
23.1916679
20
36.5074075
40
0.0803272
50
42.6503148
51
56.3122241
0
ARC
8
DEFAULT_255_1_388
10
23.1772581
20
36.4941661
40
0.099897
50
3.8141057
51
42.636595
0
ARC
8
DEFAULT_255_1_388
10
23.1449903
20
36.4896616
40
0.1324137
50
359.9498843
51
4.8301897
0
ARC
8
DEFAULT_255_1_388
10
23.170504
20
36.4884722
40
0.1069053
50
340.9378148
51
0.5753733
0
ARC
8
DEFAULT_255_1_388
10
23.1831623
20
36.4850569
40
0.0938301
50
316.0798885
51
340.3845117
0
ARC
8
DEFAULT_255_1_388
10
23.1896934
20
36.479052
40
0.0849605
50
285.8512844
51
315.941661
0
ARC
8
DEFAULT_255_1_388
10
23.1764814
20
36.521762
40
0.1296594
50
273.1293204
51
286.3125006
0
ARC
8
DEFAULT_255_1_388
10
23.1727324
20
36.5669586
40
0.1749979
50
269.9535313
51
273.5471598
0
ARC
8
DEFAULT_255_1_388
10
23.1714929
20
36.5423833
40
0.1504266
50
259.0487117
51
270.4180248
0
ARC
8
DEFAULT_255_1_388
10
23.1606542
20
36.4886783
40
0.0956414
50
239.7583641
51
259.3115656
0
ARC
8
DEFAULT_255_1_388
10
23.1515475
20
36.4717048
40
0.0763945
50
222.6243303
51
239.2473835
0
ARC
8
DEFAULT_255_1_388
10
23.1666646
20
36.4855572
40
0.0968985
50
182.9231258
51
222.598101
0
ARC
8
DEFAULT_255_1_388
10
23.1969845
20
36.4894696
40
0.1274004
50
179.9657458
51
183.9850364
0
LINE
8
DEFAULT_255_1_388
10
23.7463539
20
37.0271666
11
23.6126263
21
37.0615021
0
LINE
8
DEFAULT_255_1_388
10
23.6126263
20
37.0615021
11
23.6794901
21
37.7174898
0
LINE
8
DEFAULT_255_1_388
10
23.6794901
20
37.7174898
11
24.3535492
21
37.7174898
0
LINE
8
DEFAULT_255_1_388
10
24.3535492
20
37.7174898
11
24.3535492
21
37.5629803
0
LINE
8
DEFAULT_255_1_388
10
24.3535492
20
37.5629803
11
23.8213497
21
37.5629803
0
LINE
8
DEFAULT_255_1_388
10
23.8213497
20
37.5629803
11
23.7815929
21
37.2042652
0
LINE
8
DEFAULT_255_1_388
10
23.565641
20
36.7479652
11
23.7237647
21
36.7479652
0
LINE
8
DEFAULT_255_1_388
10
23.7906285
20
37.0633092
11
23.7463539
21
37.0271666
0
ARC
8
DEFAULT_255_1_388
10
23.9902542
20
36.8465241
40
0.4141476
50
93.7181681
51
120.253934
0
ARC
8
DEFAULT_255_1_388
10
24.0008594
20
36.7556284
40
0.5055616
50
89.9660471
51
94.2495185
0
ARC
8
DEFAULT_255_1_388
10
24.0054416
20
36.8219154
40
0.4392953
50
73.8045384
51
90.5585736
0
ARC
8
DEFAULT_255_1_388
10
24.0318674
20
36.918452
40
0.3392225
50
41.3071072
51
73.543002
0
ARC
8
DEFAULT_255_1_388
10
23.9850494
20
36.8781461
40
0.4009977
50
13.5075837
51
41.2174839
0
ARC
8
DEFAULT_255_1_388
10
23.8003591
20
36.8297907
40
0.5918864
50
1.1330171
51
13.8830737
0
ARC
8
DEFAULT_255_1_388
10
23.6407237
20
36.8212522
40
0.7516787
50
359.9925091
51
1.5431298
0
ARC
8
DEFAULT_255_1_388
10
23.7851852
20
36.8166027
40
0.6072343
50
347.8572712
51
0.4294349
0
ARC
8
DEFAULT_255_1_388
10
23.9820987
20
36.7719898
40
0.4053482
50
323.6727442
51
348.1674594
0
ARC
8
DEFAULT_255_1_388
10
24.0151951
20
36.7518175
40
0.3667495
50
316.8171818
51
323.1486802
0
ARC
8
DEFAULT_255_1_388
10
24.0221075
20
36.7476612
40
0.358869
50
281.839603
51
316.5458142
0
ARC
8
DEFAULT_255_1_388
10
23.9798363
20
36.9226363
40
0.5388223
50
269.5770964
51
282.4214641
0
ARC
8
DEFAULT_255_1_388
10
23.9718283
20
36.898593
40
0.5147801
50
256.2425863
51
270.4486481
0
ARC
8
DEFAULT_255_1_388
10
23.9381811
20
36.7636124
40
0.3756708
50
228.9024379
51
256.33135
0
ARC
8
DEFAULT_255_1_388
10
23.9298791
20
36.7505054
40
0.360344
50
193.7536029
51
228.5272638
0
ARC
8
DEFAULT_255_1_388
10
24.0691356
20
36.7913463
40
0.5053599
50
184.9244437
51
194.4976052
0
ARC
8
DEFAULT_255_1_388
10
24.0907998
20
36.7953722
40
0.3700839
50
187.3596909
51
198.6733728
0
ARC
8
DEFAULT_255_1_388
10
23.9727241
20
36.7544373
40
0.2451195
50
198.4453795
51
217.7945479
0
ARC
8
DEFAULT_255_1_388
10
23.9394414
20
36.7308563
40
0.2043754
50
218.2887146
51
228.5613203
0
ARC
8
DEFAULT_255_1_388
10
23.950442
20
36.7456902
40
0.2227819
50
228.9652423
51
258.1237049
0
ARC
8
DEFAULT_255_1_388
10
23.9735858
20
36.8447964
40
0.3245374
50
257.7260585
51
270.4013717
0
ARC
8
DEFAULT_255_1_388
10
23.9786356
20
36.7947255
40
0.2744726
50
269.4204315
51
286.420998
0
ARC
8
DEFAULT_255_1_388
10
23.9953412
20
36.7340705
40
0.2115721
50
286.7250065
51
320.6004665
0
ARC
8
DEFAULT_255_1_388
10
23.9522327
20
36.7690527
40
0.2670878
50
320.6712228
51
344.5440474
0
ARC
8
DEFAULT_255_1_388
10
23.8221041
20
36.8072394
40
0.4026927
50
344.241448
51
356.735803
0
ARC
8
DEFAULT_255_1_388
10
23.6817348
20
36.8188656
40
0.5435085
50
356.3547471
51
0.0507222
0
ARC
8
DEFAULT_255_1_388
10
23.8319613
20
36.8223812
40
0.3932934
50
359.5579289
51
12.9534322
0
ARC
8
DEFAULT_255_1_388
10
23.9506453
20
36.8511586
40
0.2711827
50
12.6489751
51
41.608121
0
ARC
8
DEFAULT_255_1_388
10
23.9765613
20
36.8731946
40
0.2371737
50
41.7851122
51
85.9892156
0
ARC
8
DEFAULT_255_1_388
10
23.9626923
20
36.7816738
40
0.3295244
50
84.6965848
51
90.0672125
0
ARC
8
DEFAULT_255_1_388
10
23.9600491
20
36.7065118
40
0.4046926
50
89.6804991
51
99.161352
0
ARC
8
DEFAULT_255_1_388
10
23.93695
20
36.8445848
40
0.2647044
50
98.9836248
51
113.8905702
0
ARC
8
DEFAULT_255_1_388
10
23.9111175
20
36.9055118
40
0.1985386
50
114.195234
51
127.3641866
0
LINE
8
DEFAULT_255_1_388
10
22.7059716
20
44.3394
11
22.5306801
21
44.3394
0
LINE
8
DEFAULT_255_1_388
10
22.3418351
20
44.9321383
11
22.5044767
21
44.9321383
0
LINE
8
DEFAULT_255_1_388
10
22.5044767
20
44.9321383
11
22.5044767
21
45.0089413
0
LINE
8
DEFAULT_255_1_388
10
22.0870299
20
45.0459874
11
21.9189669
21
45.0459874
0
LINE
8
DEFAULT_255_1_388
10
22.6716361
20
45.0179769
11
22.6716361
21
44.5680018
0
LINE
8
DEFAULT_255_1_388
10
22.7059716
20
44.353857
11
22.7059716
21
44.3394
0
LINE
8
DEFAULT_255_1_388
10
22.5044767
20
44.61318
11
22.5044767
21
44.8137713
0
LINE
8
DEFAULT_255_1_388
10
22.5044767
20
44.8137713
11
22.3734599
21
44.8137713
0
ARC
8
DEFAULT_255_1_388
10
22.647595
20
44.39611
40
0.1299428
50
197.0784902
51
205.8758668
0
ARC
8
DEFAULT_255_1_388
10
22.7870536
20
44.4402959
40
0.2762313
50
192.2927663
51
197.3441989
0
ARC
8
DEFAULT_255_1_388
10
23.0066042
20
44.489076
40
0.5011345
50
189.1573793
51
192.3977084
0
ARC
8
DEFAULT_255_1_388
10
23.3230888
20
44.5406878
40
0.8217995
50
186.8686098
51
189.1982636
0
ARC
8
DEFAULT_255_1_388
10
22.2175979
20
44.714726
40
0.3975173
50
294.0079259
51
316.7603918
0
ARC
8
DEFAULT_255_1_388
10
22.2321162
20
44.6942902
40
0.3729755
50
269.5043226
51
293.2478373
0
ARC
8
DEFAULT_255_1_388
10
22.2254214
20
44.7393915
40
0.4180772
50
255.4034155
51
270.4753052
0
ARC
8
DEFAULT_255_1_388
10
22.1995427
20
44.6389652
40
0.3143705
50
228.6141063
51
255.3550831
0
ARC
8
DEFAULT_255_1_388
10
22.1621409
20
44.603154
40
0.2628114
50
181.8954381
51
229.5703134
0
ARC
8
DEFAULT_255_1_388
10
22.2286345
20
44.6103824
40
0.329546
50
179.9848815
51
182.7691528
0
ARC
8
DEFAULT_255_1_388
10
22.2193411
20
44.6142827
40
0.3202753
50
161.0342928
51
180.6822077
0
ARC
8
DEFAULT_255_1_388
10
22.1699026
20
44.6271422
40
0.2693695
50
125.0525065
51
160.2034058
0
ARC
8
DEFAULT_255_1_388
10
22.2443748
20
44.5255275
40
0.3953338
50
106.2670809
51
125.4300189
0
ARC
8
DEFAULT_255_1_388
10
22.3087789
20
44.3150795
40
0.6154041
50
95.4857579
51
106.5348562
0
ARC
8
DEFAULT_255_1_388
10
22.3395077
20
44.0338993
40
0.8982419
50
89.8515405
51
95.7222579
0
ARC
8
DEFAULT_255_1_388
10
22.2675658
20
45.0109925
40
0.2369198
50
359.5039339
51
14.3181205
0
ARC
8
DEFAULT_255_1_388
10
22.3321662
20
45.0277862
40
0.170173
50
14.2184556
51
45.2028524
0
ARC
8
DEFAULT_255_1_388
10
22.3362358
20
45.0293862
40
0.1661795
50
45.8098216
51
73.0032926
0
ARC
8
DEFAULT_255_1_388
10
22.3082185
20
44.943726
40
0.2562942
50
72.6112517
51
85.7231489
0
ARC
8
DEFAULT_255_1_388
10
22.2980969
20
44.8410339
40
0.3594635
50
85.335019
51
90.0855069
0
ARC
8
DEFAULT_255_1_388
10
22.2954402
20
44.9074472
40
0.2930574
50
89.5854741
51
103.459124
0
ARC
8
DEFAULT_255_1_388
10
22.2782941
20
44.9789134
40
0.2195632
50
103.448332
51
126.5403399
0
ARC
8
DEFAULT_255_1_388
10
22.2513918
20
45.0133224
40
0.1759039
50
126.1730306
51
141.5008224
0
ARC
8
DEFAULT_255_1_388
10
22.2088233
20
45.0467266
40
0.1217955
50
141.3332087
51
180.3477313
0
ARC
8
DEFAULT_255_1_388
10
22.1329656
20
45.0447904
40
0.214002
50
151.6373605
51
179.6795088
0
ARC
8
DEFAULT_255_1_388
10
22.2006892
20
45.0110768
40
0.2896224
50
142.4981529
51
152.1330509
0
ARC
8
DEFAULT_255_1_388
10
22.2364896
20
44.9829781
40
0.3351307
50
120.8284906
51
142.4132156
0
ARC
8
DEFAULT_255_1_388
10
22.2832872
20
44.9097185
40
0.4220297
50
113.9634885
51
121.1871733
0
ARC
8
DEFAULT_255_1_388
10
22.2986181
20
44.8723705
40
0.4623867
50
93.3784336
51
113.8197902
0
ARC
8
DEFAULT_255_1_388
10
22.3072563
20
44.7862549
40
0.5488732
50
89.9745993
51
93.7488475
0
ARC
8
DEFAULT_255_1_388
10
22.3111809
20
44.7903587
40
0.5447818
50
79.1327128
51
90.3871707
0
ARC
8
DEFAULT_255_1_388
10
22.3477573
20
44.9731597
40
0.3583662
50
60.1434453
51
79.365517
0
ARC
8
DEFAULT_255_1_388
10
22.3766339
20
45.0286195
40
0.2959028
50
48.6191018
51
59.6466565
0
ARC
8
DEFAULT_255_1_388
10
22.3820051
20
45.0357356
40
0.2870136
50
9.0349502
51
48.4845487
0
ARC
8
DEFAULT_255_1_388
10
22.260935
20
45.0093084
40
0.4107927
50
1.2091359
51
10.0234369
0
ARC
8
DEFAULT_255_1_388
10
23.5306798
20
44.5652422
40
0.8590481
50
179.8159449
51
185.3205667
0
ARC
8
DEFAULT_255_1_388
10
23.2274643
20
44.5362945
40
0.5544553
50
185.2475628
51
192.7952551
0
ARC
8
DEFAULT_255_1_388
10
23.0292467
20
44.4908024
40
0.3510853
50
192.7195981
51
202.9584216
0
ARC
8
DEFAULT_255_1_388
10
22.2532503
20
44.7605895
40
0.2937869
50
270.006916
51
300.503478
0
ARC
8
DEFAULT_255_1_388
10
22.2670438
20
44.7461888
40
0.2744162
50
299.5482616
51
315.609538
0
ARC
8
DEFAULT_255_1_388
10
22.2996734
20
44.7128072
40
0.2277499
50
315.8682065
51
334.0592465
0
ARC
8
DEFAULT_255_1_388
10
22.3685708
20
44.02919
40
0.7845965
50
89.64297
51
97.2867877
0
ARC
8
DEFAULT_255_1_388
10
22.3189305
20
44.4008936
40
0.4096042
50
96.9938706
51
109.7783917
0
ARC
8
DEFAULT_255_1_388
10
22.2440768
20
44.6012851
40
0.1957225
50
109.0087985
51
135.3265591
0
ARC
8
DEFAULT_255_1_388
10
22.2133187
20
44.6393764
40
0.1471704
50
137.4537784
51
182.1083946
0
ARC
8
DEFAULT_255_1_388
10
22.2553887
20
44.6321101
40
0.1891498
50
179.4390335
51
195.7201623
0
ARC
8
DEFAULT_255_1_388
10
22.2090922
20
44.6194585
40
0.1411576
50
195.8683556
51
230.157074
0
ARC
8
DEFAULT_255_1_388
10
22.2363645
20
44.6521228
40
0.1837102
50
230.1532486
51
259.7486257
0
ARC
8
DEFAULT_255_1_388
10
22.2519687
20
44.7256472
40
0.258848
50
259.2461118
51
270.2915316
0
ARC
8
DEFAULT_255_1_388
10
23.0576855
20
44.4281142
40
0.1204062
50
163.5412609
51
180.5084512
0
ARC
8
DEFAULT_255_1_388
10
23.0360754
20
44.433946
40
0.0980307
50
138.1652
51
163.2315563
0
ARC
8
DEFAULT_255_1_388
10
23.0234495
20
44.4446456
40
0.0814881
50
105.6860499
51
137.8492655
0
ARC
8
DEFAULT_255_1_388
10
23.0367696
20
44.4014109
40
0.126719
50
92.6078949
51
106.199173
0
ARC
8
DEFAULT_255_1_388
10
23.0401886
20
44.3568207
40
0.1714243
50
89.9659531
51
93.0713334
0
ARC
8
DEFAULT_255_1_388
10
23.0413922
20
44.3818484
40
0.1464007
50
78.4379126
51
90.4311892
0
ARC
8
DEFAULT_255_1_388
10
23.0522569
20
44.4325017
40
0.094599
50
56.8961942
51
78.7357785
0
ARC
8
DEFAULT_255_1_388
10
23.0593679
20
44.4449075
40
0.0803272
50
42.6503148
51
56.3122241
0
ARC
8
DEFAULT_255_1_388
10
23.0449581
20
44.4316661
40
0.099897
50
3.8141057
51
42.636595
0
ARC
8
DEFAULT_255_1_388
10
23.0126903
20
44.4271616
40
0.1324137
50
359.9498843
51
4.8301897
0
ARC
8
DEFAULT_255_1_388
10
23.038204
20
44.4259722
40
0.1069053
50
340.9378148
51
0.5753733
0
ARC
8
DEFAULT_255_1_388
10
23.0508623
20
44.4225569
40
0.0938301
50
316.0798885
51
340.3845117
0
ARC
8
DEFAULT_255_1_388
10
23.0573934
20
44.416552
40
0.0849605
50
285.8512844
51
315.941661
0
ARC
8
DEFAULT_255_1_388
10
23.0441814
20
44.459262
40
0.1296594
50
273.1293204
51
286.3125006
0
ARC
8
DEFAULT_255_1_388
10
23.0404324
20
44.5044586
40
0.1749979
50
269.9535313
51
273.5471598
0
ARC
8
DEFAULT_255_1_388
10
23.0391929
20
44.4798833
40
0.1504266
50
259.0487117
51
270.4180248
0
ARC
8
DEFAULT_255_1_388
10
23.0283542
20
44.4261783
40
0.0956414
50
239.7583641
51
259.3115656
0
ARC
8
DEFAULT_255_1_388
10
23.0192475
20
44.4092048
40
0.0763945
50
222.6243303
51
239.2473835
0
ARC
8
DEFAULT_255_1_388
10
23.0343646
20
44.4230572
40
0.0968985
50
182.9231258
51
222.598101
0
ARC
8
DEFAULT_255_1_388
10
23.0646845
20
44.4269696
40
0.1274004
50
179.9657458
51
183.9850364
0
LINE
8
DEFAULT_255_1_388
10
24.1092072
20
45.6549898
11
24.1092072
21
44.781243
0
LINE
8
DEFAULT_255_1_388
10
24.1092072
20
44.781243
11
24.2917272
21
44.781243
0
LINE
8
DEFAULT_255_1_388
10
24.2917272
20
44.781243
11
24.2917272
21
44.6448048
0
LINE
8
DEFAULT_255_1_388
10
24.2917272
20
44.6448048
11
24.1092072
21
44.6448048
0
LINE
8
DEFAULT_255_1_388
10
24.1092072
20
44.6448048
11
24.1092072
21
44.3394
0
LINE
8
DEFAULT_255_1_388
10
24.1092072
20
44.3394
11
23.9411442
21
44.3394
0
LINE
8
DEFAULT_255_1_388
10
23.9411442
20
44.3394
11
23.9411442
21
44.6448048
0
LINE
8
DEFAULT_255_1_388
10
23.9411442
20
44.6448048
11
23.342081
21
44.6448048
0
LINE
8
DEFAULT_255_1_388
10
23.342081
20
44.6448048
11
23.342081
21
44.7432933
0
LINE
8
DEFAULT_255_1_388
10
23.342081
20
44.7432933
11
23.931205
21
45.6549898
0
LINE
8
DEFAULT_255_1_388
10
23.931205
20
45.6549898
11
24.1092072
21
45.6549898
0
LINE
8
DEFAULT_255_1_388
10
23.9212658
20
45.3902455
11
23.5318295
21
44.781243
0
LINE
8
DEFAULT_255_1_388
10
23.5318295
20
44.781243
11
23.9411442
21
44.781243
0
LINE
8
DEFAULT_255_1_388
10
23.9411442
20
44.781243
11
23.9411442
21
45.426388
0
LINE
8
DEFAULT_255_1_388
10
23.9411442
20
45.426388
11
23.9212658
21
45.3902455
0
LINE
8
DEFAULT_255_1_388
10
23.3796318
20
52.4133382
11
23.3796318
21
52.2769
0
LINE
8
DEFAULT_255_1_388
10
23.3796318
20
52.2769
11
22.5176313
21
52.2769
0
LINE
8
DEFAULT_255_1_388
10
22.5176313
20
52.2769
11
22.5176313
21
52.3970741
0
LINE
8
DEFAULT_255_1_388
10
22.5176313
20
52.3970741
11
22.9730278
21
52.9030702
0
LINE
8
DEFAULT_255_1_388
10
22.6594909
20
53.2048607
11
22.4923315
21
53.2048607
0
LINE
8
DEFAULT_255_1_388
10
23.0715163
20
52.795546
11
22.7191262
21
52.4133382
0
LINE
8
DEFAULT_255_1_388
10
22.7191262
20
52.4133382
11
23.3796318
21
52.4133382
0
ARC
8
DEFAULT_255_1_388
10
21.4554337
20
54.2450983
40
2.0258655
50
318.5132526
51
320.7829045
0
ARC
8
DEFAULT_255_1_388
10
22.0502294
20
53.7609929
40
1.2589638
50
320.7372878
51
323.9739031
0
ARC
8
DEFAULT_255_1_388
10
22.4911226
20
53.4415554
40
0.7145141
50
323.8962701
51
328.64194
0
ARC
8
DEFAULT_255_1_388
10
22.7213484
20
53.2995545
40
0.4440242
50
328.8294576
51
331.7891185
0
ARC
8
DEFAULT_255_1_388
10
22.8335804
20
53.2416374
40
0.3177517
50
331.4254512
51
352.9365785
0
ARC
8
DEFAULT_255_1_388
10
22.8488804
20
53.238205
40
0.3021496
50
353.2257659
51
0.0166158
0
ARC
8
DEFAULT_255_1_388
10
22.8725564
20
53.2407894
40
0.2784847
50
359.486299
51
15.9343185
0
ARC
8
DEFAULT_255_1_388
10
22.9295831
20
53.2561269
40
0.2194403
50
16.1712913
51
43.5286088
0
ARC
8
DEFAULT_255_1_388
10
22.9382776
20
53.2648191
40
0.2071504
50
43.4417391
51
83.1661095
0
ARC
8
DEFAULT_255_1_388
10
22.9231937
20
53.1819316
40
0.2912888
50
82.160179
51
90.1505708
0
ARC
8
DEFAULT_255_1_388
10
22.9196418
20
53.1215279
40
0.3517025
50
89.5460741
51
102.5418361
0
ARC
8
DEFAULT_255_1_388
10
22.8923138
20
53.2374933
40
0.2325748
50
102.1738499
51
129.206123
0
ARC
8
DEFAULT_255_1_388
10
22.8834592
20
53.2514664
40
0.2161591
50
129.72865
51
135.753947
0
ARC
8
DEFAULT_255_1_388
10
22.8971074
20
53.2405728
40
0.2335433
50
136.1757367
51
166.3673339
0
ARC
8
DEFAULT_255_1_388
10
23.0103762
20
53.2102148
40
0.3507873
50
165.9090694
51
178.8684636
0
ARC
8
DEFAULT_255_1_388
10
23.1079534
20
53.2049263
40
0.4484624
50
178.4391136
51
180.0083808
0
ARC
8
DEFAULT_255_1_388
10
22.9500235
20
53.2093197
40
0.4577138
50
163.2878482
51
180.5581842
0
ARC
8
DEFAULT_255_1_388
10
22.8598276
20
53.2341393
40
0.3641968
50
133.4540601
51
162.947111
0
ARC
8
DEFAULT_255_1_388
10
22.8799158
20
53.2127789
40
0.3935189
50
100.7869829
51
133.4382499
0
ARC
8
DEFAULT_255_1_388
10
22.9190403
20
53.0385399
40
0.5720313
50
89.660664
51
101.3702276
0
ARC
8
DEFAULT_255_1_388
10
22.9265012
20
53.0454263
40
0.5651495
50
78.2172678
51
90.412935
0
ARC
8
DEFAULT_255_1_388
10
22.9664478
20
53.2281511
40
0.378122
50
55.9269121
51
78.4888449
0
ARC
8
DEFAULT_255_1_388
10
22.9885193
20
53.2662187
40
0.3342379
50
47.929771
51
55.4049217
0
ARC
8
DEFAULT_255_1_388
10
22.9999723
20
53.2778618
40
0.3179217
50
4.334829
51
48.0560205
0
ARC
8
DEFAULT_255_1_388
10
22.8767525
20
53.2587487
40
0.442341
50
359.9251713
51
5.5971671
0
ARC
8
DEFAULT_255_1_388
10
22.924968
20
53.2650728
40
0.3941854
50
337.8914027
51
358.9967534
0
ARC
8
DEFAULT_255_1_388
10
22.619725
20
53.3828295
40
0.7213271
50
326.9132501
51
338.3508308
0
ARC
8
DEFAULT_255_1_388
10
22.1713362
20
53.6702105
40
1.2538973
50
319.6471833
51
327.0959558
0
ARC
8
DEFAULT_255_1_388
10
21.740002
20
54.026005
40
1.8129975
50
317.2588228
51
319.9045804
0
LINE
8
DEFAULT_255_1_388
10
23.7744895
20
53.5924898
11
23.7744895
21
52.4187596
0
LINE
8
DEFAULT_255_1_388
10
23.7744895
20
52.4187596
11
24.3979489
21
52.4187596
0
LINE
8
DEFAULT_255_1_388
10
24.3979489
20
52.4187596
11
24.3979489
21
52.2769
0
LINE
8
DEFAULT_255_1_388
10
24.3979489
20
52.2769
11
23.6001015
21
52.2769
0
LINE
8
DEFAULT_255_1_388
10
23.6001015
20
52.2769
11
23.6001015
21
53.5924898
0
LINE
8
DEFAULT_255_1_388
10
23.6001015
20
53.5924898
11
23.7744895
21
53.5924898
0
LINE
8
DEFAULT_255_1_388
10
22.8382716
20
60.2144
11
22.6629801
21
60.2144
0
LINE
8
DEFAULT_255_1_388
10
22.4741351
20
60.8071383
11
22.6367767
21
60.8071383
0
LINE
8
DEFAULT_255_1_388
10
22.6367767
20
60.8071383
11
22.6367767
21
60.8839413
0
LINE
8
DEFAULT_255_1_388
10
22.2193299
20
60.9209874
11
22.0512669
21
60.9209874
0
LINE
8
DEFAULT_255_1_388
10
22.8039361
20
60.8929769
11
22.8039361
21
60.4430018
0
LINE
8
DEFAULT_255_1_388
10
22.8382716
20
60.228857
11
22.8382716
21
60.2144
0
LINE
8
DEFAULT_255_1_388
10
22.6367767
20
60.48818
11
22.6367767
21
60.6887713
0
LINE
8
DEFAULT_255_1_388
10
22.6367767
20
60.6887713
11
22.5057599
21
60.6887713
0
ARC
8
DEFAULT_255_1_388
10
22.779895
20
60.27111
40
0.1299428
50
197.0784902
51
205.8758668
0
ARC
8
DEFAULT_255_1_388
10
22.9193536
20
60.3152959
40
0.2762313
50
192.2927663
51
197.3441989
0
ARC
8
DEFAULT_255_1_388
10
23.1389042
20
60.364076
40
0.5011345
50
189.1573793
51
192.3977084
0
ARC
8
DEFAULT_255_1_388
10
23.4553888
20
60.4156878
40
0.8217995
50
186.8686098
51
189.1982636
0
ARC
8
DEFAULT_255_1_388
10
22.3498979
20
60.589726
40
0.3975173
50
294.0079259
51
316.7603918
0
ARC
8
DEFAULT_255_1_388
10
22.3644162
20
60.5692902
40
0.3729755
50
269.5043226
51
293.2478373
0
ARC
8
DEFAULT_255_1_388
10
22.3577214
20
60.6143915
40
0.4180772
50
255.4034155
51
270.4753052
0
ARC
8
DEFAULT_255_1_388
10
22.3318427
20
60.5139652
40
0.3143705
50
228.6141063
51
255.3550831
0
ARC
8
DEFAULT_255_1_388
10
22.2944409
20
60.478154
40
0.2628114
50
181.8954381
51
229.5703134
0
ARC
8
DEFAULT_255_1_388
10
22.3609345
20
60.4853824
40
0.329546
50
179.9848815
51
182.7691528
0
ARC
8
DEFAULT_255_1_388
10
22.3516411
20
60.4892827
40
0.3202753
50
161.0342928
51
180.6822077
0
ARC
8
DEFAULT_255_1_388
10
22.3022026
20
60.5021422
40
0.2693695
50
125.0525065
51
160.2034058
0
ARC
8
DEFAULT_255_1_388
10
22.3766748
20
60.4005275
40
0.3953338
50
106.2670809
51
125.4300189
0
ARC
8
DEFAULT_255_1_388
10
22.4410789
20
60.1900795
40
0.6154041
50
95.4857579
51
106.5348562
0
ARC
8
DEFAULT_255_1_388
10
22.4718077
20
59.9088993
40
0.8982419
50
89.8515405
51
95.7222579
0
ARC
8
DEFAULT_255_1_388
10
22.3998658
20
60.8859925
40
0.2369198
50
359.5039339
51
14.3181205
0
ARC
8
DEFAULT_255_1_388
10
22.4644662
20
60.9027862
40
0.170173
50
14.2184556
51
45.2028524
0
ARC
8
DEFAULT_255_1_388
10
22.4685358
20
60.9043862
40
0.1661795
50
45.8098216
51
73.0032926
0
ARC
8
DEFAULT_255_1_388
10
22.4405185
20
60.818726
40
0.2562942
50
72.6112517
51
85.7231489
0
ARC
8
DEFAULT_255_1_388
10
22.4303969
20
60.7160339
40
0.3594635
50
85.335019
51
90.0855069
0
ARC
8
DEFAULT_255_1_388
10
22.4277402
20
60.7824472
40
0.2930574
50
89.5854741
51
103.459124
0
ARC
8
DEFAULT_255_1_388
10
22.4105941
20
60.8539134
40
0.2195632
50
103.448332
51
126.5403399
0
ARC
8
DEFAULT_255_1_388
10
22.3836918
20
60.8883224
40
0.1759039
50
126.1730306
51
141.5008224
0
ARC
8
DEFAULT_255_1_388
10
22.3411233
20
60.9217266
40
0.1217955
50
141.3332087
51
180.3477313
0
ARC
8
DEFAULT_255_1_388
10
22.2652656
20
60.9197904
40
0.214002
50
151.6373605
51
179.6795088
0
ARC
8
DEFAULT_255_1_388
10
22.3329892
20
60.8860768
40
0.2896224
50
142.4981529
51
152.1330509
0
ARC
8
DEFAULT_255_1_388
10
22.3687896
20
60.8579781
40
0.3351307
50
120.8284906
51
142.4132156
0
ARC
8
DEFAULT_255_1_388
10
22.4155872
20
60.7847185
40
0.4220297
50
113.9634885
51
121.1871733
0
ARC
8
DEFAULT_255_1_388
10
22.4309181
20
60.7473705
40
0.4623867
50
93.3784336
51
113.8197902
0
ARC
8
DEFAULT_255_1_388
10
22.4395563
20
60.6612549
40
0.5488732
50
89.9745993
51
93.7488475
0
ARC
8
DEFAULT_255_1_388
10
22.4434809
20
60.6653587
40
0.5447818
50
79.1327128
51
90.3871707
0
ARC
8
DEFAULT_255_1_388
10
22.4800573
20
60.8481597
40
0.3583662
50
60.1434453
51
79.365517
0
ARC
8
DEFAULT_255_1_388
10
22.5089339
20
60.9036195
40
0.2959028
50
48.6191018
51
59.6466565
0
ARC
8
DEFAULT_255_1_388
10
22.5143051
20
60.9107356
40
0.2870136
50
9.0349502
51
48.4845487
0
ARC
8
DEFAULT_255_1_388
10
22.393235
20
60.8843084
40
0.4107927
50
1.2091359
51
10.0234369
0
ARC
8
DEFAULT_255_1_388
10
23.6629798
20
60.4402422
40
0.8590481
50
179.8159449
51
185.3205667
0
ARC
8
DEFAULT_255_1_388
10
23.3597643
20
60.4112945
40
0.5544553
50
185.2475628
51
192.7952551
0
ARC
8
DEFAULT_255_1_388
10
23.1615467
20
60.3658024
40
0.3510853
50
192.7195981
51
202.9584216
0
ARC
8
DEFAULT_255_1_388
10
22.3855503
20
60.6355895
40
0.2937869
50
270.006916
51
300.503478
0
ARC
8
DEFAULT_255_1_388
10
22.3993438
20
60.6211888
40
0.2744162
50
299.5482616
51
315.609538
0
ARC
8
DEFAULT_255_1_388
10
22.4319734
20
60.5878072
40
0.2277499
50
315.8682065
51
334.0592465
0
ARC
8
DEFAULT_255_1_388
10
22.5008708
20
59.90419
40
0.7845965
50
89.64297
51
97.2867877
0
ARC
8
DEFAULT_255_1_388
10
22.4512305
20
60.2758936
40
0.4096042
50
96.9938706
51
109.7783917
0
ARC
8
DEFAULT_255_1_388
10
22.3763768
20
60.4762851
40
0.1957225
50
109.0087985
51
135.3265591
0
ARC
8
DEFAULT_255_1_388
10
22.3456187
20
60.5143764
40
0.1471704
50
137.4537784
51
182.1083946
0
ARC
8
DEFAULT_255_1_388
10
22.3876887
20
60.5071101
40
0.1891498
50
179.4390335
51
195.7201623
0
ARC
8
DEFAULT_255_1_388
10
22.3413922
20
60.4944585
40
0.1411576
50
195.8683556
51
230.157074
0
ARC
8
DEFAULT_255_1_388
10
22.3686645
20
60.5271228
40
0.1837102
50
230.1532486
51
259.7486257
0
ARC
8
DEFAULT_255_1_388
10
22.3842687
20
60.6006472
40
0.258848
50
259.2461118
51
270.2915316
0
ARC
8
DEFAULT_255_1_388
10
23.1899855
20
60.3031142
40
0.1204062
50
163.5412609
51
180.5084512
0
ARC
8
DEFAULT_255_1_388
10
23.1683754
20
60.308946
40
0.0980307
50
138.1652
51
163.2315563
0
ARC
8
DEFAULT_255_1_388
10
23.1557495
20
60.3196456
40
0.0814881
50
105.6860499
51
137.8492655
0
ARC
8
DEFAULT_255_1_388
10
23.1690696
20
60.2764109
40
0.126719
50
92.6078949
51
106.199173
0
ARC
8
DEFAULT_255_1_388
10
23.1724886
20
60.2318207
40
0.1714243
50
89.9659531
51
93.0713334
0
ARC
8
DEFAULT_255_1_388
10
23.1736922
20
60.2568484
40
0.1464007
50
78.4379126
51
90.4311892
0
ARC
8
DEFAULT_255_1_388
10
23.1845569
20
60.3075017
40
0.094599
50
56.8961942
51
78.7357785
0
ARC
8
DEFAULT_255_1_388
10
23.1916679
20
60.3199075
40
0.0803272
50
42.6503148
51
56.3122241
0
ARC
8
DEFAULT_255_1_388
10
23.1772581
20
60.3066661
40
0.099897
50
3.8141057
51
42.636595
0
ARC
8
DEFAULT_255_1_388
10
23.1449903
20
60.3021616
40
0.1324137
50
359.9498843
51
4.8301897
0
ARC
8
DEFAULT_255_1_388
10
23.170504
20
60.3009722
40
0.1069053
50
340.9378148
51
0.5753733
0
ARC
8
DEFAULT_255_1_388
10
23.1831623
20
60.2975569
40
0.0938301
50
316.0798885
51
340.3845117
0
ARC
8
DEFAULT_255_1_388
10
23.1896934
20
60.291552
40
0.0849605
50
285.8512844
51
315.941661
0
ARC
8
DEFAULT_255_1_388
10
23.1764814
20
60.334262
40
0.1296594
50
273.1293204
51
286.3125006
0
ARC
8
DEFAULT_255_1_388
10
23.1727324
20
60.3794586
40
0.1749979
50
269.9535313
51
273.5471598
0
ARC
8
DEFAULT_255_1_388
10
23.1714929
20
60.3548833
40
0.1504266
50
259.0487117
51
270.4180248
0
ARC
8
DEFAULT_255_1_388
10
23.1606542
20
60.3011783
40
0.0956414
50
239.7583641
51
259.3115656
0
ARC
8
DEFAULT_255_1_388
10
23.1515475
20
60.2842048
40
0.0763945
50
222.6243303
51
239.2473835
0
ARC
8
DEFAULT_255_1_388
10
23.1666646
20
60.2980572
40
0.0968985
50
182.9231258
51
222.598101
0
ARC
8
DEFAULT_255_1_388
10
23.1969845
20
60.3019696
40
0.1274004
50
179.9657458
51
183.9850364
0
LINE
8
DEFAULT_255_1_388
10
23.7788822
20
60.8170775
11
23.7788822
21
60.9535157
0
LINE
8
DEFAULT_255_1_388
10
23.7788822
20
60.9535157
11
23.9044776
21
60.9535157
0
LINE
8
DEFAULT_255_1_388
10
23.6903329
20
61.1848282
11
23.5231734
21
61.1848282
0
LINE
8
DEFAULT_255_1_388
10
23.5114271
20
60.5613688
11
23.6794901
21
60.5613688
0
LINE
8
DEFAULT_255_1_388
10
23.9044776
20
60.8170775
11
23.7788822
21
60.8170775
0
ARC
8
DEFAULT_255_1_388
10
23.9012003
20
61.3351922
40
0.3816905
50
270.491971
51
281.8953028
0
ARC
8
DEFAULT_255_1_388
10
23.928343
20
61.2112199
40
0.2547877
50
281.6690378
51
301.2943765
0
ARC
8
DEFAULT_255_1_388
10
23.9474881
20
61.1761926
40
0.2149197
50
301.7834992
51
311.754567
0
ARC
8
DEFAULT_255_1_388
10
23.9577923
20
61.164765
40
0.1995326
50
311.7325027
51
354.2803031
0
ARC
8
DEFAULT_255_1_388
10
23.8760338
20
61.178828
40
0.2823461
50
353.0941646
51
0.1174696
0
ARC
8
DEFAULT_255_1_388
10
23.8241896
20
61.1841874
40
0.3342238
50
359.1804452
51
15.0452323
0
ARC
8
DEFAULT_255_1_388
10
23.9755955
20
61.2283546
40
0.1765747
50
13.957816
51
77.6713812
0
ARC
8
DEFAULT_255_1_388
10
23.932119
20
61.0725464
40
0.3381982
50
76.111571
51
90.7028736
0
ARC
8
DEFAULT_255_1_388
10
23.9254603
20
61.103325
40
0.3074046
50
89.5321574
51
103.5319393
0
ARC
8
DEFAULT_255_1_388
10
23.9028986
20
61.1932443
40
0.2147041
50
103.2930114
51
133.5619756
0
ARC
8
DEFAULT_255_1_388
10
23.8978928
20
61.1999351
40
0.2064084
50
133.8349761
51
173.5343225
0
ARC
8
DEFAULT_255_1_388
10
23.9792585
20
61.1855144
40
0.2889266
50
172.5097183
51
180.1360699
0
ARC
8
DEFAULT_255_1_388
10
23.8722349
20
61.189388
40
0.3490913
50
155.3483706
51
180.7484035
0
ARC
8
DEFAULT_255_1_388
10
23.8667325
20
61.1861519
40
0.3454798
50
131.5745177
51
154.4799474
0
ARC
8
DEFAULT_255_1_388
10
23.9019607
20
61.1505422
40
0.3955058
50
96.9874487
51
131.9690874
0
ARC
8
DEFAULT_255_1_388
10
23.92665
20
61.0104407
40
0.537622
50
89.8592909
51
97.7827481
0
ARC
8
DEFAULT_255_1_388
10
23.9320609
20
60.980936
40
0.5671399
50
78.3654493
51
90.4132586
0
ARC
8
DEFAULT_255_1_388
10
23.972325
20
61.1675918
40
0.3762034
50
56.6229818
51
78.6387103
0
ARC
8
DEFAULT_255_1_388
10
23.9965079
20
61.2098846
40
0.3275964
50
47.0254604
51
56.085558
0
ARC
8
DEFAULT_255_1_388
10
23.998733
20
61.2143189
40
0.3228382
50
10.9207523
51
46.777927
0
ARC
8
DEFAULT_255_1_388
10
23.8452924
20
61.1788401
40
0.4802559
50
359.6364235
51
11.6087615
0
ARC
8
DEFAULT_255_1_388
10
24.051709
20
61.1771404
40
0.273833
50
332.3549969
51
359.7179765
0
ARC
8
DEFAULT_255_1_388
10
23.9785491
20
61.2118285
40
0.3547505
50
325.2332381
51
332.8746682
0
ARC
8
DEFAULT_255_1_388
10
23.9957074
20
61.1998763
40
0.3338396
50
292.9803892
51
325.2391113
0
ARC
8
DEFAULT_255_1_388
10
23.9646269
20
61.2603679
40
0.4016959
50
292.542178
51
293.6931461
0
ARC
8
DEFAULT_255_1_388
10
24.0089841
20
60.5338036
40
0.372079
50
57.643292
51
72.8626085
0
ARC
8
DEFAULT_255_1_388
10
24.0488676
20
60.5984273
40
0.2961455
50
36.7246661
51
57.4701329
0
ARC
8
DEFAULT_255_1_388
10
24.0475833
20
60.599847
40
0.2963321
50
8.054535
51
36.3561529
0
ARC
8
DEFAULT_255_1_388
10
23.9505505
20
60.5824073
40
0.3948682
50
359.8316595
51
8.5873361
0
ARC
8
DEFAULT_255_1_388
10
23.9082979
20
60.576997
40
0.4371398
50
343.9831631
51
0.557075
0
ARC
8
DEFAULT_255_1_388
10
24.0080029
20
60.5496963
40
0.3337749
50
311.6358204
51
343.7652116
0
ARC
8
DEFAULT_255_1_388
10
23.9654283
20
60.5976955
40
0.3979351
50
279.7829743
51
311.625622
0
ARC
8
DEFAULT_255_1_388
10
23.9315418
20
60.7593642
40
0.5630417
50
269.7285092
51
280.3857694
0
ARC
8
DEFAULT_255_1_388
10
23.9245731
20
60.7547241
40
0.5584119
50
256.6827433
51
270.4412869
0
ARC
8
DEFAULT_255_1_388
10
23.8864717
20
60.5989698
40
0.3980715
50
229.4223821
51
256.8554507
0
ARC
8
DEFAULT_255_1_388
10
23.8398271
20
60.5464683
40
0.3278564
50
181.8183354
51
229.6455015
0
ARC
8
DEFAULT_255_1_388
10
23.956788
20
60.5611825
40
0.4453611
50
179.9760419
51
183.2330638
0
ARC
8
DEFAULT_255_1_388
10
23.9374433
20
60.5588781
40
0.2579652
50
179.4467996
51
196.2871626
0
ARC
8
DEFAULT_255_1_388
10
23.8825886
20
60.5438709
40
0.2011057
50
196.5661293
51
227.7059371
0
ARC
8
DEFAULT_255_1_388
10
23.9010493
20
60.5645155
40
0.2287994
50
227.7653015
51
257.8763321
0
ARC
8
DEFAULT_255_1_388
10
23.9263577
20
60.6705961
40
0.3378385
50
257.4583525
51
270.4267406
0
ARC
8
DEFAULT_255_1_388
10
23.9314826
20
60.703223
40
0.3704652
50
269.5965319
51
280.8788143
0
ARC
8
DEFAULT_255_1_388
10
23.9573054
20
60.5742529
40
0.2389415
50
280.6347277
51
299.8594068
0
ARC
8
DEFAULT_255_1_388
10
23.9787824
20
60.5334736
40
0.19289
50
300.3575552
51
314.5515667
0
ARC
8
DEFAULT_255_1_388
10
23.96945
20
60.5403025
40
0.204312
50
315.0730962
51
345.0429362
0
ARC
8
DEFAULT_255_1_388
10
23.8656007
20
60.5705539
40
0.31246
50
344.598526
51
357.9270698
0
ARC
8
DEFAULT_255_1_388
10
23.7646312
20
60.5774705
40
0.4136265
50
357.4755098
51
0.0224936
0
ARC
8
DEFAULT_255_1_388
10
23.8799189
20
60.5802099
40
0.2983498
50
359.5051035
51
13.4236939
0
ARC
8
DEFAULT_255_1_388
10
23.9774279
20
60.6051637
40
0.1977186
50
12.9497905
51
48.7550905
0
ARC
8
DEFAULT_255_1_388
10
23.9569201
20
60.5771373
40
0.2323321
50
49.509109
51
72.1832965
0
ARC
8
DEFAULT_255_1_388
10
23.916667
20
60.4576632
40
0.358397
50
71.9008458
51
84.3555134
0
ARC
8
DEFAULT_255_1_388
10
23.8985064
20
60.3044712
40
0.512641
50
84.019632
51
89.3326067
0
LINE
8
DEFAULT_255_1_388
10
22.8382716
20
68.1519
11
22.6629801
21
68.1519
0
LINE
8
DEFAULT_255_1_388
10
22.4741351
20
68.7446383
11
22.6367767
21
68.7446383
0
LINE
8
DEFAULT_255_1_388
10
22.6367767
20
68.7446383
11
22.6367767
21
68.8214413
0
LINE
8
DEFAULT_255_1_388
10
22.2193299
20
68.8584874
11
22.0512669
21
68.8584874
0
LINE
8
DEFAULT_255_1_388
10
22.8039361
20
68.8304769
11
22.8039361
21
68.3805018
0
LINE
8
DEFAULT_255_1_388
10
22.8382716
20
68.166357
11
22.8382716
21
68.1519
0
LINE
8
DEFAULT_255_1_388
10
22.6367767
20
68.42568
11
22.6367767
21
68.6262713
0
LINE
8
DEFAULT_255_1_388
10
22.6367767
20
68.6262713
11
22.5057599
21
68.6262713
0
ARC
8
DEFAULT_255_1_388
10
22.779895
20
68.20861
40
0.1299428
50
197.0784902
51
205.8758668
0
ARC
8
DEFAULT_255_1_388
10
22.9193536
20
68.2527959
40
0.2762313
50
192.2927663
51
197.3441989
0
ARC
8
DEFAULT_255_1_388
10
23.1389042
20
68.301576
40
0.5011345
50
189.1573793
51
192.3977084
0
ARC
8
DEFAULT_255_1_388
10
23.4553888
20
68.3531878
40
0.8217995
50
186.8686098
51
189.1982636
0
ARC
8
DEFAULT_255_1_388
10
22.3498979
20
68.527226
40
0.3975173
50
294.0079259
51
316.7603918
0
ARC
8
DEFAULT_255_1_388
10
22.3644162
20
68.5067902
40
0.3729755
50
269.5043226
51
293.2478373
0
ARC
8
DEFAULT_255_1_388
10
22.3577214
20
68.5518915
40
0.4180772
50
255.4034155
51
270.4753052
0
ARC
8
DEFAULT_255_1_388
10
22.3318427
20
68.4514652
40
0.3143705
50
228.6141063
51
255.3550831
0
ARC
8
DEFAULT_255_1_388
10
22.2944409
20
68.415654
40
0.2628114
50
181.8954381
51
229.5703134
0
ARC
8
DEFAULT_255_1_388
10
22.3609345
20
68.4228824
40
0.329546
50
179.9848815
51
182.7691528
0
ARC
8
DEFAULT_255_1_388
10
22.3516411
20
68.4267827
40
0.3202753
50
161.0342928
51
180.6822077
0
ARC
8
DEFAULT_255_1_388
10
22.3022026
20
68.4396422
40
0.2693695
50
125.0525065
51
160.2034058
0
ARC
8
DEFAULT_255_1_388
10
22.3766748
20
68.3380275
40
0.3953338
50
106.2670809
51
125.4300189
0
ARC
8
DEFAULT_255_1_388
10
22.4410789
20
68.1275795
40
0.6154041
50
95.4857579
51
106.5348562
0
ARC
8
DEFAULT_255_1_388
10
22.4718077
20
67.8463993
40
0.8982419
50
89.8515405
51
95.7222579
0
ARC
8
DEFAULT_255_1_388
10
22.3998658
20
68.8234925
40
0.2369198
50
359.5039339
51
14.3181205
0
ARC
8
DEFAULT_255_1_388
10
22.4644662
20
68.8402862
40
0.170173
50
14.2184556
51
45.2028524
0
ARC
8
DEFAULT_255_1_388
10
22.4685358
20
68.8418862
40
0.1661795
50
45.8098216
51
73.0032926
0
ARC
8
DEFAULT_255_1_388
10
22.4405185
20
68.756226
40
0.2562942
50
72.6112517
51
85.7231489
0
ARC
8
DEFAULT_255_1_388
10
22.4303969
20
68.6535339
40
0.3594635
50
85.335019
51
90.0855069
0
ARC
8
DEFAULT_255_1_388
10
22.4277402
20
68.7199472
40
0.2930574
50
89.5854741
51
103.459124
0
ARC
8
DEFAULT_255_1_388
10
22.4105941
20
68.7914134
40
0.2195632
50
103.448332
51
126.5403399
0
ARC
8
DEFAULT_255_1_388
10
22.3836918
20
68.8258224
40
0.1759039
50
126.1730306
51
141.5008224
0
ARC
8
DEFAULT_255_1_388
10
22.3411233
20
68.8592266
40
0.1217955
50
141.3332087
51
180.3477313
0
ARC
8
DEFAULT_255_1_388
10
22.2652656
20
68.8572904
40
0.214002
50
151.6373605
51
179.6795088
0
ARC
8
DEFAULT_255_1_388
10
22.3329892
20
68.8235768
40
0.2896224
50
142.4981529
51
152.1330509
0
ARC
8
DEFAULT_255_1_388
10
22.3687896
20
68.7954781
40
0.3351307
50
120.8284906
51
142.4132156
0
ARC
8
DEFAULT_255_1_388
10
22.4155872
20
68.7222185
40
0.4220297
50
113.9634885
51
121.1871733
0
ARC
8
DEFAULT_255_1_388
10
22.4309181
20
68.6848705
40
0.4623867
50
93.3784336
51
113.8197902
0
ARC
8
DEFAULT_255_1_388
10
22.4395563
20
68.5987549
40
0.5488732
50
89.9745993
51
93.7488475
0
ARC
8
DEFAULT_255_1_388
10
22.4434809
20
68.6028587
40
0.5447818
50
79.1327128
51
90.3871707
0
ARC
8
DEFAULT_255_1_388
10
22.4800573
20
68.7856597
40
0.3583662
50
60.1434453
51
79.365517
0
ARC
8
DEFAULT_255_1_388
10
22.5089339
20
68.8411195
40
0.2959028
50
48.6191018
51
59.6466565
0
ARC
8
DEFAULT_255_1_388
10
22.5143051
20
68.8482356
40
0.2870136
50
9.0349502
51
48.4845487
0
ARC
8
DEFAULT_255_1_388
10
22.393235
20
68.8218084
40
0.4107927
50
1.2091359
51
10.0234369
0
ARC
8
DEFAULT_255_1_388
10
23.6629798
20
68.3777422
40
0.8590481
50
179.8159449
51
185.3205667
0
ARC
8
DEFAULT_255_1_388
10
23.3597643
20
68.3487945
40
0.5544553
50
185.2475628
51
192.7952551
0
ARC
8
DEFAULT_255_1_388
10
23.1615467
20
68.3033024
40
0.3510853
50
192.7195981
51
202.9584216
0
ARC
8
DEFAULT_255_1_388
10
22.3855503
20
68.5730895
40
0.2937869
50
270.006916
51
300.503478
0
ARC
8
DEFAULT_255_1_388
10
22.3993438
20
68.5586888
40
0.2744162
50
299.5482616
51
315.609538
0
ARC
8
DEFAULT_255_1_388
10
22.4319734
20
68.5253072
40
0.2277499
50
315.8682065
51
334.0592465
0
ARC
8
DEFAULT_255_1_388
10
22.5008708
20
67.84169
40
0.7845965
50
89.64297
51
97.2867877
0
ARC
8
DEFAULT_255_1_388
10
22.4512305
20
68.2133936
40
0.4096042
50
96.9938706
51
109.7783917
0
ARC
8
DEFAULT_255_1_388
10
22.3763768
20
68.4137851
40
0.1957225
50
109.0087985
51
135.3265591
0
ARC
8
DEFAULT_255_1_388
10
22.3456187
20
68.4518764
40
0.1471704
50
137.4537784
51
182.1083946
0
ARC
8
DEFAULT_255_1_388
10
22.3876887
20
68.4446101
40
0.1891498
50
179.4390335
51
195.7201623
0
ARC
8
DEFAULT_255_1_388
10
22.3413922
20
68.4319585
40
0.1411576
50
195.8683556
51
230.157074
0
ARC
8
DEFAULT_255_1_388
10
22.3686645
20
68.4646228
40
0.1837102
50
230.1532486
51
259.7486257
0
ARC
8
DEFAULT_255_1_388
10
22.3842687
20
68.5381472
40
0.258848
50
259.2461118
51
270.2915316
0
ARC
8
DEFAULT_255_1_388
10
23.1899855
20
68.2406142
40
0.1204062
50
163.5412609
51
180.5084512
0
ARC
8
DEFAULT_255_1_388
10
23.1683754
20
68.246446
40
0.0980307
50
138.1652
51
163.2315563
0
ARC
8
DEFAULT_255_1_388
10
23.1557495
20
68.2571456
40
0.0814881
50
105.6860499
51
137.8492655
0
ARC
8
DEFAULT_255_1_388
10
23.1690696
20
68.2139109
40
0.126719
50
92.6078949
51
106.199173
0
ARC
8
DEFAULT_255_1_388
10
23.1724886
20
68.1693207
40
0.1714243
50
89.9659531
51
93.0713334
0
ARC
8
DEFAULT_255_1_388
10
23.1736922
20
68.1943484
40
0.1464007
50
78.4379126
51
90.4311892
0
ARC
8
DEFAULT_255_1_388
10
23.1845569
20
68.2450017
40
0.094599
50
56.8961942
51
78.7357785
0
ARC
8
DEFAULT_255_1_388
10
23.1916679
20
68.2574075
40
0.0803272
50
42.6503148
51
56.3122241
0
ARC
8
DEFAULT_255_1_388
10
23.1772581
20
68.2441661
40
0.099897
50
3.8141057
51
42.636595
0
ARC
8
DEFAULT_255_1_388
10
23.1449903
20
68.2396616
40
0.1324137
50
359.9498843
51
4.8301897
0
ARC
8
DEFAULT_255_1_388
10
23.170504
20
68.2384722
40
0.1069053
50
340.9378148
51
0.5753733
0
ARC
8
DEFAULT_255_1_388
10
23.1831623
20
68.2350569
40
0.0938301
50
316.0798885
51
340.3845117
0
ARC
8
DEFAULT_255_1_388
10
23.1896934
20
68.229052
40
0.0849605
50
285.8512844
51
315.941661
0
ARC
8
DEFAULT_255_1_388
10
23.1764814
20
68.271762
40
0.1296594
50
273.1293204
51
286.3125006
0
ARC
8
DEFAULT_255_1_388
10
23.1727324
20
68.3169586
40
0.1749979
50
269.9535313
51
273.5471598
0
ARC
8
DEFAULT_255_1_388
10
23.1714929
20
68.2923833
40
0.1504266
50
259.0487117
51
270.4180248
0
ARC
8
DEFAULT_255_1_388
10
23.1606542
20
68.2386783
40
0.0956414
50
239.7583641
51
259.3115656
0
ARC
8
DEFAULT_255_1_388
10
23.1515475
20
68.2217048
40
0.0763945
50
222.6243303
51
239.2473835
0
ARC
8
DEFAULT_255_1_388
10
23.1666646
20
68.2355572
40
0.0968985
50
182.9231258
51
222.598101
0
ARC
8
DEFAULT_255_1_388
10
23.1969845
20
68.2394696
40
0.1274004
50
179.9657458
51
183.9850364
0
LINE
8
DEFAULT_255_1_388
10
24.3978238
20
68.2883382
11
24.3978238
21
68.1519
0
LINE
8
DEFAULT_255_1_388
10
24.3978238
20
68.1519
11
23.5358233
21
68.1519
0
LINE
8
DEFAULT_255_1_388
10
23.5358233
20
68.1519
11
23.5358233
21
68.2720741
0
LINE
8
DEFAULT_255_1_388
10
23.5358233
20
68.2720741
11
23.9912198
21
68.7780702
0
LINE
8
DEFAULT_255_1_388
10
23.677683
20
69.0798607
11
23.5105235
21
69.0798607
0
LINE
8
DEFAULT_255_1_388
10
24.0897083
20
68.670546
11
23.7373182
21
68.2883382
0
LINE
8
DEFAULT_255_1_388
10
23.7373182
20
68.2883382
11
24.3978238
21
68.2883382
0
ARC
8
DEFAULT_255_1_388
10
22.4736258
20
70.1200983
40
2.0258655
50
318.5132526
51
320.7829045
0
ARC
8
DEFAULT_255_1_388
10
23.0684215
20
69.6359929
40
1.2589638
50
320.7372878
51
323.9739031
0
ARC
8
DEFAULT_255_1_388
10
23.5093146
20
69.3165554
40
0.7145141
50
323.8962701
51
328.64194
0
ARC
8
DEFAULT_255_1_388
10
23.7395404
20
69.1745545
40
0.4440242
50
328.8294576
51
331.7891185
0
ARC
8
DEFAULT_255_1_388
10
23.8517724
20
69.1166374
40
0.3177517
50
331.4254512
51
352.9365785
0
ARC
8
DEFAULT_255_1_388
10
23.8670724
20
69.113205
40
0.3021496
50
353.2257659
51
0.0166158
0
ARC
8
DEFAULT_255_1_388
10
23.8907485
20
69.1157894
40
0.2784847
50
359.486299
51
15.9343185
0
ARC
8
DEFAULT_255_1_388
10
23.9477751
20
69.1311269
40
0.2194403
50
16.1712913
51
43.5286088
0
ARC
8
DEFAULT_255_1_388
10
23.9564696
20
69.1398191
40
0.2071504
50
43.4417391
51
83.1661095
0
ARC
8
DEFAULT_255_1_388
10
23.9413857
20
69.0569316
40
0.2912888
50
82.160179
51
90.1505708
0
ARC
8
DEFAULT_255_1_388
10
23.9378339
20
68.9965279
40
0.3517025
50
89.5460741
51
102.5418361
0
ARC
8
DEFAULT_255_1_388
10
23.9105059
20
69.1124933
40
0.2325748
50
102.1738499
51
129.206123
0
ARC
8
DEFAULT_255_1_388
10
23.9016512
20
69.1264664
40
0.2161591
50
129.72865
51
135.753947
0
ARC
8
DEFAULT_255_1_388
10
23.9152994
20
69.1155728
40
0.2335433
50
136.1757367
51
166.3673339
0
ARC
8
DEFAULT_255_1_388
10
24.0285683
20
69.0852148
40
0.3507873
50
165.9090694
51
178.8684636
0
ARC
8
DEFAULT_255_1_388
10
24.1261454
20
69.0799263
40
0.4484624
50
178.4391136
51
180.0083808
0
ARC
8
DEFAULT_255_1_388
10
23.9682156
20
69.0843197
40
0.4577138
50
163.2878482
51
180.5581842
0
ARC
8
DEFAULT_255_1_388
10
23.8780197
20
69.1091393
40
0.3641968
50
133.4540601
51
162.947111
0
ARC
8
DEFAULT_255_1_388
10
23.8981079
20
69.0877789
40
0.3935189
50
100.7869829
51
133.4382499
0
ARC
8
DEFAULT_255_1_388
10
23.9372324
20
68.9135399
40
0.5720313
50
89.660664
51
101.3702276
0
ARC
8
DEFAULT_255_1_388
10
23.9446933
20
68.9204263
40
0.5651495
50
78.2172678
51
90.412935
0
ARC
8
DEFAULT_255_1_388
10
23.9846398
20
69.1031511
40
0.378122
50
55.9269121
51
78.4888449
0
ARC
8
DEFAULT_255_1_388
10
24.0067113
20
69.1412187
40
0.3342379
50
47.929771
51
55.4049217
0
ARC
8
DEFAULT_255_1_388
10
24.0181644
20
69.1528618
40
0.3179217
50
4.334829
51
48.0560205
0
ARC
8
DEFAULT_255_1_388
10
23.8949445
20
69.1337487
40
0.442341
50
359.9251713
51
5.5971671
0
ARC
8
DEFAULT_255_1_388
10
23.94316
20
69.1400728
40
0.3941854
50
337.8914027
51
358.9967534
0
ARC
8
DEFAULT_255_1_388
10
23.637917
20
69.2578295
40
0.7213271
50
326.9132501
51
338.3508308
0
ARC
8
DEFAULT_255_1_388
10
23.1895282
20
69.5452105
40
1.2538973
50
319.6471833
51
327.0959558
0
ARC
8
DEFAULT_255_1_388
10
22.758194
20
69.901005
40
1.8129975
50
317.2588228
51
319.9045804
0
LINE
8
DEFAULT_255_1_388
10
22.8456716
20
76.0894
11
22.6703801
21
76.0894
0
LINE
8
DEFAULT_255_1_388
10
22.4815351
20
76.6821383
11
22.6441767
21
76.6821383
0
LINE
8
DEFAULT_255_1_388
10
22.6441767
20
76.6821383
11
22.6441767
21
76.7589413
0
LINE
8
DEFAULT_255_1_388
10
22.2267299
20
76.7959874
11
22.0586669
21
76.7959874
0
LINE
8
DEFAULT_255_1_388
10
22.8113361
20
76.7679769
11
22.8113361
21
76.3180018
0
LINE
8
DEFAULT_255_1_388
10
22.8456716
20
76.103857
11
22.8456716
21
76.0894
0
LINE
8
DEFAULT_255_1_388
10
22.6441767
20
76.36318
11
22.6441767
21
76.5637713
0
LINE
8
DEFAULT_255_1_388
10
22.6441767
20
76.5637713
11
22.5131599
21
76.5637713
0
ARC
8
DEFAULT_255_1_388
10
22.787295
20
76.14611
40
0.1299428
50
197.0784902
51
205.8758668
0
ARC
8
DEFAULT_255_1_388
10
22.9267536
20
76.1902959
40
0.2762313
50
192.2927663
51
197.3441989
0
ARC
8
DEFAULT_255_1_388
10
23.1463042
20
76.239076
40
0.5011345
50
189.1573793
51
192.3977084
0
ARC
8
DEFAULT_255_1_388
10
23.4627888
20
76.2906878
40
0.8217995
50
186.8686098
51
189.1982636
0
ARC
8
DEFAULT_255_1_388
10
22.3572979
20
76.464726
40
0.3975173
50
294.0079259
51
316.7603918
0
ARC
8
DEFAULT_255_1_388
10
22.3718162
20
76.4442902
40
0.3729755
50
269.5043226
51
293.2478373
0
ARC
8
DEFAULT_255_1_388
10
22.3651214
20
76.4893915
40
0.4180772
50
255.4034155
51
270.4753052
0
ARC
8
DEFAULT_255_1_388
10
22.3392427
20
76.3889652
40
0.3143705
50
228.6141063
51
255.3550831
0
ARC
8
DEFAULT_255_1_388
10
22.3018409
20
76.353154
40
0.2628114
50
181.8954381
51
229.5703134
0
ARC
8
DEFAULT_255_1_388
10
22.3683345
20
76.3603824
40
0.329546
50
179.9848815
51
182.7691528
0
ARC
8
DEFAULT_255_1_388
10
22.3590411
20
76.3642827
40
0.3202753
50
161.0342928
51
180.6822077
0
ARC
8
DEFAULT_255_1_388
10
22.3096026
20
76.3771422
40
0.2693695
50
125.0525065
51
160.2034058
0
ARC
8
DEFAULT_255_1_388
10
22.3840748
20
76.2755275
40
0.3953338
50
106.2670809
51
125.4300189
0
ARC
8
DEFAULT_255_1_388
10
22.4484789
20
76.0650795
40
0.6154041
50
95.4857579
51
106.5348562
0
ARC
8
DEFAULT_255_1_388
10
22.4792077
20
75.7838993
40
0.8982419
50
89.8515405
51
95.7222579
0
ARC
8
DEFAULT_255_1_388
10
22.4072658
20
76.7609925
40
0.2369198
50
359.5039339
51
14.3181205
0
ARC
8
DEFAULT_255_1_388
10
22.4718662
20
76.7777862
40
0.170173
50
14.2184556
51
45.2028524
0
ARC
8
DEFAULT_255_1_388
10
22.4759358
20
76.7793862
40
0.1661795
50
45.8098216
51
73.0032926
0
ARC
8
DEFAULT_255_1_388
10
22.4479185
20
76.693726
40
0.2562942
50
72.6112517
51
85.7231489
0
ARC
8
DEFAULT_255_1_388
10
22.4377969
20
76.5910339
40
0.3594635
50
85.335019
51
90.0855069
0
ARC
8
DEFAULT_255_1_388
10
22.4351402
20
76.6574472
40
0.2930574
50
89.5854741
51
103.459124
0
ARC
8
DEFAULT_255_1_388
10
22.4179941
20
76.7289134
40
0.2195632
50
103.448332
51
126.5403399
0
ARC
8
DEFAULT_255_1_388
10
22.3910918
20
76.7633224
40
0.1759039
50
126.1730306
51
141.5008224
0
ARC
8
DEFAULT_255_1_388
10
22.3485233
20
76.7967266
40
0.1217955
50
141.3332087
51
180.3477313
0
ARC
8
DEFAULT_255_1_388
10
22.2726656
20
76.7947904
40
0.214002
50
151.6373605
51
179.6795088
0
ARC
8
DEFAULT_255_1_388
10
22.3403892
20
76.7610768
40
0.2896224
50
142.4981529
51
152.1330509
0
ARC
8
DEFAULT_255_1_388
10
22.3761896
20
76.7329781
40
0.3351307
50
120.8284906
51
142.4132156
0
ARC
8
DEFAULT_255_1_388
10
22.4229872
20
76.6597185
40
0.4220297
50
113.9634885
51
121.1871733
0
ARC
8
DEFAULT_255_1_388
10
22.4383181
20
76.6223705
40
0.4623867
50
93.3784336
51
113.8197902
0
ARC
8
DEFAULT_255_1_388
10
22.4469563
20
76.5362549
40
0.5488732
50
89.9745993
51
93.7488475
0
ARC
8
DEFAULT_255_1_388
10
22.4508809
20
76.5403587
40
0.5447818
50
79.1327128
51
90.3871707
0
ARC
8
DEFAULT_255_1_388
10
22.4874573
20
76.7231597
40
0.3583662
50
60.1434453
51
79.365517
0
ARC
8
DEFAULT_255_1_388
10
22.5163339
20
76.7786195
40
0.2959028
50
48.6191018
51
59.6466565
0
ARC
8
DEFAULT_255_1_388
10
22.5217051
20
76.7857356
40
0.2870136
50
9.0349502
51
48.4845487
0
ARC
8
DEFAULT_255_1_388
10
22.400635
20
76.7593084
40
0.4107927
50
1.2091359
51
10.0234369
0
ARC
8
DEFAULT_255_1_388
10
23.6703798
20
76.3152422
40
0.8590481
50
179.8159449
51
185.3205667
0
ARC
8
DEFAULT_255_1_388
10
23.3671643
20
76.2862945
40
0.5544553
50
185.2475628
51
192.7952551
0
ARC
8
DEFAULT_255_1_388
10
23.1689467
20
76.2408024
40
0.3510853
50
192.7195981
51
202.9584216
0
ARC
8
DEFAULT_255_1_388
10
22.3929503
20
76.5105895
40
0.2937869
50
270.006916
51
300.503478
0
ARC
8
DEFAULT_255_1_388
10
22.4067438
20
76.4961888
40
0.2744162
50
299.5482616
51
315.609538
0
ARC
8
DEFAULT_255_1_388
10
22.4393734
20
76.4628072
40
0.2277499
50
315.8682065
51
334.0592465
0
ARC
8
DEFAULT_255_1_388
10
22.5082708
20
75.77919
40
0.7845965
50
89.64297
51
97.2867877
0
ARC
8
DEFAULT_255_1_388
10
22.4586305
20
76.1508936
40
0.4096042
50
96.9938706
51
109.7783917
0
ARC
8
DEFAULT_255_1_388
10
22.3837768
20
76.3512851
40
0.1957225
50
109.0087985
51
135.3265591
0
ARC
8
DEFAULT_255_1_388
10
22.3530187
20
76.3893764
40
0.1471704
50
137.4537784
51
182.1083946
0
ARC
8
DEFAULT_255_1_388
10
22.3950887
20
76.3821101
40
0.1891498
50
179.4390335
51
195.7201623
0
ARC
8
DEFAULT_255_1_388
10
22.3487922
20
76.3694585
40
0.1411576
50
195.8683556
51
230.157074
0
ARC
8
DEFAULT_255_1_388
10
22.3760645
20
76.4021228
40
0.1837102
50
230.1532486
51
259.7486257
0
ARC
8
DEFAULT_255_1_388
10
22.3916687
20
76.4756472
40
0.258848
50
259.2461118
51
270.2915316
0
ARC
8
DEFAULT_255_1_388
10
23.1973855
20
76.1781142
40
0.1204062
50
163.5412609
51
180.5084512
0
ARC
8
DEFAULT_255_1_388
10
23.1757754
20
76.183946
40
0.0980307
50
138.1652
51
163.2315563
0
ARC
8
DEFAULT_255_1_388
10
23.1631495
20
76.1946456
40
0.0814881
50
105.6860499
51
137.8492655
0
ARC
8
DEFAULT_255_1_388
10
23.1764696
20
76.1514109
40
0.126719
50
92.6078949
51
106.199173
0
ARC
8
DEFAULT_255_1_388
10
23.1798886
20
76.1068207
40
0.1714243
50
89.9659531
51
93.0713334
0
ARC
8
DEFAULT_255_1_388
10
23.1810922
20
76.1318484
40
0.1464007
50
78.4379126
51
90.4311892
0
ARC
8
DEFAULT_255_1_388
10
23.1919569
20
76.1825017
40
0.094599
50
56.8961942
51
78.7357785
0
ARC
8
DEFAULT_255_1_388
10
23.1990679
20
76.1949075
40
0.0803272
50
42.6503148
51
56.3122241
0
ARC
8
DEFAULT_255_1_388
10
23.1846581
20
76.1816661
40
0.099897
50
3.8141057
51
42.636595
0
ARC
8
DEFAULT_255_1_388
10
23.1523903
20
76.1771616
40
0.1324137
50
359.9498843
51
4.8301897
0
ARC
8
DEFAULT_255_1_388
10
23.177904
20
76.1759722
40
0.1069053
50
340.9378148
51
0.5753733
0
ARC
8
DEFAULT_255_1_388
10
23.1905623
20
76.1725569
40
0.0938301
50
316.0798885
51
340.3845117
0
ARC
8
DEFAULT_255_1_388
10
23.1970934
20
76.166552
40
0.0849605
50
285.8512844
51
315.941661
0
ARC
8
DEFAULT_255_1_388
10
23.1838814
20
76.209262
40
0.1296594
50
273.1293204
51
286.3125006
0
ARC
8
DEFAULT_255_1_388
10
23.1801324
20
76.2544586
40
0.1749979
50
269.9535313
51
273.5471598
0
ARC
8
DEFAULT_255_1_388
10
23.1788929
20
76.2298833
40
0.1504266
50
259.0487117
51
270.4180248
0
ARC
8
DEFAULT_255_1_388
10
23.1680542
20
76.1761783
40
0.0956414
50
239.7583641
51
259.3115656
0
ARC
8
DEFAULT_255_1_388
10
23.1589475
20
76.1592048
40
0.0763945
50
222.6243303
51
239.2473835
0
ARC
8
DEFAULT_255_1_388
10
23.1740646
20
76.1730572
40
0.0968985
50
182.9231258
51
222.598101
0
ARC
8
DEFAULT_255_1_388
10
23.2043845
20
76.1769696
40
0.1274004
50
179.9657458
51
183.9850364
0
LINE
8
DEFAULT_255_1_388
10
24.0925905
20
77.4113148
11
24.0925905
21
76.0894
0
LINE
8
DEFAULT_255_1_388
10
24.0925905
20
76.0894
11
23.9245275
21
76.0894
0
LINE
8
DEFAULT_255_1_388
10
23.9245275
20
76.0894
11
23.9245275
21
77.203495
0
LINE
8
DEFAULT_255_1_388
10
23.9245275
20
77.203495
11
23.587498
21
77.0797066
0
LINE
8
DEFAULT_255_1_388
10
23.587498
20
77.0797066
11
23.587498
21
77.2315055
0
LINE
8
DEFAULT_255_1_388
10
23.587498
20
77.2315055
11
24.0663872
21
77.4113148
0
LINE
8
DEFAULT_255_1_388
10
24.0663872
20
77.4113148
11
24.0925905
21
77.4113148
0
LINE
8
DEFAULT_255_1_388
10
22.8382716
20
84.0269
11
22.6629801
21
84.0269
0
LINE
8
DEFAULT_255_1_388
10
22.4741351
20
84.6196383
11
22.6367767
21
84.6196383
0
LINE
8
DEFAULT_255_1_388
10
22.6367767
20
84.6196383
11
22.6367767
21
84.6964413
0
LINE
8
DEFAULT_255_1_388
10
22.2193299
20
84.7334874
11
22.0512669
21
84.7334874
0
LINE
8
DEFAULT_255_1_388
10
22.8039361
20
84.7054769
11
22.8039361
21
84.2555018
0
LINE
8
DEFAULT_255_1_388
10
22.8382716
20
84.041357
11
22.8382716
21
84.0269
0
LINE
8
DEFAULT_255_1_388
10
22.6367767
20
84.30068
11
22.6367767
21
84.5012713
0
LINE
8
DEFAULT_255_1_388
10
22.6367767
20
84.5012713
11
22.5057599
21
84.5012713
0
ARC
8
DEFAULT_255_1_388
10
22.779895
20
84.08361
40
0.1299428
50
197.0784902
51
205.8758668
0
ARC
8
DEFAULT_255_1_388
10
22.9193536
20
84.1277959
40
0.2762313
50
192.2927663
51
197.3441989
0
ARC
8
DEFAULT_255_1_388
10
23.1389042
20
84.176576
40
0.5011345
50
189.1573793
51
192.3977084
0
ARC
8
DEFAULT_255_1_388
10
23.4553888
20
84.2281878
40
0.8217995
50
186.8686098
51
189.1982636
0
ARC
8
DEFAULT_255_1_388
10
22.3498979
20
84.402226
40
0.3975173
50
294.0079259
51
316.7603918
0
ARC
8
DEFAULT_255_1_388
10
22.3644162
20
84.3817902
40
0.3729755
50
269.5043226
51
293.2478373
0
ARC
8
DEFAULT_255_1_388
10
22.3577214
20
84.4268915
40
0.4180772
50
255.4034155
51
270.4753052
0
ARC
8
DEFAULT_255_1_388
10
22.3318427
20
84.3264652
40
0.3143705
50
228.6141063
51
255.3550831
0
ARC
8
DEFAULT_255_1_388
10
22.2944409
20
84.290654
40
0.2628114
50
181.8954381
51
229.5703134
0
ARC
8
DEFAULT_255_1_388
10
22.3609345
20
84.2978824
40
0.329546
50
179.9848815
51
182.7691528
0
ARC
8
DEFAULT_255_1_388
10
22.3516411
20
84.3017827
40
0.3202753
50
161.0342928
51
180.6822077
0
ARC
8
DEFAULT_255_1_388
10
22.3022026
20
84.3146422
40
0.2693695
50
125.0525065
51
160.2034058
0
ARC
8
DEFAULT_255_1_388
10
22.3766748
20
84.2130275
40
0.3953338
50
106.2670809
51
125.4300189
0
ARC
8
DEFAULT_255_1_388
10
22.4410789
20
84.0025795
40
0.6154041
50
95.4857579
51
106.5348562
0
ARC
8
DEFAULT_255_1_388
10
22.4718077
20
83.7213993
40
0.8982419
50
89.8515405
51
95.7222579
0
ARC
8
DEFAULT_255_1_388
10
22.3998658
20
84.6984925
40
0.2369198
50
359.5039339
51
14.3181205
0
ARC
8
DEFAULT_255_1_388
10
22.4644662
20
84.7152862
40
0.170173
50
14.2184556
51
45.2028524
0
ARC
8
DEFAULT_255_1_388
10
22.4685358
20
84.7168862
40
0.1661795
50
45.8098216
51
73.0032926
0
ARC
8
DEFAULT_255_1_388
10
22.4405185
20
84.631226
40
0.2562942
50
72.6112517
51
85.7231489
0
ARC
8
DEFAULT_255_1_388
10
22.4303969
20
84.5285339
40
0.3594635
50
85.335019
51
90.0855069
0
ARC
8
DEFAULT_255_1_388
10
22.4277402
20
84.5949472
40
0.2930574
50
89.5854741
51
103.459124
0
ARC
8
DEFAULT_255_1_388
10
22.4105941
20
84.6664134
40
0.2195632
50
103.448332
51
126.5403399
0
ARC
8
DEFAULT_255_1_388
10
22.3836918
20
84.7008224
40
0.1759039
50
126.1730306
51
141.5008224
0
ARC
8
DEFAULT_255_1_388
10
22.3411233
20
84.7342266
40
0.1217955
50
141.3332087
51
180.3477313
0
ARC
8
DEFAULT_255_1_388
10
22.2652656
20
84.7322904
40
0.214002
50
151.6373605
51
179.6795088
0
ARC
8
DEFAULT_255_1_388
10
22.3329892
20
84.6985768
40
0.2896224
50
142.4981529
51
152.1330509
0
ARC
8
DEFAULT_255_1_388
10
22.3687896
20
84.6704781
40
0.3351307
50
120.8284906
51
142.4132156
0
ARC
8
DEFAULT_255_1_388
10
22.4155872
20
84.5972185
40
0.4220297
50
113.9634885
51
121.1871733
0
ARC
8
DEFAULT_255_1_388
10
22.4309181
20
84.5598705
40
0.4623867
50
93.3784336
51
113.8197902
0
ARC
8
DEFAULT_255_1_388
10
22.4395563
20
84.4737549
40
0.5488732
50
89.9745993
51
93.7488475
0
ARC
8
DEFAULT_255_1_388
10
22.4434809
20
84.4778587
40
0.5447818
50
79.1327128
51
90.3871707
0
ARC
8
DEFAULT_255_1_388
10
22.4800573
20
84.6606597
40
0.3583662
50
60.1434453
51
79.365517
0
ARC
8
DEFAULT_255_1_388
10
22.5089339
20
84.7161195
40
0.2959028
50
48.6191018
51
59.6466565
0
ARC
8
DEFAULT_255_1_388
10
22.5143051
20
84.7232356
40
0.2870136
50
9.0349502
51
48.4845487
0
ARC
8
DEFAULT_255_1_388
10
22.393235
20
84.6968084
40
0.4107927
50
1.2091359
51
10.0234369
0
ARC
8
DEFAULT_255_1_388
10
23.6629798
20
84.2527422
40
0.8590481
50
179.8159449
51
185.3205667
0
ARC
8
DEFAULT_255_1_388
10
23.3597643
20
84.2237945
40
0.5544553
50
185.2475628
51
192.7952551
0
ARC
8
DEFAULT_255_1_388
10
23.1615467
20
84.1783024
40
0.3510853
50
192.7195981
51
202.9584216
0
ARC
8
DEFAULT_255_1_388
10
22.3855503
20
84.4480895
40
0.2937869
50
270.006916
51
300.503478
0
ARC
8
DEFAULT_255_1_388
10
22.3993438
20
84.4336888
40
0.2744162
50
299.5482616
51
315.609538
0
ARC
8
DEFAULT_255_1_388
10
22.4319734
20
84.4003072
40
0.2277499
50
315.8682065
51
334.0592465
0
ARC
8
DEFAULT_255_1_388
10
22.5008708
20
83.71669
40
0.7845965
50
89.64297
51
97.2867877
0
ARC
8
DEFAULT_255_1_388
10
22.4512305
20
84.0883936
40
0.4096042
50
96.9938706
51
109.7783917
0
ARC
8
DEFAULT_255_1_388
10
22.3763768
20
84.2887851
40
0.1957225
50
109.0087985
51
135.3265591
0
ARC
8
DEFAULT_255_1_388
10
22.3456187
20
84.3268764
40
0.1471704
50
137.4537784
51
182.1083946
0
ARC
8
DEFAULT_255_1_388
10
22.3876887
20
84.3196101
40
0.1891498
50
179.4390335
51
195.7201623
0
ARC
8
DEFAULT_255_1_388
10
22.3413922
20
84.3069585
40
0.1411576
50
195.8683556
51
230.157074
0
ARC
8
DEFAULT_255_1_388
10
22.3686645
20
84.3396228
40
0.1837102
50
230.1532486
51
259.7486257
0
ARC
8
DEFAULT_255_1_388
10
22.3842687
20
84.4131472
40
0.258848
50
259.2461118
51
270.2915316
0
ARC
8
DEFAULT_255_1_388
10
23.1899855
20
84.1156142
40
0.1204062
50
163.5412609
51
180.5084512
0
ARC
8
DEFAULT_255_1_388
10
23.1683754
20
84.121446
40
0.0980307
50
138.1652
51
163.2315563
0
ARC
8
DEFAULT_255_1_388
10
23.1557495
20
84.1321456
40
0.0814881
50
105.6860499
51
137.8492655
0
ARC
8
DEFAULT_255_1_388
10
23.1690696
20
84.0889109
40
0.126719
50
92.6078949
51
106.199173
0
ARC
8
DEFAULT_255_1_388
10
23.1724886
20
84.0443207
40
0.1714243
50
89.9659531
51
93.0713334
0
ARC
8
DEFAULT_255_1_388
10
23.1736922
20
84.0693484
40
0.1464007
50
78.4379126
51
90.4311892
0
ARC
8
DEFAULT_255_1_388
10
23.1845569
20
84.1200017
40
0.094599
50
56.8961942
51
78.7357785
0
ARC
8
DEFAULT_255_1_388
10
23.1916679
20
84.1324075
40
0.0803272
50
42.6503148
51
56.3122241
0
ARC
8
DEFAULT_255_1_388
10
23.1772581
20
84.1191661
40
0.099897
50
3.8141057
51
42.636595
0
ARC
8
DEFAULT_255_1_388
10
23.1449903
20
84.1146616
40
0.1324137
50
359.9498843
51
4.8301897
0
ARC
8
DEFAULT_255_1_388
10
23.170504
20
84.1134722
40
0.1069053
50
340.9378148
51
0.5753733
0
ARC
8
DEFAULT_255_1_388
10
23.1831623
20
84.1100569
40
0.0938301
50
316.0798885
51
340.3845117
0
ARC
8
DEFAULT_255_1_388
10
23.1896934
20
84.104052
40
0.0849605
50
285.8512844
51
315.941661
0
ARC
8
DEFAULT_255_1_388
10
23.1764814
20
84.146762
40
0.1296594
50
273.1293204
51
286.3125006
0
ARC
8
DEFAULT_255_1_388
10
23.1727324
20
84.1919586
40
0.1749979
50
269.9535313
51
273.5471598
0
ARC
8
DEFAULT_255_1_388
10
23.1714929
20
84.1673833
40
0.1504266
50
259.0487117
51
270.4180248
0
ARC
8
DEFAULT_255_1_388
10
23.1606542
20
84.1136783
40
0.0956414
50
239.7583641
51
259.3115656
0
ARC
8
DEFAULT_255_1_388
10
23.1515475
20
84.0967048
40
0.0763945
50
222.6243303
51
239.2473835
0
ARC
8
DEFAULT_255_1_388
10
23.1666646
20
84.1105572
40
0.0968985
50
182.9231258
51
222.598101
0
ARC
8
DEFAULT_255_1_388
10
23.1969845
20
84.1144696
40
0.1274004
50
179.9657458
51
183.9850364
0
LINE
8
DEFAULT_255_1_388
10
24.3607777
20
84.804869
11
24.3607777
21
84.5880135
0
LINE
8
DEFAULT_255_1_388
10
23.530402
20
84.5654244
11
23.530402
21
84.7886048
0
LINE
8
DEFAULT_255_1_388
10
24.1936183
20
84.5428353
11
24.1936183
21
84.8166153
0
LINE
8
DEFAULT_255_1_388
10
23.6975614
20
84.8292652
11
23.6975614
21
84.5618102
0
ARC
8
DEFAULT_255_1_388
10
22.9830111
20
84.5825118
40
1.3777776
50
353.8440855
51
0.2287917
0
ARC
8
DEFAULT_255_1_388
10
23.5049128
20
84.5242414
40
0.852639
50
344.4934746
51
353.9763743
0
ARC
8
DEFAULT_255_1_388
10
23.8415935
20
84.4285191
40
0.5026273
50
329.2803599
51
344.7473406
0
ARC
8
DEFAULT_255_1_388
10
23.9531431
20
84.3673038
40
0.3754848
50
324.9361395
51
328.6153007
0
ARC
8
DEFAULT_255_1_388
10
23.9957081
20
84.3375586
40
0.3235566
50
280.5801797
51
324.9173226
0
ARC
8
DEFAULT_255_1_388
10
23.950571
20
84.5255236
40
0.5167077
50
269.5979457
51
281.6732777
0
ARC
8
DEFAULT_255_1_388
10
23.9424613
20
84.5120113
40
0.5032026
50
256.6228565
51
270.5105488
0
ARC
8
DEFAULT_255_1_388
10
23.8972356
20
84.3378345
40
0.3233092
50
215.8618351
51
257.2787793
0
ARC
8
DEFAULT_255_1_388
10
24.0121063
20
84.4149106
40
0.4615831
50
197.9695203
51
215.2622745
0
ARC
8
DEFAULT_255_1_388
10
24.2916739
20
84.5092641
40
0.7566307
50
187.8816486
51
198.2346584
0
ARC
8
DEFAULT_255_1_388
10
24.7369977
20
84.5735453
40
1.2065653
50
180.8977266
51
188.0054894
0
ARC
8
DEFAULT_255_1_388
10
25.042019
20
84.58504
40
1.5117443
50
180.7434591
51
181.152202
0
ARC
8
DEFAULT_255_1_388
10
24.8745186
20
84.7940371
40
1.3441277
50
173.7674302
51
180.2315596
0
ARC
8
DEFAULT_255_1_388
10
24.3663055
20
84.8514779
40
0.8326847
50
164.3058537
51
173.9000553
0
ARC
8
DEFAULT_255_1_388
10
24.0387055
20
84.9458652
40
0.4917711
50
148.7922028
51
164.5682288
0
ARC
8
DEFAULT_255_1_388
10
23.9317793
20
85.0055457
40
0.3694204
50
144.5883979
51
148.1161588
0
ARC
8
DEFAULT_255_1_388
10
23.8930538
20
85.0325667
40
0.322202
50
101.6440149
51
144.5142619
0
ARC
8
DEFAULT_255_1_388
10
23.940873
20
84.8425337
40
0.5180451
50
89.528284
51
102.5820197
0
ARC
8
DEFAULT_255_1_388
10
23.9497722
20
84.8381376
40
0.5224441
50
77.0437914
51
90.508231
0
ARC
8
DEFAULT_255_1_388
10
23.9949976
20
85.0229272
40
0.3322297
50
48.2777708
51
77.4996087
0
ARC
8
DEFAULT_255_1_388
10
24.0031716
20
85.0374557
40
0.315966
50
36.3141586
51
47.6307332
0
ARC
8
DEFAULT_255_1_388
10
23.9054438
20
84.9716159
40
0.4337313
50
18.2931065
51
35.6770203
0
ARC
8
DEFAULT_255_1_388
10
23.6193279
20
84.8734107
40
0.7362203
50
8.0246996
51
18.5605636
0
ARC
8
DEFAULT_255_1_388
10
23.1509634
20
84.8042432
40
1.2096583
50
1.127539
51
8.1718423
0
ARC
8
DEFAULT_255_1_388
10
22.7860768
20
84.7899374
40
1.5747719
50
0.5432713
51
1.38669
0
ARC
8
DEFAULT_255_1_388
10
22.9918146
20
84.8206163
40
1.2018103
50
359.8092569
51
4.9408001
0
ARC
8
DEFAULT_255_1_388
10
23.4654728
20
84.86289
40
0.7262727
50
4.8364937
51
12.2906017
0
ARC
8
DEFAULT_255_1_388
10
23.7754193
20
84.9319485
40
0.4087324
50
12.0806994
51
23.8171225
0
ARC
8
DEFAULT_255_1_388
10
23.9074589
20
84.9878508
40
0.2653719
50
24.2874621
51
31.3934353
0
ARC
8
DEFAULT_255_1_388
10
23.9665024
20
85.0264822
40
0.1948607
50
30.7407708
51
82.4658033
0
ARC
8
DEFAULT_255_1_388
10
23.9462685
20
84.9271017
40
0.2961198
50
81.1057101
51
90.2187368
0
ARC
8
DEFAULT_255_1_388
10
23.9422497
20
84.9561421
40
0.2670929
50
89.380395
51
105.6763916
0
ARC
8
DEFAULT_255_1_388
10
23.9216219
20
85.031132
40
0.1893189
50
105.7980655
51
149.7387869
0
ARC
8
DEFAULT_255_1_388
10
24.0413359
20
84.9591719
40
0.3289892
50
149.4208441
51
163.628295
0
ARC
8
DEFAULT_255_1_388
10
24.2765589
20
84.8874345
40
0.5749004
50
163.3764549
51
172.141138
0
ARC
8
DEFAULT_255_1_388
10
24.647831
20
84.8342582
40
0.9499585
50
172.0258462
51
178.0705453
0
ARC
8
DEFAULT_255_1_388
10
24.9899863
20
84.8180682
40
1.2924734
50
177.8639301
51
179.5036263
0
ARC
8
DEFAULT_255_1_388
10
24.8680882
20
84.5577151
40
1.170534
50
179.7995545
51
185.246089
0
ARC
8
DEFAULT_255_1_388
10
24.4132475
20
84.5146404
40
0.7136613
50
185.1411911
51
193.0082205
0
ARC
8
DEFAULT_255_1_388
10
24.1158736
20
84.4443441
40
0.4080987
50
192.7897338
51
205.2507384
0
ARC
8
DEFAULT_255_1_388
10
23.9980945
20
84.3917538
40
0.2791522
50
205.8001921
51
211.2545876
0
ARC
8
DEFAULT_255_1_388
10
23.9392485
20
84.3523132
40
0.2084074
50
210.3789935
51
238.4007996
0
ARC
8
DEFAULT_255_1_388
10
23.9370571
20
84.3575786
40
0.2117943
50
239.6521916
51
265.9793852
0
ARC
8
DEFAULT_255_1_388
10
23.946642
20
84.4332358
40
0.2879689
50
265.1324455
51
270.0603288
0
ARC
8
DEFAULT_255_1_388
10
23.9498797
20
84.3967418
40
0.2514919
50
269.3314378
51
287.2180039
0
ARC
8
DEFAULT_255_1_388
10
23.9653879
20
84.3401291
40
0.1928357
50
287.7957942
51
329.0808983
0
ARC
8
DEFAULT_255_1_388
10
23.8576636
20
84.4073651
40
0.319808
50
328.6635261
51
343.3325043
0
ARC
8
DEFAULT_255_1_388
10
23.6132095
20
84.4835195
40
0.5758408
50
343.0498092
51
351.9392499
0
ARC
8
DEFAULT_255_1_388
10
23.2231416
20
84.5410205
40
0.9701202
50
351.8071632
51
357.7957897
0
ARC
8
DEFAULT_255_1_388
10
22.8596893
20
84.5598724
40
1.3340376
50
357.5870923
51
359.2682493
0
LINE
8
DEFAULT_255_1_388
10
23.0669985
20
93.2863148
11
23.0669985
21
91.9644
0
LINE
8
DEFAULT_255_1_388
10
23.0669985
20
91.9644
11
22.8989355
21
91.9644
0
LINE
8
DEFAULT_255_1_388
10
22.8989355
20
91.9644
11
22.8989355
21
93.078495
0
LINE
8
DEFAULT_255_1_388
10
22.8989355
20
93.078495
11
22.561906
21
92.9547066
0
LINE
8
DEFAULT_255_1_388
10
22.561906
20
92.9547066
11
22.561906
21
93.1065055
0
LINE
8
DEFAULT_255_1_388
10
22.561906
20
93.1065055
11
23.0407951
21
93.2863148
0
LINE
8
DEFAULT_255_1_388
10
23.0407951
20
93.2863148
11
23.0669985
21
93.2863148
0
LINE
8
DEFAULT_255_1_388
10
23.7744895
20
93.2799898
11
23.7744895
21
92.1062596
0
LINE
8
DEFAULT_255_1_388
10
23.7744895
20
92.1062596
11
24.3979489
21
92.1062596
0
LINE
8
DEFAULT_255_1_388
10
24.3979489
20
92.1062596
11
24.3979489
21
91.9644
0
LINE
8
DEFAULT_255_1_388
10
24.3979489
20
91.9644
11
23.6001015
21
91.9644
0
LINE
8
DEFAULT_255_1_388
10
23.6001015
20
91.9644
11
23.6001015
21
93.2799898
0
LINE
8
DEFAULT_255_1_388
10
23.6001015
20
93.2799898
11
23.7744895
21
93.2799898
0
ENDSEC
0
EOF