0
SECTION
2
HEADER
9
$MEASUREMENT
70
1
0
ENDSEC
0
SECTION
2
TABLES
0
TABLE
2
LTYPE
0
LTYPE
72
65
70
64
2
CONTINUOUS
3
______
73
0
40
0
0
ENDTAB
0
TABLE
2
LAYER
0
LAYER
2
DEFAULT_255_2_778
70
0
62
255
6
CONTINUOUS
0
ENDTAB
0
ENDSEC
0
SECTION
2
ENTITIES
0
LINE
8
DEFAULT_255_2_778
10
70.201587
20
96.8103156
11
70.201587
21
100.6671156
0
LINE
8
DEFAULT_255_2_778
10
70.201587
20
100.6671156
11
111.481587
21
100.6671156
0
LINE
8
DEFAULT_255_2_778
10
111.481587
20
100.6671156
11
111.481587
21
96.8103156
0
LINE
8
DEFAULT_255_2_778
10
149.7417873
20
0.267004
11
149.7421645
21
0.2670038
0
ARC
8
DEFAULT_255_2_778
10
149.74211
20
0.6669841
40
0.3999803
50
270.0078161
51
314.9693396
0
ARC
8
DEFAULT_255_2_778
10
149.7426451
20
0.666335
40
0.3991429
50
314.9808444
51
359.9879955
0
ARC
8
DEFAULT_255_2_778
10
149.7875895
20
0.6662512
40
0.3541985
50
0.0000258
51
0.1217696
0
ARC
8
DEFAULT_255_2_778
10
149.7871624
20
99.8677573
40
0.3546258
50
359.8782869
51
359.9999985
0
ARC
8
DEFAULT_255_2_778
10
149.742993
20
99.8678172
40
0.398795
50
359.9913958
51
45.0398721
0
ARC
8
DEFAULT_255_2_778
10
149.7421438
20
99.8674473
40
0.3996569
50
44.991197
51
89.9970351
0
LINE
8
DEFAULT_255_2_778
10
149.7421645
20
100.2671041
11
149.7417873
21
100.267104
0
ARC
8
DEFAULT_255_2_778
10
0.6040138
20
98.8930545
40
0.9938201
50
88.0582793
51
89.983159
0
ARC
8
DEFAULT_255_2_778
10
0.592227
20
99.2382787
40
0.6487085
50
88.9330944
51
107.2829977
0
ARC
8
DEFAULT_255_2_778
10
0.5080142
20
99.5147375
40
0.3597175
50
107.5574523
51
175.2740009
0
ARC
8
DEFAULT_255_2_778
10
0.8564605
20
99.4376846
40
0.7149462
50
171.4177839
51
179.1809943
0
LINE
8
DEFAULT_255_2_778
10
145.2816873
20
0.267004
11
149.7417873
21
0.267004
0
LINE
8
DEFAULT_255_2_778
10
150.1417873
20
0.667004
11
150.1417873
21
99.867004
0
LINE
8
DEFAULT_255_2_778
10
149.7417873
20
100.267104
11
137.4814873
21
100.267104
0
LINE
8
DEFAULT_255_2_778
10
137.4814873
20
100.267104
11
137.4767873
21
100.663404
0
LINE
8
DEFAULT_255_2_778
10
137.4767873
20
100.663404
11
112.1925873
21
100.663404
0
LINE
8
DEFAULT_255_2_778
10
112.1925873
20
100.663404
11
112.1925873
21
100.266504
0
LINE
8
DEFAULT_255_2_778
10
112.1925873
20
100.266504
11
111.4816873
21
100.266504
0
LINE
8
DEFAULT_255_2_778
10
111.4816873
20
100.266504
11
111.4816873
21
100.663404
0
LINE
8
DEFAULT_255_2_778
10
111.4816873
20
100.663404
11
70.1981873
21
100.663404
0
LINE
8
DEFAULT_255_2_778
10
70.1981873
20
100.663404
11
70.1981873
21
100.266504
0
LINE
8
DEFAULT_255_2_778
10
70.1981873
20
100.266504
11
69.4872873
21
100.266504
0
LINE
8
DEFAULT_255_2_778
10
69.4872873
20
100.266504
11
69.4872873
21
100.663404
0
LINE
8
DEFAULT_255_2_778
10
69.4872873
20
100.663404
11
4.2013873
21
100.663404
0
LINE
8
DEFAULT_255_2_778
10
4.2013873
20
100.663404
11
4.2013873
21
99.886304
0
LINE
8
DEFAULT_255_2_778
10
4.2013873
20
99.886304
11
0.6376873
21
99.886304
0
LINE
8
DEFAULT_255_2_778
10
0.1415873
20
99.447904
11
0.1415873
21
0.642404
0
LINE
8
DEFAULT_255_2_778
10
139.3255863
20
99.2669354
11
137.4740863
21
99.2669354
0
LINE
8
DEFAULT_255_2_778
10
137.4740863
20
99.2669354
11
137.4740863
21
100.6679354
0
LINE
8
DEFAULT_255_2_778
10
137.4740863
20
100.6679354
11
112.1941863
21
100.6679354
0
LINE
8
DEFAULT_255_2_778
10
112.1941863
20
100.6679354
11
112.1941863
21
96.7822354
0
LINE
8
DEFAULT_255_2_778
10
4.3499863
20
98.0755354
11
4.2015863
21
98.0718354
0
LINE
8
DEFAULT_255_2_778
10
4.2015863
20
98.0718354
11
4.2015863
21
100.6671354
0
LINE
8
DEFAULT_255_2_778
10
4.2015863
20
100.6671354
11
69.4816863
21
100.6671354
0
LINE
8
DEFAULT_255_2_778
10
69.4816863
20
100.6671354
11
69.4816863
21
100.2634354
0
LINE
8
DEFAULT_255_2_778
10
69.4816863
20
100.2634354
11
70.1984863
21
100.2665354
0
ARC
8
DEFAULT_255_2_778
10
0.3410863
20
53.0863958
40
0.199495
50
179.9708572
51
192.5941269
0
ARC
8
DEFAULT_255_2_778
10
0.3197819
20
99.4867804
40
0.1781907
50
179.9696534
51
180.0910427
0
ARC
8
DEFAULT_255_2_778
10
0.541223
20
99.4869641
40
0.3996318
50
135.0099835
51
180.0128069
0
ARC
8
DEFAULT_255_2_778
10
0.5412349
20
99.4869406
40
0.3996569
50
90.0029649
51
135.008803
0
LINE
8
DEFAULT_255_2_778
10
0.5412142
20
99.8865974
11
0.5415914
21
99.8865973
0
ARC
8
DEFAULT_255_2_778
10
149.7348823
20
99.7019683
40
0.3996149
50
89.9994185
51
91.7481836
0
ARC
8
DEFAULT_255_2_778
10
149.7348087
20
99.7018878
40
0.3996956
50
45.8541898
51
89.9888568
0
ARC
8
DEFAULT_255_2_778
10
149.7347477
20
99.7020191
40
0.3996439
50
359.992648
51
45.8348048
0
ARC
8
DEFAULT_255_2_778
10
149.9628141
20
99.7018752
40
0.1715775
50
359.9071875
51
0.0309365
0
LINE
8
DEFAULT_255_2_778
10
0.1468914
20
53.0380973
11
0.1463914
21
53.0428973
0
LINE
8
DEFAULT_255_2_778
10
0.1415914
20
53.0864973
11
0.1415914
21
99.4864973
0
LINE
8
DEFAULT_255_2_778
10
0.5415914
20
99.8865973
11
4.2015914
21
99.8865973
0
LINE
8
DEFAULT_255_2_778
10
4.2015914
20
99.8865973
11
4.2013914
21
100.2910973
0
LINE
8
DEFAULT_255_2_778
10
4.2013914
20
100.2910973
11
69.4790914
21
100.2828973
0
LINE
8
DEFAULT_255_2_778
10
69.4790914
20
100.2828973
11
69.4790914
21
96.8101973
0
LINE
8
DEFAULT_255_2_778
10
0.1415914
20
95.0409973
11
124.7388914
21
95.0409973
0
LINE
8
DEFAULT_255_2_778
10
124.7388914
20
95.0409973
11
127.1643914
21
96.0153973
0
LINE
8
DEFAULT_255_2_778
10
127.1643914
20
96.0153973
11
129.6281914
21
96.8893973
0
LINE
8
DEFAULT_255_2_778
10
129.6281914
20
96.8893973
11
132.1434914
21
97.6661973
0
LINE
8
DEFAULT_255_2_778
10
132.1434914
20
97.6661973
11
134.6893914
21
98.3378973
0
LINE
8
DEFAULT_255_2_778
10
134.6893914
20
98.3378973
11
137.3171914
21
98.9146973
0
LINE
8
DEFAULT_255_2_778
10
137.3171914
20
98.9146973
11
139.9674914
21
99.3795973
0
LINE
8
DEFAULT_255_2_778
10
139.9674914
20
99.3795973
11
142.6548914
21
99.7338973
0
LINE
8
DEFAULT_255_2_778
10
142.6548914
20
99.7338973
11
145.3551914
21
99.9732973
0
LINE
8
DEFAULT_255_2_778
10
145.3551914
20
99.9732973
11
149.7226914
21
100.1013973
0
ARC
8
DEFAULT_255_2_778
10
0.319783
20
0.6667479
40
0.1781907
50
179.9089573
51
180.0303466
0
ARC
8
DEFAULT_255_2_778
10
0.5412242
20
0.6665642
40
0.3996318
50
179.9871931
51
224.9900165
0
ARC
8
DEFAULT_255_2_778
10
0.541236
20
0.6665877
40
0.3996569
50
224.991197
51
269.9970351
0
LINE
8
DEFAULT_255_2_778
10
0.5412154
20
0.2669309
11
0.5415925
21
0.2669311
0
LINE
8
DEFAULT_255_2_778
10
70.2016925
20
100.2670311
11
69.4816925
21
100.2670311
0
LINE
8
DEFAULT_255_2_778
10
69.4816925
20
100.2670311
11
69.4790925
21
96.7856311
0
LINE
8
DEFAULT_255_2_778
10
69.4790925
20
96.7856311
11
70.2066925
21
96.7856311
0
LINE
8
DEFAULT_255_2_778
10
70.2066925
20
96.7856311
11
70.1984925
21
100.2665311
0
LINE
8
DEFAULT_255_2_778
10
2.8479925
20
98.0715311
11
4.3478925
21
98.0715311
0
LINE
8
DEFAULT_255_2_778
10
4.3478925
20
98.0715311
11
4.3478925
21
99.2716311
0
LINE
8
DEFAULT_255_2_778
10
4.3478925
20
99.2716311
11
6.2079925
21
99.2716311
0
LINE
8
DEFAULT_255_2_778
10
147.9417925
20
66.3231311
11
71.0416925
21
66.3231311
0
LINE
8
DEFAULT_255_2_778
10
71.0416925
20
66.3231311
11
71.0416925
21
34.5823311
0
LINE
8
DEFAULT_255_2_778
10
0.1415925
20
53.4233311
11
0.1415925
21
0.6670311
0
LINE
8
DEFAULT_255_2_778
10
0.5415925
20
0.2669311
11
72.0015925
21
0.2669311
0
ARC
8
DEFAULT_255_2_778
10
2.5479597
20
70.871605
40
0.4000541
50
120.0044747
51
179.9940788
0
ARC
8
DEFAULT_255_2_778
10
2.5478954
20
70.8719367
40
0.3997347
50
89.9913635
51
120.0202627
0
ARC
8
DEFAULT_255_2_778
10
2.5480159
20
70.8719367
40
0.3997347
50
59.9797373
51
90.0086365
0
ARC
8
DEFAULT_255_2_778
10
2.5481616
20
70.8717262
40
0.399844
50
359.9885484
51
60.0128965
0
ARC
8
DEFAULT_255_2_778
10
2.6437287
20
99.5908306
40
0.2209259
50
90.0055668
51
90.5505999
0
ARC
8
DEFAULT_255_2_778
10
2.6437948
20
99.5950965
40
0.21666
50
49.9500929
51
90.0231617
0
ARC
8
DEFAULT_255_2_778
10
2.6792467
20
99.6360908
40
0.1624696
50
0.6543596
51
50.2180731
0
LINE
8
DEFAULT_255_2_778
10
0.2413057
20
40.4760463
11
0.2331057
21
40.4469463
0
LINE
8
DEFAULT_255_2_778
10
0.2331057
20
40.4469463
11
0.2236057
21
40.3924463
0
LINE
8
DEFAULT_255_2_778
10
0.2236057
20
40.3924463
11
0.2151057
21
40.3225463
0
LINE
8
DEFAULT_255_2_778
10
0.2151057
20
40.3225463
11
0.2075057
21
40.2424463
0
LINE
8
DEFAULT_255_2_778
10
0.2075057
20
40.2424463
11
0.2006057
21
40.1556463
0
LINE
8
DEFAULT_255_2_778
10
0.2006057
20
40.1556463
11
0.1945057
21
40.0651463
0
LINE
8
DEFAULT_255_2_778
10
2.1479057
20
60.2763463
11
2.1479057
21
70.8716463
0
LINE
8
DEFAULT_255_2_778
10
2.9480057
20
70.8716463
11
2.9480057
21
66.3231463
0
LINE
8
DEFAULT_255_2_778
10
2.3416057
20
29.3206463
11
2.3416057
21
34.2784463
0
LINE
8
DEFAULT_255_2_778
10
2.3416057
20
34.2784463
11
2.3395057
21
40.4990463
0
LINE
8
DEFAULT_255_2_778
10
2.3395057
20
40.4990463
11
2.3157057
21
40.5688463
0
LINE
8
DEFAULT_255_2_778
10
2.3157057
20
40.5688463
11
2.1611057
21
40.6697463
0
LINE
8
DEFAULT_255_2_778
10
2.1611057
20
40.6697463
11
2.1466057
21
40.6704463
0
LINE
8
DEFAULT_255_2_778
10
2.3416057
20
60.0644463
11
2.3416057
21
66.3231463
0
LINE
8
DEFAULT_255_2_778
10
2.3416057
20
66.3231463
11
32.7417057
21
66.3231463
0
LINE
8
DEFAULT_255_2_778
10
32.7417057
20
66.3231463
11
32.7417057
21
34.5824463
0
LINE
8
DEFAULT_255_2_778
10
2.8417057
20
99.6379463
11
2.8417057
21
96.7825463
0
ARC
8
DEFAULT_255_2_778
10
2.5415392
20
29.6669763
40
0.4000392
50
179.9912941
51
269.9943868
0
ARC
8
DEFAULT_255_2_778
10
2.5415396
20
29.6669976
40
0.4000605
50
269.9943399
51
0.0056601
0
LINE
8
DEFAULT_255_2_778
10
2.1415
20
39.8669371
11
2.1415
21
29.6670371
0
LINE
8
DEFAULT_255_2_778
10
2.9416
20
29.6670371
11
2.9416
21
34.5821371
0
LINE
8
DEFAULT_255_2_778
10
0.3331
20
47.0684371
11
0.3331
21
53.4660371
0
LINE
8
DEFAULT_255_2_778
10
0.3331
20
53.4660371
11
0.3296
21
59.8628371
0
LINE
8
DEFAULT_255_2_778
10
0.3296
20
59.8628371
11
0.2492
21
60.0422371
0
ARC
8
DEFAULT_255_2_778
10
39.9294978
20
3.15035
40
0.1795833
50
179.9635641
51
225.0456898
0
ARC
8
DEFAULT_255_2_778
10
39.9297003
20
3.1501475
40
0.1795833
50
224.9543102
51
270.0364359
0
ARC
8
DEFAULT_255_2_778
10
40.3700007
20
2.7911549
40
0.1794095
50
44.9312543
51
90.0594646
0
ARC
8
DEFAULT_255_2_778
10
40.3701313
20
2.7907784
40
0.1795833
50
359.9635641
51
45.0456898
0
LINE
8
DEFAULT_255_2_778
10
2.1415145
20
35.6439642
11
2.1391145
21
35.5875642
0
LINE
8
DEFAULT_255_2_778
10
2.1391145
20
35.5875642
11
2.1359145
21
35.5500642
0
LINE
8
DEFAULT_255_2_778
10
2.1359145
20
35.5500642
11
2.1312145
21
35.5127642
0
LINE
8
DEFAULT_255_2_778
10
2.1312145
20
35.5127642
11
2.1195145
21
35.4486642
0
LINE
8
DEFAULT_255_2_778
10
2.1195145
20
35.4486642
11
2.0992145
21
35.3743642
0
LINE
8
DEFAULT_255_2_778
10
2.0992145
20
35.3743642
11
2.0608145
21
35.2814642
0
LINE
8
DEFAULT_255_2_778
10
2.0608145
20
35.2814642
11
1.9825145
21
35.1674642
0
LINE
8
DEFAULT_255_2_778
10
1.9825145
20
35.1674642
11
1.8629145
21
35.0793642
0
LINE
8
DEFAULT_255_2_778
10
1.8629145
20
35.0793642
11
1.7417145
21
35.0528642
0
LINE
8
DEFAULT_255_2_778
10
1.7417145
20
35.0528642
11
0.5416145
21
35.0528642
0
LINE
8
DEFAULT_255_2_778
10
2.3415145
20
60.0594642
11
2.3415145
21
60.0544642
0
LINE
8
DEFAULT_255_2_778
10
2.3415145
20
60.0544642
11
2.3413145
21
60.0493642
0
LINE
8
DEFAULT_255_2_778
10
2.3413145
20
60.0493642
11
2.3407145
21
60.0443642
0
LINE
8
DEFAULT_255_2_778
10
2.3407145
20
60.0443642
11
2.3402145
21
60.0393642
0
LINE
8
DEFAULT_255_2_778
10
2.3402145
20
60.0393642
11
2.3394145
21
60.0342642
0
LINE
8
DEFAULT_255_2_778
10
2.3394145
20
60.0342642
11
2.3386145
21
60.0295642
0
LINE
8
DEFAULT_255_2_778
10
2.3386145
20
60.0295642
11
2.3378145
21
60.0247642
0
LINE
8
DEFAULT_255_2_778
10
2.3378145
20
60.0247642
11
2.3368145
21
60.0200642
0
LINE
8
DEFAULT_255_2_778
10
2.3368145
20
60.0200642
11
2.3357145
21
60.0152642
0
LINE
8
DEFAULT_255_2_778
10
2.3357145
20
60.0152642
11
2.3344145
21
60.0104642
0
LINE
8
DEFAULT_255_2_778
10
2.3344145
20
60.0104642
11
2.3331145
21
60.0057642
0
LINE
8
DEFAULT_255_2_778
10
2.3331145
20
60.0057642
11
2.3315145
21
60.0009642
0
LINE
8
DEFAULT_255_2_778
10
2.3315145
20
60.0009642
11
2.3299145
21
59.9961642
0
LINE
8
DEFAULT_255_2_778
10
2.3299145
20
59.9961642
11
2.3283145
21
59.9914642
0
LINE
8
DEFAULT_255_2_778
10
2.3283145
20
59.9914642
11
2.3264145
21
59.9869642
0
LINE
8
DEFAULT_255_2_778
10
2.3264145
20
59.9869642
11
2.3246145
21
59.9824642
0
LINE
8
DEFAULT_255_2_778
10
2.3246145
20
59.9824642
11
2.3225145
21
59.9779642
0
LINE
8
DEFAULT_255_2_778
10
2.3225145
20
59.9779642
11
2.3204145
21
59.9734642
0
LINE
8
DEFAULT_255_2_778
10
2.3204145
20
59.9734642
11
2.3180145
21
59.9689642
0
LINE
8
DEFAULT_255_2_778
10
2.3180145
20
59.9689642
11
2.3156145
21
59.9647642
0
LINE
8
DEFAULT_255_2_778
10
2.3156145
20
59.9647642
11
2.3132145
21
59.9604642
0
LINE
8
DEFAULT_255_2_778
10
2.3132145
20
59.9604642
11
2.3106145
21
59.9562642
0
LINE
8
DEFAULT_255_2_778
10
2.3106145
20
59.9562642
11
2.3079145
21
59.9520642
0
LINE
8
DEFAULT_255_2_778
10
2.3079145
20
59.9520642
11
2.3053145
21
59.9480642
0
LINE
8
DEFAULT_255_2_778
10
2.3053145
20
59.9480642
11
2.3024145
21
59.9440642
0
LINE
8
DEFAULT_255_2_778
10
2.3024145
20
59.9440642
11
2.2995145
21
59.9401642
0
LINE
8
DEFAULT_255_2_778
10
2.2995145
20
59.9401642
11
2.2963145
21
59.9361642
0
LINE
8
DEFAULT_255_2_778
10
2.2963145
20
59.9361642
11
2.2931145
21
59.9324642
0
LINE
8
DEFAULT_255_2_778
10
2.2931145
20
59.9324642
11
2.2899145
21
59.9287642
0
LINE
8
DEFAULT_255_2_778
10
2.2899145
20
59.9287642
11
2.2865145
21
59.9250642
0
LINE
8
DEFAULT_255_2_778
10
2.2865145
20
59.9250642
11
2.2831145
21
59.9215642
0
LINE
8
DEFAULT_255_2_778
10
2.2831145
20
59.9215642
11
2.2796145
21
59.9181642
0
LINE
8
DEFAULT_255_2_778
10
2.2796145
20
59.9181642
11
2.2759145
21
59.9147642
0
LINE
8
DEFAULT_255_2_778
10
2.2759145
20
59.9147642
11
2.2722145
21
59.9115642
0
LINE
8
DEFAULT_255_2_778
10
2.2722145
20
59.9115642
11
2.2685145
21
59.9083642
0
LINE
8
DEFAULT_255_2_778
10
2.2685145
20
59.9083642
11
2.2645145
21
59.9051642
0
LINE
8
DEFAULT_255_2_778
10
2.2645145
20
59.9051642
11
2.2606145
21
59.9022642
0
LINE
8
DEFAULT_255_2_778
10
2.2606145
20
59.9022642
11
2.2566145
21
59.8993642
0
LINE
8
DEFAULT_255_2_778
10
2.2566145
20
59.8993642
11
2.2526145
21
59.8964642
0
LINE
8
DEFAULT_255_2_778
10
2.2526145
20
59.8964642
11
2.2484145
21
59.8938642
0
LINE
8
DEFAULT_255_2_778
10
2.2484145
20
59.8938642
11
2.2442145
21
59.8911642
0
LINE
8
DEFAULT_255_2_778
10
2.2442145
20
59.8911642
11
2.2399145
21
59.8887642
0
LINE
8
DEFAULT_255_2_778
10
2.2399145
20
59.8887642
11
2.2357145
21
59.8863642
0
LINE
8
DEFAULT_255_2_778
10
2.2357145
20
59.8863642
11
2.2312145
21
59.8840642
0
LINE
8
DEFAULT_255_2_778
10
2.2312145
20
59.8840642
11
2.2267145
21
59.8818642
0
LINE
8
DEFAULT_255_2_778
10
2.2267145
20
59.8818642
11
2.2222145
21
59.8797642
0
LINE
8
DEFAULT_255_2_778
10
2.2222145
20
59.8797642
11
2.2177145
21
59.8779642
0
LINE
8
DEFAULT_255_2_778
10
2.2177145
20
59.8779642
11
2.2132145
21
59.8760642
0
LINE
8
DEFAULT_255_2_778
10
2.2132145
20
59.8760642
11
2.2087145
21
59.8744642
0
LINE
8
DEFAULT_255_2_778
10
2.2087145
20
59.8744642
11
2.2039145
21
59.8729642
0
LINE
8
DEFAULT_255_2_778
10
2.2039145
20
59.8729642
11
2.1992145
21
59.8713642
0
LINE
8
DEFAULT_255_2_778
10
2.1992145
20
59.8713642
11
2.1944145
21
59.8699642
0
LINE
8
DEFAULT_255_2_778
10
2.1944145
20
59.8699642
11
2.1897145
21
59.8686642
0
LINE
8
DEFAULT_255_2_778
10
2.1897145
20
59.8686642
11
2.1849145
21
59.8676642
0
LINE
8
DEFAULT_255_2_778
10
2.1849145
20
59.8676642
11
2.1801145
21
59.8665642
0
LINE
8
DEFAULT_255_2_778
10
2.1801145
20
59.8665642
11
2.1754145
21
59.8657642
0
LINE
8
DEFAULT_255_2_778
10
2.1754145
20
59.8657642
11
2.1706145
21
59.8649642
0
LINE
8
DEFAULT_255_2_778
10
2.1706145
20
59.8649642
11
2.1658145
21
59.8641642
0
LINE
8
DEFAULT_255_2_778
10
2.1658145
20
59.8641642
11
2.1611145
21
59.8636642
0
LINE
8
DEFAULT_255_2_778
10
2.1611145
20
59.8636642
11
2.1563145
21
59.8631642
0
LINE
8
DEFAULT_255_2_778
10
2.1563145
20
59.8631642
11
2.1516145
21
59.8628642
0
LINE
8
DEFAULT_255_2_778
10
2.1516145
20
59.8628642
11
2.1468145
21
59.8625642
0
LINE
8
DEFAULT_255_2_778
10
2.1468145
20
59.8625642
11
2.1418145
21
59.8625642
0
LINE
8
DEFAULT_255_2_778
10
2.1418145
20
59.8625642
11
0.3415145
21
59.8625642
0
LINE
8
DEFAULT_255_2_778
10
0.3415145
20
59.8625642
11
0.3299145
21
59.8623642
0
LINE
8
DEFAULT_255_2_778
10
2.3415145
20
34.1940642
11
2.3542145
21
34.2001642
0
LINE
8
DEFAULT_255_2_778
10
33.0705145
20
66.2117642
11
33.2417145
21
66.3078642
0
LINE
8
DEFAULT_255_2_778
10
6.2079145
20
100.6716642
11
6.2079145
21
96.7859642
0
LINE
8
DEFAULT_255_2_778
10
71.0742145
20
66.2398642
11
71.2417145
21
66.3231642
0
LINE
8
DEFAULT_255_2_778
10
32.7414145
20
39.2727642
11
32.6863145
21
39.3264642
0
LINE
8
DEFAULT_255_2_778
10
32.6863145
20
39.3264642
11
32.5416145
21
39.3510642
0
LINE
8
DEFAULT_255_2_778
10
32.5416145
20
39.3510642
11
2.3415145
21
39.3510642
0
LINE
8
DEFAULT_255_2_778
10
32.7416145
20
66.1437642
11
32.7395145
21
66.1662642
0
LINE
8
DEFAULT_255_2_778
10
32.7395145
20
66.1662642
11
32.7112145
21
66.2366642
0
LINE
8
DEFAULT_255_2_778
10
32.7112145
20
66.2366642
11
32.5416145
21
66.3231642
0
LINE
8
DEFAULT_255_2_778
10
33.0414145
20
34.5821642
11
33.0414145
21
66.3075642
0
LINE
8
DEFAULT_255_2_778
10
39.7499145
20
3.9042642
11
39.7499145
21
3.1504642
0
LINE
8
DEFAULT_255_2_778
10
39.9298145
20
2.9705642
11
40.3698145
21
2.9705642
0
LINE
8
DEFAULT_255_2_778
10
40.5497145
20
2.7906642
11
40.5497145
21
1.2727642
0
LINE
8
DEFAULT_255_2_778
10
40.5497145
20
1.2727642
11
10.6439145
21
1.2727642
0
LINE
8
DEFAULT_255_2_778
10
33.0416301
20
66.1112939
11
33.0670301
21
66.2054939
0
LINE
8
DEFAULT_255_2_778
10
33.0670301
20
66.2054939
11
33.0684301
21
66.2080939
0
LINE
8
DEFAULT_255_2_778
10
33.0416301
20
39.1607939
11
33.0684301
21
39.2250939
0
LINE
8
DEFAULT_255_2_778
10
33.0684301
20
39.2250939
11
33.2417301
21
39.2925939
0
LINE
8
DEFAULT_255_2_778
10
33.2417301
20
39.2925939
11
70.6934301
21
39.2456939
0
LINE
8
DEFAULT_255_2_778
10
70.6934301
20
39.2456939
11
70.7413301
21
39.1636939
0
LINE
8
DEFAULT_255_2_778
10
70.7413301
20
39.1636939
11
70.7416301
21
39.1604939
0
LINE
8
DEFAULT_255_2_778
10
32.7413301
20
61.2616939
11
32.6863301
21
61.2079939
0
LINE
8
DEFAULT_255_2_778
10
32.6863301
20
61.2079939
11
32.5416301
21
61.1833939
0
LINE
8
DEFAULT_255_2_778
10
32.5416301
20
61.1833939
11
2.3415301
21
61.1833939
0
LINE
8
DEFAULT_255_2_778
10
66.3222301
20
3.9042939
11
66.4315301
21
1.4028939
0
LINE
8
DEFAULT_255_2_778
10
66.4315301
20
1.4028939
11
43.8520301
21
1.4028939
0
LINE
8
DEFAULT_255_2_778
10
43.8520301
20
1.4028939
11
43.9613301
21
3.9042939
0
LINE
8
DEFAULT_255_2_778
10
24.1014301
20
4.9120939
11
24.1014301
21
4.9120939
0
LINE
8
DEFAULT_255_2_778
10
71.0416301
20
61.2616939
11
71.0967301
21
61.2079939
0
LINE
8
DEFAULT_255_2_778
10
71.0967301
20
61.2079939
11
71.2414301
21
61.1833939
0
LINE
8
DEFAULT_255_2_778
10
71.2414301
20
61.1833939
11
147.9414301
21
61.1833939
0
ARC
8
DEFAULT_255_2_778
10
69.7400949
20
0.4673337
40
0.2014574
50
315.2035273
51
359.9018713
0
ARC
8
DEFAULT_255_2_778
10
69.7419813
20
0.4665723
40
0.1995839
50
269.8767406
51
314.9770571
0
ARC
8
DEFAULT_255_2_778
10
0.3197424
20
0.8194055
40
0.1781907
50
179.9089573
51
180.0303466
0
ARC
8
DEFAULT_255_2_778
10
0.5415897
20
0.81929
40
0.4000379
50
179.9969672
51
224.965924
0
ARC
8
DEFAULT_255_2_778
10
0.5412293
20
0.8195688
40
0.3999803
50
225.0306604
51
269.9921839
0
LINE
8
DEFAULT_255_2_778
10
0.5411748
20
0.4195885
11
0.5415519
21
0.4195887
0
LINE
8
DEFAULT_255_2_778
10
70.7413519
20
66.1111887
11
70.7159519
21
66.2053887
0
LINE
8
DEFAULT_255_2_778
10
70.7159519
20
66.2053887
11
70.7146519
21
66.2079887
0
LINE
8
DEFAULT_255_2_778
10
69.9415519
20
3.9041887
11
69.9415519
21
0.4669887
0
LINE
8
DEFAULT_255_2_778
10
70.7416519
20
66.3074887
11
70.7416519
21
34.5820887
0
LINE
8
DEFAULT_255_2_778
10
145.2816519
20
3.9041887
11
145.2816519
21
-0.1331113
0
LINE
8
DEFAULT_255_2_778
10
145.2816519
20
-0.1331113
11
72.0015519
21
-0.1331113
0
LINE
8
DEFAULT_255_2_778
10
72.0015519
20
-0.1331113
11
72.0015519
21
3.9041887
0
LINE
8
DEFAULT_255_2_778
10
71.0416519
20
66.1418887
11
71.0721519
21
66.2365887
0
LINE
8
DEFAULT_255_2_778
10
71.0416519
20
39.2725887
11
71.0967519
21
39.3263887
0
LINE
8
DEFAULT_255_2_778
10
71.0967519
20
39.3263887
11
71.2414519
21
39.3509887
0
LINE
8
DEFAULT_255_2_778
10
71.2414519
20
39.3509887
11
147.9415519
21
39.3509887
0
LINE
8
DEFAULT_255_2_778
10
0.5415519
20
0.4195887
11
0.7154519
21
0.4195887
0
LINE
8
DEFAULT_255_2_778
10
0.7154519
20
0.4195887
11
6.6352519
21
0.6981887
0
LINE
8
DEFAULT_255_2_778
10
6.6352519
20
0.6981887
11
12.6621519
21
1.5617887
0
LINE
8
DEFAULT_255_2_778
10
12.6621519
20
1.5617887
11
18.5917519
21
3.0056887
0
LINE
8
DEFAULT_255_2_778
10
18.5917519
20
3.0056887
11
26.5207519
21
5.7490887
0
LINE
8
DEFAULT_255_2_778
10
26.5207519
20
5.7490887
11
150.1412519
21
5.7903887
0
LINE
8
DEFAULT_255_2_778
10
149.7414979
20
3.9043215
11
149.7419646
21
3.9043212
0
ARC
8
DEFAULT_255_2_778
10
149.7418782
20
4.3036066
40
0.3992854
50
270.0123945
51
341.7585612
0
ARC
8
DEFAULT_255_2_778
10
149.7393778
20
4.3041178
40
0.4018203
50
341.8009371
51
359.9862736
0
ARC
8
DEFAULT_255_2_778
10
149.7712793
20
4.3040268
40
0.3699186
50
344.1865056
51
359.9991711
0
LINE
8
DEFAULT_255_2_778
10
21.1888979
20
3.9043215
11
149.7414979
21
3.9043215
0
LINE
8
DEFAULT_255_2_778
10
2.3568979
20
34.2001215
11
2.3915979
21
34.2046215
0
LINE
8
DEFAULT_255_2_778
10
2.3949979
20
34.2051215
11
2.4002979
21
34.2059215
0
LINE
8
DEFAULT_255_2_778
10
2.4039979
20
34.2065215
11
2.5415979
21
34.2112215
0
LINE
8
DEFAULT_255_2_778
10
2.5415979
20
34.2112215
11
2.9415979
21
34.2112215
0
LINE
8
DEFAULT_255_2_778
10
149.7546979
20
35.0531215
11
150.0562979
21
35.1238215
0
LINE
8
DEFAULT_255_2_778
10
150.0562979
20
35.1238215
11
150.1366979
21
35.2127215
0
LINE
8
DEFAULT_255_2_778
10
150.1366979
20
35.2127215
11
150.1414979
21
35.2381215
0
LINE
8
DEFAULT_255_2_778
10
150.1414979
20
35.2381215
11
150.1414979
21
35.2423215
0
ARC
8
DEFAULT_255_2_778
10
1.963401
20
39.8671769
40
0.1781907
50
359.9089573
51
0.0303466
0
ARC
8
DEFAULT_255_2_778
10
1.7415537
20
39.8672925
40
0.4000379
50
359.9969672
51
44.965924
0
ARC
8
DEFAULT_255_2_778
10
1.7418902
20
39.866956
40
0.400038
50
45.034076
51
90.0030328
0
LINE
8
DEFAULT_255_2_778
10
1.741869
20
40.266994
11
1.7414915
21
40.2669938
0
LINE
8
DEFAULT_255_2_778
10
0.5415915
20
40.2669938
11
0.5412143
21
40.266994
0
ARC
8
DEFAULT_255_2_778
10
0.5412689
20
39.8670137
40
0.3999803
50
90.0078161
51
134.9693396
0
ARC
8
DEFAULT_255_2_778
10
0.5416293
20
39.8672925
40
0.400038
50
135.034076
51
180.0030328
0
ARC
8
DEFAULT_255_2_778
10
0.319782
20
39.8671769
40
0.1781907
50
179.9696534
51
180.0910427
0
ARC
8
DEFAULT_255_2_778
10
147.642493
20
0.467026
40
0.2007015
50
180.0092024
51
224.8447182
0
ARC
8
DEFAULT_255_2_778
10
147.6412535
20
0.466314
40
0.1993208
50
224.9508513
51
270.15466
0
LINE
8
DEFAULT_255_2_778
10
147.3416915
20
34.5820938
11
2.9416915
21
34.5820938
0
LINE
8
DEFAULT_255_2_778
10
1.7414915
20
40.2669938
11
0.5415915
21
40.2669938
0
LINE
8
DEFAULT_255_2_778
10
149.9531915
20
40.6712938
11
149.9414915
21
40.6709938
0
LINE
8
DEFAULT_255_2_778
10
149.9414915
20
40.6709938
11
148.1415915
21
40.6709938
0
LINE
8
DEFAULT_255_2_778
10
148.1415915
20
40.6709938
11
148.1367915
21
40.6709938
0
LINE
8
DEFAULT_255_2_778
10
148.1367915
20
40.6709938
11
148.1320915
21
40.6709938
0
LINE
8
DEFAULT_255_2_778
10
148.1320915
20
40.6709938
11
148.1272915
21
40.6706938
0
LINE
8
DEFAULT_255_2_778
10
148.1272915
20
40.6706938
11
148.1224915
21
40.6701938
0
LINE
8
DEFAULT_255_2_778
10
148.1224915
20
40.6701938
11
148.1177915
21
40.6696938
0
LINE
8
DEFAULT_255_2_778
10
148.1177915
20
40.6696938
11
148.1129915
21
40.6688938
0
LINE
8
DEFAULT_255_2_778
10
148.1129915
20
40.6688938
11
148.1081915
21
40.6680938
0
LINE
8
DEFAULT_255_2_778
10
148.1081915
20
40.6680938
11
148.1034915
21
40.6672938
0
LINE
8
DEFAULT_255_2_778
10
148.1034915
20
40.6672938
11
148.0986915
21
40.6661938
0
LINE
8
DEFAULT_255_2_778
10
148.0986915
20
40.6661938
11
148.0939915
21
40.6651938
0
LINE
8
DEFAULT_255_2_778
10
148.0939915
20
40.6651938
11
148.0891915
21
40.6638938
0
LINE
8
DEFAULT_255_2_778
10
148.0891915
20
40.6638938
11
148.0843915
21
40.6624938
0
LINE
8
DEFAULT_255_2_778
10
148.0843915
20
40.6624938
11
148.0796915
21
40.6608938
0
LINE
8
DEFAULT_255_2_778
10
148.0796915
20
40.6608938
11
148.0748915
21
40.6593938
0
LINE
8
DEFAULT_255_2_778
10
148.0748915
20
40.6593938
11
148.0703915
21
40.6577938
0
LINE
8
DEFAULT_255_2_778
10
148.0703915
20
40.6577938
11
148.0658915
21
40.6558938
0
LINE
8
DEFAULT_255_2_778
10
148.0658915
20
40.6558938
11
148.0613915
21
40.6540938
0
LINE
8
DEFAULT_255_2_778
10
148.0613915
20
40.6540938
11
148.0568915
21
40.6519938
0
LINE
8
DEFAULT_255_2_778
10
148.0568915
20
40.6519938
11
148.0523915
21
40.6497938
0
LINE
8
DEFAULT_255_2_778
10
148.0523915
20
40.6497938
11
148.0478915
21
40.6474938
0
LINE
8
DEFAULT_255_2_778
10
148.0478915
20
40.6474938
11
148.0436915
21
40.6450938
0
LINE
8
DEFAULT_255_2_778
10
148.0436915
20
40.6450938
11
148.0393915
21
40.6426938
0
LINE
8
DEFAULT_255_2_778
10
148.0393915
20
40.6426938
11
148.0351915
21
40.6399938
0
LINE
8
DEFAULT_255_2_778
10
148.0351915
20
40.6399938
11
148.0309915
21
40.6373938
0
LINE
8
DEFAULT_255_2_778
10
148.0309915
20
40.6373938
11
148.0269915
21
40.6344938
0
LINE
8
DEFAULT_255_2_778
10
148.0269915
20
40.6344938
11
148.0229915
21
40.6315938
0
LINE
8
DEFAULT_255_2_778
10
148.0229915
20
40.6315938
11
148.0190915
21
40.6286938
0
LINE
8
DEFAULT_255_2_778
10
148.0190915
20
40.6286938
11
148.0150915
21
40.6254938
0
LINE
8
DEFAULT_255_2_778
10
148.0150915
20
40.6254938
11
148.0113915
21
40.6222938
0
LINE
8
DEFAULT_255_2_778
10
148.0113915
20
40.6222938
11
148.0076915
21
40.6190938
0
LINE
8
DEFAULT_255_2_778
10
148.0076915
20
40.6190938
11
148.0039915
21
40.6156938
0
LINE
8
DEFAULT_255_2_778
10
148.0039915
20
40.6156938
11
148.0005915
21
40.6122938
0
LINE
8
DEFAULT_255_2_778
10
148.0005915
20
40.6122938
11
147.9970915
21
40.6087938
0
LINE
8
DEFAULT_255_2_778
10
147.9970915
20
40.6087938
11
147.9936915
21
40.6050938
0
LINE
8
DEFAULT_255_2_778
10
147.9936915
20
40.6050938
11
147.9904915
21
40.6013938
0
LINE
8
DEFAULT_255_2_778
10
147.9904915
20
40.6013938
11
147.9872915
21
40.5976938
0
LINE
8
DEFAULT_255_2_778
10
147.9872915
20
40.5976938
11
147.9840915
21
40.5936938
0
LINE
8
DEFAULT_255_2_778
10
147.9840915
20
40.5936938
11
147.9811915
21
40.5897938
0
LINE
8
DEFAULT_255_2_778
10
147.9811915
20
40.5897938
11
147.9782915
21
40.5857938
0
LINE
8
DEFAULT_255_2_778
10
147.9782915
20
40.5857938
11
147.9756915
21
40.5817938
0
LINE
8
DEFAULT_255_2_778
10
147.9756915
20
40.5817938
11
147.9729915
21
40.5775938
0
LINE
8
DEFAULT_255_2_778
10
147.9729915
20
40.5775938
11
147.9703915
21
40.5733938
0
LINE
8
DEFAULT_255_2_778
10
147.9703915
20
40.5733938
11
147.9679915
21
40.5690938
0
LINE
8
DEFAULT_255_2_778
10
147.9679915
20
40.5690938
11
147.9655915
21
40.5648938
0
LINE
8
DEFAULT_255_2_778
10
147.9655915
20
40.5648938
11
147.9631915
21
40.5603938
0
LINE
8
DEFAULT_255_2_778
10
147.9631915
20
40.5603938
11
147.9610915
21
40.5558938
0
LINE
8
DEFAULT_255_2_778
10
147.9610915
20
40.5558938
11
147.9589915
21
40.5513938
0
LINE
8
DEFAULT_255_2_778
10
147.9589915
20
40.5513938
11
147.9571915
21
40.5468938
0
LINE
8
DEFAULT_255_2_778
10
147.9571915
20
40.5468938
11
147.9552915
21
40.5423938
0
LINE
8
DEFAULT_255_2_778
10
147.9552915
20
40.5423938
11
147.9536915
21
40.5376938
0
LINE
8
DEFAULT_255_2_778
10
147.9536915
20
40.5376938
11
147.9520915
21
40.5328938
0
LINE
8
DEFAULT_255_2_778
10
147.9520915
20
40.5328938
11
147.9504915
21
40.5280938
0
LINE
8
DEFAULT_255_2_778
10
147.9504915
20
40.5280938
11
147.9491915
21
40.5233938
0
LINE
8
DEFAULT_255_2_778
10
147.9491915
20
40.5233938
11
147.9478915
21
40.5185938
0
LINE
8
DEFAULT_255_2_778
10
147.9478915
20
40.5185938
11
147.9467915
21
40.5137938
0
LINE
8
DEFAULT_255_2_778
10
147.9467915
20
40.5137938
11
147.9457915
21
40.5090938
0
LINE
8
DEFAULT_255_2_778
10
147.9457915
20
40.5090938
11
147.9449915
21
40.5042938
0
LINE
8
DEFAULT_255_2_778
10
147.9449915
20
40.5042938
11
147.9441915
21
40.4995938
0
LINE
8
DEFAULT_255_2_778
10
147.9441915
20
40.4995938
11
147.9433915
21
40.4944938
0
LINE
8
DEFAULT_255_2_778
10
147.9433915
20
40.4944938
11
147.9428915
21
40.4894938
0
LINE
8
DEFAULT_255_2_778
10
147.9428915
20
40.4894938
11
147.9422915
21
40.4844938
0
LINE
8
DEFAULT_255_2_778
10
147.9422915
20
40.4844938
11
147.9420915
21
40.4793938
0
LINE
8
DEFAULT_255_2_778
10
147.9420915
20
40.4793938
11
147.9417915
21
40.4743938
0
LINE
8
DEFAULT_255_2_778
10
147.3416915
20
34.2108938
11
147.8277915
21
34.2092938
0
LINE
8
DEFAULT_255_2_778
10
0.5286915
20
35.0530938
11
0.2270915
21
35.1236938
0
LINE
8
DEFAULT_255_2_778
10
0.2270915
20
35.1236938
11
0.1465915
21
35.2125938
0
LINE
8
DEFAULT_255_2_778
10
0.1465915
20
35.2125938
11
0.1418915
21
35.2379938
0
LINE
8
DEFAULT_255_2_778
10
0.1418915
20
35.2379938
11
0.1418915
21
35.2422938
0
LINE
8
DEFAULT_255_2_778
10
148.5320915
20
35.0530938
11
148.3754915
21
35.1038938
0
LINE
8
DEFAULT_255_2_778
10
148.3754915
20
35.1038938
11
148.2645915
21
35.2120938
0
LINE
8
DEFAULT_255_2_778
10
148.2645915
20
35.2120938
11
148.2103915
21
35.3067938
0
LINE
8
DEFAULT_255_2_778
10
148.2103915
20
35.3067938
11
148.1793915
21
35.3893938
0
LINE
8
DEFAULT_255_2_778
10
148.1793915
20
35.3893938
11
148.1605915
21
35.4639938
0
LINE
8
DEFAULT_255_2_778
10
148.1605915
20
35.4639938
11
148.1521915
21
35.5129938
0
LINE
8
DEFAULT_255_2_778
10
148.1521915
20
35.5129938
11
148.1473915
21
35.5502938
0
LINE
8
DEFAULT_255_2_778
10
148.1473915
20
35.5502938
11
148.1441915
21
35.5877938
0
LINE
8
DEFAULT_255_2_778
10
148.1441915
20
35.5877938
11
148.1415915
21
35.6629938
0
LINE
8
DEFAULT_255_2_778
10
70.7128915
20
66.2117938
11
70.5416915
21
66.3077938
0
LINE
8
DEFAULT_255_2_778
10
147.4417915
20
3.9041938
11
147.4417915
21
0.4669938
0
LINE
8
DEFAULT_255_2_778
10
150.1343915
20
59.8670938
11
147.9343915
21
59.8670938
0
LINE
8
DEFAULT_255_2_778
10
147.9343915
20
59.8670938
11
147.9343915
21
71.2189938
0
LINE
8
DEFAULT_255_2_778
10
147.9415915
20
29.3205938
11
147.9415915
21
34.2783938
0
LINE
8
DEFAULT_255_2_778
10
147.9415915
20
34.2786938
11
147.9415915
21
40.4696938
0
ARC
8
DEFAULT_255_2_778
10
147.7343182
20
70.8806186
40
0.4000391
50
0.0056111
51
90.0087211
0
ARC
8
DEFAULT_255_2_778
10
147.7342752
20
70.8806397
40
0.400018
50
90.0025614
51
179.9974213
0
ARC
8
DEFAULT_255_2_778
10
147.7416964
20
29.6669969
40
0.400039
50
180.0056061
51
270.0087334
0
ARC
8
DEFAULT_255_2_778
10
147.7417396
20
29.6669757
40
0.4000179
50
270.002537
51
359.9974314
0
LINE
8
DEFAULT_255_2_778
10
150.1343573
20
60.2678577
11
148.1343573
21
60.2678577
0
LINE
8
DEFAULT_255_2_778
10
148.1343573
20
60.2678577
11
148.1343573
21
70.8806577
0
LINE
8
DEFAULT_255_2_778
10
147.3342573
20
70.8806577
11
147.3342573
21
66.3228577
0
LINE
8
DEFAULT_255_2_778
10
147.3416573
20
34.5821577
11
147.3416573
21
29.6669577
0
LINE
8
DEFAULT_255_2_778
10
148.1417573
20
29.6669577
11
148.1417573
21
39.8669577
0
ARC
8
DEFAULT_255_2_778
10
149.9557547
20
99.8681113
40
0.178633
50
359.9090537
51
0.0303145
0
ARC
8
DEFAULT_255_2_778
10
149.7350032
20
99.868397
40
0.3993845
50
359.9725772
51
45.0047186
0
ARC
8
DEFAULT_255_2_778
10
149.7351288
20
99.86886
40
0.3989684
50
44.9704571
51
89.9983812
0
ARC
8
DEFAULT_255_2_778
10
149.7349519
20
100.0318211
40
0.2360075
50
89.9542997
51
90.1370126
0
ARC
8
DEFAULT_255_2_778
10
71.4898814
20
3.6175393
40
0.4982091
50
144.7571074
51
178.3969039
0
ARC
8
DEFAULT_255_2_778
10
71.4932092
20
3.6172579
40
0.5015434
50
178.3754098
51
179.9997595
0
ARC
8
DEFAULT_255_2_778
10
71.4912477
20
3.6168036
40
0.4995821
50
179.9476536
51
228.3118364
0
ARC
8
DEFAULT_255_2_778
10
71.4913177
20
3.6157308
40
0.4988282
50
228.2238791
51
270.0539628
0
ARC
8
DEFAULT_255_2_778
10
71.4922573
20
3.6157308
40
0.4988282
50
269.9460372
51
311.7761209
0
ARC
8
DEFAULT_255_2_778
10
71.4920874
20
3.6168131
40
0.4997489
50
311.7079809
51
0.0551273
0
ARC
8
DEFAULT_255_2_778
10
71.4896753
20
3.6172846
40
0.5021609
50
0.0010641
51
1.6195485
0
ARC
8
DEFAULT_255_2_778
10
71.4934532
20
3.6175903
40
0.498376
50
1.5966875
51
35.2221513
0
ARC
8
DEFAULT_255_2_778
10
146.7417684
20
1.6671723
40
0.8001809
50
93.1386179
51
179.9960242
0
ARC
8
DEFAULT_255_2_778
10
146.7416463
20
1.6545076
40
0.8128202
50
89.9970947
51
93.0811476
0
LINE
8
DEFAULT_255_2_778
10
148.1343875
20
63.2669278
11
150.1417875
21
63.2669278
0
LINE
8
DEFAULT_255_2_778
10
150.1343875
20
65.4820278
11
148.1343875
21
65.4820278
0
LINE
8
DEFAULT_255_2_778
10
150.0862875
20
40.1008278
11
150.0795875
21
40.1929278
0
LINE
8
DEFAULT_255_2_778
10
150.0795875
20
40.1929278
11
150.0708875
21
40.2934278
0
LINE
8
DEFAULT_255_2_778
10
150.0708875
20
40.2934278
11
150.0618875
21
40.3746278
0
LINE
8
DEFAULT_255_2_778
10
150.0618875
20
40.3746278
11
150.0526875
21
40.4336278
0
LINE
8
DEFAULT_255_2_778
10
150.0526875
20
40.4336278
11
150.0417875
21
40.4760278
0
LINE
8
DEFAULT_255_2_778
10
150.0417875
20
40.4760278
11
150.0396875
21
40.4805278
0
LINE
8
DEFAULT_255_2_778
10
149.9499875
20
53.4660278
11
149.9499875
21
47.0683278
0
LINE
8
DEFAULT_255_2_778
10
149.9499875
20
47.0683278
11
149.9533875
21
40.6715278
0
LINE
8
DEFAULT_255_2_778
10
149.9533875
20
40.6715278
11
150.0338875
21
40.4921278
0
LINE
8
DEFAULT_255_2_778
10
129.3463875
20
96.7822278
11
0.1415875
21
96.7822278
0
LINE
8
DEFAULT_255_2_778
10
136.7274875
20
98.8179278
11
112.1941875
21
98.8179278
0
LINE
8
DEFAULT_255_2_778
10
149.7343875
20
100.2678278
11
137.4735875
21
100.2678278
0
LINE
8
DEFAULT_255_2_778
10
112.2015875
20
100.6671278
11
137.4814875
21
100.6671278
0
LINE
8
DEFAULT_255_2_778
10
17.8628875
20
2.8144278
11
18.1549875
21
2.8977278
0
LINE
8
DEFAULT_255_2_778
10
149.9531875
20
59.8628278
11
149.9414875
21
59.8631278
0
LINE
8
DEFAULT_255_2_778
10
0.1415875
20
62.1274278
11
0.1418875
21
62.1226278
0
LINE
8
DEFAULT_255_2_778
10
0.1441875
20
62.0043278
11
0.1492875
21
61.7376278
0
LINE
8
DEFAULT_255_2_778
10
0.1492875
20
61.7376278
11
0.1542875
21
61.5111278
0
LINE
8
DEFAULT_255_2_778
10
0.1542875
20
61.5111278
11
0.1574875
21
61.3871278
0
LINE
8
DEFAULT_255_2_778
10
0.1574875
20
61.3871278
11
0.1603875
21
61.2799278
0
LINE
8
DEFAULT_255_2_778
10
0.1420875
20
62.1155278
11
0.1434875
21
62.0557278
0
LINE
8
DEFAULT_255_2_778
10
0.1624875
20
61.2183278
11
0.1669875
21
61.0788278
0
LINE
8
DEFAULT_255_2_778
10
0.1669875
20
61.0788278
11
0.1695875
21
61.0013278
0
LINE
8
DEFAULT_255_2_778
10
0.1695875
20
61.0013278
11
0.1727875
21
60.9190278
0
LINE
8
DEFAULT_255_2_778
10
0.1727875
20
60.9190278
11
0.1762875
21
60.8328278
0
LINE
8
DEFAULT_255_2_778
10
0.1762875
20
60.8328278
11
0.1801875
21
60.7431278
0
LINE
8
DEFAULT_255_2_778
10
0.1801875
20
60.7431278
11
0.1846875
21
60.6513278
0
LINE
8
DEFAULT_255_2_778
10
0.1846875
20
60.6513278
11
0.1894875
21
60.5586278
0
LINE
8
DEFAULT_255_2_778
10
0.1894875
20
60.5586278
11
0.1949875
21
60.4666278
0
LINE
8
DEFAULT_255_2_778
10
0.1949875
20
60.4666278
11
0.2010875
21
60.3766278
0
LINE
8
DEFAULT_255_2_778
10
0.2010875
20
60.3766278
11
0.2079875
21
60.2904278
0
LINE
8
DEFAULT_255_2_778
10
0.2079875
20
60.2904278
11
0.2156875
21
60.2107278
0
LINE
8
DEFAULT_255_2_778
10
0.2156875
20
60.2107278
11
0.2240875
21
60.1414278
0
LINE
8
DEFAULT_255_2_778
10
0.2240875
20
60.1414278
11
0.2360875
21
60.0755278
0
LINE
8
DEFAULT_255_2_778
10
0.2360875
20
60.0755278
11
0.2436875
21
60.0536278
0
LINE
8
DEFAULT_255_2_778
10
0.1478875
20
53.3596278
11
0.1478875
21
47.1744278
0
LINE
8
DEFAULT_255_2_778
10
0.1478875
20
53.3596278
11
0.1476875
21
53.3921278
0
LINE
8
DEFAULT_255_2_778
10
0.1476875
20
53.3972278
11
0.1471875
21
53.4183278
0
LINE
8
DEFAULT_255_2_778
10
72.0015875
20
1.0671278
11
69.9415875
21
1.0671278
0
LINE
8
DEFAULT_255_2_778
10
72.0015875
20
0.6919278
11
69.9415875
21
0.6919278
0
LINE
8
DEFAULT_255_2_778
10
145.2816875
20
1.2671278
11
145.9415875
21
1.2671278
0
LINE
8
DEFAULT_255_2_778
10
145.9415875
20
1.2671278
11
145.9415875
21
1.6672278
0
LINE
8
DEFAULT_255_2_778
10
146.7416875
20
2.4673278
11
147.4417875
21
2.4673278
0
LINE
8
DEFAULT_255_2_778
10
145.2816875
20
0.6916278
11
146.5167875
21
0.6916278
0
LINE
8
DEFAULT_255_2_778
10
146.5167875
20
0.6916278
11
146.5167875
21
1.0811278
0
LINE
8
DEFAULT_255_2_778
10
146.5167875
20
1.0811278
11
147.4417875
21
1.0811278
0
LINE
8
DEFAULT_255_2_778
10
145.2816875
20
1.7172278
11
72.0015875
21
1.7172278
0
LINE
8
DEFAULT_255_2_778
10
69.9415875
20
1.2671278
11
72.0015875
21
1.2671278
0
ARC
8
DEFAULT_255_2_778
10
149.9637174
20
39.8672797
40
0.1778348
50
359.9088608
51
0.0303788
0
ARC
8
DEFAULT_255_2_778
10
149.7417466
20
39.8673917
40
0.3998055
50
359.9974542
51
44.9797083
0
ARC
8
DEFAULT_255_2_778
10
149.7420251
20
39.8673806
40
0.3996165
50
45.0090644
51
90.0279243
0
LINE
8
DEFAULT_255_2_778
10
149.7418303
20
40.266997
11
149.7414519
21
40.2669968
0
LINE
8
DEFAULT_255_2_778
10
148.5416519
20
40.2669968
11
148.5412735
21
40.266997
0
ARC
8
DEFAULT_255_2_778
10
148.5410788
20
39.8673806
40
0.3996165
50
89.9720757
51
134.9909356
0
ARC
8
DEFAULT_255_2_778
10
148.5413572
20
39.8673917
40
0.3998055
50
135.0202917
51
180.0025458
0
ARC
8
DEFAULT_255_2_778
10
148.3193865
20
39.8672797
40
0.1778347
50
179.9696212
51
180.0911392
0
LINE
8
DEFAULT_255_2_778
10
149.7414519
20
40.2669968
11
148.5416519
21
40.2669968
0
LINE
8
DEFAULT_255_2_778
10
149.7414519
20
35.0530968
11
148.5416519
21
35.0530968
0
LINE
8
DEFAULT_255_2_778
10
2.1415519
20
40.6709968
11
0.3413519
21
40.6709968
0
LINE
8
DEFAULT_255_2_778
10
0.3413519
20
40.6709968
11
0.3297519
21
40.6712968
0
LINE
8
DEFAULT_255_2_778
10
0.3225519
20
40.6540968
11
0.2434519
21
40.4804968
0
LINE
8
DEFAULT_255_2_778
10
147.8370519
20
34.2090968
11
147.8891519
21
34.2050968
0
LINE
8
DEFAULT_255_2_778
10
147.8957519
20
34.2040968
11
147.9089519
21
34.2021968
0
LINE
8
DEFAULT_255_2_778
10
147.9293519
20
34.1998968
11
147.9415519
21
34.1934968
0
LINE
8
DEFAULT_255_2_778
10
147.9110823
20
34.2019928
11
147.9284823
21
34.2000928
0
LINE
8
DEFAULT_255_2_778
10
2.1478823
20
65.4857928
11
0.1478823
21
65.4857928
0
LINE
8
DEFAULT_255_2_778
10
0.1478823
20
60.2715928
11
2.1478823
21
60.2715928
0
LINE
8
DEFAULT_255_2_778
10
32.7416823
20
66.3075928
11
71.0416823
21
66.3075928
0
LINE
8
DEFAULT_255_2_778
10
33.0416823
20
61.3730928
11
33.0683823
21
61.3087928
0
LINE
8
DEFAULT_255_2_778
10
33.0683823
20
61.3087928
11
33.2416823
21
61.2412928
0
LINE
8
DEFAULT_255_2_778
10
33.2416823
20
61.2412928
11
70.6934823
21
61.2881928
0
LINE
8
DEFAULT_255_2_778
10
70.6934823
20
61.2881928
11
70.7413823
21
61.3701928
0
LINE
8
DEFAULT_255_2_778
10
70.7413823
20
61.3701928
11
70.7415823
21
61.3733928
0
LINE
8
DEFAULT_255_2_778
10
4.3584823
20
98.8171928
11
69.4816823
21
98.8171928
0
LINE
8
DEFAULT_255_2_778
10
70.2015823
20
98.8171928
11
111.4816823
21
98.8171928
0
LINE
8
DEFAULT_255_2_778
10
112.2015823
20
100.2670928
11
111.4816823
21
100.2670928
0
LINE
8
DEFAULT_255_2_778
10
111.4816823
20
100.2670928
11
111.4816823
21
96.7856928
0
LINE
8
DEFAULT_255_2_778
10
111.4816823
20
96.7856928
11
112.2010823
21
96.7856928
0
LINE
8
DEFAULT_255_2_778
10
112.2010823
20
96.7856928
11
112.2010823
21
100.2665928
0
ARC
8
DEFAULT_255_2_778
10
0.3391035
20
47.0675011
40
0.1974934
50
167.3781264
51
175.5045882
0
ARC
8
DEFAULT_255_2_778
10
0.3428629
20
47.0670098
40
0.20128
50
175.4490358
51
179.9866895
0
LINE
8
DEFAULT_255_2_778
10
111.4816828
20
99.8421566
11
112.2015828
21
99.8421566
0
LINE
8
DEFAULT_255_2_778
10
112.2015828
20
99.4669566
11
111.4816828
21
99.4669566
0
LINE
8
DEFAULT_255_2_778
10
112.2015828
20
99.2669566
11
111.4816828
21
99.2669566
0
LINE
8
DEFAULT_255_2_778
10
69.4816828
20
99.8421566
11
70.2016828
21
99.8421566
0
LINE
8
DEFAULT_255_2_778
10
70.2016828
20
99.4669566
11
69.4816828
21
99.4669566
0
LINE
8
DEFAULT_255_2_778
10
70.2016828
20
99.2669566
11
69.4816828
21
99.2669566
0
LINE
8
DEFAULT_255_2_778
10
0.1473828
20
47.1310566
11
0.1476828
21
47.1744566
0
LINE
8
DEFAULT_255_2_778
10
0.1465828
20
47.1117566
11
0.1473828
21
47.1263566
0
ARC
8
DEFAULT_255_2_778
10
131.114427
20
91.2995412
40
0.5747541
50
358.6788068
51
359.9985567
0
ARC
8
DEFAULT_255_2_778
10
131.1118995
20
91.2938243
40
0.5773098
50
0.5659514
51
55.9209251
0
ARC
8
DEFAULT_255_2_778
10
130.9426411
20
91.072289
40
0.8557919
50
54.8458734
51
75.9573633
0
ARC
8
DEFAULT_255_2_778
10
130.8537867
20
90.7365216
40
1.2030943
50
75.7322395
51
90.3837761
0
ARC
8
DEFAULT_255_2_778
10
130.8256081
20
90.1578837
40
1.7818189
50
89.3530069
51
89.9980089
0
ARC
8
DEFAULT_255_2_778
10
130.8199972
20
90.4195106
40
1.5202024
50
89.7861905
51
98.7338118
0
ARC
8
DEFAULT_255_2_778
10
130.7623456
20
90.7887221
40
1.1465184
50
98.6878125
51
110.0253152
0
ARC
8
DEFAULT_255_2_778
10
130.6737385
20
91.0302331
40
0.8892669
50
109.9899947
51
124.403541
0
ARC
8
DEFAULT_255_2_778
10
130.5835143
20
91.1621876
40
0.7294156
50
124.4125507
51
141.6293043
0
ARC
8
DEFAULT_255_2_778
10
130.5174515
20
91.2166857
40
0.6437944
50
141.7822758
51
152.0966545
0
ARC
8
DEFAULT_255_2_778
10
130.4530833
20
91.2500318
40
0.5713047
50
152.0310764
51
164.1441965
0
ARC
8
DEFAULT_255_2_778
10
130.3502335
20
91.2784975
40
0.4645914
50
164.0556811
51
176.7779063
0
ARC
8
DEFAULT_255_2_778
10
130.271783
20
91.2848661
40
0.3859118
50
177.0672892
51
179.9807604
0
ARC
8
DEFAULT_255_2_778
10
130.2389773
20
91.2847989
40
0.353106
50
179.9680639
51
183.7525462
0
ARC
8
DEFAULT_255_2_778
10
130.3937546
20
91.1165555
40
0.5071403
50
180.4255447
51
206.1010939
0
ARC
8
DEFAULT_255_2_778
10
130.5640928
20
91.2358279
40
0.7133077
50
208.6857987
51
241.6881005
0
ARC
8
DEFAULT_255_2_778
10
131.0609007
20
92.0354149
40
1.6538917
50
239.672908
51
247.4554205
0
ARC
8
DEFAULT_255_2_778
10
131.3214588
20
92.6216067
40
2.2952412
50
247.0585226
51
247.1559248
0
ARC
8
DEFAULT_255_2_778
10
131.3076453
20
92.5884303
40
2.2593043
50
247.1521231
51
247.2503267
0
ARC
8
DEFAULT_255_2_778
10
131.2940234
20
92.5553944
40
2.2235708
50
247.244838
51
247.3438635
0
ARC
8
DEFAULT_255_2_778
10
131.4382016
20
92.9003147
40
2.5974121
50
247.3396889
51
247.4238175
0
ARC
8
DEFAULT_255_2_778
10
131.4218622
20
92.8616998
40
2.5554834
50
247.4297066
51
247.514564
0
ARC
8
DEFAULT_255_2_778
10
131.4063548
20
92.8239624
40
2.5146841
50
247.512191
51
247.5977663
0
ARC
8
DEFAULT_255_2_778
10
131.5337335
20
93.1338471
40
2.849727
50
247.604471
51
247.6794068
0
ARC
8
DEFAULT_255_2_778
10
131.3759351
20
92.7496659
40
2.4344012
50
247.6809933
51
247.76804
0
ARC
8
DEFAULT_255_2_778
10
131.5540711
20
93.1856211
40
2.9053464
50
247.7690938
51
247.8466363
0
ARC
8
DEFAULT_255_2_778
10
131.5345728
20
93.1385416
40
2.8543899
50
247.8527761
51
247.9310501
0
ARC
8
DEFAULT_255_2_778
10
131.3871381
20
92.774726
40
2.4618357
50
247.9296287
51
248.0196315
0
ARC
8
DEFAULT_255_2_778
10
131.4970756
20
93.0465766
40
2.7550744
50
248.0155599
51
248.0953149
0
ARC
8
DEFAULT_255_2_778
10
131.4159527
20
92.8445539
40
2.5373726
50
248.0930351
51
248.1817723
0
ARC
8
DEFAULT_255_2_778
10
131.3993026
20
92.8016715
40
2.4913738
50
248.170725
51
248.2603206
0
ARC
8
DEFAULT_255_2_778
10
131.6221663
20
93.3603528
40
3.0928662
50
248.2587873
51
248.3320642
0
ARC
8
DEFAULT_255_2_778
10
131.6182436
20
93.3507914
40
3.0825321
50
248.3342045
51
248.4076474
0
ARC
8
DEFAULT_255_2_778
10
131.5964069
20
93.2963187
40
3.0238459
50
248.4125424
51
248.4867389
0
ARC
8
DEFAULT_255_2_778
10
131.5753341
20
93.2425634
40
2.9661079
50
248.4846475
51
248.559608
0
ARC
8
DEFAULT_255_2_778
10
131.8268032
20
93.8840756
40
3.6551466
50
248.5663005
51
248.6265816
0
ARC
8
DEFAULT_255_2_778
10
131.5348036
20
93.1381911
40
2.8541427
50
248.6282596
51
248.7047609
0
ARC
8
DEFAULT_255_2_778
10
131.5767086
20
93.244819
40
2.9687089
50
248.6985986
51
248.7714817
0
ARC
8
DEFAULT_255_2_778
10
131.7493165
20
93.6892545
40
3.445486
50
248.7719746
51
248.8342025
0
ARC
8
DEFAULT_255_2_778
10
131.7247021
20
93.6266776
40
3.3782431
50
248.8402985
51
248.903188
0
ARC
8
DEFAULT_255_2_778
10
131.9682679
20
94.2587434
40
4.0556143
50
248.9069791
51
248.9588874
0
ARC
8
DEFAULT_255_2_778
10
131.6781002
20
93.5051212
40
3.2480602
50
248.9631446
51
249.027367
0
ARC
8
DEFAULT_255_2_778
10
131.9105328
20
94.1117216
40
3.897667
50
249.028564
51
249.0815932
0
ARC
8
DEFAULT_255_2_778
10
131.8829068
20
94.04031
40
3.8210986
50
249.086218
51
249.1398141
0
ARC
8
DEFAULT_255_2_778
10
131.855697
20
93.9698481
40
3.7455662
50
249.1449482
51
249.1991232
0
ARC
8
DEFAULT_255_2_778
10
131.8294387
20
93.9010648
40
3.6719414
50
249.2010004
51
249.2557533
0
ARC
8
DEFAULT_255_2_778
10
131.9214015
20
94.1438094
40
3.9315221
50
249.2554403
51
249.3061071
0
ARC
8
DEFAULT_255_2_778
10
131.7792351
20
93.7674698
40
3.5292251
50
249.3061887
51
249.36211
0
ARC
8
DEFAULT_255_2_778
10
131.866485
20
93.9984955
40
3.7761773
50
249.3587222
51
249.4105033
0
ARC
8
DEFAULT_255_2_778
10
131.7315706
20
93.6388503
40
3.3920594
50
249.4074653
51
249.4645764
0
ARC
8
DEFAULT_255_2_778
10
131.8144157
20
93.8588141
40
3.6271068
50
249.4579355
51
249.5108503
0
ARC
8
DEFAULT_255_2_778
10
132.1864229
20
94.8539247
40
4.6894789
50
249.5089567
51
249.5495038
0
ARC
8
DEFAULT_255_2_778
10
132.1530326
20
94.76532
40
4.594792
50
249.5535891
51
249.5945869
0
ARC
8
DEFAULT_255_2_778
10
132.1200056
20
94.6781006
40
4.5015304
50
249.6015171
51
249.6429744
0
ARC
8
DEFAULT_255_2_778
10
132.0884234
20
94.5931427
40
4.4108923
50
249.6436959
51
249.6856104
0
ARC
8
DEFAULT_255_2_778
10
132.0573225
20
94.5093623
40
4.3215255
50
249.6866743
51
249.729056
0
ARC
8
DEFAULT_255_2_778
10
132.0274712
20
94.4279278
40
4.2347925
50
249.7261972
51
249.7690424
0
ARC
8
DEFAULT_255_2_778
10
132.6627669
20
96.1519995
40
6.0721886
50
249.7699015
51
249.7995022
0
ARC
8
DEFAULT_255_2_778
10
131.9698817
20
94.2695916
40
4.0663099
50
249.8031439
51
249.8469319
0
ARC
8
DEFAULT_255_2_778
10
132.5760082
20
95.9203071
40
5.8247897
50
249.8440124
51
249.874294
0
ARC
8
DEFAULT_255_2_778
10
131.9155145
20
94.1178979
40
3.9051722
50
249.8741353
51
249.9188774
0
ARC
8
DEFAULT_255_2_778
10
131.8893144
20
94.0441907
40
3.8269501
50
249.9083961
51
249.953623
0
ARC
8
DEFAULT_255_2_778
10
132.454103
20
95.5908973
40
5.4735488
50
249.9495405
51
249.980864
0
ARC
8
DEFAULT_255_2_778
10
132.4159572
20
95.4861238
40
5.3620474
50
249.9805796
51
250.0122528
0
ARC
8
DEFAULT_255_2_778
10
132.3783924
20
95.3828365
40
5.2521411
50
250.0122157
51
250.0442464
0
ARC
8
DEFAULT_255_2_778
10
132.3422938
20
95.2829422
40
5.1459246
50
250.04244
51
250.0748229
0
ARC
8
DEFAULT_255_2_778
10
132.306984
20
95.1844253
40
5.0412718
50
250.070529
51
250.1032714
0
ARC
8
DEFAULT_255_2_778
10
133.682663
20
98.9864945
40
9.0845653
50
250.1056753
51
250.1236729
0
ARC
8
DEFAULT_255_2_778
10
133.6159119
20
98.8060336
40
8.89216
50
250.1328195
51
250.1510322
0
ARC
8
DEFAULT_255_2_778
10
133.5502051
20
98.6282422
40
8.7026209
50
250.160484
51
250.1789169
0
ARC
8
DEFAULT_255_2_778
10
132.1746588
20
94.8114696
40
4.6455431
50
250.1770238
51
250.2112266
0
ARC
8
DEFAULT_255_2_778
10
132.1438297
20
94.7233008
40
4.5521437
50
250.2006379
51
250.2352108
0
ARC
8
DEFAULT_255_2_778
10
133.3665398
20
98.1245146
40
8.166459
50
250.2315238
51
250.2506121
0
ARC
8
DEFAULT_255_2_778
10
132.0843843
20
94.5524794
40
4.3712833
50
250.2469961
51
250.2823176
0
ARC
8
DEFAULT_255_2_778
10
132.0559536
20
94.4697164
40
4.2837811
50
250.2668117
51
250.3025114
0
ARC
8
DEFAULT_255_2_778
10
133.1976695
20
97.6554744
40
7.6679454
50
250.2940207
51
250.3137746
0
ARC
8
DEFAULT_255_2_778
10
132.8608089
20
96.7143616
40
6.6683613
50
250.314977
51
250.3487097
0
ARC
8
DEFAULT_255_2_778
10
133.8414524
20
99.459378
40
9.5832846
50
250.34636
51
250.3694962
0
ARC
8
DEFAULT_255_2_778
10
132.7286445
20
96.3382803
40
6.2697379
50
250.3657288
51
250.4005858
0
ARC
8
DEFAULT_255_2_778
10
133.64485
20
98.9080317
40
8.997934
50
250.3934606
51
250.4174005
0
ARC
8
DEFAULT_255_2_778
10
133.551055
20
98.6443787
40
8.7180939
50
250.4174169
51
250.4417706
0
ARC
8
DEFAULT_255_2_778
10
136.0475966
20
105.6730073
40
16.176937
50
250.4433327
51
250.4562689
0
ARC
8
DEFAULT_255_2_778
10
133.3775135
20
98.150268
40
8.1943968
50
250.4541469
51
250.4793177
0
ARC
8
DEFAULT_255_2_778
10
135.7078181
20
104.7204305
40
15.165577
50
250.4756906
51
250.4890954
0
ARC
8
DEFAULT_255_2_778
10
127.1146986
20
80.3312653
40
10.6931949
50
69.9994646
51
70.7353629
0
ARC
8
DEFAULT_255_2_778
10
130.2761115
20
89.0112141
40
1.4554455
50
66.2886431
51
70.0763346
0
ARC
8
DEFAULT_255_2_778
10
130.5809654
20
89.7176895
40
0.6860363
50
64.2668996
51
65.8731094
0
ARC
8
DEFAULT_255_2_778
10
129.8122442
20
86.8957416
40
3.6015052
50
71.4318928
51
72.7735191
0
ARC
8
DEFAULT_255_2_778
10
130.0856958
20
87.7085782
40
2.7439046
50
69.757055
51
71.439919
0
ARC
8
DEFAULT_255_2_778
10
130.2744359
20
88.2230241
40
2.1959298
50
68.5595364
51
69.7331344
0
ARC
8
DEFAULT_255_2_778
10
130.5822185
20
88.9793816
40
1.3794451
50
61.7098863
51
68.9752621
0
ARC
8
DEFAULT_255_2_778
10
130.9415142
20
89.6377447
40
0.6294492
50
48.0321621
51
62.1066686
0
ARC
8
DEFAULT_255_2_778
10
131.1311644
20
89.8516861
40
0.343564
50
356.6130993
51
47.6891574
0
ARC
8
DEFAULT_255_2_778
10
130.9394542
20
89.786449
40
0.5365594
50
0.3409736
51
4.8044785
0
ARC
8
DEFAULT_255_2_778
10
130.9614665
20
89.7869201
40
0.5145447
50
0.0002059
51
0.3031106
0
ARC
8
DEFAULT_255_2_778
10
131.0312024
20
89.7868494
40
0.4448089
50
297.1831483
51
0.0093414
0
ARC
8
DEFAULT_255_2_778
10
130.7595954
20
90.2672024
40
0.9964338
50
272.3417273
51
298.4577935
0
ARC
8
DEFAULT_255_2_778
10
130.7216609
20
90.5527433
40
1.2835545
50
269.998544
51
273.5129289
0
ARC
8
DEFAULT_255_2_778
10
130.8038796
20
90.5056029
40
1.2391467
50
254.3883043
51
266.1940602
0
ARC
8
DEFAULT_255_2_778
10
130.6384764
20
89.9355315
40
0.6456206
50
232.6072021
51
254.9106147
0
ARC
8
DEFAULT_255_2_778
10
130.545753
20
89.7920599
40
0.4755156
50
182.2213919
51
230.9853017
0
ARC
8
DEFAULT_255_2_778
10
130.8072248
20
89.8330851
40
0.7390257
50
181.4263756
51
184.6145819
0
ARC
8
DEFAULT_255_2_778
10
131.0379936
20
89.9656051
40
1.2352192
50
187.0177939
51
199.1582562
0
ARC
8
DEFAULT_255_2_778
10
130.6040826
20
89.8115842
40
0.7747999
50
198.9297336
51
219.5454105
0
ARC
8
DEFAULT_255_2_778
10
130.5911899
20
89.8479226
40
0.7888267
50
222.1778642
51
265.1294387
0
ARC
8
DEFAULT_255_2_778
10
130.7673661
20
90.8792482
40
1.8334982
50
262.3792043
51
270.3738151
0
ARC
8
DEFAULT_255_2_778
10
130.7981993
20
90.0943386
40
1.0487194
50
268.9689456
51
270.001285
0
ARC
8
DEFAULT_255_2_778
10
130.7976743
20
90.1366104
40
1.0909915
50
270.0288069
51
275.3960278
0
ARC
8
DEFAULT_255_2_778
10
130.8119173
20
90.1173346
40
1.0705331
50
274.734109
51
311.6541883
0
ARC
8
DEFAULT_255_2_778
10
131.1136971
20
89.7783438
40
0.6166766
50
311.6378186
51
359.2949239
0
ARC
8
DEFAULT_255_2_778
10
131.1234506
20
89.7707498
40
0.6068764
50
0.000511
51
1.0328325
0
ARC
8
DEFAULT_255_2_778
10
130.996637
20
89.8241151
40
0.7348171
50
356.6900724
51
359.9937444
0
ARC
8
DEFAULT_255_2_778
10
131.0350031
20
89.825603
40
0.6964527
50
359.8709949
51
21.9348088
0
ARC
8
DEFAULT_255_2_778
10
131.0651251
20
89.8386867
40
0.6636243
50
21.8584451
51
41.4780508
0
ARC
8
DEFAULT_255_2_778
10
131.1484015
20
89.9103332
40
0.5537809
50
41.6310243
51
49.517899
0
ARC
8
DEFAULT_255_2_778
10
131.2205133
20
89.9950181
40
0.4425531
50
49.5011322
51
56.9144679
0
ARC
8
DEFAULT_255_2_778
10
131.2564597
20
90.0481033
40
0.3784543
50
57.0869443
51
57.9252844
0
ARC
8
DEFAULT_255_2_778
10
130.0436524
20
87.6728038
40
3.0441909
50
62.327462
51
69.3103628
0
ARC
8
DEFAULT_255_2_778
10
127.5593772
20
81.4366004
40
9.7566646
50
68.6011068
51
68.9227544
0
ARC
8
DEFAULT_255_2_778
10
135.8852848
20
103.3594199
40
13.6941392
50
247.8733582
51
249.4045315
0
ARC
8
DEFAULT_255_2_778
10
132.1519648
20
94.1361989
40
3.7440342
50
242.580189
51
247.6346532
0
ARC
8
DEFAULT_255_2_778
10
131.8706123
20
93.5727162
40
3.1143057
50
241.9748675
51
242.4009344
0
ARC
8
DEFAULT_255_2_778
10
130.9213168
20
91.6506153
40
0.9737334
50
233.7639807
51
238.1394635
0
ARC
8
DEFAULT_255_2_778
10
130.8017131
20
91.4880718
40
0.7719284
50
228.1985377
51
233.7928918
0
ARC
8
DEFAULT_255_2_778
10
130.6926059
20
91.3662759
40
0.608409
50
221.5866881
51
228.2128214
0
ARC
8
DEFAULT_255_2_778
10
130.6190431
20
91.3000059
40
0.5094011
50
217.1431767
51
221.5035338
0
ARC
8
DEFAULT_255_2_778
10
130.5483547
20
91.2482023
40
0.4217762
50
205.8930596
51
217.3317405
0
ARC
8
DEFAULT_255_2_778
10
130.4816077
20
91.2157064
40
0.3475392
50
190.397507
51
205.8789341
0
ARC
8
DEFAULT_255_2_778
10
130.4670201
20
91.2121612
40
0.3325523
50
179.9742846
51
190.2503174
0
ARC
8
DEFAULT_255_2_778
10
130.5718398
20
91.1987196
40
0.4375829
50
144.5997331
51
178.220169
0
ARC
8
DEFAULT_255_2_778
10
130.7566523
20
91.088733
40
0.652174
50
137.4011193
51
146.1291194
0
ARC
8
DEFAULT_255_2_778
10
130.7534026
20
91.0937337
40
0.6463988
50
130.8094053
51
137.5324402
0
ARC
8
DEFAULT_255_2_778
10
130.6329423
20
91.2348029
40
0.4609002
50
124.6525862
51
130.9362093
0
ARC
8
DEFAULT_255_2_778
10
130.4852517
20
91.4513286
40
0.1988128
50
115.6366895
51
125.1205487
0
ARC
8
DEFAULT_255_2_778
10
130.4264556
20
91.5719919
40
0.0645941
50
107.2244393
51
114.9258376
0
ARC
8
DEFAULT_255_2_778
10
130.9517177
20
90.2093706
40
1.524809
50
105.203546
51
110.9173818
0
ARC
8
DEFAULT_255_2_778
10
130.878946
20
90.4785575
40
1.2459594
50
98.5558043
51
105.2205259
0
ARC
8
DEFAULT_255_2_778
10
130.8446523
20
90.7090026
40
1.0129769
50
90.6933825
51
98.5768358
0
ARC
8
DEFAULT_255_2_778
10
130.8411753
20
90.821067
40
0.9008811
50
89.9982898
51
90.5585108
0
ARC
8
DEFAULT_255_2_778
10
130.847711
20
90.9661212
40
0.7558549
50
73.1444447
51
90.493392
0
ARC
8
DEFAULT_255_2_778
10
130.9092806
20
91.1625724
40
0.5499944
50
45.1613694
51
73.3487898
0
ARC
8
DEFAULT_255_2_778
10
130.9449288
20
91.2056822
40
0.4943159
50
9.3849785
51
44.5679829
0
LINE
8
DEFAULT_255_2_778
10
136.7629283
20
88.311889
11
136.5073283
21
88.311889
0
LINE
8
DEFAULT_255_2_778
10
136.5073283
20
88.311889
11
136.1898283
21
88.062389
0
LINE
8
DEFAULT_255_2_778
10
136.1898283
20
88.062389
11
135.8477283
21
87.889089
0
LINE
8
DEFAULT_255_2_778
10
135.8477283
20
87.889089
11
135.8477283
21
87.636889
0
LINE
8
DEFAULT_255_2_778
10
135.8477283
20
87.636889
11
136.2205283
21
87.830389
0
LINE
8
DEFAULT_255_2_778
10
136.2205283
20
87.830389
11
136.4909283
21
88.036489
0
LINE
8
DEFAULT_255_2_778
10
136.4909283
20
88.036489
11
136.4909283
21
85.589289
0
LINE
8
DEFAULT_255_2_778
10
136.4909283
20
85.589289
11
136.7629283
21
85.589289
0
LINE
8
DEFAULT_255_2_778
10
136.7629283
20
85.589289
11
136.7629283
21
88.311889
0
LINE
8
DEFAULT_255_2_778
10
132.2570283
20
88.273289
11
134.0749283
21
88.273289
0
LINE
8
DEFAULT_255_2_778
10
134.0749283
20
88.273289
11
134.0749283
21
88.036689
0
LINE
8
DEFAULT_255_2_778
10
134.0749283
20
88.036689
11
132.9661283
21
85.589589
0
LINE
8
DEFAULT_255_2_778
10
132.9661283
20
85.589589
11
132.6528283
21
85.589589
0
LINE
8
DEFAULT_255_2_778
10
132.6528283
20
85.589589
11
133.7948283
21
88.044389
0
LINE
8
DEFAULT_255_2_778
10
133.7948283
20
88.044389
11
132.2570283
21
88.044389
0
LINE
8
DEFAULT_255_2_778
10
132.2570283
20
88.044389
11
132.2570283
21
88.273289
0
LINE
8
DEFAULT_255_2_778
10
134.2768283
20
86.729689
11
135.3156283
21
86.729689
0
LINE
8
DEFAULT_255_2_778
10
135.3156283
20
86.729689
11
135.3156283
21
86.524089
0
LINE
8
DEFAULT_255_2_778
10
135.3156283
20
86.524089
11
134.2768283
21
86.524089
0
LINE
8
DEFAULT_255_2_778
10
134.2768283
20
86.524089
11
134.2768283
21
86.729689
0
LINE
8
DEFAULT_255_2_778
10
141.2296283
20
91.889589
11
141.4777283
21
91.889589
0
LINE
8
DEFAULT_255_2_778
10
141.4777283
20
91.889589
11
141.4777283
21
89.089489
0
LINE
8
DEFAULT_255_2_778
10
141.4777283
20
89.089489
11
141.2296283
21
89.089489
0
LINE
8
DEFAULT_255_2_778
10
141.2296283
20
89.089489
11
141.2296283
21
91.889589
0
LINE
8
DEFAULT_255_2_778
10
138.8250283
20
91.889589
11
140.8726283
21
91.889589
0
LINE
8
DEFAULT_255_2_778
10
140.8726283
20
91.889589
11
140.8726283
21
91.664689
0
LINE
8
DEFAULT_255_2_778
10
140.8726283
20
91.664689
11
139.9728283
21
91.664689
0
LINE
8
DEFAULT_255_2_778
10
139.9728283
20
91.664689
11
139.9728283
21
89.089489
0
LINE
8
DEFAULT_255_2_778
10
139.9728283
20
89.089489
11
139.7246283
21
89.089489
0
LINE
8
DEFAULT_255_2_778
10
139.7246283
20
89.089489
11
139.7246283
21
91.664689
0
LINE
8
DEFAULT_255_2_778
10
139.7246283
20
91.664689
11
138.8248283
21
91.664689
0
LINE
8
DEFAULT_255_2_778
10
138.8248283
20
91.664689
11
138.8248283
21
91.889589
0
LINE
8
DEFAULT_255_2_778
10
134.5319283
20
89.089489
11
133.4384283
21
91.653089
0
LINE
8
DEFAULT_255_2_778
10
133.4384283
20
91.653089
11
133.4384283
21
89.089489
0
LINE
8
DEFAULT_255_2_778
10
133.4384283
20
89.089489
11
133.1902283
21
89.089489
0
LINE
8
DEFAULT_255_2_778
10
133.1902283
20
89.089489
11
133.1902283
21
91.889589
0
LINE
8
DEFAULT_255_2_778
10
133.1902283
20
91.889589
11
133.5857283
21
91.889589
0
LINE
8
DEFAULT_255_2_778
10
133.5857283
20
91.889589
11
134.6443283
21
89.450089
0
LINE
8
DEFAULT_255_2_778
10
134.6443283
20
89.450089
11
135.7029283
21
91.889589
0
LINE
8
DEFAULT_255_2_778
10
135.7029283
20
91.889589
11
136.0985283
21
91.889589
0
LINE
8
DEFAULT_255_2_778
10
136.0985283
20
91.889589
11
136.0985283
21
89.089489
0
LINE
8
DEFAULT_255_2_778
10
136.0985283
20
89.089489
11
135.8503283
21
89.089489
0
LINE
8
DEFAULT_255_2_778
10
135.8503283
20
89.089489
11
135.8503283
21
91.653089
0
LINE
8
DEFAULT_255_2_778
10
135.8503283
20
91.653089
11
134.7568283
21
89.089489
0
LINE
8
DEFAULT_255_2_778
10
134.7568283
20
89.089489
11
134.5319283
21
89.089489
0
LINE
8
DEFAULT_255_2_778
10
132.2634283
20
91.889589
11
132.5115283
21
91.889589
0
LINE
8
DEFAULT_255_2_778
10
132.5115283
20
91.889589
11
132.5115283
21
89.089489
0
LINE
8
DEFAULT_255_2_778
10
132.5115283
20
89.089489
11
132.2634283
21
89.089489
0
LINE
8
DEFAULT_255_2_778
10
132.2634283
20
89.089489
11
132.2634283
21
91.889589
0
LINE
8
DEFAULT_255_2_778
10
138.7591283
20
89.089489
11
138.4567283
21
89.857289
0
LINE
8
DEFAULT_255_2_778
10
138.4567283
20
89.857289
11
137.0645283
21
89.857289
0
LINE
8
DEFAULT_255_2_778
10
137.0645283
20
89.857289
11
136.7658283
21
89.089489
0
LINE
8
DEFAULT_255_2_778
10
136.7658283
20
89.089489
11
136.5060283
21
89.089489
0
LINE
8
DEFAULT_255_2_778
10
136.5060283
20
89.089489
11
137.6151283
21
91.889589
0
LINE
8
DEFAULT_255_2_778
10
137.6151283
20
91.889589
11
137.9138283
21
91.889589
0
LINE
8
DEFAULT_255_2_778
10
137.9138283
20
91.889589
11
139.0306283
21
89.089489
0
LINE
8
DEFAULT_255_2_778
10
139.0306283
20
89.089489
11
138.7591283
21
89.089489
0
LINE
8
DEFAULT_255_2_778
10
138.3676283
20
90.066889
11
137.7625283
21
91.664689
0
LINE
8
DEFAULT_255_2_778
10
137.7625283
20
91.664689
11
137.1457283
21
90.066889
0
LINE
8
DEFAULT_255_2_778
10
137.1457283
20
90.066889
11
138.3676283
21
90.066889
0
LINE
8
DEFAULT_255_2_778
10
131.4326283
20
91.286289
11
131.6890283
21
91.286289
0
LINE
8
DEFAULT_255_2_778
10
129.8866283
20
91.261689
11
129.8866283
21
91.112789
0
LINE
8
DEFAULT_255_2_778
10
130.0684283
20
89.814689
11
129.8120283
21
89.814689
0
LINE
8
DEFAULT_255_2_778
10
131.4326283
20
91.286289
11
131.4326283
21
91.286289
0
ARC
8
DEFAULT_255_2_778
10
141.0289774
20
86.9835675
40
3.1697697
50
359.7714883
51
6.3460262
0
ARC
8
DEFAULT_255_2_778
10
142.1788698
20
87.1150868
40
2.0123893
50
6.2431689
51
15.5949592
0
ARC
8
DEFAULT_255_2_778
10
142.9269
20
87.3290081
40
1.2343974
50
15.3652295
51
30.4954504
0
ARC
8
DEFAULT_255_2_778
10
143.3000575
20
87.5536442
40
0.7988738
50
30.1945266
51
83.4459404
0
ARC
8
DEFAULT_255_2_778
10
143.2215947
20
87.1475116
40
1.2117198
50
81.9518662
51
90.1783949
0
ARC
8
DEFAULT_255_2_778
10
143.2709532
20
87.4620308
40
0.8987666
50
93.3890598
51
117.9480034
0
ARC
8
DEFAULT_255_2_778
10
143.256017
20
87.530649
40
0.8313674
50
119.2551442
51
150.9510775
0
ARC
8
DEFAULT_255_2_778
10
143.6860129
20
87.2765215
40
1.3307324
50
150.3753056
51
163.8584998
0
ARC
8
DEFAULT_255_2_778
10
144.4626874
20
87.0460255
40
2.140876
50
163.7116867
51
172.7846546
0
ARC
8
DEFAULT_255_2_778
10
145.5679702
20
86.8965276
40
3.256197
50
172.6176381
51
178.1222139
0
ARC
8
DEFAULT_255_2_778
10
146.4072513
20
87.1155375
40
4.0952697
50
181.5715222
51
186.6357934
0
ARC
8
DEFAULT_255_2_778
10
144.9941122
20
86.9481343
40
2.6722544
50
186.5718418
51
193.441005
0
ARC
8
DEFAULT_255_2_778
10
144.0145758
20
86.7096803
40
1.6641259
50
193.2951861
51
203.6324574
0
ARC
8
DEFAULT_255_2_778
10
143.4037429
20
86.4369818
40
0.9952163
50
203.3465844
51
220.7760231
0
ARC
8
DEFAULT_255_2_778
10
143.1794017
20
86.2521392
40
0.7046387
50
221.308029
51
271.6769173
0
ARC
8
DEFAULT_255_2_778
10
143.2053438
20
86.5176929
40
0.9699052
50
269.6856149
51
270.0023695
0
ARC
8
DEFAULT_255_2_778
10
143.2049505
20
86.582275
40
1.0344874
50
270.0240089
51
273.0692163
0
ARC
8
DEFAULT_255_2_778
10
143.2017076
20
86.6502917
40
1.1025802
50
273.0482439
51
274.02095
0
ARC
8
DEFAULT_255_2_778
10
143.292657
20
86.4642948
40
0.9139709
50
269.1452026
51
290.2477157
0
ARC
8
DEFAULT_255_2_778
10
143.3357988
20
86.3038743
40
0.7486842
50
291.3989639
51
331.031002
0
ARC
8
DEFAULT_255_2_778
10
142.9056395
20
86.5632096
40
1.2507659
50
330.1814046
51
344.2054587
0
ARC
8
DEFAULT_255_2_778
10
142.1330974
20
86.789003
40
2.05561
50
344.0105944
51
353.0151357
0
ARC
8
DEFAULT_255_2_778
10
140.933917
20
86.9418102
40
3.264478
50
352.9125621
51
359.2362399
0
ARC
8
DEFAULT_255_2_778
10
139.9802576
20
86.9704443
40
4.2184643
50
359.0200184
51
0.0065373
0
LINE
8
DEFAULT_255_2_778
10
144.1987219
20
86.9709256
11
144.1987219
21
86.9709256
0
ARC
8
DEFAULT_255_2_778
10
140.5772637
20
86.9514624
40
3.3148744
50
359.7843148
51
5.4463716
0
ARC
8
DEFAULT_255_2_778
10
141.9051026
20
87.0822557
40
1.9806202
50
5.3256744
51
13.6558062
0
ARC
8
DEFAULT_255_2_778
10
142.7560416
20
87.2941096
40
1.1037309
50
13.3979092
51
26.9445252
0
ARC
8
DEFAULT_255_2_778
10
143.2098793
20
87.532177
40
0.5913211
50
26.3071596
51
54.2236319
0
ARC
8
DEFAULT_255_2_778
10
143.2620888
20
87.5745469
40
0.526717
50
56.1371274
51
91.4985104
0
ARC
8
DEFAULT_255_2_778
10
143.1917405
20
87.5956162
40
0.5086238
50
83.6137934
51
89.1086985
0
ARC
8
DEFAULT_255_2_778
10
143.192868
20
87.6345352
40
0.4696922
50
89.1723659
51
90.0004288
0
ARC
8
DEFAULT_255_2_778
10
143.1913707
20
87.7041147
40
0.4001156
50
89.7860916
51
148.9700745
0
ARC
8
DEFAULT_255_2_778
10
143.5698536
20
87.4352743
40
0.8637405
50
146.630051
51
161.1352492
0
ARC
8
DEFAULT_255_2_778
10
144.2923465
20
87.1792531
40
1.630228
50
160.8308357
51
169.5442988
0
ARC
8
DEFAULT_255_2_778
10
145.4722338
20
86.9539582
40
2.831419
50
169.3938732
51
175.101968
0
ARC
8
DEFAULT_255_2_778
10
147.0949688
20
86.8072241
40
4.4607632
50
175.0037762
51
178.7223942
0
ARC
8
DEFAULT_255_2_778
10
146.2996299
20
86.9917515
40
3.6653026
50
181.3298903
51
186.1857711
0
ARC
8
DEFAULT_255_2_778
10
144.8293893
20
86.8282541
40
2.186009
50
186.077697
51
193.2209556
0
ARC
8
DEFAULT_255_2_778
10
143.8757826
20
86.5998486
40
1.2054469
50
193.0187024
51
204.1922491
0
ARC
8
DEFAULT_255_2_778
10
143.3414374
20
86.3535756
40
0.6171335
50
203.6658479
51
224.5973454
0
ARC
8
DEFAULT_255_2_778
10
143.1803296
20
86.2010684
40
0.3953628
50
225.2528324
51
271.197952
0
ARC
8
DEFAULT_255_2_778
10
143.1879537
20
86.3423148
40
0.5365232
50
270.0685175
51
275.6400958
0
ARC
8
DEFAULT_255_2_778
10
143.184065
20
86.3889343
40
0.5832997
50
275.5701669
51
276.3238739
0
ARC
8
DEFAULT_255_2_778
10
143.2681485
20
86.3269884
40
0.5181842
50
267.8064239
51
329.5941937
0
ARC
8
DEFAULT_255_2_778
10
142.9103566
20
86.55433
40
0.9419481
50
328.6825108
51
344.4144659
0
ARC
8
DEFAULT_255_2_778
10
142.1814288
20
86.7680051
40
1.7015122
50
344.0786547
51
353.2378282
0
ARC
8
DEFAULT_255_2_778
10
141.0081791
20
86.9131633
40
2.8836984
50
353.1186124
51
359.4487681
0
ARC
8
DEFAULT_255_2_778
10
140.0695729
20
86.9386485
40
3.8225417
50
359.2021399
51
0.0050276
0
LINE
8
DEFAULT_255_2_778
10
143.8921146
20
86.9389839
11
143.8921146
21
86.9389839
0
ARC
8
DEFAULT_255_2_778
10
138.6477774
20
86.9835675
40
3.1697697
50
359.7714883
51
6.3460262
0
ARC
8
DEFAULT_255_2_778
10
139.7976698
20
87.1150868
40
2.0123893
50
6.2431689
51
15.5949592
0
ARC
8
DEFAULT_255_2_778
10
140.5457
20
87.3290081
40
1.2343974
50
15.3652295
51
30.4954504
0
ARC
8
DEFAULT_255_2_778
10
140.9188575
20
87.5536442
40
0.7988738
50
30.1945266
51
83.4459404
0
ARC
8
DEFAULT_255_2_778
10
140.8403947
20
87.1475116
40
1.2117198
50
81.9518662
51
90.1783949
0
ARC
8
DEFAULT_255_2_778
10
140.8897532
20
87.4620308
40
0.8987666
50
93.3890598
51
117.9480034
0
ARC
8
DEFAULT_255_2_778
10
140.874817
20
87.530649
40
0.8313674
50
119.2551442
51
150.9510775
0
ARC
8
DEFAULT_255_2_778
10
141.3048129
20
87.2765215
40
1.3307324
50
150.3753056
51
163.8584998
0
ARC
8
DEFAULT_255_2_778
10
142.0814874
20
87.0460255
40
2.140876
50
163.7116867
51
172.7846546
0
ARC
8
DEFAULT_255_2_778
10
143.1867702
20
86.8965276
40
3.256197
50
172.6176381
51
178.1222139
0
ARC
8
DEFAULT_255_2_778
10
144.0260513
20
87.1155375
40
4.0952697
50
181.5715222
51
186.6357934
0
ARC
8
DEFAULT_255_2_778
10
142.6129122
20
86.9481343
40
2.6722544
50
186.5718418
51
193.441005
0
ARC
8
DEFAULT_255_2_778
10
141.6333758
20
86.7096803
40
1.6641259
50
193.2951861
51
203.6324574
0
ARC
8
DEFAULT_255_2_778
10
141.0225429
20
86.4369818
40
0.9952163
50
203.3465844
51
220.7760231
0
ARC
8
DEFAULT_255_2_778
10
140.7982017
20
86.2521392
40
0.7046387
50
221.308029
51
271.6769173
0
ARC
8
DEFAULT_255_2_778
10
140.8241438
20
86.5176929
40
0.9699052
50
269.6856149
51
270.0023695
0
ARC
8
DEFAULT_255_2_778
10
140.8237505
20
86.582275
40
1.0344874
50
270.0240089
51
273.0692163
0
ARC
8
DEFAULT_255_2_778
10
140.8205076
20
86.6502917
40
1.1025802
50
273.0482439
51
274.02095
0
ARC
8
DEFAULT_255_2_778
10
140.911457
20
86.4642948
40
0.9139709
50
269.1452026
51
290.2477157
0
ARC
8
DEFAULT_255_2_778
10
140.9545988
20
86.3038743
40
0.7486842
50
291.3989639
51
331.031002
0
ARC
8
DEFAULT_255_2_778
10
140.5244395
20
86.5632096
40
1.2507659
50
330.1814046
51
344.2054587
0
ARC
8
DEFAULT_255_2_778
10
139.7518974
20
86.789003
40
2.05561
50
344.0105944
51
353.0151357
0
ARC
8
DEFAULT_255_2_778
10
138.552717
20
86.9418102
40
3.264478
50
352.9125621
51
359.2362399
0
ARC
8
DEFAULT_255_2_778
10
137.5990576
20
86.9704443
40
4.2184643
50
359.0200184
51
0.0065373
0
LINE
8
DEFAULT_255_2_778
10
141.8175219
20
86.9709256
11
141.8175219
21
86.9709256
0
ARC
8
DEFAULT_255_2_778
10
138.1959637
20
86.9514624
40
3.3148744
50
359.7843148
51
5.4463716
0
ARC
8
DEFAULT_255_2_778
10
139.5238026
20
87.0822557
40
1.9806202
50
5.3256744
51
13.6558062
0
ARC
8
DEFAULT_255_2_778
10
140.3747416
20
87.2941096
40
1.1037309
50
13.3979092
51
26.9445252
0
ARC
8
DEFAULT_255_2_778
10
140.8285793
20
87.532177
40
0.5913211
50
26.3071596
51
54.2236319
0
ARC
8
DEFAULT_255_2_778
10
140.8807888
20
87.5745469
40
0.526717
50
56.1371274
51
91.4985104
0
ARC
8
DEFAULT_255_2_778
10
140.8104405
20
87.5956162
40
0.5086238
50
83.6137934
51
89.1086985
0
ARC
8
DEFAULT_255_2_778
10
140.811568
20
87.6345352
40
0.4696922
50
89.1723659
51
90.0004288
0
ARC
8
DEFAULT_255_2_778
10
140.8100707
20
87.7041147
40
0.4001156
50
89.7860916
51
148.9700745
0
ARC
8
DEFAULT_255_2_778
10
141.1885536
20
87.4352743
40
0.8637405
50
146.630051
51
161.1352492
0
ARC
8
DEFAULT_255_2_778
10
141.9110465
20
87.1792531
40
1.630228
50
160.8308357
51
169.5442988
0
ARC
8
DEFAULT_255_2_778
10
143.0909338
20
86.9539582
40
2.831419
50
169.3938732
51
175.101968
0
ARC
8
DEFAULT_255_2_778
10
144.7136688
20
86.8072241
40
4.4607632
50
175.0037762
51
178.7223942
0
ARC
8
DEFAULT_255_2_778
10
143.9183299
20
86.9917515
40
3.6653026
50
181.3298903
51
186.1857711
0
ARC
8
DEFAULT_255_2_778
10
142.4480893
20
86.8282541
40
2.186009
50
186.077697
51
193.2209556
0
ARC
8
DEFAULT_255_2_778
10
141.4944826
20
86.5998486
40
1.2054469
50
193.0187024
51
204.1922491
0
ARC
8
DEFAULT_255_2_778
10
140.9601374
20
86.3535756
40
0.6171335
50
203.6658479
51
224.5973454
0
ARC
8
DEFAULT_255_2_778
10
140.7990296
20
86.2010684
40
0.3953628
50
225.2528324
51
271.197952
0
ARC
8
DEFAULT_255_2_778
10
140.8066537
20
86.3423148
40
0.5365232
50
270.0685175
51
275.6400958
0
ARC
8
DEFAULT_255_2_778
10
140.802765
20
86.3889343
40
0.5832997
50
275.5701669
51
276.3238739
0
ARC
8
DEFAULT_255_2_778
10
140.8868485
20
86.3269884
40
0.5181842
50
267.8064239
51
329.5941937
0
ARC
8
DEFAULT_255_2_778
10
140.5290566
20
86.55433
40
0.9419481
50
328.6825108
51
344.4144659
0
ARC
8
DEFAULT_255_2_778
10
139.8001288
20
86.7680051
40
1.7015122
50
344.0786547
51
353.2378282
0
ARC
8
DEFAULT_255_2_778
10
138.6268791
20
86.9131633
40
2.8836984
50
353.1186124
51
359.4487681
0
ARC
8
DEFAULT_255_2_778
10
137.6882729
20
86.9386485
40
3.8225417
50
359.2021399
51
0.0050276
0
LINE
8
DEFAULT_255_2_778
10
141.5108146
20
86.9389839
11
141.5108146
21
86.9389839
0
ARC
8
DEFAULT_255_2_778
10
143.1801436
20
91.1077389
40
1.0104044
50
7.3211649
51
12.7591847
0
ARC
8
DEFAULT_255_2_778
10
143.2897894
20
91.1334523
40
0.8977876
50
12.7041247
51
21.1266714
0
ARC
8
DEFAULT_255_2_778
10
143.3738324
20
91.1645618
40
0.8081816
50
21.2169299
51
25.1579405
0
ARC
8
DEFAULT_255_2_778
10
143.4636644
20
91.2106741
40
0.707277
50
24.8704322
51
45.5286519
0
ARC
8
DEFAULT_255_2_778
10
143.4697611
20
91.2103742
40
0.7032348
50
45.9002357
51
64.037496
0
ARC
8
DEFAULT_255_2_778
10
143.392561
20
91.0502125
40
0.8810304
50
64.0834678
51
77.4276699
0
ARC
8
DEFAULT_255_2_778
10
143.3193971
20
90.7278756
40
1.2115647
50
77.3687514
51
87.2345857
0
ARC
8
DEFAULT_255_2_778
10
143.2973047
20
90.4056627
40
1.5344822
50
86.9911018
51
90.0323069
0
ARC
8
DEFAULT_255_2_778
10
143.2966721
20
90.2493238
40
1.6908208
50
90.0078835
51
91.4373524
0
ARC
8
DEFAULT_255_2_778
10
143.2980834
20
90.1836854
40
1.7564739
50
91.4296655
51
91.8979296
0
ARC
8
DEFAULT_255_2_778
10
143.2279026
20
90.4182175
40
1.5210256
50
89.5476645
51
90.0002223
0
ARC
8
DEFAULT_255_2_778
10
143.2228489
20
90.6057602
40
1.3334925
50
89.7831096
51
100.2541367
0
ARC
8
DEFAULT_255_2_778
10
143.1773392
20
90.8561872
40
1.078964
50
100.2433519
51
114.2649239
0
ARC
8
DEFAULT_255_2_778
10
143.145744
20
90.9333685
40
0.9956212
50
114.4326272
51
133.8840594
0
ARC
8
DEFAULT_255_2_778
10
143.3146469
20
90.7758939
40
1.2262683
50
134.4715844
51
156.9504548
0
ARC
8
DEFAULT_255_2_778
10
143.5886348
20
90.6400979
40
1.5316526
50
156.289018
51
159.1099998
0
ARC
8
DEFAULT_255_2_778
10
143.7323009
20
90.5875722
40
1.6846059
50
159.1832853
51
166.9443097
0
ARC
8
DEFAULT_255_2_778
10
143.8097509
20
90.5674976
40
1.7645898
50
166.8774249
51
172.1965617
0
ARC
8
DEFAULT_255_2_778
10
143.6535409
20
90.5878792
40
1.6070593
50
172.1603219
51
176.6313422
0
ARC
8
DEFAULT_255_2_778
10
143.3450032
20
90.606257
40
1.2979748
50
176.6408852
51
179.9269137
0
ARC
8
DEFAULT_255_2_778
10
143.0815275
20
90.6074044
40
1.0344981
50
179.9718526
51
181.8723592
0
ARC
8
DEFAULT_255_2_778
10
142.8856834
20
90.6009074
40
0.8385464
50
181.865888
51
183.9001777
0
ARC
8
DEFAULT_255_2_778
10
142.8995802
20
90.6026225
40
0.8525279
50
183.9516499
51
184.0779813
0
ARC
8
DEFAULT_255_2_778
10
144.5541539
20
90.4865931
40
2.5055559
50
178.7329766
51
179.9965104
0
ARC
8
DEFAULT_255_2_778
10
144.2194286
20
90.4780251
40
2.170848
50
179.7698339
51
190.6989683
0
ARC
8
DEFAULT_255_2_778
10
143.7109708
20
90.3793966
40
1.6529209
50
190.6116411
51
204.5627023
0
ARC
8
DEFAULT_255_2_778
10
143.3243122
20
90.1990583
40
1.2262919
50
204.4090201
51
223.8982565
0
ARC
8
DEFAULT_255_2_778
10
143.1244745
20
90.0072942
40
0.9493292
50
223.9214056
51
250.6490349
0
ARC
8
DEFAULT_255_2_778
10
143.2994293
20
90.6404068
40
1.6052701
50
252.2451581
51
257.7921331
0
ARC
8
DEFAULT_255_2_778
10
143.2624634
20
90.4687973
40
1.4297244
50
257.7857874
51
264.1258929
0
ARC
8
DEFAULT_255_2_778
10
143.2482749
20
90.334584
40
1.2947638
50
264.1426305
51
269.9591665
0
ARC
8
DEFAULT_255_2_778
10
143.2523896
20
90.1698777
40
1.1300684
50
269.7445926
51
286.6494584
0
ARC
8
DEFAULT_255_2_778
10
143.2964683
20
90.0234886
40
0.9771874
50
286.6325751
51
308.6749254
0
ARC
8
DEFAULT_255_2_778
10
143.3799757
20
89.9235626
40
0.8469953
50
308.488848
51
336.6836923
0
ARC
8
DEFAULT_255_2_778
10
143.4975851
20
89.8682614
40
0.7171144
50
337.0220116
51
351.7124522
0
ARC
8
DEFAULT_255_2_778
10
143.3265488
20
89.8923244
40
0.6130516
50
327.0338862
51
348.0030548
0
ARC
8
DEFAULT_255_2_778
10
143.3023612
20
89.9249304
40
0.651242
50
278.3088563
51
325.7849466
0
ARC
8
DEFAULT_255_2_778
10
143.2644268
20
90.0648698
40
0.7953827
50
269.9549528
51
279.5561571
0
ARC
8
DEFAULT_255_2_778
10
143.2642176
20
90.1034941
40
0.8340069
50
261.1185096
51
269.9714083
0
ARC
8
DEFAULT_255_2_778
10
143.2651999
20
90.1123817
40
0.8429396
50
260.5540656
51
261.1458086
0
ARC
8
DEFAULT_255_2_778
10
143.2716132
20
90.142037
40
0.8732467
50
237.4700652
51
260.4583153
0
ARC
8
DEFAULT_255_2_778
10
143.3025295
20
90.1897799
40
0.9301242
50
219.4757337
51
237.4458805
0
ARC
8
DEFAULT_255_2_778
10
143.3992001
20
90.2691246
40
1.0551871
50
205.7056735
51
219.4641815
0
ARC
8
DEFAULT_255_2_778
10
143.5835657
20
90.358396
40
1.2600282
50
194.9868251
51
205.7269693
0
ARC
8
DEFAULT_255_2_778
10
143.8584243
20
90.4327033
40
1.5447534
50
186.3542566
51
195.0128693
0
ARC
8
DEFAULT_255_2_778
10
144.1247269
20
90.4662087
40
1.8131322
50
182.8329636
51
186.475171
0
ARC
8
DEFAULT_255_2_778
10
144.3203911
20
90.5974189
40
2.0186946
50
184.1885585
51
186.2801015
0
ARC
8
DEFAULT_255_2_778
10
144.1989145
20
90.5884877
40
1.8968901
50
182.1284392
51
184.1875055
0
ARC
8
DEFAULT_255_2_778
10
144.0913858
20
90.5844904
40
1.7892872
50
180.0102477
51
182.12841
0
ARC
8
DEFAULT_255_2_778
10
143.8674386
20
90.5882856
40
1.5653454
50
171.3603235
51
180.1506272
0
ARC
8
DEFAULT_255_2_778
10
143.5950305
20
90.6301243
40
1.2897433
50
160.5596994
51
171.3799926
0
ARC
8
DEFAULT_255_2_778
10
143.4156466
20
90.6935675
40
1.0994709
50
146.9903312
51
160.566104
0
ARC
8
DEFAULT_255_2_778
10
143.3267059
20
90.7507203
40
0.9937514
50
129.8414439
51
146.960001
0
ARC
8
DEFAULT_255_2_778
10
143.3012671
20
90.7804829
40
0.9546016
50
109.4514684
51
129.8135602
0
ARC
8
DEFAULT_255_2_778
10
143.2897
20
90.811285
40
0.9217059
50
101.5653049
51
109.4110963
0
ARC
8
DEFAULT_255_2_778
10
143.2817969
20
90.8509594
40
0.8812526
50
93.3459319
51
101.5790534
0
ARC
8
DEFAULT_255_2_778
10
143.2789729
20
90.890764
40
0.8413511
50
90.0079977
51
93.3121495
0
ARC
8
DEFAULT_255_2_778
10
143.284372
20
90.9934658
40
0.73867
50
68.6527808
51
90.4278981
0
ARC
8
DEFAULT_255_2_778
10
143.3613303
20
91.1735419
40
0.5429688
50
21.1848874
51
69.2993599
0
ARC
8
DEFAULT_255_2_778
10
143.3073478
20
91.1571604
40
0.5992379
50
7.607939
51
20.7800835
0
ARC
8
DEFAULT_255_2_778
10
131.2803703
20
87.8022837
40
0.5368123
50
358.549557
51
359.9983547
0
ARC
8
DEFAULT_255_2_778
10
131.2637714
20
87.7947725
40
0.5534619
50
0.7760094
51
52.7242666
0
ARC
8
DEFAULT_255_2_778
10
131.0660011
20
87.5632753
40
0.8576229
50
51.5774232
51
72.0598197
0
ARC
8
DEFAULT_255_2_778
10
130.9443518
20
87.2026417
40
1.2382017
50
71.8446115
51
86.6198223
0
ARC
8
DEFAULT_255_2_778
10
130.9166066
20
86.9055212
40
1.5364748
50
86.2402642
51
90.0296841
0
ARC
8
DEFAULT_255_2_778
10
130.8943079
20
86.4070245
40
2.0350849
50
89.3946012
51
89.9981381
0
ARC
8
DEFAULT_255_2_778
10
130.8887599
20
86.696757
40
1.7453612
50
89.8157018
51
97.7895587
0
ARC
8
DEFAULT_255_2_778
10
130.8298879
20
87.119148
40
1.3188891
50
97.7426405
51
107.7966478
0
ARC
8
DEFAULT_255_2_778
10
130.7343636
20
87.4144846
40
1.0084893
50
107.7576357
51
120.2715253
0
ARC
8
DEFAULT_255_2_778
10
130.6260868
20
87.598987
40
0.7945626
50
120.2350802
51
135.8239686
0
ARC
8
DEFAULT_255_2_778
10
130.5277499
20
87.6956976
40
0.6566413
50
135.8966939
51
150.3662797
0
ARC
8
DEFAULT_255_2_778
10
130.4383437
20
87.7470363
40
0.5535448
50
150.4094008
51
162.4416254
0
ARC
8
DEFAULT_255_2_778
10
130.3347534
20
87.7790794
40
0.4451145
50
162.3514379
51
175.572151
0
ARC
8
DEFAULT_255_2_778
10
130.2556605
20
87.787036
40
0.3656478
50
175.8583664
51
179.9659775
0
ARC
8
DEFAULT_255_2_778
10
130.2209935
20
87.7870663
40
0.3309809
50
179.9676676
51
183.979611
0
ARC
8
DEFAULT_255_2_778
10
130.3710765
20
87.6195534
40
0.4802857
50
180.5198516
51
210.1190528
0
ARC
8
DEFAULT_255_2_778
10
130.5590121
20
87.7559765
40
0.7116985
50
212.027242
51
240.1491037
0
ARC
8
DEFAULT_255_2_778
10
131.0685084
20
88.5752056
40
1.6761817
50
238.9823356
51
249.0036702
0
ARC
8
DEFAULT_255_2_778
10
131.5032932
20
89.6227082
40
2.8100871
50
248.3799915
51
248.4522018
0
ARC
8
DEFAULT_255_2_778
10
131.489304
20
89.5881159
40
2.7727745
50
248.4585366
51
248.5312493
0
ARC
8
DEFAULT_255_2_778
10
131.4758351
20
89.553653
40
2.7357733
50
248.5295979
51
248.6028202
0
ARC
8
DEFAULT_255_2_778
10
131.4624927
20
89.5197542
40
2.6993433
50
248.6039976
51
248.6777297
0
ARC
8
DEFAULT_255_2_778
10
131.5164278
20
89.6583196
40
2.8480353
50
248.6805674
51
248.7499984
0
ARC
8
DEFAULT_255_2_778
10
131.5023552
20
89.622226
40
2.8092953
50
248.750693
51
248.8206255
0
ARC
8
DEFAULT_255_2_778
10
131.4884352
20
89.5864483
40
2.7709051
50
248.8217341
51
248.892175
0
ARC
8
DEFAULT_255_2_778
10
131.6273247
20
89.9465449
40
3.1568584
50
248.8941513
51
248.9658114
0
ARC
8
DEFAULT_255_2_778
10
131.4628417
20
89.5190105
40
2.698775
50
248.9673002
51
249.0504853
0
ARC
8
DEFAULT_255_2_778
10
131.4477582
20
89.4788139
40
2.6558425
50
249.0443238
51
249.128208
0
ARC
8
DEFAULT_255_2_778
10
131.573475
20
89.8080945
40
3.0083059
50
249.125316
51
249.1988051
0
ARC
8
DEFAULT_255_2_778
10
131.5563424
20
89.7630499
40
2.9601132
50
249.1991799
51
249.2732921
0
ARC
8
DEFAULT_255_2_778
10
131.6020389
20
89.8835783
40
3.0890135
50
249.2717581
51
249.3422311
0
ARC
8
DEFAULT_255_2_778
10
131.5842365
20
89.8363617
40
3.0385523
50
249.3422388
51
249.4133293
0
ARC
8
DEFAULT_255_2_778
10
131.567031
20
89.7900984
40
2.9891935
50
249.4102532
51
249.4819587
0
ARC
8
DEFAULT_255_2_778
10
131.5500462
20
89.7443294
40
2.9403747
50
249.4793309
51
249.5516618
0
ARC
8
DEFAULT_255_2_778
10
131.7561512
20
90.2969742
40
3.5302015
50
249.5509425
51
249.6149878
0
ARC
8
DEFAULT_255_2_778
10
131.7339513
20
90.2382841
40
3.4674542
50
249.6210391
51
249.6856992
0
ARC
8
DEFAULT_255_2_778
10
131.7125185
20
90.1805747
40
3.4058935
50
249.6867892
51
249.7520672
0
ARC
8
DEFAULT_255_2_778
10
131.9277043
20
90.7652365
40
4.0288977
50
249.758516
51
249.813237
0
ARC
8
DEFAULT_255_2_778
10
131.7478988
20
90.2769627
40
3.5085698
50
249.8175877
51
249.8819716
0
ARC
8
DEFAULT_255_2_778
10
131.7256893
20
90.2163243
40
3.443992
50
249.8819293
51
249.9469494
0
ARC
8
DEFAULT_255_2_778
10
131.8202262
20
90.4756146
40
3.7199787
50
249.9485276
51
250.0091605
0
ARC
8
DEFAULT_255_2_778
10
131.8307136
20
90.5052097
40
3.7513758
50
250.0131648
51
250.0735831
0
ARC
8
DEFAULT_255_2_778
10
131.8109567
20
90.4507743
40
3.6934662
50
250.0739206
51
250.1348509
0
ARC
8
DEFAULT_255_2_778
10
131.7867846
20
90.383858
40
3.6223178
50
250.1347726
51
250.1963365
0
ARC
8
DEFAULT_255_2_778
10
131.7634792
20
90.3181899
40
3.5526377
50
250.1911578
51
250.2533588
0
ARC
8
DEFAULT_255_2_778
10
131.7404715
20
90.2536019
40
3.4840742
50
250.2506121
51
250.3134596
0
ARC
8
DEFAULT_255_2_778
10
131.7183034
20
90.1902286
40
3.4169374
50
250.3054705
51
250.3689682
0
ARC
8
DEFAULT_255_2_778
10
132.0582177
20
91.1428024
40
4.4283418
50
250.3673033
51
250.4158506
0
ARC
8
DEFAULT_255_2_778
10
132.0285236
20
91.0603978
40
4.3407511
50
250.4205368
51
250.4696101
0
ARC
8
DEFAULT_255_2_778
10
131.9999852
20
90.9797862
40
4.2552371
50
250.4689029
51
250.5185031
0
ARC
8
DEFAULT_255_2_778
10
131.9717891
20
90.9004664
40
4.1710549
50
250.5202681
51
250.5704041
0
ARC
8
DEFAULT_255_2_778
10
131.9447102
20
90.8228868
40
4.0888857
50
250.5666213
51
250.6172939
0
ARC
8
DEFAULT_255_2_778
10
132.3280714
20
91.9130169
40
5.2444588
50
250.6189878
51
250.6581306
0
ARC
8
DEFAULT_255_2_778
10
131.8922808
20
90.6719219
40
3.9290766
50
250.6601523
51
250.7119165
0
ARC
8
DEFAULT_255_2_778
10
132.2581278
20
91.7169104
40
5.0362554
50
250.7104002
51
250.7504107
0
ARC
8
DEFAULT_255_2_778
10
132.2248178
20
91.622012
40
4.9356809
50
250.7522816
51
250.7927289
0
ARC
8
DEFAULT_255_2_778
10
132.1918848
20
91.5286111
40
4.8366447
50
250.7971377
51
250.8380299
0
ARC
8
DEFAULT_255_2_778
10
132.1603623
20
91.437515
40
4.7402489
50
250.8365145
51
250.8778502
0
ARC
8
DEFAULT_255_2_778
10
132.1300915
20
91.3488744
40
4.6465832
50
250.8724664
51
250.9142426
0
ARC
8
DEFAULT_255_2_778
10
132.7545816
20
93.1553311
40
6.5579369
50
250.9187735
51
250.9480977
0
ARC
8
DEFAULT_255_2_778
10
132.0707864
20
91.1754111
40
4.463263
50
250.9486705
51
250.9913545
0
ARC
8
DEFAULT_255_2_778
10
132.6668076
20
92.9058489
40
6.2934695
50
250.9922882
51
251.0222761
0
ARC
8
DEFAULT_255_2_778
10
132.6244008
20
92.7847805
40
6.1651911
50
251.0290623
51
251.0593875
0
ARC
8
DEFAULT_255_2_778
10
132.5840286
20
92.6672803
40
6.0409488
50
251.0598344
51
251.0904931
0
ARC
8
DEFAULT_255_2_778
10
132.8810464
20
93.5358949
40
6.9589414
50
251.0946715
51
251.121036
0
ARC
8
DEFAULT_255_2_778
10
131.9359415
20
90.7714059
40
4.0373627
50
251.1175795
51
251.162595
0
ARC
8
DEFAULT_255_2_778
10
132.786984
20
93.2648511
40
6.6720433
50
251.159445
51
251.1864283
0
ARC
8
DEFAULT_255_2_778
10
132.4312731
20
92.2195302
40
5.5678579
50
251.1823202
51
251.21435
0
ARC
8
DEFAULT_255_2_778
10
134.8438553
20
99.3169582
40
13.064126
50
251.2209766
51
251.2344988
0
ARC
8
DEFAULT_255_2_778
10
133.6781826
20
95.8926098
40
9.4468136
50
251.2473039
51
251.2658273
0
ARC
8
DEFAULT_255_2_778
10
132.6160313
20
92.7615783
40
6.1405282
50
251.2682462
51
251.296474
0
ARC
8
DEFAULT_255_2_778
10
132.2936052
20
91.8076074
40
5.1335433
50
251.2907585
51
251.3242038
0
ARC
8
DEFAULT_255_2_778
10
132.5369123
20
92.525646
40
5.8916841
50
251.3186533
51
251.3475189
0
ARC
8
DEFAULT_255_2_778
10
132.230367
20
91.6147436
40
4.9305847
50
251.3372098
51
251.3713751
0
ARC
8
DEFAULT_255_2_778
10
133.3718824
20
95.0009547
40
8.5040259
50
251.3710824
51
251.3907033
0
ARC
8
DEFAULT_255_2_778
10
133.3177246
20
94.8383331
40
8.3326244
50
251.3867947
51
251.406629
0
ARC
8
DEFAULT_255_2_778
10
133.261127
20
94.6729213
40
8.1578
50
251.4129643
51
251.4330312
0
ARC
8
DEFAULT_255_2_778
10
134.0737306
20
97.0937833
40
10.7114049
50
251.4358357
51
251.4509732
0
ARC
8
DEFAULT_255_2_778
10
134.0035207
20
96.8840399
40
10.4902224
50
251.4500988
51
251.4654083
0
ARC
8
DEFAULT_255_2_778
10
133.1054988
20
94.2079256
40
7.6674524
50
251.4711451
51
251.4918913
0
ARC
8
DEFAULT_255_2_778
10
133.0564098
20
94.0599553
40
7.5115526
50
251.4886761
51
251.509651
0
ARC
8
DEFAULT_255_2_778
10
140.1183268
20
115.17908
40
29.7800979
50
251.5105412
51
251.5157813
0
ARC
8
DEFAULT_255_2_778
10
132.9624777
20
93.7743483
40
7.2108995
50
251.5194073
51
251.5408416
0
ARC
8
DEFAULT_255_2_778
10
133.6655743
20
95.878461
40
9.4293754
50
251.5365899
51
251.5528247
0
ARC
8
DEFAULT_255_2_778
10
133.6029958
20
95.6908117
40
9.2315665
50
251.5527312
51
251.5691554
0
ARC
8
DEFAULT_255_2_778
10
133.8973152
20
96.5716703
40
10.1602945
50
251.5650363
51
251.5871967
0
ARC
8
DEFAULT_255_2_778
10
136.8886545
20
105.5585698
40
19.6319613
50
251.588401
51
251.5997053
0
ARC
8
DEFAULT_255_2_778
10
136.6818168
20
104.9451945
40
18.9846563
50
251.6076988
51
251.6192206
0
ARC
8
DEFAULT_255_2_778
10
133.2019517
20
94.4703461
40
7.9469071
50
251.6140838
51
251.6412129
0
ARC
8
DEFAULT_255_2_778
10
126.6467653
20
74.5724704
40
13.0029663
50
71.2287006
51
71.8422183
0
ARC
8
DEFAULT_255_2_778
10
130.2628363
20
85.2058684
40
1.771533
50
68.0626719
51
71.2933081
0
ARC
8
DEFAULT_255_2_778
10
130.6227609
20
86.1111461
40
0.7973503
50
65.6898598
51
67.7507282
0
ARC
8
DEFAULT_255_2_778
10
129.8251614
20
82.9558391
40
4.0419208
50
72.5643872
51
73.8267267
0
ARC
8
DEFAULT_255_2_778
10
130.1150674
20
83.8776001
40
3.0756453
50
70.9870834
51
72.5717514
0
ARC
8
DEFAULT_255_2_778
10
130.3163629
20
84.4647081
40
2.4549888
50
69.8573875
51
70.9647959
0
ARC
8
DEFAULT_255_2_778
10
130.6363071
20
85.3078257
40
1.5532947
50
63.6329861
51
70.227789
0
ARC
8
DEFAULT_255_2_778
10
131.0152346
20
86.0619297
40
0.7093679
50
51.3069722
51
64.0040964
0
ARC
8
DEFAULT_255_2_778
10
131.2538127
20
86.3520518
40
0.3338141
50
356.8133913
51
52.1381699
0
ARC
8
DEFAULT_255_2_778
10
131.0867217
20
86.288389
40
0.5024179
50
0.3673135
51
5.150918
0
ARC
8
DEFAULT_255_2_778
10
131.0983809
20
86.2888428
40
0.4907561
50
0.0044388
51
0.3230591
0
ARC
8
DEFAULT_255_2_778
10
131.1467824
20
86.2954731
40
0.4424038
50
294.5945007
51
359.1461995
0
ARC
8
DEFAULT_255_2_778
10
130.8425159
20
86.845415
40
1.0701536
50
275.0684333
51
297.1534785
0
ARC
8
DEFAULT_255_2_778
10
130.785211
20
87.2012762
40
1.429916
50
273.2765693
51
276.0959496
0
ARC
8
DEFAULT_255_2_778
10
130.7830503
20
87.2372603
40
1.4659647
50
269.9984478
51
273.2804964
0
ARC
8
DEFAULT_255_2_778
10
130.8746011
20
87.2094185
40
1.4410364
50
256.2191727
51
266.355897
0
ARC
8
DEFAULT_255_2_778
10
130.7076017
20
86.5530768
40
0.7638297
50
238.2584146
51
256.6576873
0
ARC
8
DEFAULT_255_2_778
10
130.5592792
20
86.304507
40
0.4744303
50
178.5036701
51
237.6990135
0
ARC
8
DEFAULT_255_2_778
10
130.9664169
20
86.468849
40
1.1651572
50
187.4935369
51
200.5638586
0
ARC
8
DEFAULT_255_2_778
10
130.5807459
20
86.3211007
40
0.7521693
50
200.3454993
51
223.527827
0
ARC
8
DEFAULT_255_2_778
10
130.6196072
20
86.4062303
40
0.8397028
50
225.9138426
51
262.4959429
0
ARC
8
DEFAULT_255_2_778
10
130.8258329
20
87.4933618
40
1.9454597
50
260.6554065
51
270.5618672
0
ARC
8
DEFAULT_255_2_778
10
130.8650801
20
86.7458149
40
1.197989
50
269.0353143
51
270.0012094
0
ARC
8
DEFAULT_255_2_778
10
130.8645342
20
86.7933658
40
1.2455401
50
270.026277
51
275.0387339
0
ARC
8
DEFAULT_255_2_778
10
130.8775972
20
86.7696053
40
1.2207731
50
274.5259428
51
305.1238286
0
ARC
8
DEFAULT_255_2_778
10
131.2368746
20
86.2930272
40
0.6245757
50
303.3200412
51
358.1345382
0
ARC
8
DEFAULT_255_2_778
10
131.293083
20
86.2726785
40
0.5680364
50
0.0017184
51
1.1214288
0
ARC
8
DEFAULT_255_2_778
10
131.1738714
20
86.3259074
40
0.6884285
50
356.4929899
51
359.9928577
0
ARC
8
DEFAULT_255_2_778
10
131.2040095
20
86.3268631
40
0.6582912
50
359.9093438
51
23.9445568
0
ARC
8
DEFAULT_255_2_778
10
131.2057802
20
86.3286277
40
0.6559574
50
23.8664615
51
45.0065066
0
ARC
8
DEFAULT_255_2_778
10
131.2706497
20
86.3912171
40
0.5658327
50
45.170801
51
51.4155142
0
ARC
8
DEFAULT_255_2_778
10
131.329315
20
86.4655289
40
0.4711563
50
51.3561926
51
58.6534082
0
ARC
8
DEFAULT_255_2_778
10
131.3638323
20
86.5200856
40
0.406608
50
58.8081119
51
59.6292662
0
ARC
8
DEFAULT_255_2_778
10
130.0854716
20
83.8453018
40
3.36991
50
63.8738013
51
70.5528105
0
ARC
8
DEFAULT_255_2_778
10
127.4595821
20
76.7995063
40
10.8887715
50
69.8673397
51
70.1731514
0
ARC
8
DEFAULT_255_2_778
10
136.7962503
20
103.0506814
40
16.973513
50
249.3521586
51
250.5803629
0
ARC
8
DEFAULT_255_2_778
10
132.3308245
20
91.1640904
40
4.2758591
50
244.557115
51
249.1793566
0
ARC
8
DEFAULT_255_2_778
10
131.9779158
20
90.3968441
40
3.4314289
50
243.509158
51
244.3745114
0
ARC
8
DEFAULT_255_2_778
10
130.9738051
20
88.2312534
40
1.047488
50
235.5610946
51
239.826129
0
ARC
8
DEFAULT_255_2_778
10
130.8482796
20
88.0485424
40
0.8258128
50
230.5519032
51
235.5747295
0
ARC
8
DEFAULT_255_2_778
10
130.7351933
20
87.9115158
40
0.6481483
50
224.4114192
51
230.5750204
0
ARC
8
DEFAULT_255_2_778
10
130.6484255
20
87.8258864
40
0.5262435
50
219.0019723
51
224.362712
0
ARC
8
DEFAULT_255_2_778
10
130.5666362
20
87.7611641
40
0.4219519
50
208.3116884
51
219.161739
0
ARC
8
DEFAULT_255_2_778
10
130.4922057
20
87.7211888
40
0.3374657
50
193.3004127
51
208.3297782
0
ARC
8
DEFAULT_255_2_778
10
130.4675158
20
87.7143851
40
0.3118744
50
179.9759202
51
193.1275162
0
ARC
8
DEFAULT_255_2_778
10
130.5885921
20
87.6956868
40
0.43336
50
139.9563903
51
177.5097321
0
ARC
8
DEFAULT_255_2_778
10
130.7877812
20
87.5608005
40
0.6730925
50
135.5137317
51
142.0755458
0
ARC
8
DEFAULT_255_2_778
10
130.7875249
20
87.5625918
40
0.6716553
50
128.9090913
51
135.6074247
0
ARC
8
DEFAULT_255_2_778
10
130.673723
20
87.7052955
40
0.4891352
50
122.8597621
51
129.0351342
0
ARC
8
DEFAULT_255_2_778
10
130.5284229
20
87.9330568
40
0.2189831
50
114.3554623
51
123.2594404
0
ARC
8
DEFAULT_255_2_778
10
130.4678415
20
88.0651308
40
0.0736832
50
106.1789287
51
113.793207
0
ARC
8
DEFAULT_255_2_778
10
131.0235643
20
86.5243202
40
1.7115035
50
104.3345237
51
109.6756089
0
ARC
8
DEFAULT_255_2_778
10
130.9522689
20
86.8038838
40
1.4229921
50
98.479642
51
104.3401355
0
ARC
8
DEFAULT_255_2_778
10
130.9159854
20
87.0514368
40
1.1727951
50
91.2612424
51
98.5097787
0
ARC
8
DEFAULT_255_2_778
10
130.9109656
20
87.1795658
40
1.0445889
50
90.0023885
51
91.1406614
0
ARC
8
DEFAULT_255_2_778
10
130.9174773
20
87.3578398
40
0.8663399
50
74.9953042
51
90.4335392
0
ARC
8
DEFAULT_255_2_778
10
130.9836019
20
87.5965343
40
0.6186677
50
52.2180184
51
75.1872373
0
ARC
8
DEFAULT_255_2_778
10
131.0639314
20
87.7009736
40
0.48691
50
10.3552133
51
52.1594904
0
ARC
8
DEFAULT_255_2_778
10
138.3847698
20
87.2165591
40
0.9417624
50
56.0868072
51
68.8015376
0
ARC
8
DEFAULT_255_2_778
10
138.6319048
20
87.5753522
40
0.506144
50
31.816609
51
56.6425966
0
ARC
8
DEFAULT_255_2_778
10
138.7228191
20
87.6413708
40
0.39417
50
359.3583646
51
30.6291791
0
ARC
8
DEFAULT_255_2_778
10
138.5843895
20
87.6396753
40
0.5325818
50
347.9583941
51
359.707524
0
ARC
8
DEFAULT_255_2_778
10
138.4313279
20
87.6697074
40
0.6885457
50
342.8084352
51
348.1714845
0
ARC
8
DEFAULT_255_2_778
10
137.9316789
20
87.8538782
40
1.2206334
50
330.0366868
51
341.481694
0
ARC
8
DEFAULT_255_2_778
10
137.0530387
20
88.3509069
40
2.2300932
50
322.9771777
51
330.2482427
0
ARC
8
DEFAULT_255_2_778
10
135.8210774
20
89.2709946
40
3.767708
50
318.1392036
51
323.0868292
0
ARC
8
DEFAULT_255_2_778
10
134.2014388
20
90.7143236
40
5.9371332
50
314.6152248
51
318.1959155
0
ARC
8
DEFAULT_255_2_778
10
132.1780108
20
92.7572682
40
8.8125224
50
311.9979172
51
314.6510462
0
ARC
8
DEFAULT_255_2_778
10
130.5905505
20
94.4999384
40
11.1698049
50
311.3134536
51
312.0683181
0
ARC
8
DEFAULT_255_2_778
10
81.7872026
20
148.875332
40
84.4657429
50
311.7193833
51
311.9823027
0
ARC
8
DEFAULT_255_2_778
10
55.9098081
20
177.6398768
40
123.1573258
50
311.9801465
51
312.1828975
0
ARC
8
DEFAULT_255_2_778
10
37.2563239
20
198.2461827
40
150.9525077
50
312.1772814
51
312.2025
0
ARC
8
DEFAULT_255_2_778
10
135.7313736
20
89.6290447
40
4.3407442
50
312.4136379
51
317.5669288
0
ARC
8
DEFAULT_255_2_778
10
136.8086025
20
88.6498852
40
2.8850144
50
317.4844557
51
324.7814836
0
ARC
8
DEFAULT_255_2_778
10
137.6609297
20
88.0524819
40
1.8441814
50
324.6733595
51
335.0855131
0
ARC
8
DEFAULT_255_2_778
10
138.1702628
20
87.8109968
40
1.2805265
50
335.2845166
51
344.3655243
0
ARC
8
DEFAULT_255_2_778
10
138.2253761
20
87.6691269
40
1.1954364
50
350.2118435
51
354.7511719
0
ARC
8
DEFAULT_255_2_778
10
138.4367537
20
87.6497979
40
0.983177
50
354.7459727
51
359.9174675
0
ARC
8
DEFAULT_255_2_778
10
138.7462362
20
87.6604748
40
0.673802
50
358.9716232
51
22.9413245
0
ARC
8
DEFAULT_255_2_778
10
138.837786
20
87.6826095
40
0.5810672
50
24.450255
51
61.7968941
0
ARC
8
DEFAULT_255_2_778
10
138.6240052
20
87.3143508
40
1.0067404
50
60.9795095
51
75.4232042
0
ARC
8
DEFAULT_255_2_778
10
138.466133
20
86.7548795
40
1.5879811
50
74.9907994
51
81.5926865
0
ARC
8
DEFAULT_255_2_778
10
138.6237918
20
86.2018138
40
2.1252887
50
87.9906324
51
89.4755731
0
ARC
8
DEFAULT_255_2_778
10
138.6252081
20
86.3189857
40
2.0081088
50
89.4853793
51
89.9994164
0
ARC
8
DEFAULT_255_2_778
10
138.6129421
20
86.7960848
40
1.5310592
50
89.5402109
51
100.747032
0
ARC
8
DEFAULT_255_2_778
10
138.4920872
20
87.406163
40
0.9091591
50
100.4336976
51
119.7749564
0
ARC
8
DEFAULT_255_2_778
10
138.3945426
20
87.5991999
40
0.6932568
50
120.7001531
51
165.4881951
0
ARC
8
DEFAULT_255_2_778
10
138.8151547
20
87.4635951
40
1.1347247
50
164.1812355
51
175.709093
0
ARC
8
DEFAULT_255_2_778
10
138.7167483
20
87.5401032
40
0.7188867
50
160.8557942
51
179.33109
0
ARC
8
DEFAULT_255_2_778
10
138.4690859
20
87.620855
40
0.4584652
50
101.9125501
51
160.2391435
0
ARC
8
DEFAULT_255_2_778
10
138.6039204
20
87.1555292
40
0.9422854
50
90.0602893
51
104.0946953
0
ARC
8
DEFAULT_255_2_778
10
138.6200171
20
86.7849092
40
1.3130161
50
89.9974086
51
90.7456956
0
ARC
8
DEFAULT_255_2_778
10
138.6190603
20
86.6407873
40
1.4571384
50
87.1434745
51
89.9600394
0
ARC
8
DEFAULT_255_2_778
10
138.6106422
20
86.4539968
40
1.6441167
50
85.9936885
51
87.174877
0
LINE
8
DEFAULT_255_2_778
10
143.9011106
20
91.2364957
11
144.1823106
21
91.2364957
0
LINE
8
DEFAULT_255_2_778
10
144.2072106
20
89.7648957
11
143.9262106
21
89.7648957
0
LINE
8
DEFAULT_255_2_778
10
143.9013106
20
91.2364957
11
143.9011106
21
91.2364957
0
LINE
8
DEFAULT_255_2_778
10
131.5432106
20
87.7886957
11
131.8170106
21
87.7886957
0
LINE
8
DEFAULT_255_2_778
10
129.8908106
20
87.7640957
11
129.8908106
21
87.6151957
0
LINE
8
DEFAULT_255_2_778
10
130.0850106
20
86.3168957
11
129.8112106
21
86.3168957
0
LINE
8
DEFAULT_255_2_778
10
131.5429106
20
87.7884957
11
131.5432106
21
87.7886957
0
LINE
8
DEFAULT_255_2_778
10
137.9646106
20
86.1101957
11
137.6669106
21
85.8619957
0
LINE
8
DEFAULT_255_2_778
10
137.6669106
20
85.8619957
11
137.6669106
21
85.5891957
0
LINE
8
DEFAULT_255_2_778
10
137.6669106
20
85.5891957
11
139.4529106
21
85.5891957
0
LINE
8
DEFAULT_255_2_778
10
139.4529106
20
85.5891957
11
139.4529106
21
85.8289957
0
LINE
8
DEFAULT_255_2_778
10
139.4529106
20
85.8289957
11
137.9977106
21
85.8289957
0
LINE
8
DEFAULT_255_2_778
10
137.6836106
20
87.5484957
11
137.9979106
21
87.5484957
0
LINE
8
DEFAULT_255_2_778
10
138.7255106
20
88.0940957
11
138.7253106
21
88.0945957
0
LINE
8
DEFAULT_255_2_778
10
33.9917794
20
92.0480874
11
16.4795794
21
92.0480874
0
LINE
8
DEFAULT_255_2_778
10
16.4795794
20
92.0480874
11
16.4795794
21
87.2442874
0
LINE
8
DEFAULT_255_2_778
10
16.4795794
20
87.2442874
11
33.9917794
21
87.2442874
0
LINE
8
DEFAULT_255_2_778
10
33.9917794
20
87.2442874
11
33.9917794
21
92.0480874
0
LINE
8
DEFAULT_255_2_778
10
31.9372564
20
90.7577187
11
31.6904564
21
90.7577187
0
LINE
8
DEFAULT_255_2_778
10
31.6904564
20
90.7577187
11
31.4417564
21
90.7135187
0
LINE
8
DEFAULT_255_2_778
10
31.4417564
20
90.7135187
11
31.2792564
21
90.6527187
0
LINE
8
DEFAULT_255_2_778
10
31.2792564
20
90.6527187
11
31.1313564
21
90.5627187
0
LINE
8
DEFAULT_255_2_778
10
31.1313564
20
90.5627187
11
31.0496564
21
90.4886187
0
LINE
8
DEFAULT_255_2_778
10
31.0496564
20
90.4886187
11
30.9866564
21
90.4063187
0
LINE
8
DEFAULT_255_2_778
10
30.9866564
20
90.4063187
11
30.9485564
21
90.3341187
0
LINE
8
DEFAULT_255_2_778
10
30.9485564
20
90.3341187
11
30.9271564
21
90.2764187
0
LINE
8
DEFAULT_255_2_778
10
30.9271564
20
90.2764187
11
30.9162564
21
90.2362187
0
LINE
8
DEFAULT_255_2_778
10
30.9162564
20
90.2362187
11
30.9083564
21
90.1955187
0
LINE
8
DEFAULT_255_2_778
10
30.9083564
20
90.1955187
11
30.9085564
21
89.9867187
0
LINE
8
DEFAULT_255_2_778
10
30.9085564
20
89.9867187
11
30.9162564
21
89.9481187
0
LINE
8
DEFAULT_255_2_778
10
30.9162564
20
89.9481187
11
30.9326564
21
89.8915187
0
LINE
8
DEFAULT_255_2_778
10
30.9326564
20
89.8915187
11
30.9636564
21
89.8203187
0
LINE
8
DEFAULT_255_2_778
10
30.9636564
20
89.8203187
11
31.0157564
21
89.7383187
0
LINE
8
DEFAULT_255_2_778
10
31.0157564
20
89.7383187
11
31.1012564
21
89.6446187
0
LINE
8
DEFAULT_255_2_778
10
31.1012564
20
89.6446187
11
31.1856564
21
89.5785187
0
LINE
8
DEFAULT_255_2_778
10
31.1856564
20
89.5785187
11
31.3835564
21
89.4716187
0
LINE
8
DEFAULT_255_2_778
10
31.3835564
20
89.4716187
11
31.8396564
21
89.2705187
0
LINE
8
DEFAULT_255_2_778
10
31.8396564
20
89.2705187
11
31.9444564
21
89.2004187
0
LINE
8
DEFAULT_255_2_778
10
31.9444564
20
89.2004187
11
31.9851564
21
89.1467187
0
LINE
8
DEFAULT_255_2_778
10
31.9851564
20
89.1467187
11
31.9944564
21
89.1210187
0
LINE
8
DEFAULT_255_2_778
10
31.9944564
20
89.1210187
11
31.9928564
21
89.0731187
0
LINE
8
DEFAULT_255_2_778
10
31.9928564
20
89.0731187
11
31.9748564
21
89.0358187
0
LINE
8
DEFAULT_255_2_778
10
31.9748564
20
89.0358187
11
31.9084564
21
88.9816187
0
LINE
8
DEFAULT_255_2_778
10
31.9084564
20
88.9816187
11
31.7510564
21
88.9294187
0
LINE
8
DEFAULT_255_2_778
10
31.7510564
20
88.9294187
11
31.4671564
21
88.9051187
0
LINE
8
DEFAULT_255_2_778
10
31.4671564
20
88.9051187
11
31.1689564
21
88.9400187
0
LINE
8
DEFAULT_255_2_778
10
31.1689564
20
88.9400187
11
30.9276564
21
89.0138187
0
LINE
8
DEFAULT_255_2_778
10
30.9276564
20
89.0138187
11
30.9276564
21
88.6016187
0
LINE
8
DEFAULT_255_2_778
10
30.9276564
20
88.6016187
11
31.2448564
21
88.5296187
0
LINE
8
DEFAULT_255_2_778
10
31.2448564
20
88.5296187
11
31.5409564
21
88.5019187
0
LINE
8
DEFAULT_255_2_778
10
31.5409564
20
88.5019187
11
31.8349564
21
88.5183187
0
LINE
8
DEFAULT_255_2_778
10
31.8349564
20
88.5183187
11
32.0883564
21
88.5765187
0
LINE
8
DEFAULT_255_2_778
10
32.0883564
20
88.5765187
11
32.2770564
21
88.6598187
0
LINE
8
DEFAULT_255_2_778
10
32.2770564
20
88.6598187
11
32.3944564
21
88.7413187
0
LINE
8
DEFAULT_255_2_778
10
32.3944564
20
88.7413187
11
32.4744564
21
88.8233187
0
LINE
8
DEFAULT_255_2_778
10
32.4744564
20
88.8233187
11
32.5230564
21
88.8948187
0
LINE
8
DEFAULT_255_2_778
10
32.5230564
20
88.8948187
11
32.5519564
21
88.9530187
0
LINE
8
DEFAULT_255_2_778
10
32.5519564
20
88.9530187
11
32.5672564
21
88.9940187
0
LINE
8
DEFAULT_255_2_778
10
32.5672564
20
88.9940187
11
32.5794564
21
89.0369187
0
LINE
8
DEFAULT_255_2_778
10
32.5794564
20
89.0369187
11
32.5884564
21
89.0805187
0
LINE
8
DEFAULT_255_2_778
10
32.5884564
20
89.0805187
11
32.5860564
21
89.3163187
0
LINE
8
DEFAULT_255_2_778
10
32.5860564
20
89.3163187
11
32.5773564
21
89.3559187
0
LINE
8
DEFAULT_255_2_778
10
32.5773564
20
89.3559187
11
32.5593564
21
89.4134187
0
LINE
8
DEFAULT_255_2_778
10
32.5593564
20
89.4134187
11
32.5265564
21
89.4851187
0
LINE
8
DEFAULT_255_2_778
10
32.5265564
20
89.4851187
11
32.4728564
21
89.5679187
0
LINE
8
DEFAULT_255_2_778
10
32.4728564
20
89.5679187
11
32.3855564
21
89.6621187
0
LINE
8
DEFAULT_255_2_778
10
32.3855564
20
89.6621187
11
32.2921564
21
89.7324187
0
LINE
8
DEFAULT_255_2_778
10
32.2921564
20
89.7324187
11
32.0373564
21
89.8645187
0
LINE
8
DEFAULT_255_2_778
10
32.0373564
20
89.8645187
11
31.6698564
21
90.0335187
0
LINE
8
DEFAULT_255_2_778
10
31.6698564
20
90.0335187
11
31.5822564
21
90.0928187
0
LINE
8
DEFAULT_255_2_778
10
31.5822564
20
90.0928187
11
31.5353564
21
90.1507187
0
LINE
8
DEFAULT_255_2_778
10
31.5353564
20
90.1507187
11
31.5242564
21
90.1769187
0
LINE
8
DEFAULT_255_2_778
10
31.5242564
20
90.1769187
11
31.5263564
21
90.2497187
0
LINE
8
DEFAULT_255_2_778
10
31.5263564
20
90.2497187
11
31.5589564
21
90.3026187
0
LINE
8
DEFAULT_255_2_778
10
31.5589564
20
90.3026187
11
31.6787564
21
90.3619187
0
LINE
8
DEFAULT_255_2_778
10
31.6787564
20
90.3619187
11
31.9047564
21
90.3817187
0
LINE
8
DEFAULT_255_2_778
10
31.9047564
20
90.3817187
11
32.2219564
21
90.3405187
0
LINE
8
DEFAULT_255_2_778
10
32.2219564
20
90.3405187
11
32.4450564
21
90.2727187
0
LINE
8
DEFAULT_255_2_778
10
32.4450564
20
90.2727187
11
32.4450564
21
90.6849187
0
LINE
8
DEFAULT_255_2_778
10
32.4450564
20
90.6849187
11
31.9370564
21
90.7572187
0
LINE
8
DEFAULT_255_2_778
10
18.8581564
20
90.2074187
11
18.8597564
21
90.2156187
0
LINE
8
DEFAULT_255_2_778
10
19.944473
20
89.1931291
11
19.943473
21
89.2341291
0
LINE
8
DEFAULT_255_2_778
10
19.943473
20
89.2341291
11
19.941873
21
89.2545291
0
LINE
8
DEFAULT_255_2_778
10
19.941873
20
89.2545291
11
19.939773
21
89.2749291
0
LINE
8
DEFAULT_255_2_778
10
19.939773
20
89.2749291
11
19.933673
21
89.3156291
0
LINE
8
DEFAULT_255_2_778
10
19.933673
20
89.3156291
11
19.924973
21
89.3558291
0
LINE
8
DEFAULT_255_2_778
10
19.924973
20
89.3558291
11
19.906673
21
89.4141291
0
LINE
8
DEFAULT_255_2_778
10
19.906673
20
89.4141291
11
19.873573
21
89.4866291
0
LINE
8
DEFAULT_255_2_778
10
19.873573
20
89.4866291
11
19.819373
21
89.5704291
0
LINE
8
DEFAULT_255_2_778
10
19.819373
20
89.5704291
11
19.730973
21
89.6654291
0
LINE
8
DEFAULT_255_2_778
10
19.730973
20
89.6654291
11
19.619373
21
89.7472291
0
LINE
8
DEFAULT_255_2_778
10
19.619373
20
89.7472291
11
19.376173
21
89.8723291
0
LINE
8
DEFAULT_255_2_778
10
19.376173
20
89.8723291
11
19.006873
21
90.0435291
0
LINE
8
DEFAULT_255_2_778
10
19.006873
20
90.0435291
11
18.908373
21
90.1139291
0
LINE
8
DEFAULT_255_2_778
10
18.908373
20
90.1139291
11
18.867673
21
90.1702291
0
LINE
8
DEFAULT_255_2_778
10
18.867673
20
90.1702291
11
18.858673
21
90.1972291
0
LINE
8
DEFAULT_255_2_778
10
18.858673
20
90.1972291
11
18.860273
21
90.2409291
0
LINE
8
DEFAULT_255_2_778
10
18.860273
20
90.2409291
11
18.872973
21
90.2700291
0
LINE
8
DEFAULT_255_2_778
10
18.872973
20
90.2700291
11
18.921673
21
90.3158291
0
LINE
8
DEFAULT_255_2_778
10
18.921673
20
90.3158291
11
19.073473
21
90.3716291
0
LINE
8
DEFAULT_255_2_778
10
19.073473
20
90.3716291
11
19.309473
21
90.3835291
0
LINE
8
DEFAULT_255_2_778
10
19.309473
20
90.3835291
11
19.584973
21
90.3359291
0
LINE
8
DEFAULT_255_2_778
10
19.584973
20
90.3359291
11
19.795073
21
90.2724291
0
LINE
8
DEFAULT_255_2_778
10
19.795073
20
90.2724291
11
19.795073
21
90.6846291
0
LINE
8
DEFAULT_255_2_778
10
19.795073
20
90.6846291
11
19.281773
21
90.7616291
0
LINE
8
DEFAULT_255_2_778
10
19.281773
20
90.7616291
11
19.031173
21
90.7629291
0
LINE
8
DEFAULT_255_2_778
10
19.031173
20
90.7629291
11
18.776073
21
90.7203291
0
LINE
8
DEFAULT_255_2_778
10
18.776073
20
90.7203291
11
18.610973
21
90.6613291
0
LINE
8
DEFAULT_255_2_778
10
18.610973
20
90.6613291
11
18.462373
21
90.5732291
0
LINE
8
DEFAULT_255_2_778
10
18.462373
20
90.5732291
11
18.380873
21
90.5002291
0
LINE
8
DEFAULT_255_2_778
10
18.380873
20
90.5002291
11
18.317873
21
90.4174291
0
LINE
8
DEFAULT_255_2_778
10
18.317873
20
90.4174291
11
18.279773
21
90.3443291
0
LINE
8
DEFAULT_255_2_778
10
18.279773
20
90.3443291
11
18.258373
21
90.2853291
0
LINE
8
DEFAULT_255_2_778
10
18.258373
20
90.2853291
11
18.247173
21
90.2438291
0
LINE
8
DEFAULT_255_2_778
10
18.247173
20
90.2438291
11
18.239273
21
90.2015291
0
LINE
8
DEFAULT_255_2_778
10
18.239273
20
90.2015291
11
18.236373
21
90.1800291
0
LINE
8
DEFAULT_255_2_778
10
18.236373
20
90.1800291
11
18.236373
21
90.0086291
0
LINE
8
DEFAULT_255_2_778
10
18.236373
20
90.0086291
11
18.242473
21
89.9694291
0
LINE
8
DEFAULT_255_2_778
10
18.242473
20
89.9694291
11
18.251173
21
89.9308291
0
LINE
8
DEFAULT_255_2_778
10
18.251173
20
89.9308291
11
18.269173
21
89.8747291
0
LINE
8
DEFAULT_255_2_778
10
18.269173
20
89.8747291
11
18.302273
21
89.8043291
0
LINE
8
DEFAULT_255_2_778
10
18.302273
20
89.8043291
11
18.356273
21
89.7234291
0
LINE
8
DEFAULT_255_2_778
10
18.356273
20
89.7234291
11
18.444873
21
89.6310291
0
LINE
8
DEFAULT_255_2_778
10
18.444873
20
89.6310291
11
18.538573
21
89.5625291
0
LINE
8
DEFAULT_255_2_778
10
18.538573
20
89.5625291
11
18.794373
21
89.4344291
0
LINE
8
DEFAULT_255_2_778
10
18.794373
20
89.4344291
11
19.168773
21
89.2675291
0
LINE
8
DEFAULT_255_2_778
10
19.168773
20
89.2675291
11
19.267473
21
89.1987291
0
LINE
8
DEFAULT_255_2_778
10
19.267473
20
89.1987291
11
19.307673
21
89.1437291
0
LINE
8
DEFAULT_255_2_778
10
19.307673
20
89.1437291
11
19.316973
21
89.1175291
0
LINE
8
DEFAULT_255_2_778
10
19.316973
20
89.1175291
11
19.315373
21
89.0685291
0
LINE
8
DEFAULT_255_2_778
10
19.315373
20
89.0685291
11
19.297073
21
89.0301291
0
LINE
8
DEFAULT_255_2_778
10
19.297073
20
89.0301291
11
19.231173
21
88.9748291
0
LINE
8
DEFAULT_255_2_778
10
19.231173
20
88.9748291
11
19.099473
21
88.9283291
0
LINE
8
DEFAULT_255_2_778
10
19.099473
20
88.9283291
11
18.822673
21
88.9021291
0
LINE
8
DEFAULT_255_2_778
10
18.822673
20
88.9021291
11
18.523173
21
88.9328291
0
LINE
8
DEFAULT_255_2_778
10
18.523173
20
88.9328291
11
18.254373
21
89.0135291
0
LINE
8
DEFAULT_255_2_778
10
18.254373
20
89.0135291
11
18.254373
21
88.5780291
0
LINE
8
DEFAULT_255_2_778
10
18.254373
20
88.5780291
11
18.572873
21
88.5047291
0
LINE
8
DEFAULT_255_2_778
10
18.572873
20
88.5047291
11
18.870273
21
88.4758291
0
LINE
8
DEFAULT_255_2_778
10
18.870273
20
88.4758291
11
19.123773
21
88.4862291
0
LINE
8
DEFAULT_255_2_778
10
19.123773
20
88.4862291
11
19.360873
21
88.5309291
0
LINE
8
DEFAULT_255_2_778
10
19.360873
20
88.5309291
11
19.536573
21
88.5938291
0
LINE
8
DEFAULT_255_2_778
10
19.536573
20
88.5938291
11
19.695773
21
88.6849291
0
LINE
8
DEFAULT_255_2_778
10
19.695773
20
88.6849291
11
19.787873
21
88.7645291
0
LINE
8
DEFAULT_255_2_778
10
19.787873
20
88.7645291
11
19.843473
21
88.8320291
0
LINE
8
DEFAULT_255_2_778
10
19.843473
20
88.8320291
11
19.887873
21
88.9071291
0
LINE
8
DEFAULT_255_2_778
10
19.887873
20
88.9071291
11
19.913273
21
88.9685291
0
LINE
8
DEFAULT_255_2_778
10
19.913273
20
88.9685291
11
19.925973
21
89.0122291
0
LINE
8
DEFAULT_255_2_778
10
19.925973
20
89.0122291
11
19.935273
21
89.0566291
0
LINE
8
DEFAULT_255_2_778
10
19.935273
20
89.0566291
11
19.938673
21
89.0791291
0
LINE
8
DEFAULT_255_2_778
10
19.938673
20
89.0791291
11
19.941373
21
89.1016291
0
LINE
8
DEFAULT_255_2_778
10
19.941373
20
89.1016291
11
19.943173
21
89.1243291
0
LINE
8
DEFAULT_255_2_778
10
19.943173
20
89.1243291
11
19.944473
21
89.1696291
0
LINE
8
DEFAULT_255_2_778
10
24.234473
20
90.7084291
11
23.452373
21
90.7084291
0
LINE
8
DEFAULT_255_2_778
10
23.452373
20
90.7084291
11
23.452373
21
88.5325291
0
LINE
8
DEFAULT_255_2_778
10
23.452373
20
88.5325291
11
23.889473
21
88.5325291
0
LINE
8
DEFAULT_255_2_778
10
23.889473
20
88.5325291
11
23.889473
21
89.9064291
0
LINE
8
DEFAULT_255_2_778
10
23.889473
20
89.9064291
11
24.487373
21
88.5097291
0
LINE
8
DEFAULT_255_2_778
10
24.487373
20
88.5097291
11
24.878473
21
88.5097291
0
LINE
8
DEFAULT_255_2_778
10
24.878473
20
88.5097291
11
25.499473
21
89.9295291
0
LINE
8
DEFAULT_255_2_778
10
25.499473
20
89.9295291
11
25.499473
21
88.5327291
0
LINE
8
DEFAULT_255_2_778
10
25.499473
20
88.5327291
11
26.120473
21
88.5327291
0
LINE
8
DEFAULT_255_2_778
10
26.120473
20
88.5327291
11
26.120473
21
90.7087291
0
LINE
8
DEFAULT_255_2_778
10
26.120473
20
90.7087291
11
25.338273
21
90.7087291
0
LINE
8
DEFAULT_255_2_778
10
25.338273
20
90.7087291
11
24.809373
21
89.4035291
0
LINE
8
DEFAULT_255_2_778
10
24.809373
20
89.4035291
11
24.234473
21
90.7087291
0
LINE
8
DEFAULT_255_2_778
10
16.4872648
20
92.0491353
11
33.9873648
21
92.0491353
0
LINE
8
DEFAULT_255_2_778
10
33.9873648
20
92.0491353
11
33.9873648
21
87.2490353
0
LINE
8
DEFAULT_255_2_778
10
33.9873648
20
87.2490353
11
16.4872648
21
87.2490353
0
LINE
8
DEFAULT_255_2_778
10
16.4872648
20
87.2490353
11
16.4872648
21
92.0491353
0
LINE
8
DEFAULT_255_2_778
10
23.0383563
20
90.7084666
11
21.4513563
21
90.7084666
0
LINE
8
DEFAULT_255_2_778
10
21.4513563
20
90.7084666
11
21.4513563
21
88.5325666
0
LINE
8
DEFAULT_255_2_778
10
21.4513563
20
88.5325666
11
23.0613563
21
88.5325666
0
LINE
8
DEFAULT_255_2_778
10
23.0613563
20
88.5325666
11
23.0613563
21
88.9452666
0
LINE
8
DEFAULT_255_2_778
10
23.0613563
20
88.9452666
11
22.0723563
21
88.9452666
0
LINE
8
DEFAULT_255_2_778
10
22.0723563
20
88.9452666
11
22.0723563
21
89.4485666
0
LINE
8
DEFAULT_255_2_778
10
22.0723563
20
89.4485666
11
22.9232563
21
89.4485666
0
LINE
8
DEFAULT_255_2_778
10
22.9232563
20
89.4485666
11
22.9232563
21
89.8154666
0
LINE
8
DEFAULT_255_2_778
10
22.9232563
20
89.8154666
11
22.0723563
21
89.8154666
0
LINE
8
DEFAULT_255_2_778
10
22.0723563
20
89.8154666
11
22.0723563
21
90.2957666
0
LINE
8
DEFAULT_255_2_778
10
22.0723563
20
90.2957666
11
23.0383563
21
90.2957666
0
LINE
8
DEFAULT_255_2_778
10
23.0383563
20
90.2957666
11
23.0383563
21
90.7084666
0
LINE
8
DEFAULT_255_2_778
10
20.9454563
20
90.7084666
11
20.2784563
21
90.7084666
0
LINE
8
DEFAULT_255_2_778
10
20.2784563
20
90.7084666
11
20.2784563
21
88.5325666
0
LINE
8
DEFAULT_255_2_778
10
20.2784563
20
88.5325666
11
20.9454563
21
88.5325666
0
LINE
8
DEFAULT_255_2_778
10
20.9454563
20
88.5325666
11
20.9454563
21
90.7084666
0
LINE
8
DEFAULT_255_2_778
10
29.340474
20
90.7084666
11
28.627374
21
90.7084666
0
LINE
8
DEFAULT_255_2_778
10
28.627374
20
90.7084666
11
28.627374
21
88.5325666
0
LINE
8
DEFAULT_255_2_778
10
28.627374
20
88.5325666
11
29.064474
21
88.5325666
0
LINE
8
DEFAULT_255_2_778
10
29.064474
20
88.5325666
11
29.064474
21
89.9064666
0
LINE
8
DEFAULT_255_2_778
10
29.064474
20
89.9064666
11
29.846574
21
88.5325666
0
LINE
8
DEFAULT_255_2_778
10
29.846574
20
88.5325666
11
30.559674
21
88.5325666
0
LINE
8
DEFAULT_255_2_778
10
30.559674
20
88.5325666
11
30.559674
21
90.7084666
0
LINE
8
DEFAULT_255_2_778
10
30.559674
20
90.7084666
11
30.099474
21
90.7084666
0
LINE
8
DEFAULT_255_2_778
10
30.099474
20
90.7084666
11
30.099474
21
89.3802666
0
LINE
8
DEFAULT_255_2_778
10
30.099474
20
89.3802666
11
29.340474
21
90.7084666
0
LINE
8
DEFAULT_255_2_778
10
28.2362939
20
90.7084666
11
26.6262939
21
90.7084666
0
LINE
8
DEFAULT_255_2_778
10
26.6262939
20
90.7084666
11
26.6262939
21
88.5325666
0
LINE
8
DEFAULT_255_2_778
10
26.6262939
20
88.5325666
11
28.2592939
21
88.5325666
0
LINE
8
DEFAULT_255_2_778
10
28.2592939
20
88.5325666
11
28.2592939
21
88.9452666
0
LINE
8
DEFAULT_255_2_778
10
28.2592939
20
88.9452666
11
27.2702939
21
88.9452666
0
LINE
8
DEFAULT_255_2_778
10
27.2702939
20
88.9452666
11
27.2702939
21
89.4485666
0
LINE
8
DEFAULT_255_2_778
10
27.2702939
20
89.4485666
11
28.1211939
21
89.4485666
0
LINE
8
DEFAULT_255_2_778
10
28.1211939
20
89.4485666
11
28.1211939
21
89.8154666
0
LINE
8
DEFAULT_255_2_778
10
28.1211939
20
89.8154666
11
27.2702939
21
89.8154666
0
LINE
8
DEFAULT_255_2_778
10
27.2702939
20
89.8154666
11
27.2702939
21
90.2957666
0
LINE
8
DEFAULT_255_2_778
10
27.2702939
20
90.2957666
11
28.2362939
21
90.2957666
0
LINE
8
DEFAULT_255_2_778
10
28.2362939
20
90.2957666
11
28.2362939
21
90.7084666
0
LINE
8
DEFAULT_255_2_778
10
18.8628939
20
90.2165666
11
18.8644939
21
90.2242666
0
LINE
8
DEFAULT_255_2_778
10
29.345274
20
90.7169666
11
28.632174
21
90.7169666
0
LINE
8
DEFAULT_255_2_778
10
28.632174
20
90.7169666
11
28.632174
21
88.5410666
0
LINE
8
DEFAULT_255_2_778
10
28.632174
20
88.5410666
11
29.069274
21
88.5410666
0
LINE
8
DEFAULT_255_2_778
10
29.069274
20
88.5410666
11
29.069274
21
89.9149666
0
LINE
8
DEFAULT_255_2_778
10
29.069274
20
89.9149666
11
29.851374
21
88.5410666
0
LINE
8
DEFAULT_255_2_778
10
29.851374
20
88.5410666
11
30.564474
21
88.5410666
0
LINE
8
DEFAULT_255_2_778
10
30.564474
20
88.5410666
11
30.564474
21
90.7169666
0
LINE
8
DEFAULT_255_2_778
10
30.564474
20
90.7169666
11
30.104274
21
90.7169666
0
LINE
8
DEFAULT_255_2_778
10
30.104274
20
90.7169666
11
30.104274
21
89.3887666
0
LINE
8
DEFAULT_255_2_778
10
30.104274
20
89.3887666
11
29.345274
21
90.7169666
0
LINE
8
DEFAULT_255_2_778
10
28.241022
20
90.7169666
11
26.631022
21
90.7169666
0
LINE
8
DEFAULT_255_2_778
10
26.631022
20
90.7169666
11
26.631022
21
88.5410666
0
LINE
8
DEFAULT_255_2_778
10
26.631022
20
88.5410666
11
28.264122
21
88.5410666
0
LINE
8
DEFAULT_255_2_778
10
28.264122
20
88.5410666
11
28.264122
21
88.9537666
0
LINE
8
DEFAULT_255_2_778
10
28.264122
20
88.9537666
11
27.275022
21
88.9537666
0
LINE
8
DEFAULT_255_2_778
10
27.275022
20
88.9537666
11
27.275022
21
89.4570666
0
LINE
8
DEFAULT_255_2_778
10
27.275022
20
89.4570666
11
28.125922
21
89.4570666
0
LINE
8
DEFAULT_255_2_778
10
28.125922
20
89.4570666
11
28.125922
21
89.8239666
0
LINE
8
DEFAULT_255_2_778
10
28.125922
20
89.8239666
11
27.275022
21
89.8239666
0
LINE
8
DEFAULT_255_2_778
10
27.275022
20
89.8239666
11
27.275022
21
90.3042666
0
LINE
8
DEFAULT_255_2_778
10
27.275022
20
90.3042666
11
28.241022
21
90.3042666
0
LINE
8
DEFAULT_255_2_778
10
28.241022
20
90.3042666
11
28.241022
21
90.7169666
0
LINE
8
DEFAULT_255_2_778
10
22.077022
20
89.4570666
11
22.927922
21
89.4570666
0
LINE
8
DEFAULT_255_2_778
10
22.927922
20
89.4570666
11
22.927922
21
89.8239666
0
LINE
8
DEFAULT_255_2_778
10
22.927922
20
89.8239666
11
22.077022
21
89.8239666
0
LINE
8
DEFAULT_255_2_778
10
22.077022
20
89.8239666
11
22.077022
21
90.3042666
0
LINE
8
DEFAULT_255_2_778
10
22.077022
20
90.3042666
11
23.043022
21
90.3042666
0
LINE
8
DEFAULT_255_2_778
10
23.043022
20
90.3042666
11
23.043022
21
90.7169666
0
LINE
8
DEFAULT_255_2_778
10
23.043022
20
90.7169666
11
21.456122
21
90.7169666
0
LINE
8
DEFAULT_255_2_778
10
21.456122
20
90.7169666
11
21.456122
21
88.5410666
0
LINE
8
DEFAULT_255_2_778
10
21.456122
20
88.5410666
11
23.066122
21
88.5410666
0
LINE
8
DEFAULT_255_2_778
10
23.066122
20
88.5410666
11
23.066122
21
88.9537666
0
LINE
8
DEFAULT_255_2_778
10
23.066122
20
88.9537666
11
22.077022
21
88.9537666
0
LINE
8
DEFAULT_255_2_778
10
22.077022
20
88.9537666
11
22.077022
21
89.4802666
0
LINE
8
DEFAULT_255_2_778
10
20.949922
20
90.7169666
11
20.282922
21
90.7169666
0
LINE
8
DEFAULT_255_2_778
10
20.282922
20
90.7169666
11
20.282922
21
88.5410666
0
LINE
8
DEFAULT_255_2_778
10
20.282922
20
88.5410666
11
20.949922
21
88.5410666
0
LINE
8
DEFAULT_255_2_778
10
20.949922
20
88.5410666
11
20.949922
21
90.7169666
0
LINE
8
DEFAULT_255_2_778
10
19.9490792
20
89.2222781
11
19.9466792
21
89.2632781
0
LINE
8
DEFAULT_255_2_778
10
19.9466792
20
89.2632781
11
19.9445792
21
89.2836781
0
LINE
8
DEFAULT_255_2_778
10
19.9445792
20
89.2836781
11
19.9384792
21
89.3243781
0
LINE
8
DEFAULT_255_2_778
10
19.9384792
20
89.3243781
11
19.9297792
21
89.3645781
0
LINE
8
DEFAULT_255_2_778
10
19.9297792
20
89.3645781
11
19.9114792
21
89.4227781
0
LINE
8
DEFAULT_255_2_778
10
19.9114792
20
89.4227781
11
19.8783792
21
89.4952781
0
LINE
8
DEFAULT_255_2_778
10
19.8783792
20
89.4952781
11
19.8241792
21
89.5791781
0
LINE
8
DEFAULT_255_2_778
10
19.8241792
20
89.5791781
11
19.7357792
21
89.6741781
0
LINE
8
DEFAULT_255_2_778
10
19.7357792
20
89.6741781
11
19.6241792
21
89.7558781
0
LINE
8
DEFAULT_255_2_778
10
19.6241792
20
89.7558781
11
19.3809792
21
89.8810781
0
LINE
8
DEFAULT_255_2_778
10
19.3809792
20
89.8810781
11
19.0116792
21
90.0522781
0
LINE
8
DEFAULT_255_2_778
10
19.0116792
20
90.0522781
11
18.9131792
21
90.1226781
0
LINE
8
DEFAULT_255_2_778
10
18.9131792
20
90.1226781
11
18.8724792
21
90.1789781
0
LINE
8
DEFAULT_255_2_778
10
18.8724792
20
90.1789781
11
18.8634792
21
90.2059781
0
LINE
8
DEFAULT_255_2_778
10
18.8634792
20
90.2059781
11
18.8615792
21
90.2247781
0
LINE
8
DEFAULT_255_2_778
10
18.2358792
20
90.0966781
11
18.2371792
21
90.0572781
0
LINE
8
DEFAULT_255_2_778
10
18.2371792
20
90.0572781
11
18.2387792
21
90.0374781
0
LINE
8
DEFAULT_255_2_778
10
18.2387792
20
90.0374781
11
18.2435792
21
89.9979781
0
LINE
8
DEFAULT_255_2_778
10
18.2435792
20
89.9979781
11
18.2509792
21
89.9590781
0
LINE
8
DEFAULT_255_2_778
10
18.2509792
20
89.9590781
11
18.2609792
21
89.9207781
0
LINE
8
DEFAULT_255_2_778
10
18.2609792
20
89.9207781
11
18.2810792
21
89.8657781
0
LINE
8
DEFAULT_255_2_778
10
18.2810792
20
89.8657781
11
18.3165792
21
89.7963781
0
LINE
8
DEFAULT_255_2_778
10
18.3165792
20
89.7963781
11
18.3744792
21
89.7156781
0
LINE
8
DEFAULT_255_2_778
10
18.3744792
20
89.7156781
11
18.4657792
21
89.6262781
0
LINE
8
DEFAULT_255_2_778
10
18.4657792
20
89.6262781
11
18.5967792
21
89.5407781
0
LINE
8
DEFAULT_255_2_778
10
18.5967792
20
89.5407781
11
19.1732792
21
89.2764781
0
LINE
8
DEFAULT_255_2_778
10
19.1732792
20
89.2764781
11
19.2719792
21
89.2076781
0
LINE
8
DEFAULT_255_2_778
10
19.2719792
20
89.2076781
11
19.3121792
21
89.1526781
0
LINE
8
DEFAULT_255_2_778
10
19.3121792
20
89.1526781
11
19.3214792
21
89.1264781
0
LINE
8
DEFAULT_255_2_778
10
19.3214792
20
89.1264781
11
19.3238792
21
89.1052781
0
LINE
8
DEFAULT_255_2_778
10
18.2588792
20
88.6102781
11
18.2588792
21
89.0224781
0
LINE
8
DEFAULT_255_2_778
10
18.2588792
20
89.0224781
11
18.5546792
21
88.9364781
0
LINE
8
DEFAULT_255_2_778
10
18.5546792
20
88.9364781
11
18.8549792
21
88.9113781
0
LINE
8
DEFAULT_255_2_778
10
18.8549792
20
88.9113781
11
19.1039792
21
88.9375781
0
LINE
8
DEFAULT_255_2_778
10
19.1039792
20
88.9375781
11
19.2682792
21
89.0050781
0
LINE
8
DEFAULT_255_2_778
10
19.2682792
20
89.0050781
11
19.3124792
21
89.0576781
0
LINE
8
DEFAULT_255_2_778
10
19.3124792
20
89.0576781
11
19.3216792
21
89.0846781
0
LINE
8
DEFAULT_255_2_778
10
19.3216792
20
89.0846781
11
19.3235792
21
89.0986781
0
LINE
8
DEFAULT_255_2_778
10
18.8615792
20
90.2313781
11
18.8647792
21
90.2501781
0
LINE
8
DEFAULT_255_2_778
10
18.8647792
20
90.2501781
11
18.8774792
21
90.2792781
0
LINE
8
DEFAULT_255_2_778
10
18.8774792
20
90.2792781
11
18.9261792
21
90.3250781
0
LINE
8
DEFAULT_255_2_778
10
18.9261792
20
90.3250781
11
19.0780792
21
90.3808781
0
LINE
8
DEFAULT_255_2_778
10
19.0780792
20
90.3808781
11
19.3140792
21
90.3927781
0
LINE
8
DEFAULT_255_2_778
10
19.3140792
20
90.3927781
11
19.5894792
21
90.3451781
0
LINE
8
DEFAULT_255_2_778
10
19.5894792
20
90.3451781
11
19.7995792
21
90.2816781
0
LINE
8
DEFAULT_255_2_778
10
19.7995792
20
90.2816781
11
19.7995792
21
90.6941781
0
LINE
8
DEFAULT_255_2_778
10
19.7995792
20
90.6941781
11
19.6569792
21
90.7203781
0
LINE
8
DEFAULT_255_2_778
10
18.2681792
20
88.6036781
11
18.6210792
21
88.5300781
0
LINE
8
DEFAULT_255_2_778
10
18.6210792
20
88.5300781
11
18.9160792
21
88.5075781
0
LINE
8
DEFAULT_255_2_778
10
18.9160792
20
88.5075781
11
19.2031792
21
88.5284781
0
LINE
8
DEFAULT_255_2_778
10
19.2031792
20
88.5284781
11
19.4264792
21
88.5816781
0
LINE
8
DEFAULT_255_2_778
10
19.4264792
20
88.5816781
11
19.6180792
21
88.6650781
0
LINE
8
DEFAULT_255_2_778
10
19.6180792
20
88.6650781
11
19.7392792
21
88.7470781
0
LINE
8
DEFAULT_255_2_778
10
19.7392792
20
88.7470781
11
19.8217792
21
88.8295781
0
LINE
8
DEFAULT_255_2_778
10
19.8217792
20
88.8295781
11
19.8720792
21
88.9012781
0
LINE
8
DEFAULT_255_2_778
10
19.8720792
20
88.9012781
11
19.9019792
21
88.9597781
0
LINE
8
DEFAULT_255_2_778
10
19.9019792
20
88.9597781
11
19.9180792
21
89.0013781
0
LINE
8
DEFAULT_255_2_778
10
19.9180792
20
89.0013781
11
19.9307792
21
89.0449781
0
LINE
8
DEFAULT_255_2_778
10
19.9307792
20
89.0449781
11
19.9400792
21
89.0894781
0
LINE
8
DEFAULT_255_2_778
10
19.9400792
20
89.0894781
11
19.9434792
21
89.1119781
0
LINE
8
DEFAULT_255_2_778
10
19.9434792
20
89.1119781
11
19.9461792
21
89.1343781
0
LINE
8
DEFAULT_255_2_778
10
19.9461792
20
89.1343781
11
19.9479792
21
89.1571781
0
LINE
8
DEFAULT_255_2_778
10
19.9479792
20
89.1571781
11
19.9492792
21
89.2023781
0
LINE
8
DEFAULT_255_2_778
10
19.7109792
20
90.7097781
11
19.2492792
21
90.7737781
0
LINE
8
DEFAULT_255_2_778
10
19.2492792
20
90.7737781
11
19.0015792
21
90.7692781
0
LINE
8
DEFAULT_255_2_778
10
19.0015792
20
90.7692781
11
18.7808792
21
90.7298781
0
LINE
8
DEFAULT_255_2_778
10
18.7808792
20
90.7298781
11
18.6157792
21
90.6708781
0
LINE
8
DEFAULT_255_2_778
10
18.6157792
20
90.6708781
11
18.4670792
21
90.5827781
0
LINE
8
DEFAULT_255_2_778
10
18.4670792
20
90.5827781
11
18.3856792
21
90.5096781
0
LINE
8
DEFAULT_255_2_778
10
18.3856792
20
90.5096781
11
18.3226792
21
90.4268781
0
LINE
8
DEFAULT_255_2_778
10
18.3226792
20
90.4268781
11
18.2845792
21
90.3538781
0
LINE
8
DEFAULT_255_2_778
10
18.2845792
20
90.3538781
11
18.2631792
21
90.2948781
0
LINE
8
DEFAULT_255_2_778
10
18.2631792
20
90.2948781
11
18.2519792
21
90.2533781
0
LINE
8
DEFAULT_255_2_778
10
18.2519792
20
90.2533781
11
18.2440792
21
90.2109781
0
LINE
8
DEFAULT_255_2_778
10
18.2440792
20
90.2109781
11
18.2411792
21
90.1895781
0
LINE
8
DEFAULT_255_2_778
10
18.2411792
20
90.1895781
11
18.2387792
21
90.1681781
0
LINE
8
DEFAULT_255_2_778
10
18.2387792
20
90.1681781
11
18.2361792
21
90.1252781
0
LINE
8
DEFAULT_255_2_778
10
18.2361792
20
90.1252781
11
18.2358792
21
90.1038781
0
LINE
8
DEFAULT_255_2_778
10
32.456371
20
90.6873062
11
32.362171
21
90.7087062
0
LINE
8
DEFAULT_255_2_778
10
32.362171
20
90.7087062
11
31.904471
21
90.7688062
0
LINE
8
DEFAULT_255_2_778
10
31.904471
20
90.7688062
11
31.661571
21
90.7630062
0
LINE
8
DEFAULT_255_2_778
10
31.661571
20
90.7630062
11
31.446271
21
90.7220062
0
LINE
8
DEFAULT_255_2_778
10
31.446271
20
90.7220062
11
31.283771
21
90.6611062
0
LINE
8
DEFAULT_255_2_778
10
31.283771
20
90.6611062
11
31.135871
21
90.5712062
0
LINE
8
DEFAULT_255_2_778
10
31.135871
20
90.5712062
11
31.054071
21
90.4971062
0
LINE
8
DEFAULT_255_2_778
10
31.054071
20
90.4971062
11
30.991171
21
90.4148062
0
LINE
8
DEFAULT_255_2_778
10
30.991171
20
90.4148062
11
30.953071
21
90.3426062
0
LINE
8
DEFAULT_255_2_778
10
30.953071
20
90.3426062
11
30.931571
21
90.2849062
0
LINE
8
DEFAULT_255_2_778
10
30.931571
20
90.2849062
11
30.920771
21
90.2447062
0
LINE
8
DEFAULT_255_2_778
10
30.920771
20
90.2447062
11
30.912871
21
90.2039062
0
LINE
8
DEFAULT_255_2_778
10
30.912871
20
90.2039062
11
30.909871
21
90.1833062
0
LINE
8
DEFAULT_255_2_778
10
30.909871
20
90.1833062
11
30.907771
21
90.1626062
0
LINE
8
DEFAULT_255_2_778
10
30.907771
20
90.1626062
11
30.905171
21
90.1211062
0
LINE
8
DEFAULT_255_2_778
10
30.905171
20
90.1211062
11
30.904871
21
90.1005062
0
LINE
8
DEFAULT_255_2_778
10
30.928171
20
88.6140062
11
31.293071
21
88.5312062
0
LINE
8
DEFAULT_255_2_778
10
31.293071
20
88.5312062
11
31.622971
21
88.5098062
0
LINE
8
DEFAULT_255_2_778
10
31.622971
20
88.5098062
11
31.904471
21
88.5368062
0
LINE
8
DEFAULT_255_2_778
10
31.904471
20
88.5368062
11
32.121671
21
88.5947062
0
LINE
8
DEFAULT_255_2_778
10
32.121671
20
88.5947062
11
32.302171
21
88.6802062
0
LINE
8
DEFAULT_255_2_778
10
32.302171
20
88.6802062
11
32.416971
21
88.7651062
0
LINE
8
DEFAULT_255_2_778
10
32.416971
20
88.7651062
11
32.492171
21
88.8485062
0
LINE
8
DEFAULT_255_2_778
10
32.492171
20
88.8485062
11
32.537871
21
88.9217062
0
LINE
8
DEFAULT_255_2_778
10
32.537871
20
88.9217062
11
32.564371
21
88.9810062
0
LINE
8
DEFAULT_255_2_778
10
32.564371
20
88.9810062
11
32.578371
21
89.0233062
0
LINE
8
DEFAULT_255_2_778
10
32.578371
20
89.0233062
11
32.588971
21
89.0667062
0
LINE
8
DEFAULT_255_2_778
10
32.588971
20
89.0667062
11
32.596371
21
89.1109062
0
LINE
8
DEFAULT_255_2_778
10
32.596371
20
89.1109062
11
32.598771
21
89.1331062
0
LINE
8
DEFAULT_255_2_778
10
32.598771
20
89.1331062
11
32.600571
21
89.1554062
0
LINE
8
DEFAULT_255_2_778
10
32.600571
20
89.1554062
11
32.601971
21
89.1998062
0
LINE
8
DEFAULT_255_2_778
10
31.524571
20
90.2251062
11
31.527671
21
90.2452062
0
LINE
8
DEFAULT_255_2_778
10
31.527671
20
90.2452062
11
31.547071
21
90.2896062
0
LINE
8
DEFAULT_255_2_778
10
31.547071
20
90.2896062
11
31.602071
21
90.3404062
0
LINE
8
DEFAULT_255_2_778
10
31.602071
20
90.3404062
11
31.756571
21
90.3836062
0
LINE
8
DEFAULT_255_2_778
10
31.756571
20
90.3836062
11
32.039171
21
90.3820062
0
LINE
8
DEFAULT_255_2_778
10
32.039171
20
90.3820062
11
32.366671
21
90.3100062
0
LINE
8
DEFAULT_255_2_778
10
32.366671
20
90.3100062
11
32.450071
21
90.2814062
0
LINE
8
DEFAULT_255_2_778
10
32.450071
20
90.2814062
11
32.450071
21
90.6937062
0
LINE
8
DEFAULT_255_2_778
10
30.932171
20
88.6101062
11
30.932171
21
89.0223062
0
LINE
8
DEFAULT_255_2_778
10
30.932171
20
89.0223062
11
31.227171
21
88.9376062
0
LINE
8
DEFAULT_255_2_778
10
31.227171
20
88.9376062
11
31.525871
21
88.9138062
0
LINE
8
DEFAULT_255_2_778
10
31.525871
20
88.9138062
11
31.778571
21
88.9432062
0
LINE
8
DEFAULT_255_2_778
10
31.778571
20
88.9432062
11
31.945471
21
89.0106062
0
LINE
8
DEFAULT_255_2_778
10
31.945471
20
89.0106062
11
31.989971
21
89.0625062
0
LINE
8
DEFAULT_255_2_778
10
31.989971
20
89.0625062
11
31.999171
21
89.0887062
0
LINE
8
DEFAULT_255_2_778
10
31.999171
20
89.0887062
11
32.001371
21
89.1022062
0
LINE
8
DEFAULT_255_2_778
10
32.601971
20
89.2043062
11
32.600571
21
89.2448062
0
LINE
8
DEFAULT_255_2_778
10
32.600571
20
89.2448062
11
32.598971
21
89.2649062
0
LINE
8
DEFAULT_255_2_778
10
32.598971
20
89.2649062
11
32.593971
21
89.3051062
0
LINE
8
DEFAULT_255_2_778
10
32.593971
20
89.3051062
11
32.586571
21
89.3451062
0
LINE
8
DEFAULT_255_2_778
10
32.586571
20
89.3451062
11
32.576571
21
89.3842062
0
LINE
8
DEFAULT_255_2_778
10
32.576571
20
89.3842062
11
32.556671
21
89.4406062
0
LINE
8
DEFAULT_255_2_778
10
32.556671
20
89.4406062
11
32.521471
21
89.5112062
0
LINE
8
DEFAULT_255_2_778
10
32.521471
20
89.5112062
11
32.464371
21
89.5938062
0
LINE
8
DEFAULT_255_2_778
10
32.464371
20
89.5938062
11
32.374171
21
89.6851062
0
LINE
8
DEFAULT_255_2_778
10
32.374171
20
89.6851062
11
32.269871
21
89.7581062
0
LINE
8
DEFAULT_255_2_778
10
32.269871
20
89.7581062
11
32.042071
21
89.8737062
0
LINE
8
DEFAULT_255_2_778
10
32.042071
20
89.8737062
11
31.674571
21
90.0428062
0
LINE
8
DEFAULT_255_2_778
10
31.674571
20
90.0428062
11
31.586971
21
90.1021062
0
LINE
8
DEFAULT_255_2_778
10
31.586971
20
90.1021062
11
31.540171
21
90.1600062
0
LINE
8
DEFAULT_255_2_778
10
31.540171
20
90.1600062
11
31.529071
21
90.1862062
0
LINE
8
DEFAULT_255_2_778
10
31.529071
20
90.1862062
11
31.525071
21
90.2044062
0
LINE
8
DEFAULT_255_2_778
10
31.525071
20
90.2044062
11
31.523971
21
90.2187062
0
LINE
8
DEFAULT_255_2_778
10
30.904671
20
90.0931062
11
30.906171
21
90.0539062
0
LINE
8
DEFAULT_255_2_778
10
30.906171
20
90.0539062
11
30.907771
21
90.0343062
0
LINE
8
DEFAULT_255_2_778
10
30.907771
20
90.0343062
11
30.912871
21
89.9954062
0
LINE
8
DEFAULT_255_2_778
10
30.912871
20
89.9954062
11
30.920471
21
89.9568062
0
LINE
8
DEFAULT_255_2_778
10
30.920471
20
89.9568062
11
30.936871
21
89.9002062
0
LINE
8
DEFAULT_255_2_778
10
30.936871
20
89.9002062
11
30.967871
21
89.8290062
0
LINE
8
DEFAULT_255_2_778
10
30.967871
20
89.8290062
11
31.019971
21
89.7470062
0
LINE
8
DEFAULT_255_2_778
10
31.019971
20
89.7470062
11
31.105471
21
89.6533062
0
LINE
8
DEFAULT_255_2_778
10
31.105471
20
89.6533062
11
31.189871
21
89.5872062
0
LINE
8
DEFAULT_255_2_778
10
31.189871
20
89.5872062
11
31.387771
21
89.4803062
0
LINE
8
DEFAULT_255_2_778
10
31.387771
20
89.4803062
11
31.843871
21
89.2792062
0
LINE
8
DEFAULT_255_2_778
10
31.843871
20
89.2792062
11
31.948671
21
89.2091062
0
LINE
8
DEFAULT_255_2_778
10
31.948671
20
89.2091062
11
31.989371
21
89.1554062
0
LINE
8
DEFAULT_255_2_778
10
31.989371
20
89.1554062
11
31.998671
21
89.1297062
0
LINE
8
DEFAULT_255_2_778
10
31.998671
20
89.1297062
11
32.001071
21
89.1088062
0
LINE
8
DEFAULT_255_2_778
10
25.503971
20
89.9613062
11
25.503971
21
88.5410062
0
LINE
8
DEFAULT_255_2_778
10
25.503971
20
88.5410062
11
26.124971
21
88.5410062
0
LINE
8
DEFAULT_255_2_778
10
26.124971
20
88.5410062
11
26.124971
21
90.7169062
0
LINE
8
DEFAULT_255_2_778
10
26.124971
20
90.7169062
11
25.342771
21
90.7169062
0
LINE
8
DEFAULT_255_2_778
10
25.342771
20
90.7169062
11
24.813871
21
89.4118062
0
LINE
8
DEFAULT_255_2_778
10
24.813871
20
89.4118062
11
24.238971
21
90.7169062
0
LINE
8
DEFAULT_255_2_778
10
24.238971
20
90.7169062
11
23.456871
21
90.7169062
0
LINE
8
DEFAULT_255_2_778
10
23.456871
20
90.7169062
11
23.456871
21
88.5410062
0
LINE
8
DEFAULT_255_2_778
10
23.456871
20
88.5410062
11
23.893971
21
88.5410062
0
LINE
8
DEFAULT_255_2_778
10
23.893971
20
88.5410062
11
23.893971
21
89.9385062
0
LINE
8
DEFAULT_255_2_778
10
23.893971
20
89.9150062
11
24.491871
21
88.5183062
0
LINE
8
DEFAULT_255_2_778
10
24.491871
20
88.5183062
11
24.882971
21
88.5183062
0
LINE
8
DEFAULT_255_2_778
10
24.882971
20
88.5183062
11
25.503971
21
89.9380062
0
LINE
8
DEFAULT_255_2_778
10
107.8391334
20
62.5629
11
106.4252334
21
62.5629
0
LINE
8
DEFAULT_255_2_778
10
106.4265334
20
62.5618666
11
106.4252334
21
63.9757666
0
LINE
8
DEFAULT_255_2_778
10
106.4252334
20
63.9757666
11
107.8391334
21
63.9757666
0
LINE
8
DEFAULT_255_2_778
10
107.8391334
20
63.9757666
11
107.8378334
21
62.5618666
0
LINE
8
DEFAULT_255_2_778
10
104.8392334
20
62.5629
11
103.4253334
21
62.5629
0
LINE
8
DEFAULT_255_2_778
10
103.4266334
20
62.5618666
11
103.4253334
21
63.9757666
0
LINE
8
DEFAULT_255_2_778
10
103.4253334
20
63.9757666
11
104.8392334
21
63.9757666
0
LINE
8
DEFAULT_255_2_778
10
104.8392334
20
63.9757666
11
104.8379334
21
62.5618666
0
LINE
8
DEFAULT_255_2_778
10
101.8391334
20
62.5629
11
100.4252334
21
62.5629
0
LINE
8
DEFAULT_255_2_778
10
100.4265334
20
62.5618666
11
100.4252334
21
63.9757666
0
LINE
8
DEFAULT_255_2_778
10
100.4252334
20
63.9757666
11
101.8391334
21
63.9757666
0
LINE
8
DEFAULT_255_2_778
10
101.8391334
20
63.9757666
11
101.8378334
21
62.5618666
0
LINE
8
DEFAULT_255_2_778
10
113.8390334
20
62.5637
11
112.4251334
21
62.5637
0
LINE
8
DEFAULT_255_2_778
10
112.4264334
20
62.5626666
11
112.4251334
21
63.9765666
0
LINE
8
DEFAULT_255_2_778
10
112.4251334
20
63.9765666
11
113.8390334
21
63.9765666
0
LINE
8
DEFAULT_255_2_778
10
113.8390334
20
63.9765666
11
113.8377334
21
62.5626666
0
LINE
8
DEFAULT_255_2_778
10
116.8391334
20
62.5637
11
115.4252334
21
62.5637
0
LINE
8
DEFAULT_255_2_778
10
115.4265334
20
62.5626666
11
115.4252334
21
63.9765666
0
LINE
8
DEFAULT_255_2_778
10
115.4252334
20
63.9765666
11
116.8391334
21
63.9765666
0
LINE
8
DEFAULT_255_2_778
10
116.8391334
20
63.9765666
11
116.8378334
21
62.5626666
0
LINE
8
DEFAULT_255_2_778
10
110.8392334
20
62.5637
11
109.4253334
21
62.5637
0
LINE
8
DEFAULT_255_2_778
10
109.4266334
20
62.5626666
11
109.4253334
21
63.9765666
0
LINE
8
DEFAULT_255_2_778
10
109.4253334
20
63.9765666
11
110.8392334
21
63.9765666
0
LINE
8
DEFAULT_255_2_778
10
110.8392334
20
63.9765666
11
110.8379334
21
62.5626666
0
LINE
8
DEFAULT_255_2_778
10
122.8391334
20
62.5645
11
121.4252334
21
62.5645
0
LINE
8
DEFAULT_255_2_778
10
121.4265334
20
62.5634666
11
121.4252334
21
63.9773666
0
LINE
8
DEFAULT_255_2_778
10
121.4252334
20
63.9773666
11
122.8391334
21
63.9773666
0
LINE
8
DEFAULT_255_2_778
10
122.8391334
20
63.9773666
11
122.8378334
21
62.5634666
0
LINE
8
DEFAULT_255_2_778
10
119.8392334
20
62.5645
11
118.4253334
21
62.5645
0
LINE
8
DEFAULT_255_2_778
10
118.4266334
20
62.5634666
11
118.4253334
21
63.9773666
0
LINE
8
DEFAULT_255_2_778
10
118.4253334
20
63.9773666
11
119.8392334
21
63.9773666
0
LINE
8
DEFAULT_255_2_778
10
119.8392334
20
63.9773666
11
119.8379334
21
62.5634666
0
LINE
8
DEFAULT_255_2_778
10
131.8392334
20
62.5637
11
130.4253334
21
62.5637
0
LINE
8
DEFAULT_255_2_778
10
130.4266334
20
62.5626666
11
130.4253334
21
63.9765666
0
LINE
8
DEFAULT_255_2_778
10
130.4253334
20
63.9765666
11
131.8392334
21
63.9765666
0
LINE
8
DEFAULT_255_2_778
10
131.8392334
20
63.9765666
11
131.8379334
21
62.5626666
0
LINE
8
DEFAULT_255_2_778
10
128.8390334
20
62.5637
11
127.4251334
21
62.5637
0
LINE
8
DEFAULT_255_2_778
10
127.4264334
20
62.5626666
11
127.4251334
21
63.9765666
0
LINE
8
DEFAULT_255_2_778
10
127.4251334
20
63.9765666
11
128.8390334
21
63.9765666
0
LINE
8
DEFAULT_255_2_778
10
128.8390334
20
63.9765666
11
128.8377334
21
62.5626666
0
LINE
8
DEFAULT_255_2_778
10
134.8393334
20
62.5637
11
133.4254334
21
62.5637
0
LINE
8
DEFAULT_255_2_778
10
133.4267334
20
62.5626666
11
133.4254334
21
63.9765666
0
LINE
8
DEFAULT_255_2_778
10
133.4254334
20
63.9765666
11
134.8393334
21
63.9765666
0
LINE
8
DEFAULT_255_2_778
10
134.8393334
20
63.9765666
11
134.8380334
21
62.5626666
0
LINE
8
DEFAULT_255_2_778
10
140.8392334
20
62.5645
11
139.4253334
21
62.5645
0
LINE
8
DEFAULT_255_2_778
10
139.4266334
20
62.5634666
11
139.4253334
21
63.9773666
0
LINE
8
DEFAULT_255_2_778
10
139.4253334
20
63.9773666
11
140.8392334
21
63.9773666
0
LINE
8
DEFAULT_255_2_778
10
140.8392334
20
63.9773666
11
140.8379334
21
62.5634666
0
LINE
8
DEFAULT_255_2_778
10
143.8391334
20
62.5645
11
142.4252334
21
62.5645
0
LINE
8
DEFAULT_255_2_778
10
142.4265334
20
62.5634666
11
142.4252334
21
63.9773666
0
LINE
8
DEFAULT_255_2_778
10
142.4252334
20
63.9773666
11
143.8391334
21
63.9773666
0
LINE
8
DEFAULT_255_2_778
10
143.8391334
20
63.9773666
11
143.8378334
21
62.5634666
0
LINE
8
DEFAULT_255_2_778
10
137.8391334
20
62.5645
11
136.4252334
21
62.5645
0
LINE
8
DEFAULT_255_2_778
10
136.4265334
20
62.5634666
11
136.4252334
21
63.9773666
0
LINE
8
DEFAULT_255_2_778
10
136.4252334
20
63.9773666
11
137.8391334
21
63.9773666
0
LINE
8
DEFAULT_255_2_778
10
137.8391334
20
63.9773666
11
137.8378334
21
62.5634666
0
LINE
8
DEFAULT_255_2_778
10
99.5526587
20
60.1784239
11
99.5526587
21
57.6784239
0
LINE
8
DEFAULT_255_2_778
10
99.5526587
20
57.6784239
11
123.5027587
21
57.6784239
0
LINE
8
DEFAULT_255_2_778
10
123.5027587
20
57.6784239
11
123.5027587
21
60.1784239
0
LINE
8
DEFAULT_255_2_778
10
123.3926253
20
60.1784906
11
123.3926253
21
57.7884906
0
LINE
8
DEFAULT_255_2_778
10
123.3926253
20
57.7884906
11
99.6627253
21
57.7884906
0
LINE
8
DEFAULT_255_2_778
10
99.6627253
20
57.7884906
11
99.6627253
21
60.1784906
0
LINE
8
DEFAULT_255_2_778
10
106.3717781
20
58.7534375
11
106.5693781
21
58.7534375
0
LINE
8
DEFAULT_255_2_778
10
106.5693781
20
58.7534375
11
106.5693781
21
58.4835375
0
LINE
8
DEFAULT_255_2_778
10
106.5693781
20
58.4835375
11
106.3717781
21
58.4835375
0
LINE
8
DEFAULT_255_2_778
10
106.3717781
20
58.4835375
11
106.3717781
21
58.7534375
0
LINE
8
DEFAULT_255_2_778
10
103.5266781
20
58.7600375
11
103.7242781
21
58.7600375
0
LINE
8
DEFAULT_255_2_778
10
103.7242781
20
58.7600375
11
103.7242781
21
58.4901375
0
LINE
8
DEFAULT_255_2_778
10
103.7242781
20
58.4901375
11
103.5266781
21
58.4901375
0
LINE
8
DEFAULT_255_2_778
10
103.5266781
20
58.4901375
11
103.5266781
21
58.7600375
0
LINE
8
DEFAULT_255_2_778
10
100.3535781
20
58.7600375
11
100.5511781
21
58.7600375
0
LINE
8
DEFAULT_255_2_778
10
100.5511781
20
58.7600375
11
100.5511781
21
58.4901375
0
LINE
8
DEFAULT_255_2_778
10
100.5511781
20
58.4901375
11
100.3535781
21
58.4901375
0
LINE
8
DEFAULT_255_2_778
10
100.3535781
20
58.4901375
11
100.3535781
21
58.7600375
0
LINE
8
DEFAULT_255_2_778
10
115.3874781
20
58.7600375
11
115.5850781
21
58.7600375
0
LINE
8
DEFAULT_255_2_778
10
115.5850781
20
58.7600375
11
115.5850781
21
58.4901375
0
LINE
8
DEFAULT_255_2_778
10
115.5850781
20
58.4901375
11
115.3874781
21
58.4901375
0
LINE
8
DEFAULT_255_2_778
10
115.3874781
20
58.4901375
11
115.3874781
21
58.7600375
0
LINE
8
DEFAULT_255_2_778
10
112.3452781
20
58.7600375
11
112.5428781
21
58.7600375
0
LINE
8
DEFAULT_255_2_778
10
112.5428781
20
58.7600375
11
112.5428781
21
58.4901375
0
LINE
8
DEFAULT_255_2_778
10
112.5428781
20
58.4901375
11
112.3452781
21
58.4901375
0
LINE
8
DEFAULT_255_2_778
10
112.3452781
20
58.4901375
11
112.3452781
21
58.7600375
0
LINE
8
DEFAULT_255_2_778
10
109.3742781
20
58.7600375
11
109.5718781
21
58.7600375
0
LINE
8
DEFAULT_255_2_778
10
109.5718781
20
58.7600375
11
109.5718781
21
58.4901375
0
LINE
8
DEFAULT_255_2_778
10
109.5718781
20
58.4901375
11
109.3742781
21
58.4901375
0
LINE
8
DEFAULT_255_2_778
10
109.3742781
20
58.4901375
11
109.3742781
21
58.7600375
0
ARC
8
DEFAULT_255_2_778
10
107.4031459
20
59.694298
40
0.2235575
50
45.3075778
51
90.1992615
0
ARC
8
DEFAULT_255_2_778
10
107.3719549
20
59.6931107
40
0.2472607
50
2.8078623
51
40.3568299
0
ARC
8
DEFAULT_255_2_778
10
107.1326311
20
59.6576323
40
0.4886107
50
359.8627698
51
5.5894958
0
ARC
8
DEFAULT_255_2_778
10
107.0088221
20
59.6568383
40
0.6124185
50
357.3154258
51
359.9647966
0
ARC
8
DEFAULT_255_2_778
10
106.9849242
20
59.7551043
40
0.6481975
50
332.6577169
51
348.705556
0
ARC
8
DEFAULT_255_2_778
10
106.2705089
20
60.1092875
40
1.4455386
50
324.679976
51
333.1936614
0
ARC
8
DEFAULT_255_2_778
10
105.1813128
20
60.8696456
40
2.7738637
50
319.5839278
51
324.8722316
0
ARC
8
DEFAULT_255_2_778
10
103.6446827
20
62.1693245
40
4.786417
50
316.0203269
51
319.6644873
0
ARC
8
DEFAULT_255_2_778
10
102.5375089
20
63.2159541
40
6.3099264
50
315.7297955
51
316.162748
0
ARC
8
DEFAULT_255_2_778
10
104.0733623
20
61.9323134
40
4.4750928
50
313.129686
51
318.312145
0
ARC
8
DEFAULT_255_2_778
10
106.471198
20
59.9791528
40
1.3921206
50
312.6994616
51
328.2607927
0
ARC
8
DEFAULT_255_2_778
10
106.7894612
20
59.7789017
40
1.0161145
50
328.4232023
51
349.197318
0
ARC
8
DEFAULT_255_2_778
10
106.9882127
20
59.7084153
40
0.808307
50
351.4651839
51
357.0101037
0
ARC
8
DEFAULT_255_2_778
10
107.1291377
20
59.6999139
40
0.6671313
50
357.1079436
51
359.9715947
0
ARC
8
DEFAULT_255_2_778
10
107.3624638
20
59.7112144
40
0.4339611
50
358.4641404
51
26.0452172
0
ARC
8
DEFAULT_255_2_778
10
107.4355679
20
59.7301229
40
0.3602956
50
28.4488308
51
71.0077522
0
ARC
8
DEFAULT_255_2_778
10
107.3225546
20
59.466463
40
0.6467243
50
69.1420296
51
79.4497472
0
ARC
8
DEFAULT_255_2_778
10
107.4284869
20
59.4505712
40
0.6518025
50
88.9027642
51
107.4187644
0
ARC
8
DEFAULT_255_2_778
10
107.3420782
20
59.7321123
40
0.35731
50
107.7128498
51
176.0396304
0
ARC
8
DEFAULT_255_2_778
10
107.7028555
20
59.6573615
40
0.7240932
50
172.107485
51
180.2379648
0
ARC
8
DEFAULT_255_2_778
10
107.6677053
20
59.5471869
40
0.545566
50
151.8872104
51
168.6715428
0
ARC
8
DEFAULT_255_2_778
10
107.3690071
20
59.7183404
40
0.2017173
50
89.9792972
51
154.7890242
0
ARC
8
DEFAULT_255_2_778
10
107.3685228
20
59.6590815
40
0.2609767
50
82.5484147
51
89.8776851
0
LINE
8
DEFAULT_255_2_778
10
107.0557685
20
58.8113541
11
106.9144685
21
58.6795541
0
LINE
8
DEFAULT_255_2_778
10
106.9144685
20
58.6795541
11
106.9144685
21
58.4819541
0
LINE
8
DEFAULT_255_2_778
10
106.9144685
20
58.4819541
11
107.8259685
21
58.4819541
0
LINE
8
DEFAULT_255_2_778
10
107.8259685
20
58.4819541
11
107.8259685
21
58.6663541
0
LINE
8
DEFAULT_255_2_778
10
107.8259685
20
58.6663541
11
107.1327685
21
58.6663541
0
LINE
8
DEFAULT_255_2_778
10
106.9787685
20
59.6543541
11
107.1327685
21
59.6543541
0
LINE
8
DEFAULT_255_2_778
10
107.4023685
20
59.9178541
11
107.4023685
21
59.9178541
0
ARC
8
DEFAULT_255_2_778
10
110.5878185
20
59.6266003
40
0.6746842
50
156.9934273
51
174.8720338
0
ARC
8
DEFAULT_255_2_778
10
110.3106178
20
59.7439477
40
0.3736685
50
89.9846319
51
156.9433537
0
ARC
8
DEFAULT_255_2_778
10
110.3536142
20
59.4593619
40
0.6596506
50
89.9538844
51
93.7284935
0
ARC
8
DEFAULT_255_2_778
10
110.3532654
20
59.3395837
40
0.7794291
50
85.8202004
51
89.9353321
0
ARC
8
DEFAULT_255_2_778
10
110.3425429
20
59.1794745
40
0.9398945
50
85.7660364
51
85.8796848
0
ARC
8
DEFAULT_255_2_778
10
110.3418611
20
59.6253234
40
0.4964508
50
58.4266191
51
81.8856502
0
ARC
8
DEFAULT_255_2_778
10
110.4066538
20
59.7530501
40
0.353899
50
5.207457
51
56.5361106
0
ARC
8
DEFAULT_255_2_778
10
110.1384827
20
59.7006032
40
0.6263448
50
359.7975934
51
7.759638
0
ARC
8
DEFAULT_255_2_778
10
109.9398858
20
59.6997961
40
0.824939
50
355.0404432
51
359.9023813
0
ARC
8
DEFAULT_255_2_778
10
109.7979723
20
59.7106873
40
0.9672637
50
353.6677326
51
355.1244575
0
ARC
8
DEFAULT_255_2_778
10
110.4158028
20
59.6360429
40
0.3450227
50
295.3950559
51
354.6717932
0
ARC
8
DEFAULT_255_2_778
10
110.299531
20
59.8025062
40
0.5463023
50
298.5872438
51
298.9262448
0
ARC
8
DEFAULT_255_2_778
10
110.4032394
20
58.9391845
40
0.414767
50
36.3075962
51
67.6538004
0
ARC
8
DEFAULT_255_2_778
10
110.4102039
20
58.9647971
40
0.3943349
50
358.6631946
51
33.9071529
0
ARC
8
DEFAULT_255_2_778
10
110.241115
20
58.9513251
40
0.5633328
50
359.9968033
51
0.4345406
0
ARC
8
DEFAULT_255_2_778
10
110.1416374
20
58.9537201
40
0.6628149
50
351.8088686
51
359.7902504
0
ARC
8
DEFAULT_255_2_778
10
109.9869373
20
58.9733563
40
0.8187386
50
349.6814942
51
351.9911745
0
ARC
8
DEFAULT_255_2_778
10
110.2067103
20
58.9729
40
0.6036939
50
326.2443016
51
345.985387
0
ARC
8
DEFAULT_255_2_778
10
110.3820044
20
58.8637965
40
0.3973846
50
269.3703575
51
325.2793265
0
ARC
8
DEFAULT_255_2_778
10
110.3541694
20
59.0889319
40
0.6229383
50
269.9870986
51
272.1590295
0
ARC
8
DEFAULT_255_2_778
10
110.3561787
20
59.2086247
40
0.742634
50
262.8746071
51
269.8341563
0
ARC
8
DEFAULT_255_2_778
10
110.376751
20
59.3888662
40
0.9240374
50
259.8451429
51
262.9951412
0
ARC
8
DEFAULT_255_2_778
10
110.3219192
20
58.8299335
40
0.3669107
50
208.8219993
51
252.8676522
0
ARC
8
DEFAULT_255_2_778
10
110.679772
20
59.0510834
40
0.7873339
50
195.0839282
51
210.3676367
0
ARC
8
DEFAULT_255_2_778
10
111.139479
20
59.1930117
40
1.268256
50
192.1719894
51
195.8703458
0
ARC
8
DEFAULT_255_2_778
10
110.6137123
20
59.1059811
40
0.5774715
50
198.201326
51
217.1790079
0
ARC
8
DEFAULT_255_2_778
10
110.376663
20
58.9215838
40
0.2771938
50
216.4207882
51
270.5729193
0
ARC
8
DEFAULT_255_2_778
10
110.3064613
20
59.0959562
40
0.4574108
50
279.1799468
51
297.1128697
0
ARC
8
DEFAULT_255_2_778
10
110.4177379
20
58.8863753
40
0.2201752
50
296.1934446
51
2.6406319
0
ARC
8
DEFAULT_255_2_778
10
110.2198941
20
58.8925662
40
0.4178041
50
0.542094
51
12.9565253
0
ARC
8
DEFAULT_255_2_778
10
109.960142
20
58.8351468
40
0.683821
50
12.765325
51
20.7046163
0
ARC
8
DEFAULT_255_2_778
10
109.766687
20
58.7668382
40
0.8889437
50
20.4146292
51
21.3661361
0
ARC
8
DEFAULT_255_2_778
10
110.29325
20
58.9018776
40
0.3555669
50
32.0768917
51
58.9754147
0
ARC
8
DEFAULT_255_2_778
10
110.3515899
20
58.986541
40
0.2530261
50
60.4153161
51
90.4245401
0
ARC
8
DEFAULT_255_2_778
10
110.352935
20
58.8972024
40
0.3423729
50
90.538862
51
106.7644632
0
ARC
8
DEFAULT_255_2_778
10
110.3756164
20
58.807142
40
0.4351685
50
106.2036451
51
107.1309507
0
ARC
8
DEFAULT_255_2_778
10
110.2600485
20
59.8708666
40
0.4662334
50
268.4496909
51
290.9670043
0
ARC
8
DEFAULT_255_2_778
10
110.3227854
20
59.6834135
40
0.268877
50
292.7772174
51
357.9493847
0
ARC
8
DEFAULT_255_2_778
10
110.0509081
20
59.7340369
40
0.5439287
50
353.6409813
51
0.1545223
0
ARC
8
DEFAULT_255_2_778
10
110.2859399
20
59.6529398
40
0.3197386
50
14.9646751
51
44.4985556
0
ARC
8
DEFAULT_255_2_778
10
110.3654463
20
59.7167871
40
0.2185167
50
47.1700995
51
92.0303192
0
ARC
8
DEFAULT_255_2_778
10
110.3580646
20
59.6016632
40
0.3335037
50
90.0618417
51
94.7867276
0
ARC
8
DEFAULT_255_2_778
10
110.3279679
20
59.7101968
40
0.2238185
50
89.4197231
51
171.4410252
0
ARC
8
DEFAULT_255_2_778
10
110.5241123
20
59.6569068
40
0.426358
50
168.2807396
51
176.1137167
0
LINE
8
DEFAULT_255_2_778
10
110.0987347
20
59.6858039
11
109.9169347
21
59.6858039
0
LINE
8
DEFAULT_255_2_778
10
109.8997347
20
58.9256039
11
110.0651347
21
58.9256039
0
LINE
8
DEFAULT_255_2_778
10
110.2474347
20
59.2230039
11
110.2474347
21
59.4048039
0
LINE
8
DEFAULT_255_2_778
10
109.9169347
20
59.6858039
11
109.9158347
21
59.6869039
0
ARC
8
DEFAULT_255_2_778
10
116.4978919
20
59.0717768
40
0.3587293
50
142.135688
51
165.7813584
0
ARC
8
DEFAULT_255_2_778
10
116.3619769
20
59.1734561
40
0.189045
50
88.4218431
51
141.1805581
0
ARC
8
DEFAULT_255_2_778
10
116.3659711
20
59.0731885
40
0.2892435
50
80.2906501
51
89.7598694
0
ARC
8
DEFAULT_255_2_778
10
116.4173694
20
59.1822101
40
0.1760982
50
9.8902782
51
90.8515954
0
ARC
8
DEFAULT_255_2_778
10
116.0091093
20
59.0507184
40
0.6038066
50
0.3853534
51
15.5372696
0
ARC
8
DEFAULT_255_2_778
10
115.5790856
20
59.0278668
40
1.0341667
50
359.9846036
51
1.4912028
0
ARC
8
DEFAULT_255_2_778
10
115.8770813
20
59.015371
40
0.7362722
50
347.1786851
51
0.9508222
0
ARC
8
DEFAULT_255_2_778
10
116.3294396
20
58.9047003
40
0.270738
50
314.7178678
51
348.7720017
0
ARC
8
DEFAULT_255_2_778
10
116.3897634
20
58.8619547
40
0.1983316
50
267.6560879
51
311.0209069
0
ARC
8
DEFAULT_255_2_778
10
116.3688673
20
58.9279025
40
0.2644229
50
239.4519628
51
272.7713144
0
ARC
8
DEFAULT_255_2_778
10
116.349498
20
58.8609808
40
0.1977062
50
180.9618899
51
234.4224384
0
ARC
8
DEFAULT_255_2_778
10
116.5578723
20
58.8945061
40
0.4077209
50
179.8899978
51
185.1846891
0
LINE
8
DEFAULT_255_2_778
10
116.1501521
20
58.8952889
11
115.9517521
21
58.8952889
0
ARC
8
DEFAULT_255_2_778
10
116.7142835
20
58.9922404
40
0.7686701
50
187.2459548
51
202.853583
0
ARC
8
DEFAULT_255_2_778
10
116.3398829
20
58.8212162
40
0.3574458
50
200.8992246
51
269.3234855
0
ARC
8
DEFAULT_255_2_778
10
116.3631822
20
59.0026666
40
0.5395735
50
267.0764949
51
270.0234551
0
ARC
8
DEFAULT_255_2_778
10
116.362621
20
59.0829938
40
0.619901
50
270.0722838
51
274.8240354
0
ARC
8
DEFAULT_255_2_778
10
116.345514
20
58.8959218
40
0.4361636
50
279.1339706
51
344.534294
0
ARC
8
DEFAULT_255_2_778
10
115.8630428
20
59.0734104
40
0.9494415
50
341.9744198
51
356.1730823
0
ARC
8
DEFAULT_255_2_778
10
115.4627429
20
59.1175385
40
1.3519049
50
355.4393274
51
356.1849796
0
ARC
8
DEFAULT_255_2_778
10
115.6129351
20
58.964937
40
1.2003531
50
2.9918866
51
13.5680606
0
ARC
8
DEFAULT_255_2_778
10
116.2437348
20
59.1234801
40
0.5499979
50
12.9291741
51
33.3555717
0
ARC
8
DEFAULT_255_2_778
10
116.4589556
20
59.2638454
40
0.2930539
50
33.569084
51
92.1713994
0
ARC
8
DEFAULT_255_2_778
10
116.4351855
20
59.1492072
40
0.4076785
50
88.2195263
51
113.408561
0
ARC
8
DEFAULT_255_2_778
10
116.3731497
20
59.3067566
40
0.2385174
50
114.7688079
51
159.2171894
0
ARC
8
DEFAULT_255_2_778
10
116.1504248
20
59.3916214
40
0.0003584
50
220.4534909
51
266.1060739
0
ARC
8
DEFAULT_255_2_778
10
116.0835652
20
59.4122275
40
0.0700459
50
342.5852496
51
3.2475164
0
ARC
8
DEFAULT_255_2_778
10
114.0405261
20
59.5180951
40
2.1154284
50
357.2390114
51
358.9841938
0
ARC
8
DEFAULT_255_2_778
10
106.4441831
20
59.675261
40
9.7133899
50
358.851643
51
359.5593237
0
ARC
8
DEFAULT_255_2_778
10
90.2181804
20
59.8196562
40
25.9400306
50
359.5160451
51
359.8217431
0
ARC
8
DEFAULT_255_2_778
10
65.1324364
20
59.9041009
40
51.0259164
50
359.8145585
51
0.0091941
0
LINE
8
DEFAULT_255_2_778
10
116.7372521
20
60.0858889
11
115.9848521
21
60.0858889
0
LINE
8
DEFAULT_255_2_778
10
115.9848521
20
60.0858889
11
115.9848521
21
59.1598889
0
LINE
8
DEFAULT_255_2_778
10
115.9848521
20
59.1598889
11
116.1501521
21
59.1598889
0
LINE
8
DEFAULT_255_2_778
10
116.1583521
20
59.9122889
11
116.7372521
21
59.9122889
0
LINE
8
DEFAULT_255_2_778
10
116.7372521
20
59.9122889
11
116.7372521
21
60.0858889
0
LINE
8
DEFAULT_255_2_778
10
116.7372521
20
60.0858889
11
116.7372521
21
60.0858889
0
LINE
8
DEFAULT_255_2_778
10
121.934325
20
60.0903677
11
122.804225
21
60.0903677
0
LINE
8
DEFAULT_255_2_778
10
122.804225
20
60.0903677
11
122.804225
21
59.8942677
0
LINE
8
DEFAULT_255_2_778
10
122.804225
20
59.8942677
11
122.313425
21
58.4904677
0
LINE
8
DEFAULT_255_2_778
10
122.313425
20
58.4904677
11
122.107625
21
58.4904677
0
LINE
8
DEFAULT_255_2_778
10
122.107625
20
58.4904677
11
122.623825
21
59.9112677
0
LINE
8
DEFAULT_255_2_778
10
122.623825
20
59.9112677
11
121.934325
21
59.9112677
0
LINE
8
DEFAULT_255_2_778
10
121.934325
20
59.9112677
11
121.934325
21
60.0903677
0
LINE
8
DEFAULT_255_2_778
10
121.38375
20
58.4904375
11
121.58135
21
58.4904375
0
LINE
8
DEFAULT_255_2_778
10
121.58135
20
58.4904375
11
121.58135
21
58.7603375
0
LINE
8
DEFAULT_255_2_778
10
121.58135
20
58.7603375
11
121.38375
21
58.7603375
0
LINE
8
DEFAULT_255_2_778
10
121.38375
20
58.7603375
11
121.38375
21
58.4904375
0
LINE
8
DEFAULT_255_2_778
10
118.36825
20
58.4904375
11
118.56585
21
58.4904375
0
LINE
8
DEFAULT_255_2_778
10
118.56585
20
58.4904375
11
118.56585
21
58.7603375
0
LINE
8
DEFAULT_255_2_778
10
118.56585
20
58.7603375
11
118.36825
21
58.7603375
0
LINE
8
DEFAULT_255_2_778
10
118.36825
20
58.7603375
11
118.36825
21
58.4904375
0
LINE
8
DEFAULT_255_2_778
10
104.5066781
20
60.0704698
11
104.2603781
21
59.8622698
0
LINE
8
DEFAULT_255_2_778
10
104.2603781
20
59.8622698
11
104.2087781
21
59.8349698
0
LINE
8
DEFAULT_255_2_778
10
104.2087781
20
59.8349698
11
104.2087781
21
59.6354698
0
LINE
8
DEFAULT_255_2_778
10
104.2219781
20
59.6421698
11
104.4614781
21
59.8061698
0
LINE
8
DEFAULT_255_2_778
10
104.4614781
20
59.8061698
11
104.4889781
21
59.8339698
0
LINE
8
DEFAULT_255_2_778
10
104.4889781
20
59.8339698
11
104.4889781
21
58.4901698
0
LINE
8
DEFAULT_255_2_778
10
104.4889781
20
58.4901698
11
104.6603781
21
58.4901698
0
LINE
8
DEFAULT_255_2_778
10
104.6603781
20
58.4901698
11
104.6603781
21
60.0810698
0
LINE
8
DEFAULT_255_2_778
10
104.6603781
20
60.0810698
11
104.5154781
21
60.0810698
0
LINE
8
DEFAULT_255_2_778
10
112.9747042
20
59.0650677
11
113.4200042
21
59.0650677
0
LINE
8
DEFAULT_255_2_778
10
113.4200042
20
59.0650677
11
113.4200042
21
59.8622677
0
LINE
8
DEFAULT_255_2_778
10
113.4200042
20
59.8622677
11
112.9747042
21
59.0650677
0
LINE
8
DEFAULT_255_2_778
10
113.3975042
20
60.0900677
11
113.5999042
21
60.0900677
0
LINE
8
DEFAULT_255_2_778
10
113.5999042
20
60.0900677
11
113.5999042
21
59.0650677
0
LINE
8
DEFAULT_255_2_778
10
113.5999042
20
59.0650677
11
113.8420042
21
59.0650677
0
LINE
8
DEFAULT_255_2_778
10
113.8420042
20
59.0650677
11
113.8420042
21
58.8904677
0
LINE
8
DEFAULT_255_2_778
10
113.8420042
20
58.8904677
11
113.5999042
21
58.8904677
0
LINE
8
DEFAULT_255_2_778
10
113.5999042
20
58.8904677
11
113.5999042
21
58.4901677
0
LINE
8
DEFAULT_255_2_778
10
113.5999042
20
58.4901677
11
113.4284042
21
58.4901677
0
LINE
8
DEFAULT_255_2_778
10
113.4284042
20
58.4901677
11
113.4284042
21
58.8904677
0
LINE
8
DEFAULT_255_2_778
10
113.4284042
20
58.8904677
11
112.8334042
21
58.8904677
0
LINE
8
DEFAULT_255_2_778
10
112.8334042
20
58.8904677
11
112.8334042
21
59.0833677
0
LINE
8
DEFAULT_255_2_778
10
112.8334042
20
59.0833677
11
113.3975042
21
60.0900677
0
ARC
8
DEFAULT_255_2_778
10
99.718936
20
59.2838323
40
1.9395762
50
359.6354686
51
6.8546503
0
ARC
8
DEFAULT_255_2_778
10
100.7005618
20
59.4070744
40
0.9502721
50
6.5409308
51
18.8058806
0
ARC
8
DEFAULT_255_2_778
10
101.2111474
20
59.5880566
40
0.408657
50
17.8627073
51
43.9977884
0
ARC
8
DEFAULT_255_2_778
10
101.3242154
20
59.6859477
40
0.2594487
50
45.7914749
51
91.6217143
0
ARC
8
DEFAULT_255_2_778
10
101.2869075
20
59.7024418
40
0.2446922
50
82.9658127
51
89.9056457
0
ARC
8
DEFAULT_255_2_778
10
101.2907004
20
59.7360949
40
0.2110659
50
90.9202543
51
153.8266201
0
ARC
8
DEFAULT_255_2_778
10
101.6187808
20
59.5350338
40
0.5952654
50
150.3852234
51
166.1757034
0
ARC
8
DEFAULT_255_2_778
10
102.330733
20
59.3464559
40
1.3317178
50
165.6164788
51
173.829193
0
ARC
8
DEFAULT_255_2_778
10
103.5600637
20
59.2062107
40
2.5690114
50
173.6666414
51
178.9632793
0
ARC
8
DEFAULT_255_2_778
10
103.1324204
20
59.2930362
40
2.1413275
50
181.0795507
51
187.3071228
0
ARC
8
DEFAULT_255_2_778
10
102.0422829
20
59.1482406
40
1.041639
50
187.0338915
51
197.5215129
0
ARC
8
DEFAULT_255_2_778
10
101.4629539
20
58.9589822
40
0.4322523
50
196.7178818
51
218.0606576
0
ARC
8
DEFAULT_255_2_778
10
101.2827993
20
58.8174626
40
0.2031602
50
217.9585244
51
270.6515051
0
ARC
8
DEFAULT_255_2_778
10
101.2846476
20
58.8779152
40
0.2636
50
270.1003717
51
277.0220325
0
ARC
8
DEFAULT_255_2_778
10
101.3201451
20
58.8961331
40
0.2798599
50
269.3300766
51
340.1724169
0
ARC
8
DEFAULT_255_2_778
10
100.8978056
20
59.1014645
40
0.7484743
50
336.3493337
51
351.1104551
0
ARC
8
DEFAULT_255_2_778
10
100.0865505
20
59.2399797
40
1.5714315
50
350.691588
51
358.9701419
0
ARC
8
DEFAULT_255_2_778
10
99.3169366
20
59.270794
40
2.3415365
50
358.55473
51
0.0170869
0
ARC
8
DEFAULT_255_2_778
10
99.9518139
20
59.3026819
40
1.8694007
50
359.6172
51
7.9480884
0
ARC
8
DEFAULT_255_2_778
10
100.8156697
20
59.4284969
40
0.9964596
50
7.6516205
51
21.5173441
0
ARC
8
DEFAULT_255_2_778
10
101.2738896
20
59.6166875
40
0.5011984
50
20.7162068
51
50.6745514
0
ARC
8
DEFAULT_255_2_778
10
101.3195171
20
59.6418035
40
0.4532688
50
53.1249101
51
90.9965548
0
ARC
8
DEFAULT_255_2_778
10
101.3007891
20
59.431369
40
0.6637233
50
89.063801
51
90.0014
0
ARC
8
DEFAULT_255_2_778
10
101.3297723
20
59.6545597
40
0.4414861
50
93.7662283
51
158.7665532
0
ARC
8
DEFAULT_255_2_778
10
101.8097649
20
59.4188637
40
0.9753336
50
156.0717067
51
170.1628432
0
ARC
8
DEFAULT_255_2_778
10
102.6437193
20
59.2645411
40
1.8234175
50
169.8620142
51
178.3031815
0
ARC
8
DEFAULT_255_2_778
10
103.2723415
20
59.2293914
40
2.4528606
50
177.917284
51
178.1402949
0
ARC
8
DEFAULT_255_2_778
10
103.2550502
20
59.364955
40
2.4349205
50
181.3169659
51
187.5764641
0
ARC
8
DEFAULT_255_2_778
10
102.1891553
20
59.2188855
40
1.3590784
50
187.3970036
51
197.1346096
0
ARC
8
DEFAULT_255_2_778
10
101.5495251
20
59.0157716
40
0.6880203
50
196.6638935
51
214.445034
0
ARC
8
DEFAULT_255_2_778
10
101.2843785
20
58.8289253
40
0.3637022
50
213.7966981
51
271.5205915
0
ARC
8
DEFAULT_255_2_778
10
101.2936083
20
58.9764053
40
0.5110544
50
270.047258
51
274.4513906
0
ARC
8
DEFAULT_255_2_778
10
101.3494174
20
58.8687142
40
0.4021461
50
267.6992023
51
334.9560392
0
ARC
8
DEFAULT_255_2_778
10
100.9687106
20
59.0742968
40
0.8344634
50
333.2326369
51
348.8384702
0
ARC
8
DEFAULT_255_2_778
10
100.2153997
20
59.2338097
40
1.6044389
50
348.457323
51
357.3668239
0
ARC
8
DEFAULT_255_2_778
10
99.3710673
20
59.2877986
40
2.4504069
50
357.0127667
51
0.0629846
0
LINE
8
DEFAULT_255_2_778
10
101.6584729
20
59.2714923
11
101.6584729
21
59.2714923
0
LINE
8
DEFAULT_255_2_778
10
101.8214729
20
59.2904923
11
101.8211729
21
59.2901923
0
LINE
8
DEFAULT_255_2_778
10
100.0133136
20
55.4786677
11
100.1993136
21
55.5056677
0
LINE
8
DEFAULT_255_2_778
10
100.1993136
20
55.5056677
11
100.3136136
21
55.5537677
0
LINE
8
DEFAULT_255_2_778
10
100.3136136
20
55.5537677
11
100.3922136
21
55.6124677
0
LINE
8
DEFAULT_255_2_778
10
100.3922136
20
55.6124677
11
100.4573136
21
55.6857677
0
LINE
8
DEFAULT_255_2_778
10
100.4573136
20
55.6857677
11
100.5094136
21
55.7696677
0
LINE
8
DEFAULT_255_2_778
10
100.5094136
20
55.7696677
11
100.5343136
21
55.8233677
0
LINE
8
DEFAULT_255_2_778
10
100.5343136
20
55.8233677
11
100.5546136
21
55.8784677
0
LINE
8
DEFAULT_255_2_778
10
100.5546136
20
55.8784677
11
100.5705136
21
55.9344677
0
LINE
8
DEFAULT_255_2_778
10
100.5705136
20
55.9344677
11
100.5824136
21
55.9916677
0
LINE
8
DEFAULT_255_2_778
10
100.5824136
20
55.9916677
11
100.5872136
21
56.0204677
0
LINE
8
DEFAULT_255_2_778
10
100.5872136
20
56.0204677
11
100.5888136
21
56.4880677
0
LINE
8
DEFAULT_255_2_778
10
100.5888136
20
56.4880677
11
100.5795136
21
56.5451677
0
LINE
8
DEFAULT_255_2_778
10
100.5795136
20
56.5451677
11
100.5671136
21
56.6017677
0
LINE
8
DEFAULT_255_2_778
10
100.5671136
20
56.6017677
11
100.5509136
21
56.6575677
0
LINE
8
DEFAULT_255_2_778
10
100.5509136
20
56.6575677
11
100.5224136
21
56.7314677
0
LINE
8
DEFAULT_255_2_778
10
100.5224136
20
56.7314677
11
100.4837136
21
56.8057677
0
LINE
8
DEFAULT_255_2_778
10
100.4837136
20
56.8057677
11
100.4231136
21
56.8909677
0
LINE
8
DEFAULT_255_2_778
10
100.4231136
20
56.8909677
11
100.3491136
21
56.9629677
0
LINE
8
DEFAULT_255_2_778
10
100.3491136
20
56.9629677
11
100.2432136
21
57.0256677
0
LINE
8
DEFAULT_255_2_778
10
100.2432136
20
57.0256677
11
100.0617136
21
57.0724677
0
LINE
8
DEFAULT_255_2_778
10
100.0617136
20
57.0724677
11
99.9580136
21
57.0785677
0
LINE
8
DEFAULT_255_2_778
10
99.9580136
20
57.0785677
11
99.5524136
21
57.0785677
0
LINE
8
DEFAULT_255_2_778
10
99.5524136
20
57.0785677
11
99.5524136
21
55.4786677
0
LINE
8
DEFAULT_255_2_778
10
99.5524136
20
55.4786677
11
99.9924136
21
55.4786677
0
LINE
8
DEFAULT_255_2_778
10
99.9582802
20
56.8967958
11
99.7277802
21
56.8967958
0
LINE
8
DEFAULT_255_2_778
10
99.7277802
20
56.8967958
11
99.7277802
21
55.6595958
0
LINE
8
DEFAULT_255_2_778
10
99.7277802
20
55.6595958
11
100.0838802
21
55.6664958
0
LINE
8
DEFAULT_255_2_778
10
100.0838802
20
55.6664958
11
100.2156802
21
55.7116958
0
LINE
8
DEFAULT_255_2_778
10
100.2156802
20
55.7116958
11
100.2928802
21
55.7733958
0
LINE
8
DEFAULT_255_2_778
10
100.2928802
20
55.7733958
11
100.3354802
21
55.8296958
0
LINE
8
DEFAULT_255_2_778
10
100.3354802
20
55.8296958
11
100.3683802
21
55.8950958
0
LINE
8
DEFAULT_255_2_778
10
100.3683802
20
55.8950958
11
100.3865802
21
55.9468958
0
LINE
8
DEFAULT_255_2_778
10
100.3865802
20
55.9468958
11
100.4029802
21
56.0114958
0
LINE
8
DEFAULT_255_2_778
10
100.4029802
20
56.0114958
11
100.4109802
21
56.0551958
0
LINE
8
DEFAULT_255_2_778
10
100.4109802
20
56.0551958
11
100.4169802
21
56.0990958
0
LINE
8
DEFAULT_255_2_778
10
100.4169802
20
56.0990958
11
100.4159802
21
56.4697958
0
LINE
8
DEFAULT_255_2_778
10
100.4159802
20
56.4697958
11
100.4079802
21
56.5149958
0
LINE
8
DEFAULT_255_2_778
10
100.4079802
20
56.5149958
11
100.3971802
21
56.5596958
0
LINE
8
DEFAULT_255_2_778
10
100.3971802
20
56.5596958
11
100.3830802
21
56.6035958
0
LINE
8
DEFAULT_255_2_778
10
100.3830802
20
56.6035958
11
100.3484802
21
56.6811958
0
LINE
8
DEFAULT_255_2_778
10
100.3484802
20
56.6811958
11
100.2968802
21
56.7578958
0
LINE
8
DEFAULT_255_2_778
10
100.2968802
20
56.7578958
11
100.2185802
21
56.8290958
0
LINE
8
DEFAULT_255_2_778
10
100.2185802
20
56.8290958
11
100.1016802
21
56.8795958
0
LINE
8
DEFAULT_255_2_778
10
100.1016802
20
56.8795958
11
99.9737802
21
56.8967958
0
LINE
8
DEFAULT_255_2_778
10
100.8906229
20
57.0783677
11
101.0658229
21
57.0783677
0
LINE
8
DEFAULT_255_2_778
10
101.0658229
20
57.0783677
11
101.0658229
21
55.4784677
0
LINE
8
DEFAULT_255_2_778
10
101.0658229
20
55.4784677
11
100.8906229
21
55.4784677
0
LINE
8
DEFAULT_255_2_778
10
100.8906229
20
55.4784677
11
100.8906229
21
57.0783677
0
LINE
8
DEFAULT_255_2_778
10
99.9582802
20
56.8967958
11
99.7277802
21
56.8967958
0
LINE
8
DEFAULT_255_2_778
10
99.7277802
20
56.8967958
11
99.7277802
21
55.6595958
0
LINE
8
DEFAULT_255_2_778
10
99.7277802
20
55.6595958
11
100.0838802
21
55.6664958
0
LINE
8
DEFAULT_255_2_778
10
100.0838802
20
55.6664958
11
100.2156802
21
55.7116958
0
LINE
8
DEFAULT_255_2_778
10
100.2156802
20
55.7116958
11
100.2928802
21
55.7733958
0
LINE
8
DEFAULT_255_2_778
10
100.2928802
20
55.7733958
11
100.3354802
21
55.8296958
0
LINE
8
DEFAULT_255_2_778
10
100.3354802
20
55.8296958
11
100.3683802
21
55.8950958
0
LINE
8
DEFAULT_255_2_778
10
100.3683802
20
55.8950958
11
100.3865802
21
55.9468958
0
LINE
8
DEFAULT_255_2_778
10
100.3865802
20
55.9468958
11
100.4029802
21
56.0114958
0
LINE
8
DEFAULT_255_2_778
10
100.4029802
20
56.0114958
11
100.4109802
21
56.0551958
0
LINE
8
DEFAULT_255_2_778
10
100.4109802
20
56.0551958
11
100.4169802
21
56.0990958
0
LINE
8
DEFAULT_255_2_778
10
100.4169802
20
56.0990958
11
100.4159802
21
56.4697958
0
LINE
8
DEFAULT_255_2_778
10
100.4159802
20
56.4697958
11
100.4079802
21
56.5149958
0
LINE
8
DEFAULT_255_2_778
10
100.4079802
20
56.5149958
11
100.3971802
21
56.5596958
0
LINE
8
DEFAULT_255_2_778
10
100.3971802
20
56.5596958
11
100.3830802
21
56.6035958
0
LINE
8
DEFAULT_255_2_778
10
100.3830802
20
56.6035958
11
100.3484802
21
56.6811958
0
LINE
8
DEFAULT_255_2_778
10
100.3484802
20
56.6811958
11
100.2968802
21
56.7578958
0
LINE
8
DEFAULT_255_2_778
10
100.2968802
20
56.7578958
11
100.2185802
21
56.8290958
0
LINE
8
DEFAULT_255_2_778
10
100.2185802
20
56.8290958
11
100.1016802
21
56.8795958
0
LINE
8
DEFAULT_255_2_778
10
100.1016802
20
56.8795958
11
99.9737802
21
56.8967958
0
ARC
8
DEFAULT_255_2_778
10
102.3248309
20
56.3033334
40
0.330092
50
143.1135385
51
179.3614695
0
ARC
8
DEFAULT_255_2_778
10
102.3004572
20
56.2957662
40
0.3158173
50
99.8011623
51
139.3586628
0
ARC
8
DEFAULT_255_2_778
10
102.3845647
20
55.9435893
40
0.6775597
50
89.4000446
51
101.740446
0
ARC
8
DEFAULT_255_2_778
10
102.388233
20
56.2915625
40
0.3295673
50
47.7725444
51
89.4043029
0
ARC
8
DEFAULT_255_2_778
10
102.3466661
20
56.2785791
40
0.3677791
50
11.194243
51
44.3347685
0
ARC
8
DEFAULT_255_2_778
10
102.0406874
20
56.1951549
40
0.6844999
50
5.2100135
51
13.0725431
0
ARC
8
DEFAULT_255_2_778
10
103.1065729
20
55.5846508
40
0.3843756
50
178.3360597
51
192.6709132
0
ARC
8
DEFAULT_255_2_778
10
102.8353197
20
55.5270826
40
0.1071526
50
194.4536518
51
206.0583275
0
ARC
8
DEFAULT_255_2_778
10
102.6033042
20
55.5144104
40
0.0367535
50
177.0018032
51
249.3776806
0
ARC
8
DEFAULT_255_2_778
10
103.0477707
20
55.6086554
40
0.4899466
50
180.5070058
51
190.8614073
0
ARC
8
DEFAULT_255_2_778
10
103.9000551
20
55.6439357
40
1.3427964
50
179.9412737
51
181.6906092
0
ARC
8
DEFAULT_255_2_778
10
102.2788587
20
55.7594491
40
0.3008891
50
267.2397261
51
337.7076297
0
ARC
8
DEFAULT_255_2_778
10
102.2611239
20
55.9206378
40
0.46174
50
269.9960422
51
270.4026455
0
ARC
8
DEFAULT_255_2_778
10
102.2627277
20
56.0042878
40
0.5453924
50
262.7033596
51
269.828156
0
ARC
8
DEFAULT_255_2_778
10
102.2275241
20
55.7165743
40
0.255543
50
186.4561803
51
262.3394845
0
ARC
8
DEFAULT_255_2_778
10
102.5609671
20
55.8097624
40
0.5998859
50
183.1008887
51
191.7266238
0
ARC
8
DEFAULT_255_2_778
10
102.4579333
20
55.7900451
40
0.4961374
50
159.0423266
51
181.4706275
0
ARC
8
DEFAULT_255_2_778
10
102.2703645
20
55.8524118
40
0.298801
50
95.6367626
51
157.3453617
0
ARC
8
DEFAULT_255_2_778
10
102.3389578
20
55.543008
40
0.6146141
50
89.6735748
51
99.1694777
0
ARC
8
DEFAULT_255_2_778
10
102.3659368
20
56.2900024
40
0.1817398
50
15.7428167
51
92.1687133
0
ARC
8
DEFAULT_255_2_778
10
102.343513
20
56.2891433
40
0.1831298
50
85.1301517
51
173.0130243
0
ARC
8
DEFAULT_255_2_778
10
102.4992143
20
56.2384744
40
0.3452648
50
167.8029868
51
168.6857431
0
LINE
8
DEFAULT_255_2_778
10
102.1601594
20
56.307012
11
101.9947594
21
56.307012
0
LINE
8
DEFAULT_255_2_778
10
102.7223594
20
56.257312
11
102.7223594
21
55.595812
0
LINE
8
DEFAULT_255_2_778
10
102.7390594
20
55.480012
11
102.5903594
21
55.480012
0
LINE
8
DEFAULT_255_2_778
10
102.3424594
20
56.157612
11
102.5408594
21
56.174012
0
LINE
8
DEFAULT_255_2_778
10
102.5408594
20
56.174012
11
102.5408594
21
56.339312
0
LINE
8
DEFAULT_255_2_778
10
102.1606594
20
56.306212
11
102.1601594
21
56.307012
0
ARC
8
DEFAULT_255_2_778
10
102.5452017
20
54.5755309
40
1.4506581
50
89.5205017
51
96.8791854
0
ARC
8
DEFAULT_255_2_778
10
102.4299531
20
55.4791067
40
0.5398188
50
96.2219525
51
111.0944108
0
ARC
8
DEFAULT_255_2_778
10
102.2789843
20
55.8452799
40
0.1441341
50
107.48879
51
156.9690477
0
ARC
8
DEFAULT_255_2_778
10
102.2406532
20
55.8697548
40
0.0995679
50
161.3050739
51
166.0025183
0
ARC
8
DEFAULT_255_2_778
10
102.6490941
20
55.7731983
40
0.5192608
50
166.5657006
51
175.660893
0
ARC
8
DEFAULT_255_2_778
10
102.4946404
20
55.7872289
40
0.3641955
50
176.0234579
51
179.9403083
0
ARC
8
DEFAULT_255_2_778
10
102.3311235
20
55.7775239
40
0.2009315
50
177.1231888
51
216.6928832
0
ARC
8
DEFAULT_255_2_778
10
102.3007254
20
55.7647659
40
0.16912
50
219.3817003
51
244.0956497
0
ARC
8
DEFAULT_255_2_778
10
102.2913776
20
56.499077
40
0.8887849
50
265.836025
51
269.5923483
0
ARC
8
DEFAULT_255_2_778
10
102.288652
20
56.3294176
40
0.719112
50
269.7133264
51
270.0025456
0
ARC
8
DEFAULT_255_2_778
10
102.2986746
20
56.0271349
40
0.4169491
50
268.626991
51
284.9539045
0
ARC
8
DEFAULT_255_2_778
10
102.3837314
20
55.7380329
40
0.1159375
50
281.2072699
51
338.2855477
0
ARC
8
DEFAULT_255_2_778
10
102.17716
20
55.8883546
40
0.3689251
50
328.4173451
51
350.491937
0
ARC
8
DEFAULT_255_2_778
10
101.5740515
20
56.0061552
40
0.9833467
50
349.5271821
51
359.8992343
0
ARC
8
DEFAULT_255_2_778
10
100.9998144
20
56.0257092
40
1.5577277
50
359.2171385
51
0.0047471
0
LINE
8
DEFAULT_255_2_778
10
102.5575419
20
56.0258382
11
102.5573419
21
56.0261382
0
ARC
8
DEFAULT_255_2_778
10
119.1265947
20
59.6481112
40
0.6604129
50
3.688561
51
21.8049507
0
ARC
8
DEFAULT_255_2_778
10
119.4176884
20
59.7659424
40
0.34638
50
21.5941165
51
89.3133386
0
ARC
8
DEFAULT_255_2_778
10
119.4038045
20
59.5328647
40
0.5797135
50
88.2172274
51
89.991477
0
ARC
8
DEFAULT_255_2_778
10
119.3908725
20
59.7017068
40
0.4110775
50
88.1852242
51
152.8958511
0
ARC
8
DEFAULT_255_2_778
10
119.7571233
20
59.4860745
40
0.8357273
50
151.1758692
51
166.549466
0
ARC
8
DEFAULT_255_2_778
10
120.516496
20
59.2943009
40
1.6189089
50
166.1998318
51
175.2060971
0
ARC
8
DEFAULT_255_2_778
10
121.6660514
20
59.1870465
40
2.7734273
50
174.9827989
51
180.1910714
0
ARC
8
DEFAULT_255_2_778
10
120.2108591
20
59.1441795
40
1.3186482
50
178.5391247
51
179.9951151
0
ARC
8
DEFAULT_255_2_778
10
119.9376883
20
59.1295704
40
1.045581
50
179.1932599
51
205.2588364
0
ARC
8
DEFAULT_255_2_778
10
119.854095
20
59.0999809
40
0.9573954
50
205.7920359
51
210.9642685
0
ARC
8
DEFAULT_255_2_778
10
119.4456743
20
58.9609166
40
0.5432869
50
220.5947045
51
243.2066425
0
ARC
8
DEFAULT_255_2_778
10
119.3484394
20
58.7799921
40
0.3379966
50
244.0948715
51
269.7966051
0
ARC
8
DEFAULT_255_2_778
10
119.2896427
20
59.0382594
40
0.5990372
50
275.5174543
51
298.5911323
0
ARC
8
DEFAULT_255_2_778
10
119.3631389
20
58.8810211
40
0.4259357
50
300.0324307
51
346.4044174
0
ARC
8
DEFAULT_255_2_778
10
119.0233303
20
58.9941862
40
0.7834031
50
344.2012566
51
359.8061895
0
ARC
8
DEFAULT_255_2_778
10
119.0298645
20
58.9859401
40
0.7768844
50
0.4127258
51
28.5116019
0
ARC
8
DEFAULT_255_2_778
10
118.8920852
20
58.9255951
40
0.9268464
50
27.7239686
51
27.9212234
0
ARC
8
DEFAULT_255_2_778
10
119.3118772
20
59.1095946
40
0.4709905
50
32.0596975
51
53.1001299
0
ARC
8
DEFAULT_255_2_778
10
119.4236431
20
59.2545306
40
0.2879905
50
53.5687496
51
90.1150383
0
ARC
8
DEFAULT_255_2_778
10
119.4260534
20
59.1803774
40
0.3621554
50
90.4728114
51
106.7536004
0
ARC
8
DEFAULT_255_2_778
10
119.4477393
20
59.0945195
40
0.4506376
50
106.2470856
51
107.2456039
0
ARC
8
DEFAULT_255_2_778
10
119.4544137
20
59.1088423
40
0.4390659
50
108.6316766
51
149.0997686
0
ARC
8
DEFAULT_255_2_778
10
119.6442554
20
58.9668611
40
0.6753143
50
147.0345255
51
150.2857192
0
ARC
8
DEFAULT_255_2_778
10
121.1202812
20
59.1409134
40
2.0687913
50
169.0146209
51
175.5453191
0
ARC
8
DEFAULT_255_2_778
10
120.0816271
20
59.3479483
40
1.0097314
50
158.1352179
51
169.3163129
0
ARC
8
DEFAULT_255_2_778
10
119.537007
20
59.573618
40
0.4202971
50
135.5808933
51
159.0363818
0
ARC
8
DEFAULT_255_2_778
10
119.3924614
20
59.7108646
40
0.2210203
50
97.4929249
51
134.7666524
0
ARC
8
DEFAULT_255_2_778
10
119.4013891
20
59.5985169
40
0.3336233
50
90.1382598
51
96.4969501
0
ARC
8
DEFAULT_255_2_778
10
119.4092221
20
59.7412514
40
0.1910832
50
8.7061216
51
92.5909769
0
ARC
8
DEFAULT_255_2_778
10
119.1264966
20
59.6479558
40
0.4871865
50
4.985914
51
14.5288403
0
ARC
8
DEFAULT_255_2_778
10
118.997217
20
58.9761315
40
0.6412869
50
4.0028816
51
19.0457081
0
ARC
8
DEFAULT_255_2_778
10
119.378983
20
59.1250347
40
0.2323925
50
15.0550009
51
91.8959042
0
ARC
8
DEFAULT_255_2_778
10
119.3728197
20
58.96926
40
0.3880428
50
90.2251998
51
98.6057223
0
ARC
8
DEFAULT_255_2_778
10
119.3828442
20
58.891327
40
0.4666018
50
98.3908537
51
99.4493528
0
ARC
8
DEFAULT_255_2_778
10
119.4157432
20
59.0437332
40
0.3267592
50
109.5798716
51
178.6239149
0
ARC
8
DEFAULT_255_2_778
10
119.6346266
20
59.0095572
40
0.5471643
50
175.5952554
51
180.0608061
0
ARC
8
DEFAULT_255_2_778
10
119.7661831
20
59.0105685
40
0.6787223
50
180.1343908
51
186.0805037
0
LINE
8
DEFAULT_255_2_778
10
119.0912792
20
58.9386743
11
119.0913395
21
58.9380976
0
ARC
8
DEFAULT_255_2_778
10
119.7513994
20
59.0306859
40
0.6665221
50
187.9849247
51
202.8041753
0
ARC
8
DEFAULT_255_2_778
10
119.3673107
20
58.8599638
40
0.2464336
50
200.8248938
51
241.4955107
0
ARC
8
DEFAULT_255_2_778
10
119.3366848
20
58.8263334
40
0.2025559
50
244.5700147
51
270.8075106
0
ARC
8
DEFAULT_255_2_778
10
119.3548493
20
58.8936657
40
0.270302
50
266.7530538
51
313.6433685
0
ARC
8
DEFAULT_255_2_778
10
119.2993854
20
58.9191717
40
0.3278141
50
317.5848157
51
350.1039559
0
ARC
8
DEFAULT_255_2_778
10
118.886872
20
59.0119611
40
0.7504172
50
348.5374971
51
0.6594264
0
LINE
8
DEFAULT_255_2_778
10
119.6120395
20
59.6905976
11
119.7856395
21
59.6905976
0
LINE
8
DEFAULT_255_2_778
10
119.6118395
20
59.6902976
11
119.6120395
21
59.6905976
0
LINE
8
DEFAULT_255_2_778
10
119.6372395
20
59.0205976
11
119.6369395
21
59.0208976
0
LINE
8
DEFAULT_255_2_778
10
126.60102
20
60.1665177
11
126.49042
21
60.1665177
0
LINE
8
DEFAULT_255_2_778
10
126.49042
20
60.1665177
11
126.49042
21
57.6649177
0
LINE
8
DEFAULT_255_2_778
10
126.49042
20
57.6649177
11
144.19082
21
57.6649177
0
LINE
8
DEFAULT_255_2_778
10
144.19082
20
57.6649177
11
144.19082
21
60.1665177
0
LINE
8
DEFAULT_255_2_778
10
144.19082
20
60.1665177
11
144.08102
21
60.1665177
0
LINE
8
DEFAULT_255_2_778
10
144.08102
20
60.1665177
11
144.08102
21
57.7749177
0
LINE
8
DEFAULT_255_2_778
10
144.08102
20
57.7749177
11
126.60102
21
57.7749177
0
LINE
8
DEFAULT_255_2_778
10
126.60102
20
57.7749177
11
126.60102
21
60.1665177
0
LINE
8
DEFAULT_255_2_778
10
133.0721781
20
58.7550375
11
133.2697781
21
58.7550375
0
LINE
8
DEFAULT_255_2_778
10
133.2697781
20
58.7550375
11
133.2697781
21
58.4851375
0
LINE
8
DEFAULT_255_2_778
10
133.2697781
20
58.4851375
11
133.0721781
21
58.4851375
0
LINE
8
DEFAULT_255_2_778
10
133.0721781
20
58.4851375
11
133.0721781
21
58.7550375
0
LINE
8
DEFAULT_255_2_778
10
130.3260781
20
58.7534375
11
130.5236781
21
58.7534375
0
LINE
8
DEFAULT_255_2_778
10
130.5236781
20
58.7534375
11
130.5236781
21
58.4835375
0
LINE
8
DEFAULT_255_2_778
10
130.5236781
20
58.4835375
11
130.3260781
21
58.4835375
0
LINE
8
DEFAULT_255_2_778
10
130.3260781
20
58.4835375
11
130.3260781
21
58.7534375
0
LINE
8
DEFAULT_255_2_778
10
127.2026781
20
58.7534375
11
127.4002781
21
58.7534375
0
LINE
8
DEFAULT_255_2_778
10
127.4002781
20
58.7534375
11
127.4002781
21
58.4835375
0
LINE
8
DEFAULT_255_2_778
10
127.4002781
20
58.4835375
11
127.2026781
21
58.4835375
0
LINE
8
DEFAULT_255_2_778
10
127.2026781
20
58.4835375
11
127.2026781
21
58.7534375
0
LINE
8
DEFAULT_255_2_778
10
142.1373781
20
58.7534375
11
142.3349781
21
58.7534375
0
LINE
8
DEFAULT_255_2_778
10
142.3349781
20
58.7534375
11
142.3349781
21
58.4835375
0
LINE
8
DEFAULT_255_2_778
10
142.3349781
20
58.4835375
11
142.1373781
21
58.4835375
0
LINE
8
DEFAULT_255_2_778
10
142.1373781
20
58.4835375
11
142.1373781
21
58.7534375
0
LINE
8
DEFAULT_255_2_778
10
139.0951781
20
58.7534375
11
139.2927781
21
58.7534375
0
LINE
8
DEFAULT_255_2_778
10
139.2927781
20
58.7534375
11
139.2927781
21
58.4835375
0
LINE
8
DEFAULT_255_2_778
10
139.2927781
20
58.4835375
11
139.0951781
21
58.4835375
0
LINE
8
DEFAULT_255_2_778
10
139.0951781
20
58.4835375
11
139.0951781
21
58.7534375
0
LINE
8
DEFAULT_255_2_778
10
136.1241781
20
58.7534375
11
136.3217781
21
58.7534375
0
LINE
8
DEFAULT_255_2_778
10
136.3217781
20
58.7534375
11
136.3217781
21
58.4835375
0
LINE
8
DEFAULT_255_2_778
10
136.3217781
20
58.4835375
11
136.1241781
21
58.4835375
0
LINE
8
DEFAULT_255_2_778
10
136.1241781
20
58.4835375
11
136.1241781
21
58.7534375
0
ARC
8
DEFAULT_255_2_778
10
134.1035304
20
59.6961532
40
0.2236023
50
45.294737
51
90.1986223
0
ARC
8
DEFAULT_255_2_778
10
134.0721846
20
59.6948444
40
0.2475062
50
2.8052902
51
40.3443904
0
ARC
8
DEFAULT_255_2_778
10
133.8325002
20
59.6593252
40
0.4892184
50
359.8632732
51
5.5874504
0
ARC
8
DEFAULT_255_2_778
10
133.7091234
20
59.6585238
40
0.6125938
50
357.3362751
51
359.9657576
0
ARC
8
DEFAULT_255_2_778
10
133.6850176
20
59.7572974
40
0.6486406
50
332.6488101
51
348.6869743
0
ARC
8
DEFAULT_255_2_778
10
132.9702358
20
60.1118074
40
1.4464553
50
324.6756069
51
333.1844932
0
ARC
8
DEFAULT_255_2_778
10
131.8805433
20
60.8726443
40
2.7754615
50
319.5822258
51
324.8677041
0
ARC
8
DEFAULT_255_2_778
10
130.3434421
20
62.172811
40
4.7886896
50
316.0201881
51
319.6626727
0
ARC
8
DEFAULT_255_2_778
10
129.2305999
20
63.2249394
40
6.3200963
50
315.7299705
51
316.1622271
0
ARC
8
DEFAULT_255_2_778
10
130.7612507
20
61.9475591
40
4.4933771
50
313.1296558
51
318.2919034
0
ARC
8
DEFAULT_255_2_778
10
133.1714867
20
59.9809182
40
1.392156
50
312.7092096
51
328.268212
0
ARC
8
DEFAULT_255_2_778
10
133.4895409
20
59.7808523
40
1.0164255
50
328.4306332
51
349.1977614
0
ARC
8
DEFAULT_255_2_778
10
133.6885995
20
59.7103153
40
0.808307
50
351.4651839
51
357.0101037
0
ARC
8
DEFAULT_255_2_778
10
133.8295245
20
59.7018139
40
0.6671313
50
357.1079436
51
359.9715947
0
ARC
8
DEFAULT_255_2_778
10
134.0628505
20
59.7131144
40
0.4339611
50
358.4641404
51
26.0452172
0
ARC
8
DEFAULT_255_2_778
10
134.1359547
20
59.7320229
40
0.3602956
50
28.4488308
51
71.0077522
0
ARC
8
DEFAULT_255_2_778
10
134.0229414
20
59.468363
40
0.6467243
50
69.1420296
51
79.4497472
0
ARC
8
DEFAULT_255_2_778
10
134.1288737
20
59.4524712
40
0.6518025
50
88.9027642
51
107.4187644
0
ARC
8
DEFAULT_255_2_778
10
134.0424649
20
59.7340123
40
0.35731
50
107.7128498
51
176.0396304
0
ARC
8
DEFAULT_255_2_778
10
134.4032423
20
59.6592615
40
0.7240932
50
172.107485
51
180.2379648
0
ARC
8
DEFAULT_255_2_778
10
134.3680921
20
59.5490869
40
0.545566
50
151.8872104
51
168.6715428
0
ARC
8
DEFAULT_255_2_778
10
134.0693938
20
59.7202404
40
0.2017173
50
89.9792972
51
154.7890242
0
ARC
8
DEFAULT_255_2_778
10
134.0689096
20
59.6609815
40
0.2609767
50
82.5484147
51
89.8776851
0
LINE
8
DEFAULT_255_2_778
10
133.7561552
20
58.8132541
11
133.6148552
21
58.6814541
0
LINE
8
DEFAULT_255_2_778
10
133.6148552
20
58.6814541
11
133.6148552
21
58.4838541
0
LINE
8
DEFAULT_255_2_778
10
133.6148552
20
58.4838541
11
134.5263552
21
58.4838541
0
LINE
8
DEFAULT_255_2_778
10
134.5263552
20
58.4838541
11
134.5263552
21
58.6682541
0
LINE
8
DEFAULT_255_2_778
10
134.5263552
20
58.6682541
11
133.8331552
21
58.6682541
0
LINE
8
DEFAULT_255_2_778
10
133.6791552
20
59.6562541
11
133.8331552
21
59.6562541
0
LINE
8
DEFAULT_255_2_778
10
134.1027552
20
59.9197541
11
134.1027552
21
59.9197541
0
ARC
8
DEFAULT_255_2_778
10
137.3541185
20
59.6200003
40
0.6746842
50
156.9934273
51
174.8720338
0
ARC
8
DEFAULT_255_2_778
10
137.0769178
20
59.7373477
40
0.3736685
50
89.9846319
51
156.9433537
0
ARC
8
DEFAULT_255_2_778
10
137.1199142
20
59.4527619
40
0.6596506
50
89.9538844
51
93.7284935
0
ARC
8
DEFAULT_255_2_778
10
137.1195654
20
59.3329837
40
0.7794291
50
85.8202004
51
89.9353321
0
ARC
8
DEFAULT_255_2_778
10
137.1088429
20
59.1728745
40
0.9398945
50
85.7660364
51
85.8796848
0
ARC
8
DEFAULT_255_2_778
10
137.1081611
20
59.6187234
40
0.4964508
50
58.4266191
51
81.8856502
0
ARC
8
DEFAULT_255_2_778
10
137.1729538
20
59.7464501
40
0.353899
50
5.207457
51
56.5361106
0
ARC
8
DEFAULT_255_2_778
10
136.9047827
20
59.6940032
40
0.6263448
50
359.7975934
51
7.759638
0
ARC
8
DEFAULT_255_2_778
10
136.7061858
20
59.6931961
40
0.824939
50
355.0404432
51
359.9023813
0
ARC
8
DEFAULT_255_2_778
10
136.5642723
20
59.7040873
40
0.9672637
50
353.6677326
51
355.1244575
0
ARC
8
DEFAULT_255_2_778
10
137.1821028
20
59.6294429
40
0.3450227
50
295.3950559
51
354.6717932
0
ARC
8
DEFAULT_255_2_778
10
137.065831
20
59.7959062
40
0.5463023
50
298.5872438
51
298.9262448
0
ARC
8
DEFAULT_255_2_778
10
137.1695394
20
58.9325845
40
0.414767
50
36.3075962
51
67.6538004
0
ARC
8
DEFAULT_255_2_778
10
137.1765039
20
58.9581971
40
0.3943349
50
358.6631946
51
33.9071529
0
ARC
8
DEFAULT_255_2_778
10
137.007415
20
58.9447251
40
0.5633328
50
359.9968033
51
0.4345406
0
ARC
8
DEFAULT_255_2_778
10
136.9079374
20
58.9471201
40
0.6628149
50
351.8088686
51
359.7902504
0
ARC
8
DEFAULT_255_2_778
10
136.7532373
20
58.9667563
40
0.8187386
50
349.6814942
51
351.9911745
0
ARC
8
DEFAULT_255_2_778
10
136.9730103
20
58.9663
40
0.6036939
50
326.2443016
51
345.985387
0
ARC
8
DEFAULT_255_2_778
10
137.1483044
20
58.8571965
40
0.3973846
50
269.3703575
51
325.2793265
0
ARC
8
DEFAULT_255_2_778
10
137.1204694
20
59.0823319
40
0.6229383
50
269.9870986
51
272.1590295
0
ARC
8
DEFAULT_255_2_778
10
137.1224787
20
59.2020247
40
0.742634
50
262.8746071
51
269.8341563
0
ARC
8
DEFAULT_255_2_778
10
137.143051
20
59.3822662
40
0.9240374
50
259.8451429
51
262.9951412
0
ARC
8
DEFAULT_255_2_778
10
137.0882192
20
58.8233335
40
0.3669107
50
208.8219993
51
252.8676522
0
ARC
8
DEFAULT_255_2_778
10
137.446072
20
59.0444834
40
0.7873339
50
195.0839282
51
210.3676367
0
ARC
8
DEFAULT_255_2_778
10
137.905779
20
59.1864117
40
1.268256
50
192.1719894
51
195.8703458
0
ARC
8
DEFAULT_255_2_778
10
137.3800123
20
59.0993811
40
0.5774715
50
198.201326
51
217.1790079
0
ARC
8
DEFAULT_255_2_778
10
137.142963
20
58.9149838
40
0.2771938
50
216.4207882
51
270.5729193
0
ARC
8
DEFAULT_255_2_778
10
137.0727613
20
59.0893562
40
0.4574108
50
279.1799468
51
297.1128697
0
ARC
8
DEFAULT_255_2_778
10
137.1840379
20
58.8797753
40
0.2201752
50
296.1934446
51
2.6406319
0
ARC
8
DEFAULT_255_2_778
10
136.9861941
20
58.8859662
40
0.4178041
50
0.542094
51
12.9565253
0
ARC
8
DEFAULT_255_2_778
10
136.726442
20
58.8285468
40
0.683821
50
12.765325
51
20.7046163
0
ARC
8
DEFAULT_255_2_778
10
136.532987
20
58.7602382
40
0.8889437
50
20.4146292
51
21.3661361
0
ARC
8
DEFAULT_255_2_778
10
137.05955
20
58.8952776
40
0.3555669
50
32.0768917
51
58.9754147
0
ARC
8
DEFAULT_255_2_778
10
137.1178899
20
58.979941
40
0.2530261
50
60.4153161
51
90.4245401
0
ARC
8
DEFAULT_255_2_778
10
137.119235
20
58.8906024
40
0.3423729
50
90.538862
51
106.7644632
0
ARC
8
DEFAULT_255_2_778
10
137.1419164
20
58.800542
40
0.4351685
50
106.2036451
51
107.1309507
0
ARC
8
DEFAULT_255_2_778
10
137.0263485
20
59.8642666
40
0.4662334
50
268.4496909
51
290.9670043
0
ARC
8
DEFAULT_255_2_778
10
137.0890854
20
59.6768135
40
0.268877
50
292.7772174
51
357.9493847
0
ARC
8
DEFAULT_255_2_778
10
136.8172081
20
59.7274369
40
0.5439287
50
353.6409813
51
0.1545223
0
ARC
8
DEFAULT_255_2_778
10
137.0522399
20
59.6463398
40
0.3197386
50
14.9646751
51
44.4985556
0
ARC
8
DEFAULT_255_2_778
10
137.1317463
20
59.7101871
40
0.2185167
50
47.1700995
51
92.0303192
0
ARC
8
DEFAULT_255_2_778
10
137.1243646
20
59.5950632
40
0.3335037
50
90.0618417
51
94.7867276
0
ARC
8
DEFAULT_255_2_778
10
137.0942679
20
59.7035968
40
0.2238185
50
89.4197231
51
171.4410252
0
ARC
8
DEFAULT_255_2_778
10
137.2904123
20
59.6503068
40
0.426358
50
168.2807396
51
176.1137167
0
LINE
8
DEFAULT_255_2_778
10
136.8650347
20
59.6792039
11
136.6832347
21
59.6792039
0
LINE
8
DEFAULT_255_2_778
10
136.6660347
20
58.9190039
11
136.8314347
21
58.9190039
0
LINE
8
DEFAULT_255_2_778
10
137.0137347
20
59.2164039
11
137.0137347
21
59.3982039
0
LINE
8
DEFAULT_255_2_778
10
136.6832347
20
59.6792039
11
136.6821347
21
59.6803039
0
ARC
8
DEFAULT_255_2_778
10
143.2393919
20
59.0648768
40
0.3587293
50
142.135688
51
165.7813584
0
ARC
8
DEFAULT_255_2_778
10
143.1034769
20
59.1665561
40
0.189045
50
88.4218431
51
141.1805581
0
ARC
8
DEFAULT_255_2_778
10
143.1074711
20
59.0662885
40
0.2892435
50
80.2906501
51
89.7598694
0
ARC
8
DEFAULT_255_2_778
10
143.1588694
20
59.1753101
40
0.1760982
50
9.8902782
51
90.8515954
0
ARC
8
DEFAULT_255_2_778
10
142.7506093
20
59.0438184
40
0.6038066
50
0.3853534
51
15.5372696
0
ARC
8
DEFAULT_255_2_778
10
142.3205856
20
59.0209668
40
1.0341667
50
359.9846036
51
1.4912028
0
ARC
8
DEFAULT_255_2_778
10
142.6185813
20
59.008471
40
0.7362722
50
347.1786851
51
0.9508222
0
ARC
8
DEFAULT_255_2_778
10
143.0709396
20
58.8978003
40
0.270738
50
314.7178678
51
348.7720017
0
ARC
8
DEFAULT_255_2_778
10
143.1312634
20
58.8550547
40
0.1983316
50
267.6560879
51
311.0209069
0
ARC
8
DEFAULT_255_2_778
10
143.1103673
20
58.9210025
40
0.2644229
50
239.4519628
51
272.7713144
0
ARC
8
DEFAULT_255_2_778
10
143.090998
20
58.8540808
40
0.1977062
50
180.9618899
51
234.4224384
0
ARC
8
DEFAULT_255_2_778
10
143.2993723
20
58.8876061
40
0.4077209
50
179.8899978
51
185.1846891
0
LINE
8
DEFAULT_255_2_778
10
142.8916521
20
58.8883889
11
142.6932521
21
58.8883889
0
ARC
8
DEFAULT_255_2_778
10
143.4557835
20
58.9853404
40
0.7686701
50
187.2459548
51
202.853583
0
ARC
8
DEFAULT_255_2_778
10
143.0813829
20
58.8143162
40
0.3574458
50
200.8992246
51
269.3234855
0
ARC
8
DEFAULT_255_2_778
10
143.1046822
20
58.9957666
40
0.5395735
50
267.0764949
51
270.0234551
0
ARC
8
DEFAULT_255_2_778
10
143.104121
20
59.0760938
40
0.619901
50
270.0722838
51
274.8240354
0
ARC
8
DEFAULT_255_2_778
10
143.087014
20
58.8890218
40
0.4361636
50
279.1339706
51
344.534294
0
ARC
8
DEFAULT_255_2_778
10
142.6045428
20
59.0665104
40
0.9494415
50
341.9744198
51
356.1730823
0
ARC
8
DEFAULT_255_2_778
10
142.2042429
20
59.1106385
40
1.3519049
50
355.4393274
51
356.1849796
0
ARC
8
DEFAULT_255_2_778
10
142.3544351
20
58.958037
40
1.2003531
50
2.9918866
51
13.5680606
0
ARC
8
DEFAULT_255_2_778
10
142.9852348
20
59.1165801
40
0.5499979
50
12.9291741
51
33.3555717
0
ARC
8
DEFAULT_255_2_778
10
143.2004556
20
59.2569454
40
0.2930539
50
33.569084
51
92.1713994
0
ARC
8
DEFAULT_255_2_778
10
143.1766855
20
59.1423072
40
0.4076785
50
88.2195263
51
113.408561
0
ARC
8
DEFAULT_255_2_778
10
143.1146497
20
59.2998566
40
0.2385174
50
114.7688079
51
159.2171894
0
ARC
8
DEFAULT_255_2_778
10
142.8919248
20
59.3847214
40
0.0003584
50
220.4534909
51
266.1060739
0
ARC
8
DEFAULT_255_2_778
10
142.8250652
20
59.4053275
40
0.0700459
50
342.5852496
51
3.2475164
0
ARC
8
DEFAULT_255_2_778
10
140.7820261
20
59.5111951
40
2.1154284
50
357.2390114
51
358.9841938
0
ARC
8
DEFAULT_255_2_778
10
133.1856831
20
59.668361
40
9.7133899
50
358.851643
51
359.5593237
0
ARC
8
DEFAULT_255_2_778
10
116.9596804
20
59.8127562
40
25.9400306
50
359.5160451
51
359.8217431
0
ARC
8
DEFAULT_255_2_778
10
91.8739364
20
59.8972009
40
51.0259164
50
359.8145585
51
0.0091941
0
LINE
8
DEFAULT_255_2_778
10
143.4787521
20
60.0789889
11
142.7263521
21
60.0789889
0
LINE
8
DEFAULT_255_2_778
10
142.7263521
20
60.0789889
11
142.7263521
21
59.1529889
0
LINE
8
DEFAULT_255_2_778
10
142.7263521
20
59.1529889
11
142.8916521
21
59.1529889
0
LINE
8
DEFAULT_255_2_778
10
142.8998521
20
59.9053889
11
143.4787521
21
59.9053889
0
LINE
8
DEFAULT_255_2_778
10
143.4787521
20
59.9053889
11
143.4787521
21
60.0789889
0
LINE
8
DEFAULT_255_2_778
10
143.4787521
20
60.0789889
11
143.4787521
21
60.0789889
0
LINE
8
DEFAULT_255_2_778
10
131.3063781
20
60.0638698
11
131.0600781
21
59.8556698
0
LINE
8
DEFAULT_255_2_778
10
131.0600781
20
59.8556698
11
131.0084781
21
59.8283698
0
LINE
8
DEFAULT_255_2_778
10
131.0084781
20
59.8283698
11
131.0084781
21
59.6288698
0
LINE
8
DEFAULT_255_2_778
10
131.0216781
20
59.6355698
11
131.2611781
21
59.7995698
0
LINE
8
DEFAULT_255_2_778
10
131.2611781
20
59.7995698
11
131.2886781
21
59.8273698
0
LINE
8
DEFAULT_255_2_778
10
131.2886781
20
59.8273698
11
131.2886781
21
58.4835698
0
LINE
8
DEFAULT_255_2_778
10
131.2886781
20
58.4835698
11
131.4600781
21
58.4835698
0
LINE
8
DEFAULT_255_2_778
10
131.4600781
20
58.4835698
11
131.4600781
21
60.0744698
0
LINE
8
DEFAULT_255_2_778
10
131.4600781
20
60.0744698
11
131.3151781
21
60.0744698
0
LINE
8
DEFAULT_255_2_778
10
139.7246042
20
59.0584677
11
140.1699042
21
59.0584677
0
LINE
8
DEFAULT_255_2_778
10
140.1699042
20
59.0584677
11
140.1699042
21
59.8556677
0
LINE
8
DEFAULT_255_2_778
10
140.1699042
20
59.8556677
11
139.7246042
21
59.0584677
0
LINE
8
DEFAULT_255_2_778
10
140.1474042
20
60.0834677
11
140.3498042
21
60.0834677
0
LINE
8
DEFAULT_255_2_778
10
140.3498042
20
60.0834677
11
140.3498042
21
59.0584677
0
LINE
8
DEFAULT_255_2_778
10
140.3498042
20
59.0584677
11
140.5919042
21
59.0584677
0
LINE
8
DEFAULT_255_2_778
10
140.5919042
20
59.0584677
11
140.5919042
21
58.8838677
0
LINE
8
DEFAULT_255_2_778
10
140.5919042
20
58.8838677
11
140.3498042
21
58.8838677
0
LINE
8
DEFAULT_255_2_778
10
140.3498042
20
58.8838677
11
140.3498042
21
58.4835677
0
LINE
8
DEFAULT_255_2_778
10
140.3498042
20
58.4835677
11
140.1783042
21
58.4835677
0
LINE
8
DEFAULT_255_2_778
10
140.1783042
20
58.4835677
11
140.1783042
21
58.8838677
0
LINE
8
DEFAULT_255_2_778
10
140.1783042
20
58.8838677
11
139.5833042
21
58.8838677
0
LINE
8
DEFAULT_255_2_778
10
139.5833042
20
58.8838677
11
139.5833042
21
59.0767677
0
LINE
8
DEFAULT_255_2_778
10
139.5833042
20
59.0767677
11
140.1474042
21
60.0834677
0
ARC
8
DEFAULT_255_2_778
10
126.568036
20
59.2772323
40
1.9395762
50
359.6354686
51
6.8546503
0
ARC
8
DEFAULT_255_2_778
10
127.5496618
20
59.4004744
40
0.9502721
50
6.5409308
51
18.8058806
0
ARC
8
DEFAULT_255_2_778
10
128.0602474
20
59.5814566
40
0.408657
50
17.8627073
51
43.9977884
0
ARC
8
DEFAULT_255_2_778
10
128.1733154
20
59.6793477
40
0.2594487
50
45.7914749
51
91.6217143
0
ARC
8
DEFAULT_255_2_778
10
128.1360075
20
59.6958418
40
0.2446922
50
82.9658127
51
89.9056457
0
ARC
8
DEFAULT_255_2_778
10
128.1398004
20
59.7294949
40
0.2110659
50
90.9202543
51
153.8266201
0
ARC
8
DEFAULT_255_2_778
10
128.4678808
20
59.5284338
40
0.5952654
50
150.3852234
51
166.1757034
0
ARC
8
DEFAULT_255_2_778
10
129.179833
20
59.3398559
40
1.3317178
50
165.6164788
51
173.829193
0
ARC
8
DEFAULT_255_2_778
10
130.4091637
20
59.1996107
40
2.5690114
50
173.6666414
51
178.9632793
0
ARC
8
DEFAULT_255_2_778
10
129.9815204
20
59.2864362
40
2.1413275
50
181.0795507
51
187.3071228
0
ARC
8
DEFAULT_255_2_778
10
128.8913829
20
59.1416406
40
1.041639
50
187.0338915
51
197.5215129
0
ARC
8
DEFAULT_255_2_778
10
128.3120539
20
58.9523822
40
0.4322523
50
196.7178818
51
218.0606576
0
ARC
8
DEFAULT_255_2_778
10
128.1318993
20
58.8108626
40
0.2031602
50
217.9585244
51
270.6515051
0
ARC
8
DEFAULT_255_2_778
10
128.1337476
20
58.8713152
40
0.2636
50
270.1003717
51
277.0220325
0
ARC
8
DEFAULT_255_2_778
10
128.1692451
20
58.8895331
40
0.2798599
50
269.3300766
51
340.1724169
0
ARC
8
DEFAULT_255_2_778
10
127.7469056
20
59.0948645
40
0.7484743
50
336.3493337
51
351.1104551
0
ARC
8
DEFAULT_255_2_778
10
126.9356505
20
59.2333797
40
1.5714315
50
350.691588
51
358.9701419
0
ARC
8
DEFAULT_255_2_778
10
126.1660366
20
59.264194
40
2.3415365
50
358.55473
51
0.0170869
0
ARC
8
DEFAULT_255_2_778
10
126.8009139
20
59.2960819
40
1.8694007
50
359.6172
51
7.9480884
0
ARC
8
DEFAULT_255_2_778
10
127.6647697
20
59.4218969
40
0.9964596
50
7.6516205
51
21.5173441
0
ARC
8
DEFAULT_255_2_778
10
128.1229896
20
59.6100875
40
0.5011984
50
20.7162068
51
50.6745514
0
ARC
8
DEFAULT_255_2_778
10
128.1686171
20
59.6352035
40
0.4532688
50
53.1249101
51
90.9965548
0
ARC
8
DEFAULT_255_2_778
10
128.1498891
20
59.424769
40
0.6637233
50
89.063801
51
90.0014
0
ARC
8
DEFAULT_255_2_778
10
128.1788723
20
59.6479597
40
0.4414861
50
93.7662283
51
158.7665532
0
ARC
8
DEFAULT_255_2_778
10
128.6588649
20
59.4122637
40
0.9753336
50
156.0717067
51
170.1628432
0
ARC
8
DEFAULT_255_2_778
10
129.4928193
20
59.2579411
40
1.8234175
50
169.8620142
51
178.3031815
0
ARC
8
DEFAULT_255_2_778
10
130.1214415
20
59.2227914
40
2.4528606
50
177.917284
51
178.1402949
0
ARC
8
DEFAULT_255_2_778
10
130.1041502
20
59.358355
40
2.4349205
50
181.3169659
51
187.5764641
0
ARC
8
DEFAULT_255_2_778
10
129.0382553
20
59.2122855
40
1.3590784
50
187.3970036
51
197.1346096
0
ARC
8
DEFAULT_255_2_778
10
128.3986251
20
59.0091716
40
0.6880203
50
196.6638935
51
214.445034
0
ARC
8
DEFAULT_255_2_778
10
128.1334785
20
58.8223253
40
0.3637022
50
213.7966981
51
271.5205915
0
ARC
8
DEFAULT_255_2_778
10
128.1427083
20
58.9698053
40
0.5110544
50
270.047258
51
274.4513906
0
ARC
8
DEFAULT_255_2_778
10
128.1985174
20
58.8621142
40
0.4021461
50
267.6992023
51
334.9560392
0
ARC
8
DEFAULT_255_2_778
10
127.8178106
20
59.0676968
40
0.8344634
50
333.2326369
51
348.8384702
0
ARC
8
DEFAULT_255_2_778
10
127.0644997
20
59.2272097
40
1.6044389
50
348.457323
51
357.3668239
0
ARC
8
DEFAULT_255_2_778
10
126.2201673
20
59.2811986
40
2.4504069
50
357.0127667
51
0.0629846
0
LINE
8
DEFAULT_255_2_778
10
128.5075729
20
59.2648923
11
128.5075729
21
59.2648923
0
LINE
8
DEFAULT_255_2_778
10
128.6705729
20
59.2838923
11
128.6702729
21
59.2835923
0
LINE
8
DEFAULT_255_2_778
10
126.9616136
20
55.5014677
11
127.1476136
21
55.5284677
0
LINE
8
DEFAULT_255_2_778
10
127.1476136
20
55.5284677
11
127.2619136
21
55.5765677
0
LINE
8
DEFAULT_255_2_778
10
127.2619136
20
55.5765677
11
127.3405136
21
55.6352677
0
LINE
8
DEFAULT_255_2_778
10
127.3405136
20
55.6352677
11
127.4056136
21
55.7085677
0
LINE
8
DEFAULT_255_2_778
10
127.4056136
20
55.7085677
11
127.4577136
21
55.7924677
0
LINE
8
DEFAULT_255_2_778
10
127.4577136
20
55.7924677
11
127.4826136
21
55.8461677
0
LINE
8
DEFAULT_255_2_778
10
127.4826136
20
55.8461677
11
127.5029136
21
55.9012677
0
LINE
8
DEFAULT_255_2_778
10
127.5029136
20
55.9012677
11
127.5188136
21
55.9572677
0
LINE
8
DEFAULT_255_2_778
10
127.5188136
20
55.9572677
11
127.5307136
21
56.0144677
0
LINE
8
DEFAULT_255_2_778
10
127.5307136
20
56.0144677
11
127.5355136
21
56.0432677
0
LINE
8
DEFAULT_255_2_778
10
127.5355136
20
56.0432677
11
127.5371136
21
56.5108677
0
LINE
8
DEFAULT_255_2_778
10
127.5371136
20
56.5108677
11
127.5278136
21
56.5679677
0
LINE
8
DEFAULT_255_2_778
10
127.5278136
20
56.5679677
11
127.5154136
21
56.6245677
0
LINE
8
DEFAULT_255_2_778
10
127.5154136
20
56.6245677
11
127.4992136
21
56.6803677
0
LINE
8
DEFAULT_255_2_778
10
127.4992136
20
56.6803677
11
127.4707136
21
56.7542677
0
LINE
8
DEFAULT_255_2_778
10
127.4707136
20
56.7542677
11
127.4320136
21
56.8285677
0
LINE
8
DEFAULT_255_2_778
10
127.4320136
20
56.8285677
11
127.3714136
21
56.9137677
0
LINE
8
DEFAULT_255_2_778
10
127.3714136
20
56.9137677
11
127.2974136
21
56.9857677
0
LINE
8
DEFAULT_255_2_778
10
127.2974136
20
56.9857677
11
127.1915136
21
57.0484677
0
LINE
8
DEFAULT_255_2_778
10
127.1915136
20
57.0484677
11
127.0100136
21
57.0952677
0
LINE
8
DEFAULT_255_2_778
10
127.0100136
20
57.0952677
11
126.9063136
21
57.1013677
0
LINE
8
DEFAULT_255_2_778
10
126.9063136
20
57.1013677
11
126.5007136
21
57.1013677
0
LINE
8
DEFAULT_255_2_778
10
126.5007136
20
57.1013677
11
126.5007136
21
55.5014677
0
LINE
8
DEFAULT_255_2_778
10
126.5007136
20
55.5014677
11
126.9407136
21
55.5014677
0
LINE
8
DEFAULT_255_2_778
10
126.9066802
20
56.9195958
11
126.6761802
21
56.9195958
0
LINE
8
DEFAULT_255_2_778
10
126.6761802
20
56.9195958
11
126.6761802
21
55.6823958
0
LINE
8
DEFAULT_255_2_778
10
126.6761802
20
55.6823958
11
127.0322802
21
55.6892958
0
LINE
8
DEFAULT_255_2_778
10
127.0322802
20
55.6892958
11
127.1640802
21
55.7344958
0
LINE
8
DEFAULT_255_2_778
10
127.1640802
20
55.7344958
11
127.2412802
21
55.7961958
0
LINE
8
DEFAULT_255_2_778
10
127.2412802
20
55.7961958
11
127.2838802
21
55.8524958
0
LINE
8
DEFAULT_255_2_778
10
127.2838802
20
55.8524958
11
127.3167802
21
55.9178958
0
LINE
8
DEFAULT_255_2_778
10
127.3167802
20
55.9178958
11
127.3349802
21
55.9696958
0
LINE
8
DEFAULT_255_2_778
10
127.3349802
20
55.9696958
11
127.3513802
21
56.0342958
0
LINE
8
DEFAULT_255_2_778
10
127.3513802
20
56.0342958
11
127.3593802
21
56.0779958
0
LINE
8
DEFAULT_255_2_778
10
127.3593802
20
56.0779958
11
127.3653802
21
56.1218958
0
LINE
8
DEFAULT_255_2_778
10
127.3653802
20
56.1218958
11
127.3643802
21
56.4925958
0
LINE
8
DEFAULT_255_2_778
10
127.3643802
20
56.4925958
11
127.3563802
21
56.5377958
0
LINE
8
DEFAULT_255_2_778
10
127.3563802
20
56.5377958
11
127.3455802
21
56.5824958
0
LINE
8
DEFAULT_255_2_778
10
127.3455802
20
56.5824958
11
127.3315802
21
56.6263958
0
LINE
8
DEFAULT_255_2_778
10
127.3315802
20
56.6263958
11
127.2968802
21
56.7039958
0
LINE
8
DEFAULT_255_2_778
10
127.2968802
20
56.7039958
11
127.2452802
21
56.7806958
0
LINE
8
DEFAULT_255_2_778
10
127.2452802
20
56.7806958
11
127.1669802
21
56.8518958
0
LINE
8
DEFAULT_255_2_778
10
127.1669802
20
56.8518958
11
127.0500802
21
56.9023958
0
LINE
8
DEFAULT_255_2_778
10
127.0500802
20
56.9023958
11
126.9222802
21
56.9195958
0
LINE
8
DEFAULT_255_2_778
10
127.8390229
20
57.1010677
11
128.0142229
21
57.1010677
0
LINE
8
DEFAULT_255_2_778
10
128.0142229
20
57.1010677
11
128.0142229
21
55.5011677
0
LINE
8
DEFAULT_255_2_778
10
128.0142229
20
55.5011677
11
127.8390229
21
55.5011677
0
LINE
8
DEFAULT_255_2_778
10
127.8390229
20
55.5011677
11
127.8390229
21
57.1010677
0
LINE
8
DEFAULT_255_2_778
10
126.9066802
20
56.9195958
11
126.6761802
21
56.9195958
0
LINE
8
DEFAULT_255_2_778
10
126.6761802
20
56.9195958
11
126.6761802
21
55.6823958
0
LINE
8
DEFAULT_255_2_778
10
126.6761802
20
55.6823958
11
127.0322802
21
55.6892958
0
LINE
8
DEFAULT_255_2_778
10
127.0322802
20
55.6892958
11
127.1640802
21
55.7344958
0
LINE
8
DEFAULT_255_2_778
10
127.1640802
20
55.7344958
11
127.2412802
21
55.7961958
0
LINE
8
DEFAULT_255_2_778
10
127.2412802
20
55.7961958
11
127.2838802
21
55.8524958
0
LINE
8
DEFAULT_255_2_778
10
127.2838802
20
55.8524958
11
127.3167802
21
55.9178958
0
LINE
8
DEFAULT_255_2_778
10
127.3167802
20
55.9178958
11
127.3349802
21
55.9696958
0
LINE
8
DEFAULT_255_2_778
10
127.3349802
20
55.9696958
11
127.3513802
21
56.0342958
0
LINE
8
DEFAULT_255_2_778
10
127.3513802
20
56.0342958
11
127.3593802
21
56.0779958
0
LINE
8
DEFAULT_255_2_778
10
127.3593802
20
56.0779958
11
127.3653802
21
56.1218958
0
LINE
8
DEFAULT_255_2_778
10
127.3653802
20
56.1218958
11
127.3643802
21
56.4925958
0
LINE
8
DEFAULT_255_2_778
10
127.3643802
20
56.4925958
11
127.3563802
21
56.5377958
0
LINE
8
DEFAULT_255_2_778
10
127.3563802
20
56.5377958
11
127.3455802
21
56.5824958
0
LINE
8
DEFAULT_255_2_778
10
127.3455802
20
56.5824958
11
127.3315802
21
56.6263958
0
LINE
8
DEFAULT_255_2_778
10
127.3315802
20
56.6263958
11
127.2968802
21
56.7039958
0
LINE
8
DEFAULT_255_2_778
10
127.2968802
20
56.7039958
11
127.2452802
21
56.7806958
0
LINE
8
DEFAULT_255_2_778
10
127.2452802
20
56.7806958
11
127.1669802
21
56.8518958
0
LINE
8
DEFAULT_255_2_778
10
127.1669802
20
56.8518958
11
127.0500802
21
56.9023958
0
LINE
8
DEFAULT_255_2_778
10
127.0500802
20
56.9023958
11
126.9222802
21
56.9195958
0
ARC
8
DEFAULT_255_2_778
10
129.3253699
20
56.2201868
40
0.2385462
50
15.1029018
51
84.46259
0
ARC
8
DEFAULT_255_2_778
10
128.9994888
20
56.0829828
40
0.590837
50
359.231825
51
19.7195318
0
ARC
8
DEFAULT_255_2_778
10
128.8398949
20
56.0753088
40
0.7503779
50
355.7285845
51
359.9811202
0
ARC
8
DEFAULT_255_2_778
10
127.1708944
20
56.1191056
40
2.4193487
50
355.6213637
51
357.6385411
0
ARC
8
DEFAULT_255_2_778
10
129.0732953
20
55.942406
40
0.5099493
50
329.3563618
51
359.0998699
0
ARC
8
DEFAULT_255_2_778
10
129.3289889
20
55.8122477
40
0.2243723
50
277.5031234
51
324.6667996
0
ARC
8
DEFAULT_255_2_778
10
129.3062658
20
55.9037536
40
0.3182377
50
279.0983426
51
279.4082515
0
ARC
8
DEFAULT_255_2_778
10
129.349794
20
55.8386302
40
0.249203
50
243.7595485
51
271.5623721
0
ARC
8
DEFAULT_255_2_778
10
129.3918401
20
55.8502961
40
0.2801549
50
184.0056181
51
237.0864691
0
ARC
8
DEFAULT_255_2_778
10
129.9165559
20
55.973656
40
0.8167892
50
188.1022541
51
190.0780759
0
ARC
8
DEFAULT_255_2_778
10
131.0060076
20
56.1090996
40
1.9145545
50
184.0779534
51
187.5199985
0
ARC
8
DEFAULT_255_2_778
10
122.0683862
20
55.3936991
40
7.0517449
50
4.7117407
51
4.739986
0
ARC
8
DEFAULT_255_2_778
10
127.1563192
20
55.8210603
40
1.9459058
50
4.579126
51
5.8507133
0
ARC
8
DEFAULT_255_2_778
10
129.9855615
20
56.0295827
40
0.8935307
50
168.2924992
51
180.6516885
0
ARC
8
DEFAULT_255_2_778
10
129.5225726
20
56.1308828
40
0.4196512
50
146.3384891
51
169.0086451
0
ARC
8
DEFAULT_255_2_778
10
129.34703
20
56.2502173
40
0.2074069
50
89.6246862
51
146.8977756
0
ARC
8
DEFAULT_255_2_778
10
129.4426896
20
56.239575
40
0.4002824
50
133.9146755
51
151.1497985
0
ARC
8
DEFAULT_255_2_778
10
129.3751359
20
56.3110003
40
0.3019765
50
105.2365207
51
134.080827
0
ARC
8
DEFAULT_255_2_778
10
129.3674048
20
56.3315611
40
0.2801143
50
89.9759255
51
104.8160093
0
ARC
8
DEFAULT_255_2_778
10
129.3675119
20
56.3267294
40
0.284946
50
86.9403129
51
89.9978622
0
ARC
8
DEFAULT_255_2_778
10
129.3594582
20
56.2835037
40
0.3285901
50
46.7637246
51
85.9402639
0
ARC
8
DEFAULT_255_2_778
10
129.2697147
20
56.1816928
40
0.4642583
50
24.5394444
51
47.3018303
0
ARC
8
DEFAULT_255_2_778
10
129.107605
20
56.1054992
40
0.6433734
50
8.1595951
51
24.7161389
0
ARC
8
DEFAULT_255_2_778
10
128.9222551
20
56.0741587
40
0.8313083
50
0.7692678
51
8.484653
0
LINE
8
DEFAULT_255_2_778
10
129.7534886
20
56.0853198
11
129.7534511
21
56.0848984
0
ARC
8
DEFAULT_255_2_778
10
126.2763348
20
56.3521781
40
3.4873738
50
351.1756887
51
355.6044207
0
ARC
8
DEFAULT_255_2_778
10
128.973344
20
55.9240729
40
0.7566716
50
335.6918882
51
351.8801223
0
ARC
8
DEFAULT_255_2_778
10
129.400269
20
55.7298319
40
0.2876403
50
273.6550134
51
335.9467919
0
ARC
8
DEFAULT_255_2_778
10
129.3628949
20
55.9270593
40
0.4874764
50
273.1507978
51
276.5623431
0
ARC
8
DEFAULT_255_2_778
10
129.3796018
20
55.8234069
40
0.3832199
50
249.2695437
51
271.5082575
0
ARC
8
DEFAULT_255_2_778
10
129.3904253
20
55.7963936
40
0.3623219
50
217.280782
51
246.1551723
0
ARC
8
DEFAULT_255_2_778
10
129.8785006
20
56.2321023
40
1.0158736
50
219.2743249
51
220.1609891
0
LINE
8
DEFAULT_255_2_778
10
129.3483886
20
56.4576198
11
129.3483886
21
56.4576198
0
LINE
8
DEFAULT_255_2_778
10
128.9266886
20
57.0693198
11
129.0920886
21
57.0693198
0
LINE
8
DEFAULT_255_2_778
10
129.0920886
20
57.0693198
11
129.0920886
21
56.4327198
0
LINE
8
DEFAULT_255_2_778
10
129.0920886
20
55.5890198
11
129.0920886
21
55.4649198
0
LINE
8
DEFAULT_255_2_778
10
129.0920886
20
55.4649198
11
128.9266886
21
55.4649198
0
LINE
8
DEFAULT_255_2_778
10
128.9266886
20
55.4649198
11
128.9266886
21
57.0688198
0
LINE
8
DEFAULT_255_2_778
10
128.9266886
20
57.0688198
11
128.9266886
21
57.0693198
0
LINE
8
DEFAULT_255_2_778
10
123.5100972
20
42.679201
11
99.5586972
21
42.679201
0
LINE
8
DEFAULT_255_2_778
10
99.5586972
20
42.679201
11
99.5602972
21
40.181801
0
LINE
8
DEFAULT_255_2_778
10
99.5602972
20
40.181801
11
99.6700972
21
40.181801
0
LINE
8
DEFAULT_255_2_778
10
99.6700972
20
40.181801
11
99.6700972
21
42.568601
0
LINE
8
DEFAULT_255_2_778
10
99.6700972
20
42.568601
11
123.4002972
21
42.568601
0
LINE
8
DEFAULT_255_2_778
10
123.4002972
20
42.568601
11
123.4002972
21
40.181801
0
LINE
8
DEFAULT_255_2_778
10
123.4002972
20
40.181801
11
123.5100972
21
40.181801
0
LINE
8
DEFAULT_255_2_778
10
123.5100972
20
40.181801
11
123.5100972
21
42.679201
0
LINE
8
DEFAULT_255_2_778
10
106.3897781
20
40.5270375
11
106.5873781
21
40.5270375
0
LINE
8
DEFAULT_255_2_778
10
106.5873781
20
40.5270375
11
106.5873781
21
40.2571375
0
LINE
8
DEFAULT_255_2_778
10
106.5873781
20
40.2571375
11
106.3897781
21
40.2571375
0
LINE
8
DEFAULT_255_2_778
10
106.3897781
20
40.2571375
11
106.3897781
21
40.5270375
0
LINE
8
DEFAULT_255_2_778
10
103.5449781
20
40.5336375
11
103.7425781
21
40.5336375
0
LINE
8
DEFAULT_255_2_778
10
103.7425781
20
40.5336375
11
103.7425781
21
40.2637375
0
LINE
8
DEFAULT_255_2_778
10
103.7425781
20
40.2637375
11
103.5449781
21
40.2637375
0
LINE
8
DEFAULT_255_2_778
10
103.5449781
20
40.2637375
11
103.5449781
21
40.5336375
0
LINE
8
DEFAULT_255_2_778
10
100.2064781
20
40.5339375
11
100.4040781
21
40.5339375
0
LINE
8
DEFAULT_255_2_778
10
100.4040781
20
40.5339375
11
100.4040781
21
40.2640375
0
LINE
8
DEFAULT_255_2_778
10
100.4040781
20
40.2640375
11
100.2064781
21
40.2640375
0
LINE
8
DEFAULT_255_2_778
10
100.2064781
20
40.2640375
11
100.2064781
21
40.5339375
0
LINE
8
DEFAULT_255_2_778
10
115.4056781
20
40.5336375
11
115.6032781
21
40.5336375
0
LINE
8
DEFAULT_255_2_778
10
115.6032781
20
40.5336375
11
115.6032781
21
40.2637375
0
LINE
8
DEFAULT_255_2_778
10
115.6032781
20
40.2637375
11
115.4056781
21
40.2637375
0
LINE
8
DEFAULT_255_2_778
10
115.4056781
20
40.2637375
11
115.4056781
21
40.5336375
0
LINE
8
DEFAULT_255_2_778
10
112.3634781
20
40.5336375
11
112.5610781
21
40.5336375
0
LINE
8
DEFAULT_255_2_778
10
112.5610781
20
40.5336375
11
112.5610781
21
40.2637375
0
LINE
8
DEFAULT_255_2_778
10
112.5610781
20
40.2637375
11
112.3634781
21
40.2637375
0
LINE
8
DEFAULT_255_2_778
10
112.3634781
20
40.2637375
11
112.3634781
21
40.5336375
0
LINE
8
DEFAULT_255_2_778
10
109.3924781
20
40.5336375
11
109.5900781
21
40.5336375
0
LINE
8
DEFAULT_255_2_778
10
109.5900781
20
40.5336375
11
109.5900781
21
40.2637375
0
LINE
8
DEFAULT_255_2_778
10
109.5900781
20
40.2637375
11
109.3924781
21
40.2637375
0
LINE
8
DEFAULT_255_2_778
10
109.3924781
20
40.2637375
11
109.3924781
21
40.5336375
0
ARC
8
DEFAULT_255_2_778
10
107.4213304
20
41.4681532
40
0.2236023
50
45.294737
51
90.1986223
0
ARC
8
DEFAULT_255_2_778
10
107.3899846
20
41.4668444
40
0.2475062
50
2.8052902
51
40.3443904
0
ARC
8
DEFAULT_255_2_778
10
107.1503002
20
41.4313252
40
0.4892184
50
359.8632732
51
5.5874504
0
ARC
8
DEFAULT_255_2_778
10
107.0269234
20
41.4305238
40
0.6125938
50
357.3362751
51
359.9657576
0
ARC
8
DEFAULT_255_2_778
10
107.0028176
20
41.5292974
40
0.6486406
50
332.6488101
51
348.6869743
0
ARC
8
DEFAULT_255_2_778
10
106.2880358
20
41.8838074
40
1.4464553
50
324.6756069
51
333.1844932
0
ARC
8
DEFAULT_255_2_778
10
105.1983433
20
42.6446443
40
2.7754615
50
319.5822258
51
324.8677041
0
ARC
8
DEFAULT_255_2_778
10
103.6612421
20
43.944811
40
4.7886896
50
316.0201881
51
319.6626727
0
ARC
8
DEFAULT_255_2_778
10
102.5483999
20
44.9969394
40
6.3200963
50
315.7299705
51
316.1622271
0
ARC
8
DEFAULT_255_2_778
10
104.0790507
20
43.7195591
40
4.4933771
50
313.1296558
51
318.2919034
0
ARC
8
DEFAULT_255_2_778
10
106.4892867
20
41.7529182
40
1.392156
50
312.7092096
51
328.268212
0
ARC
8
DEFAULT_255_2_778
10
106.8073409
20
41.5528523
40
1.0164255
50
328.4306332
51
349.1977614
0
ARC
8
DEFAULT_255_2_778
10
107.0063995
20
41.4823153
40
0.808307
50
351.4651839
51
357.0101037
0
ARC
8
DEFAULT_255_2_778
10
107.1473245
20
41.4738139
40
0.6671313
50
357.1079436
51
359.9715947
0
ARC
8
DEFAULT_255_2_778
10
107.3806505
20
41.4851144
40
0.4339611
50
358.4641404
51
26.0452172
0
ARC
8
DEFAULT_255_2_778
10
107.4537547
20
41.5040229
40
0.3602956
50
28.4488308
51
71.0077522
0
ARC
8
DEFAULT_255_2_778
10
107.3407414
20
41.240363
40
0.6467243
50
69.1420296
51
79.4497472
0
ARC
8
DEFAULT_255_2_778
10
107.4466737
20
41.2244712
40
0.6518025
50
88.9027642
51
107.4187644
0
ARC
8
DEFAULT_255_2_778
10
107.3602649
20
41.5060123
40
0.35731
50
107.7128498
51
176.0396304
0
ARC
8
DEFAULT_255_2_778
10
107.7210423
20
41.4312615
40
0.7240932
50
172.107485
51
180.2379648
0
ARC
8
DEFAULT_255_2_778
10
107.6858921
20
41.3210869
40
0.545566
50
151.8872104
51
168.6715428
0
ARC
8
DEFAULT_255_2_778
10
107.3871938
20
41.4922404
40
0.2017173
50
89.9792972
51
154.7890242
0
ARC
8
DEFAULT_255_2_778
10
107.3867096
20
41.4329815
40
0.2609767
50
82.5484147
51
89.8776851
0
LINE
8
DEFAULT_255_2_778
10
107.0739552
20
40.5852541
11
106.9326552
21
40.4534541
0
LINE
8
DEFAULT_255_2_778
10
106.9326552
20
40.4534541
11
106.9326552
21
40.2558541
0
LINE
8
DEFAULT_255_2_778
10
106.9326552
20
40.2558541
11
107.8441552
21
40.2558541
0
LINE
8
DEFAULT_255_2_778
10
107.8441552
20
40.2558541
11
107.8441552
21
40.4402541
0
LINE
8
DEFAULT_255_2_778
10
107.8441552
20
40.4402541
11
107.1509552
21
40.4402541
0
LINE
8
DEFAULT_255_2_778
10
106.9969552
20
41.4282541
11
107.1509552
21
41.4282541
0
LINE
8
DEFAULT_255_2_778
10
107.4205552
20
41.6917541
11
107.4205552
21
41.6917541
0
ARC
8
DEFAULT_255_2_778
10
110.6060185
20
41.4003003
40
0.6746842
50
156.9934273
51
174.8720338
0
ARC
8
DEFAULT_255_2_778
10
110.3288178
20
41.5176477
40
0.3736685
50
89.9846319
51
156.9433537
0
ARC
8
DEFAULT_255_2_778
10
110.3718142
20
41.2330619
40
0.6596506
50
89.9538844
51
93.7284935
0
ARC
8
DEFAULT_255_2_778
10
110.3714654
20
41.1132837
40
0.7794291
50
85.8202004
51
89.9353321
0
ARC
8
DEFAULT_255_2_778
10
110.3607429
20
40.9531745
40
0.9398945
50
85.7660364
51
85.8796848
0
ARC
8
DEFAULT_255_2_778
10
110.3600611
20
41.3990234
40
0.4964508
50
58.4266191
51
81.8856502
0
ARC
8
DEFAULT_255_2_778
10
110.4248538
20
41.5267501
40
0.353899
50
5.207457
51
56.5361106
0
ARC
8
DEFAULT_255_2_778
10
110.1566827
20
41.4743032
40
0.6263448
50
359.7975934
51
7.759638
0
ARC
8
DEFAULT_255_2_778
10
109.9580858
20
41.4734961
40
0.824939
50
355.0404432
51
359.9023813
0
ARC
8
DEFAULT_255_2_778
10
109.8161723
20
41.4843873
40
0.9672637
50
353.6677326
51
355.1244575
0
ARC
8
DEFAULT_255_2_778
10
110.4340028
20
41.4097429
40
0.3450227
50
295.3950559
51
354.6717932
0
ARC
8
DEFAULT_255_2_778
10
110.317731
20
41.5762062
40
0.5463023
50
298.5872438
51
298.9262448
0
ARC
8
DEFAULT_255_2_778
10
110.4214394
20
40.7128845
40
0.414767
50
36.3075962
51
67.6538004
0
ARC
8
DEFAULT_255_2_778
10
110.4284039
20
40.7384971
40
0.3943349
50
358.6631946
51
33.9071529
0
ARC
8
DEFAULT_255_2_778
10
110.259315
20
40.7250251
40
0.5633328
50
359.9968033
51
0.4345406
0
ARC
8
DEFAULT_255_2_778
10
110.1598374
20
40.7274201
40
0.6628149
50
351.8088686
51
359.7902504
0
ARC
8
DEFAULT_255_2_778
10
110.0051373
20
40.7470563
40
0.8187386
50
349.6814942
51
351.9911745
0
ARC
8
DEFAULT_255_2_778
10
110.2249103
20
40.7466
40
0.6036939
50
326.2443016
51
345.985387
0
ARC
8
DEFAULT_255_2_778
10
110.4002044
20
40.6374965
40
0.3973846
50
269.3703575
51
325.2793265
0
ARC
8
DEFAULT_255_2_778
10
110.3723694
20
40.8626319
40
0.6229383
50
269.9870986
51
272.1590295
0
ARC
8
DEFAULT_255_2_778
10
110.3743787
20
40.9823247
40
0.742634
50
262.8746071
51
269.8341563
0
ARC
8
DEFAULT_255_2_778
10
110.394951
20
41.1625662
40
0.9240374
50
259.8451429
51
262.9951412
0
ARC
8
DEFAULT_255_2_778
10
110.3401192
20
40.6036335
40
0.3669107
50
208.8219993
51
252.8676522
0
ARC
8
DEFAULT_255_2_778
10
110.697972
20
40.8247834
40
0.7873339
50
195.0839282
51
210.3676367
0
ARC
8
DEFAULT_255_2_778
10
111.157679
20
40.9667117
40
1.268256
50
192.1719894
51
195.8703458
0
ARC
8
DEFAULT_255_2_778
10
110.6319123
20
40.8796811
40
0.5774715
50
198.201326
51
217.1790079
0
ARC
8
DEFAULT_255_2_778
10
110.394863
20
40.6952838
40
0.2771938
50
216.4207882
51
270.5729193
0
ARC
8
DEFAULT_255_2_778
10
110.3246613
20
40.8696562
40
0.4574108
50
279.1799468
51
297.1128697
0
ARC
8
DEFAULT_255_2_778
10
110.4359379
20
40.6600753
40
0.2201752
50
296.1934446
51
2.6406319
0
ARC
8
DEFAULT_255_2_778
10
110.2380941
20
40.6662662
40
0.4178041
50
0.542094
51
12.9565253
0
ARC
8
DEFAULT_255_2_778
10
109.978342
20
40.6088468
40
0.683821
50
12.765325
51
20.7046163
0
ARC
8
DEFAULT_255_2_778
10
109.784887
20
40.5405382
40
0.8889437
50
20.4146292
51
21.3661361
0
ARC
8
DEFAULT_255_2_778
10
110.31145
20
40.6755776
40
0.3555669
50
32.0768917
51
58.9754147
0
ARC
8
DEFAULT_255_2_778
10
110.3697899
20
40.760241
40
0.2530261
50
60.4153161
51
90.4245401
0
ARC
8
DEFAULT_255_2_778
10
110.371135
20
40.6709024
40
0.3423729
50
90.538862
51
106.7644632
0
ARC
8
DEFAULT_255_2_778
10
110.3938164
20
40.580842
40
0.4351685
50
106.2036451
51
107.1309507
0
ARC
8
DEFAULT_255_2_778
10
110.2782485
20
41.6445666
40
0.4662334
50
268.4496909
51
290.9670043
0
ARC
8
DEFAULT_255_2_778
10
110.3409854
20
41.4571135
40
0.268877
50
292.7772174
51
357.9493847
0
ARC
8
DEFAULT_255_2_778
10
110.0691081
20
41.5077369
40
0.5439287
50
353.6409813
51
0.1545223
0
ARC
8
DEFAULT_255_2_778
10
110.3041399
20
41.4266398
40
0.3197386
50
14.9646751
51
44.4985556
0
ARC
8
DEFAULT_255_2_778
10
110.3836463
20
41.4904871
40
0.2185167
50
47.1700995
51
92.0303192
0
ARC
8
DEFAULT_255_2_778
10
110.3762646
20
41.3753632
40
0.3335037
50
90.0618417
51
94.7867276
0
ARC
8
DEFAULT_255_2_778
10
110.3461679
20
41.4838968
40
0.2238185
50
89.4197231
51
171.4410252
0
ARC
8
DEFAULT_255_2_778
10
110.5423123
20
41.4306068
40
0.426358
50
168.2807396
51
176.1137167
0
LINE
8
DEFAULT_255_2_778
10
110.1169347
20
41.4595039
11
109.9351347
21
41.4595039
0
LINE
8
DEFAULT_255_2_778
10
109.9179347
20
40.6993039
11
110.0833347
21
40.6993039
0
LINE
8
DEFAULT_255_2_778
10
110.2656347
20
40.9967039
11
110.2656347
21
41.1785039
0
LINE
8
DEFAULT_255_2_778
10
109.9351347
20
41.4595039
11
109.9340347
21
41.4606039
0
ARC
8
DEFAULT_255_2_778
10
116.5158919
20
40.8453768
40
0.3587293
50
142.135688
51
165.7813584
0
ARC
8
DEFAULT_255_2_778
10
116.3799769
20
40.9470561
40
0.189045
50
88.4218431
51
141.1805581
0
ARC
8
DEFAULT_255_2_778
10
116.3839711
20
40.8467885
40
0.2892435
50
80.2906501
51
89.7598694
0
ARC
8
DEFAULT_255_2_778
10
116.4353694
20
40.9558101
40
0.1760982
50
9.8902782
51
90.8515954
0
ARC
8
DEFAULT_255_2_778
10
116.0271093
20
40.8243184
40
0.6038066
50
0.3853534
51
15.5372696
0
ARC
8
DEFAULT_255_2_778
10
115.5970856
20
40.8014668
40
1.0341667
50
359.9846036
51
1.4912028
0
ARC
8
DEFAULT_255_2_778
10
115.8950813
20
40.788971
40
0.7362722
50
347.1786851
51
0.9508222
0
ARC
8
DEFAULT_255_2_778
10
116.3474396
20
40.6783003
40
0.270738
50
314.7178678
51
348.7720017
0
ARC
8
DEFAULT_255_2_778
10
116.4077634
20
40.6355547
40
0.1983316
50
267.6560879
51
311.0209069
0
ARC
8
DEFAULT_255_2_778
10
116.3868673
20
40.7015025
40
0.2644229
50
239.4519628
51
272.7713144
0
ARC
8
DEFAULT_255_2_778
10
116.367498
20
40.6345808
40
0.1977062
50
180.9618899
51
234.4224384
0
ARC
8
DEFAULT_255_2_778
10
116.5758723
20
40.6681061
40
0.4077209
50
179.8899978
51
185.1846891
0
LINE
8
DEFAULT_255_2_778
10
116.1681521
20
40.6688889
11
115.9697521
21
40.6688889
0
ARC
8
DEFAULT_255_2_778
10
116.7322835
20
40.7658404
40
0.7686701
50
187.2459548
51
202.853583
0
ARC
8
DEFAULT_255_2_778
10
116.3578829
20
40.5948162
40
0.3574458
50
200.8992246
51
269.3234855
0
ARC
8
DEFAULT_255_2_778
10
116.3811822
20
40.7762666
40
0.5395735
50
267.0764949
51
270.0234551
0
ARC
8
DEFAULT_255_2_778
10
116.380621
20
40.8565938
40
0.619901
50
270.0722838
51
274.8240354
0
ARC
8
DEFAULT_255_2_778
10
116.363514
20
40.6695218
40
0.4361636
50
279.1339706
51
344.534294
0
ARC
8
DEFAULT_255_2_778
10
115.8810428
20
40.8470104
40
0.9494415
50
341.9744198
51
356.1730823
0
ARC
8
DEFAULT_255_2_778
10
115.4807429
20
40.8911385
40
1.3519049
50
355.4393274
51
356.1849796
0
ARC
8
DEFAULT_255_2_778
10
115.6309351
20
40.738537
40
1.2003531
50
2.9918866
51
13.5680606
0
ARC
8
DEFAULT_255_2_778
10
116.2617348
20
40.8970801
40
0.5499979
50
12.9291741
51
33.3555717
0
ARC
8
DEFAULT_255_2_778
10
116.4769556
20
41.0374454
40
0.2930539
50
33.569084
51
92.1713994
0
ARC
8
DEFAULT_255_2_778
10
116.4531855
20
40.9228072
40
0.4076785
50
88.2195263
51
113.408561
0
ARC
8
DEFAULT_255_2_778
10
116.3911497
20
41.0803566
40
0.2385174
50
114.7688079
51
159.2171894
0
ARC
8
DEFAULT_255_2_778
10
116.1684248
20
41.1652214
40
0.0003584
50
220.4534909
51
266.1060739
0
ARC
8
DEFAULT_255_2_778
10
116.1015652
20
41.1858275
40
0.0700459
50
342.5852496
51
3.2475164
0
ARC
8
DEFAULT_255_2_778
10
114.0585261
20
41.2916951
40
2.1154284
50
357.2390114
51
358.9841938
0
ARC
8
DEFAULT_255_2_778
10
106.4621831
20
41.448861
40
9.7133899
50
358.851643
51
359.5593237
0
ARC
8
DEFAULT_255_2_778
10
90.2361804
20
41.5932562
40
25.9400306
50
359.5160451
51
359.8217431
0
ARC
8
DEFAULT_255_2_778
10
65.1504364
20
41.6777009
40
51.0259164
50
359.8145585
51
0.0091941
0
LINE
8
DEFAULT_255_2_778
10
116.7552521
20
41.8594889
11
116.0028521
21
41.8594889
0
LINE
8
DEFAULT_255_2_778
10
116.0028521
20
41.8594889
11
116.0028521
21
40.9334889
0
LINE
8
DEFAULT_255_2_778
10
116.0028521
20
40.9334889
11
116.1681521
21
40.9334889
0
LINE
8
DEFAULT_255_2_778
10
116.1763521
20
41.6858889
11
116.7552521
21
41.6858889
0
LINE
8
DEFAULT_255_2_778
10
116.7552521
20
41.6858889
11
116.7552521
21
41.8594889
0
LINE
8
DEFAULT_255_2_778
10
116.7552521
20
41.8594889
11
116.7552521
21
41.8594889
0
LINE
8
DEFAULT_255_2_778
10
121.952525
20
41.8642677
11
122.822425
21
41.8642677
0
LINE
8
DEFAULT_255_2_778
10
122.822425
20
41.8642677
11
122.822425
21
41.6681677
0
LINE
8
DEFAULT_255_2_778
10
122.822425
20
41.6681677
11
122.331625
21
40.2643677
0
LINE
8
DEFAULT_255_2_778
10
122.331625
20
40.2643677
11
122.125825
21
40.2643677
0
LINE
8
DEFAULT_255_2_778
10
122.125825
20
40.2643677
11
122.642025
21
41.6851677
0
LINE
8
DEFAULT_255_2_778
10
122.642025
20
41.6851677
11
121.952525
21
41.6851677
0
LINE
8
DEFAULT_255_2_778
10
121.952525
20
41.6851677
11
121.952525
21
41.8642677
0
LINE
8
DEFAULT_255_2_778
10
121.4016749
20
40.2643698
11
121.5993749
21
40.2643698
0
LINE
8
DEFAULT_255_2_778
10
121.5993749
20
40.2643698
11
121.5993749
21
40.5342698
0
LINE
8
DEFAULT_255_2_778
10
121.5993749
20
40.5342698
11
121.4016749
21
40.5342698
0
LINE
8
DEFAULT_255_2_778
10
121.4016749
20
40.5342698
11
121.4016749
21
40.2643698
0
LINE
8
DEFAULT_255_2_778
10
118.3862749
20
40.2643698
11
118.5838749
21
40.2643698
0
LINE
8
DEFAULT_255_2_778
10
118.5838749
20
40.2643698
11
118.5838749
21
40.5342698
0
LINE
8
DEFAULT_255_2_778
10
118.5838749
20
40.5342698
11
118.3862749
21
40.5342698
0
LINE
8
DEFAULT_255_2_778
10
118.3862749
20
40.5342698
11
118.3862749
21
40.2643698
0
LINE
8
DEFAULT_255_2_778
10
104.5249749
20
41.8441698
11
104.2786749
21
41.6359698
0
LINE
8
DEFAULT_255_2_778
10
104.2786749
20
41.6359698
11
104.2270749
21
41.6086698
0
LINE
8
DEFAULT_255_2_778
10
104.2270749
20
41.6086698
11
104.2270749
21
41.4091698
0
LINE
8
DEFAULT_255_2_778
10
104.2402749
20
41.4158698
11
104.4797749
21
41.5798698
0
LINE
8
DEFAULT_255_2_778
10
104.4797749
20
41.5798698
11
104.5072749
21
41.6076698
0
LINE
8
DEFAULT_255_2_778
10
104.5072749
20
41.6076698
11
104.5072749
21
40.2638698
0
LINE
8
DEFAULT_255_2_778
10
104.5072749
20
40.2638698
11
104.6786749
21
40.2638698
0
LINE
8
DEFAULT_255_2_778
10
104.6786749
20
40.2638698
11
104.6786749
21
41.8547698
0
LINE
8
DEFAULT_255_2_778
10
104.6786749
20
41.8547698
11
104.5336749
21
41.8547698
0
LINE
8
DEFAULT_255_2_778
10
112.9930042
20
40.8389677
11
113.4383042
21
40.8389677
0
LINE
8
DEFAULT_255_2_778
10
113.4383042
20
40.8389677
11
113.4383042
21
41.6361677
0
LINE
8
DEFAULT_255_2_778
10
113.4383042
20
41.6361677
11
112.9930042
21
40.8389677
0
LINE
8
DEFAULT_255_2_778
10
113.4158042
20
41.8639677
11
113.6182042
21
41.8639677
0
LINE
8
DEFAULT_255_2_778
10
113.6182042
20
41.8639677
11
113.6182042
21
40.8389677
0
LINE
8
DEFAULT_255_2_778
10
113.6182042
20
40.8389677
11
113.8603042
21
40.8389677
0
LINE
8
DEFAULT_255_2_778
10
113.8603042
20
40.8389677
11
113.8603042
21
40.6643677
0
LINE
8
DEFAULT_255_2_778
10
113.8603042
20
40.6643677
11
113.6182042
21
40.6643677
0
LINE
8
DEFAULT_255_2_778
10
113.6182042
20
40.6643677
11
113.6182042
21
40.2640677
0
LINE
8
DEFAULT_255_2_778
10
113.6182042
20
40.2640677
11
113.4467042
21
40.2640677
0
LINE
8
DEFAULT_255_2_778
10
113.4467042
20
40.2640677
11
113.4467042
21
40.6643677
0
LINE
8
DEFAULT_255_2_778
10
113.4467042
20
40.6643677
11
112.8517042
21
40.6643677
0
LINE
8
DEFAULT_255_2_778
10
112.8517042
20
40.6643677
11
112.8517042
21
40.8572677
0
LINE
8
DEFAULT_255_2_778
10
112.8517042
20
40.8572677
11
113.4158042
21
41.8639677
0
ARC
8
DEFAULT_255_2_778
10
99.571836
20
41.0577323
40
1.9395762
50
359.6354686
51
6.8546503
0
ARC
8
DEFAULT_255_2_778
10
100.5534618
20
41.1809744
40
0.9502721
50
6.5409308
51
18.8058806
0
ARC
8
DEFAULT_255_2_778
10
101.0640474
20
41.3619566
40
0.408657
50
17.8627073
51
43.9977884
0
ARC
8
DEFAULT_255_2_778
10
101.1771154
20
41.4598477
40
0.2594487
50
45.7914749
51
91.6217143
0
ARC
8
DEFAULT_255_2_778
10
101.1398075
20
41.4763418
40
0.2446922
50
82.9658127
51
89.9056457
0
ARC
8
DEFAULT_255_2_778
10
101.1436004
20
41.5099949
40
0.2110659
50
90.9202543
51
153.8266201
0
ARC
8
DEFAULT_255_2_778
10
101.4716808
20
41.3089338
40
0.5952654
50
150.3852234
51
166.1757034
0
ARC
8
DEFAULT_255_2_778
10
102.183633
20
41.1203559
40
1.3317178
50
165.6164788
51
173.829193
0
ARC
8
DEFAULT_255_2_778
10
103.4129637
20
40.9801107
40
2.5690114
50
173.6666414
51
178.9632793
0
ARC
8
DEFAULT_255_2_778
10
102.9853204
20
41.0669362
40
2.1413275
50
181.0795507
51
187.3071228
0
ARC
8
DEFAULT_255_2_778
10
101.8951829
20
40.9221406
40
1.041639
50
187.0338915
51
197.5215129
0
ARC
8
DEFAULT_255_2_778
10
101.3158539
20
40.7328822
40
0.4322523
50
196.7178818
51
218.0606576
0
ARC
8
DEFAULT_255_2_778
10
101.1356993
20
40.5913626
40
0.2031602
50
217.9585244
51
270.6515051
0
ARC
8
DEFAULT_255_2_778
10
101.1375476
20
40.6518152
40
0.2636
50
270.1003717
51
277.0220325
0
ARC
8
DEFAULT_255_2_778
10
101.1730451
20
40.6700331
40
0.2798599
50
269.3300766
51
340.1724169
0
ARC
8
DEFAULT_255_2_778
10
100.7507056
20
40.8753645
40
0.7484743
50
336.3493337
51
351.1104551
0
ARC
8
DEFAULT_255_2_778
10
99.9394505
20
41.0138797
40
1.5714315
50
350.691588
51
358.9701419
0
ARC
8
DEFAULT_255_2_778
10
99.1698366
20
41.044694
40
2.3415365
50
358.55473
51
0.0170869
0
ARC
8
DEFAULT_255_2_778
10
99.8047139
20
41.0765819
40
1.8694007
50
359.6172
51
7.9480884
0
ARC
8
DEFAULT_255_2_778
10
100.6685697
20
41.2023969
40
0.9964596
50
7.6516205
51
21.5173441
0
ARC
8
DEFAULT_255_2_778
10
101.1267896
20
41.3905875
40
0.5011984
50
20.7162068
51
50.6745514
0
ARC
8
DEFAULT_255_2_778
10
101.1724171
20
41.4157035
40
0.4532688
50
53.1249101
51
90.9965548
0
ARC
8
DEFAULT_255_2_778
10
101.1536891
20
41.205269
40
0.6637233
50
89.063801
51
90.0014
0
ARC
8
DEFAULT_255_2_778
10
101.1826723
20
41.4284597
40
0.4414861
50
93.7662283
51
158.7665532
0
ARC
8
DEFAULT_255_2_778
10
101.6626649
20
41.1927637
40
0.9753336
50
156.0717067
51
170.1628432
0
ARC
8
DEFAULT_255_2_778
10
102.4966193
20
41.0384411
40
1.8234175
50
169.8620142
51
178.3031815
0
ARC
8
DEFAULT_255_2_778
10
103.1252415
20
41.0032914
40
2.4528606
50
177.917284
51
178.1402949
0
ARC
8
DEFAULT_255_2_778
10
103.1079502
20
41.138855
40
2.4349205
50
181.3169659
51
187.5764641
0
ARC
8
DEFAULT_255_2_778
10
102.0420553
20
40.9927855
40
1.3590784
50
187.3970036
51
197.1346096
0
ARC
8
DEFAULT_255_2_778
10
101.4024251
20
40.7896716
40
0.6880203
50
196.6638935
51
214.445034
0
ARC
8
DEFAULT_255_2_778
10
101.1372785
20
40.6028253
40
0.3637022
50
213.7966981
51
271.5205915
0
ARC
8
DEFAULT_255_2_778
10
101.1465083
20
40.7503053
40
0.5110544
50
270.047258
51
274.4513906
0
ARC
8
DEFAULT_255_2_778
10
101.2023174
20
40.6426142
40
0.4021461
50
267.6992023
51
334.9560392
0
ARC
8
DEFAULT_255_2_778
10
100.8216106
20
40.8481968
40
0.8344634
50
333.2326369
51
348.8384702
0
ARC
8
DEFAULT_255_2_778
10
100.0682997
20
41.0077097
40
1.6044389
50
348.457323
51
357.3668239
0
ARC
8
DEFAULT_255_2_778
10
99.2239673
20
41.0616986
40
2.4504069
50
357.0127667
51
0.0629846
0
LINE
8
DEFAULT_255_2_778
10
101.5113729
20
41.0453923
11
101.5113729
21
41.0453923
0
LINE
8
DEFAULT_255_2_778
10
101.6743729
20
41.0643923
11
101.6740729
21
41.0640923
0
ARC
8
DEFAULT_255_2_778
10
103.2762309
20
44.1148334
40
0.330092
50
143.1135385
51
179.3614695
0
ARC
8
DEFAULT_255_2_778
10
103.2518572
20
44.1072662
40
0.3158173
50
99.8011623
51
139.3586628
0
ARC
8
DEFAULT_255_2_778
10
103.3359647
20
43.7550893
40
0.6775597
50
89.4000446
51
101.740446
0
ARC
8
DEFAULT_255_2_778
10
103.339633
20
44.1030625
40
0.3295673
50
47.7725444
51
89.4043029
0
ARC
8
DEFAULT_255_2_778
10
103.2980661
20
44.0900791
40
0.3677791
50
11.194243
51
44.3347685
0
ARC
8
DEFAULT_255_2_778
10
102.9920874
20
44.0066549
40
0.6844999
50
5.2100135
51
13.0725431
0
ARC
8
DEFAULT_255_2_778
10
104.0579729
20
43.3961508
40
0.3843756
50
178.3360597
51
192.6709132
0
ARC
8
DEFAULT_255_2_778
10
103.7867197
20
43.3385826
40
0.1071526
50
194.4536518
51
206.0583275
0
ARC
8
DEFAULT_255_2_778
10
103.5547042
20
43.3259104
40
0.0367535
50
177.0018032
51
249.3776806
0
ARC
8
DEFAULT_255_2_778
10
103.9991707
20
43.4201554
40
0.4899466
50
180.5070058
51
190.8614073
0
ARC
8
DEFAULT_255_2_778
10
104.8514551
20
43.4554357
40
1.3427964
50
179.9412737
51
181.6906092
0
ARC
8
DEFAULT_255_2_778
10
103.2302587
20
43.5709491
40
0.3008891
50
267.2397261
51
337.7076297
0
ARC
8
DEFAULT_255_2_778
10
103.2125239
20
43.7321378
40
0.46174
50
269.9960422
51
270.4026455
0
ARC
8
DEFAULT_255_2_778
10
103.2141277
20
43.8157878
40
0.5453924
50
262.7033596
51
269.828156
0
ARC
8
DEFAULT_255_2_778
10
103.1789241
20
43.5280743
40
0.255543
50
186.4561803
51
262.3394845
0
ARC
8
DEFAULT_255_2_778
10
103.5123671
20
43.6212624
40
0.5998859
50
183.1008887
51
191.7266238
0
ARC
8
DEFAULT_255_2_778
10
103.4093333
20
43.6015451
40
0.4961374
50
159.0423266
51
181.4706275
0
ARC
8
DEFAULT_255_2_778
10
103.2217645
20
43.6639118
40
0.298801
50
95.6367626
51
157.3453617
0
ARC
8
DEFAULT_255_2_778
10
103.2903578
20
43.354508
40
0.6146141
50
89.6735748
51
99.1694777
0
ARC
8
DEFAULT_255_2_778
10
103.3173368
20
44.1015024
40
0.1817398
50
15.7428167
51
92.1687133
0
ARC
8
DEFAULT_255_2_778
10
103.294913
20
44.1006433
40
0.1831298
50
85.1301517
51
173.0130243
0
ARC
8
DEFAULT_255_2_778
10
103.4506143
20
44.0499744
40
0.3452648
50
167.8029868
51
168.6857431
0
LINE
8
DEFAULT_255_2_778
10
103.1115594
20
44.118512
11
102.9461594
21
44.118512
0
LINE
8
DEFAULT_255_2_778
10
103.6737594
20
44.068812
11
103.6737594
21
43.407312
0
LINE
8
DEFAULT_255_2_778
10
103.6904594
20
43.291512
11
103.5417594
21
43.291512
0
LINE
8
DEFAULT_255_2_778
10
103.2938594
20
43.969112
11
103.4922594
21
43.985512
0
LINE
8
DEFAULT_255_2_778
10
103.4922594
20
43.985512
11
103.4922594
21
44.150812
0
LINE
8
DEFAULT_255_2_778
10
103.1120594
20
44.117712
11
103.1115594
21
44.118512
0
ARC
8
DEFAULT_255_2_778
10
103.4963017
20
42.3869309
40
1.4506581
50
89.5205017
51
96.8791854
0
ARC
8
DEFAULT_255_2_778
10
103.3810531
20
43.2905067
40
0.5398188
50
96.2219525
51
111.0944108
0
ARC
8
DEFAULT_255_2_778
10
103.2300843
20
43.6566799
40
0.1441341
50
107.48879
51
156.9690477
0
ARC
8
DEFAULT_255_2_778
10
103.1917532
20
43.6811548
40
0.0995679
50
161.3050739
51
166.0025183
0
ARC
8
DEFAULT_255_2_778
10
103.6001941
20
43.5845983
40
0.5192608
50
166.5657006
51
175.660893
0
ARC
8
DEFAULT_255_2_778
10
103.4457404
20
43.5986289
40
0.3641955
50
176.0234579
51
179.9403083
0
ARC
8
DEFAULT_255_2_778
10
103.2822235
20
43.5889239
40
0.2009315
50
177.1231888
51
216.6928832
0
ARC
8
DEFAULT_255_2_778
10
103.2518254
20
43.5761659
40
0.16912
50
219.3817003
51
244.0956497
0
ARC
8
DEFAULT_255_2_778
10
103.2424776
20
44.310477
40
0.8887849
50
265.836025
51
269.5923483
0
ARC
8
DEFAULT_255_2_778
10
103.239752
20
44.1408176
40
0.719112
50
269.7133264
51
270.0025456
0
ARC
8
DEFAULT_255_2_778
10
103.2497746
20
43.8385349
40
0.4169491
50
268.626991
51
284.9539045
0
ARC
8
DEFAULT_255_2_778
10
103.3348314
20
43.5494329
40
0.1159375
50
281.2072699
51
338.2855477
0
ARC
8
DEFAULT_255_2_778
10
103.12826
20
43.6997546
40
0.3689251
50
328.4173451
51
350.491937
0
ARC
8
DEFAULT_255_2_778
10
102.5251515
20
43.8175552
40
0.9833467
50
349.5271821
51
359.8992343
0
ARC
8
DEFAULT_255_2_778
10
101.9509144
20
43.8371092
40
1.5577277
50
359.2171385
51
0.0047471
0
LINE
8
DEFAULT_255_2_778
10
103.5086419
20
43.8372382
11
103.5084419
21
43.8375382
0
ARC
8
DEFAULT_255_2_778
10
101.5845873
20
44.2635138
40
0.7047764
50
112.999527
51
163.939488
0
ARC
8
DEFAULT_255_2_778
10
102.114228
20
44.0778011
40
1.2655262
50
162.493366
51
176.1216889
0
ARC
8
DEFAULT_255_2_778
10
102.702042
20
44.022093
40
1.8558294
50
175.6331971
51
180.0841845
0
ARC
8
DEFAULT_255_2_778
10
102.2852499
20
44.0070312
40
1.4390882
50
179.508888
51
190.3433333
0
ARC
8
DEFAULT_255_2_778
10
101.6469416
20
43.884754
40
0.7892186
50
189.9306685
51
209.3490777
0
ARC
8
DEFAULT_255_2_778
10
101.4071647
20
43.7531179
40
0.5157059
50
209.6580576
51
243.4822278
0
ARC
8
DEFAULT_255_2_778
10
100.9026813
20
44.0680055
40
1.1061702
50
326.982966
51
353.3668822
0
ARC
8
DEFAULT_255_2_778
10
100.561995
20
44.1218972
40
1.4508705
50
352.8069831
51
0.1164099
0
ARC
8
DEFAULT_255_2_778
10
100.2739553
20
44.1226918
40
1.7389086
50
0.0709441
51
5.1164687
0
ARC
8
DEFAULT_255_2_778
10
100.0925236
20
44.1087613
40
1.9208612
50
5.0477103
51
5.7217482
0
ARC
8
DEFAULT_255_2_778
10
100.5892298
20
44.015512
40
1.4429605
50
11.3814667
51
21.1322611
0
ARC
8
DEFAULT_255_2_778
10
101.1861901
20
44.2510359
40
0.8012464
50
20.8127823
51
37.2834129
0
ARC
8
DEFAULT_255_2_778
10
101.4487122
20
44.4563253
40
0.4680351
50
36.7553684
51
91.4414127
0
ARC
8
DEFAULT_255_2_778
10
101.4385292
20
44.2452282
40
0.6789858
50
90.1341977
51
97.4571071
0
ARC
8
DEFAULT_255_2_778
10
101.4531046
20
44.1223177
40
0.8027498
50
97.3500699
51
100.3258683
0
LINE
8
DEFAULT_255_2_778
10
101.1769146
20
43.2916662
11
101.3092146
21
43.2586662
0
LINE
8
DEFAULT_255_2_778
10
101.3092146
20
43.2586662
11
102.1030146
21
43.2750662
0
LINE
8
DEFAULT_255_2_778
10
102.1030146
20
43.2750662
11
102.1030146
21
43.4652662
0
LINE
8
DEFAULT_255_2_778
10
102.1030146
20
43.4652662
11
101.8302146
21
43.4652662
0
LINE
8
DEFAULT_255_2_778
10
101.3092146
20
44.9120662
11
101.3092146
21
44.9122662
0
ARC
8
DEFAULT_255_2_778
10
100.1898976
20
44.077009
40
1.6155096
50
359.5687025
51
8.1029936
0
ARC
8
DEFAULT_255_2_778
10
101.0031775
20
44.1985223
40
0.7932418
50
7.693737
51
22.8308235
0
ARC
8
DEFAULT_255_2_778
10
101.4267195
20
44.3952469
40
0.3269918
50
19.8554814
51
91.9555037
0
ARC
8
DEFAULT_255_2_778
10
101.381546
20
44.3979782
40
0.3258503
50
84.007986
51
89.9225528
0
ARC
8
DEFAULT_255_2_778
10
101.3822957
20
44.4655972
40
0.2582311
50
90.0686152
51
155.5396792
0
ARC
8
DEFAULT_255_2_778
10
101.7455333
20
44.2567355
40
0.676516
50
152.1743744
51
167.4032241
0
ARC
8
DEFAULT_255_2_778
10
102.4828116
20
44.0804689
40
1.4345328
50
166.9546135
51
175.3702892
0
ARC
8
DEFAULT_255_2_778
10
103.4465457
20
43.9885071
40
2.4025853
50
175.0394449
51
178.615725
0
ARC
8
DEFAULT_255_2_778
10
102.833001
20
44.0854258
40
1.788762
50
181.2453829
51
188.5561001
0
ARC
8
DEFAULT_255_2_778
10
101.9313882
20
43.9445465
40
0.8762391
50
188.2179421
51
200.8522618
0
ARC
8
DEFAULT_255_2_778
10
101.4665479
20
43.760562
40
0.3764097
50
199.8674627
51
227.1555991
0
ARC
8
DEFAULT_255_2_778
10
101.3733859
20
43.6724545
40
0.2485995
50
229.0902651
51
271.3866605
0
ARC
8
DEFAULT_255_2_778
10
101.3788893
20
43.7749327
40
0.3510054
50
270.0836633
51
275.9970652
0
ARC
8
DEFAULT_255_2_778
10
101.428629
20
43.7533964
40
0.3278087
50
267.715402
51
339.6538452
0
ARC
8
DEFAULT_255_2_778
10
101.0288359
20
43.9393121
40
0.7681117
50
337.0189052
51
352.3536012
0
ARC
8
DEFAULT_255_2_778
10
100.2641866
20
44.0536264
40
1.5412157
50
351.924058
51
0.4171851
0
LINE
8
DEFAULT_255_2_778
10
101.8053615
20
44.0648483
11
101.8053615
21
44.0648483
0
LINE
8
DEFAULT_255_2_778
10
100.0387136
20
43.2895677
11
100.2247136
21
43.3165677
0
LINE
8
DEFAULT_255_2_778
10
100.2247136
20
43.3165677
11
100.3390136
21
43.3646677
0
LINE
8
DEFAULT_255_2_778
10
100.3390136
20
43.3646677
11
100.4316136
21
43.4371677
0
LINE
8
DEFAULT_255_2_778
10
100.4316136
20
43.4371677
11
100.4941136
21
43.5130677
0
LINE
8
DEFAULT_255_2_778
10
100.4941136
20
43.5130677
11
100.5435136
21
43.5985677
0
LINE
8
DEFAULT_255_2_778
10
100.5435136
20
43.5985677
11
100.5703136
21
43.6617677
0
LINE
8
DEFAULT_255_2_778
10
100.5703136
20
43.6617677
11
100.5882136
21
43.7173677
0
LINE
8
DEFAULT_255_2_778
10
100.5882136
20
43.7173677
11
100.6022136
21
43.7739677
0
LINE
8
DEFAULT_255_2_778
10
100.6022136
20
43.7739677
11
100.6126136
21
43.8313677
0
LINE
8
DEFAULT_255_2_778
10
100.6126136
20
43.8313677
11
100.6142136
21
44.2989677
0
LINE
8
DEFAULT_255_2_778
10
100.6142136
20
44.2989677
11
100.6049136
21
44.3560677
0
LINE
8
DEFAULT_255_2_778
10
100.6049136
20
44.3560677
11
100.5925136
21
44.4126677
0
LINE
8
DEFAULT_255_2_778
10
100.5925136
20
44.4126677
11
100.5763136
21
44.4684677
0
LINE
8
DEFAULT_255_2_778
10
100.5763136
20
44.4684677
11
100.5478136
21
44.5423677
0
LINE
8
DEFAULT_255_2_778
10
100.5478136
20
44.5423677
11
100.5091136
21
44.6166677
0
LINE
8
DEFAULT_255_2_778
10
100.5091136
20
44.6166677
11
100.4485136
21
44.7018677
0
LINE
8
DEFAULT_255_2_778
10
100.4485136
20
44.7018677
11
100.3745136
21
44.7738677
0
LINE
8
DEFAULT_255_2_778
10
100.3745136
20
44.7738677
11
100.2686136
21
44.8365677
0
LINE
8
DEFAULT_255_2_778
10
100.2686136
20
44.8365677
11
100.0871136
21
44.8833677
0
LINE
8
DEFAULT_255_2_778
10
100.0871136
20
44.8833677
11
99.9834136
21
44.8894677
0
LINE
8
DEFAULT_255_2_778
10
99.9834136
20
44.8894677
11
99.5778136
21
44.8894677
0
LINE
8
DEFAULT_255_2_778
10
99.5778136
20
44.8894677
11
99.5778136
21
43.2895677
0
LINE
8
DEFAULT_255_2_778
10
99.5778136
20
43.2895677
11
100.0178136
21
43.2895677
0
LINE
8
DEFAULT_255_2_778
10
99.9836802
20
44.7076958
11
99.7531802
21
44.7076958
0
LINE
8
DEFAULT_255_2_778
10
99.7531802
20
44.7076958
11
99.7531802
21
43.4704958
0
LINE
8
DEFAULT_255_2_778
10
99.7531802
20
43.4704958
11
100.1092802
21
43.4773958
0
LINE
8
DEFAULT_255_2_778
10
100.1092802
20
43.4773958
11
100.2410802
21
43.5225958
0
LINE
8
DEFAULT_255_2_778
10
100.2410802
20
43.5225958
11
100.3182802
21
43.5842958
0
LINE
8
DEFAULT_255_2_778
10
100.3182802
20
43.5842958
11
100.3608802
21
43.6405958
0
LINE
8
DEFAULT_255_2_778
10
100.3608802
20
43.6405958
11
100.3937802
21
43.7059958
0
LINE
8
DEFAULT_255_2_778
10
100.3937802
20
43.7059958
11
100.4119802
21
43.7577958
0
LINE
8
DEFAULT_255_2_778
10
100.4119802
20
43.7577958
11
100.4283802
21
43.8223958
0
LINE
8
DEFAULT_255_2_778
10
100.4283802
20
43.8223958
11
100.4363802
21
43.8660958
0
LINE
8
DEFAULT_255_2_778
10
100.4363802
20
43.8660958
11
100.4423802
21
43.9099958
0
LINE
8
DEFAULT_255_2_778
10
100.4423802
20
43.9099958
11
100.4413802
21
44.2806958
0
LINE
8
DEFAULT_255_2_778
10
100.4413802
20
44.2806958
11
100.4333802
21
44.3258958
0
LINE
8
DEFAULT_255_2_778
10
100.4333802
20
44.3258958
11
100.4225802
21
44.3705958
0
LINE
8
DEFAULT_255_2_778
10
100.4225802
20
44.3705958
11
100.4085802
21
44.4144958
0
LINE
8
DEFAULT_255_2_778
10
100.4085802
20
44.4144958
11
100.3738802
21
44.4920958
0
LINE
8
DEFAULT_255_2_778
10
100.3738802
20
44.4920958
11
100.3222802
21
44.5687958
0
LINE
8
DEFAULT_255_2_778
10
100.3222802
20
44.5687958
11
100.2439802
21
44.6399958
0
LINE
8
DEFAULT_255_2_778
10
100.2439802
20
44.6399958
11
100.1270802
21
44.6904958
0
LINE
8
DEFAULT_255_2_778
10
100.1270802
20
44.6904958
11
99.9992802
21
44.7076958
0
LINE
8
DEFAULT_255_2_778
10
99.9836802
20
44.7076958
11
99.7531802
21
44.7076958
0
LINE
8
DEFAULT_255_2_778
10
99.7531802
20
44.7076958
11
99.7531802
21
43.4704958
0
LINE
8
DEFAULT_255_2_778
10
99.7531802
20
43.4704958
11
100.1092802
21
43.4773958
0
LINE
8
DEFAULT_255_2_778
10
100.1092802
20
43.4773958
11
100.2410802
21
43.5225958
0
LINE
8
DEFAULT_255_2_778
10
100.2410802
20
43.5225958
11
100.3182802
21
43.5842958
0
LINE
8
DEFAULT_255_2_778
10
100.3182802
20
43.5842958
11
100.3608802
21
43.6405958
0
LINE
8
DEFAULT_255_2_778
10
100.3608802
20
43.6405958
11
100.3937802
21
43.7059958
0
LINE
8
DEFAULT_255_2_778
10
100.3937802
20
43.7059958
11
100.4119802
21
43.7577958
0
LINE
8
DEFAULT_255_2_778
10
100.4119802
20
43.7577958
11
100.4283802
21
43.8223958
0
LINE
8
DEFAULT_255_2_778
10
100.4283802
20
43.8223958
11
100.4363802
21
43.8660958
0
LINE
8
DEFAULT_255_2_778
10
100.4363802
20
43.8660958
11
100.4423802
21
43.9099958
0
LINE
8
DEFAULT_255_2_778
10
100.4423802
20
43.9099958
11
100.4413802
21
44.2806958
0
LINE
8
DEFAULT_255_2_778
10
100.4413802
20
44.2806958
11
100.4333802
21
44.3258958
0
LINE
8
DEFAULT_255_2_778
10
100.4333802
20
44.3258958
11
100.4225802
21
44.3705958
0
LINE
8
DEFAULT_255_2_778
10
100.4225802
20
44.3705958
11
100.4085802
21
44.4144958
0
LINE
8
DEFAULT_255_2_778
10
100.4085802
20
44.4144958
11
100.3738802
21
44.4920958
0
LINE
8
DEFAULT_255_2_778
10
100.3738802
20
44.4920958
11
100.3222802
21
44.5687958
0
LINE
8
DEFAULT_255_2_778
10
100.3222802
20
44.5687958
11
100.2439802
21
44.6399958
0
LINE
8
DEFAULT_255_2_778
10
100.2439802
20
44.6399958
11
100.1270802
21
44.6904958
0
LINE
8
DEFAULT_255_2_778
10
100.1270802
20
44.6904958
11
99.9992802
21
44.7076958
0
ARC
8
DEFAULT_255_2_778
10
119.1447947
20
41.421698
40
0.6604129
50
3.688561
51
21.8049507
0
ARC
8
DEFAULT_255_2_778
10
119.4358884
20
41.5395291
40
0.34638
50
21.5941165
51
89.3133386
0
ARC
8
DEFAULT_255_2_778
10
119.4220045
20
41.3064515
40
0.5797135
50
88.2172274
51
89.991477
0
ARC
8
DEFAULT_255_2_778
10
119.4090725
20
41.4752935
40
0.4110775
50
88.1852242
51
152.8958511
0
ARC
8
DEFAULT_255_2_778
10
119.7753233
20
41.2596613
40
0.8357273
50
151.1758692
51
166.549466
0
ARC
8
DEFAULT_255_2_778
10
120.534696
20
41.0678877
40
1.6189089
50
166.1998318
51
175.2060971
0
ARC
8
DEFAULT_255_2_778
10
121.6842514
20
40.9606332
40
2.7734273
50
174.9827989
51
180.1910714
0
ARC
8
DEFAULT_255_2_778
10
120.2290591
20
40.9177663
40
1.3186482
50
178.5391247
51
179.9951151
0
ARC
8
DEFAULT_255_2_778
10
119.9558883
20
40.9031572
40
1.045581
50
179.1932599
51
205.2588364
0
ARC
8
DEFAULT_255_2_778
10
119.872295
20
40.8735676
40
0.9573954
50
205.7920359
51
210.9642685
0
ARC
8
DEFAULT_255_2_778
10
119.4638743
20
40.7345033
40
0.5432869
50
220.5947045
51
243.2066425
0
ARC
8
DEFAULT_255_2_778
10
119.3666394
20
40.5535789
40
0.3379966
50
244.0948715
51
269.7966051
0
ARC
8
DEFAULT_255_2_778
10
119.3078597
20
40.8116784
40
0.5988686
50
275.5173764
51
298.5980686
0
ARC
8
DEFAULT_255_2_778
10
119.3812206
20
40.6546794
40
0.4260439
50
300.0423968
51
346.4118742
0
ARC
8
DEFAULT_255_2_778
10
119.0419975
20
40.7678082
40
0.7829359
50
344.1965144
51
359.8065236
0
ARC
8
DEFAULT_255_2_778
10
119.0481423
20
40.7595464
40
0.7768068
50
0.4143756
51
28.5130763
0
ARC
8
DEFAULT_255_2_778
10
118.9102858
20
40.6991822
40
0.9268458
50
27.7239686
51
27.9212234
0
ARC
8
DEFAULT_255_2_778
10
119.3300772
20
40.8831814
40
0.4709905
50
32.0596975
51
53.1001299
0
ARC
8
DEFAULT_255_2_778
10
119.4418431
20
41.0281174
40
0.2879905
50
53.5687496
51
90.1150383
0
ARC
8
DEFAULT_255_2_778
10
119.4442534
20
40.9539642
40
0.3621554
50
90.4728114
51
106.7536004
0
ARC
8
DEFAULT_255_2_778
10
119.4659393
20
40.8681062
40
0.4506376
50
106.2470856
51
107.2456039
0
ARC
8
DEFAULT_255_2_778
10
119.4726137
20
40.8824291
40
0.4390659
50
108.6316766
51
149.0997686
0
ARC
8
DEFAULT_255_2_778
10
119.6624554
20
40.7404478
40
0.6753143
50
147.0345255
51
150.2857192
0
ARC
8
DEFAULT_255_2_778
10
121.1384812
20
40.9145002
40
2.0687913
50
169.0146209
51
175.5453191
0
ARC
8
DEFAULT_255_2_778
10
120.0998271
20
41.121535
40
1.0097314
50
158.1352179
51
169.3163129
0
ARC
8
DEFAULT_255_2_778
10
119.555207
20
41.3472048
40
0.4202971
50
135.5808933
51
159.0363818
0
ARC
8
DEFAULT_255_2_778
10
119.4106614
20
41.4844513
40
0.2210203
50
97.4929249
51
134.7666524
0
ARC
8
DEFAULT_255_2_778
10
119.4195891
20
41.3721036
40
0.3336233
50
90.1382598
51
96.4969501
0
ARC
8
DEFAULT_255_2_778
10
119.4274221
20
41.5148382
40
0.1910832
50
8.7061216
51
92.5909769
0
ARC
8
DEFAULT_255_2_778
10
119.1446966
20
41.4215426
40
0.4871865
50
4.985914
51
14.5288403
0
ARC
8
DEFAULT_255_2_778
10
119.015417
20
40.7497183
40
0.6412869
50
4.0028816
51
19.0457081
0
ARC
8
DEFAULT_255_2_778
10
119.397183
20
40.8986215
40
0.2323925
50
15.0550009
51
91.8959042
0
ARC
8
DEFAULT_255_2_778
10
119.3910197
20
40.7428468
40
0.3880428
50
90.2251998
51
98.6057223
0
ARC
8
DEFAULT_255_2_778
10
119.4010442
20
40.6649137
40
0.4666018
50
98.3908537
51
99.4493528
0
ARC
8
DEFAULT_255_2_778
10
119.4338725
20
40.8174513
40
0.3266117
50
109.5759105
51
178.6188668
0
ARC
8
DEFAULT_255_2_778
10
119.6524069
20
40.7833275
40
0.5466667
50
175.5940679
51
180.0610664
0
ARC
8
DEFAULT_255_2_778
10
119.7834502
20
40.7843195
40
0.6777115
50
180.1331304
51
186.0543062
0
ARC
8
DEFAULT_255_2_778
10
120.00078
20
40.8053754
40
0.8960521
50
185.9274687
51
186.0018036
0
ARC
8
DEFAULT_255_2_778
10
119.7695597
20
40.8040392
40
0.6663513
50
187.9667181
51
202.7885731
0
ARC
8
DEFAULT_255_2_778
10
119.3854786
20
40.6334441
40
0.2463216
50
200.8083104
51
241.4915267
0
ARC
8
DEFAULT_255_2_778
10
119.3548821
20
40.5998795
40
0.2025153
50
244.5673678
51
270.8084468
0
ARC
8
DEFAULT_255_2_778
10
119.3730493
20
40.6672525
40
0.270302
50
266.7530538
51
313.6433685
0
ARC
8
DEFAULT_255_2_778
10
119.3175854
20
40.6927585
40
0.3278141
50
317.5848157
51
350.1039559
0
ARC
8
DEFAULT_255_2_778
10
118.905072
20
40.7855479
40
0.7504172
50
348.5374971
51
0.6594264
0
LINE
8
DEFAULT_255_2_778
10
119.6302395
20
41.4641844
11
119.8038395
21
41.4641844
0
LINE
8
DEFAULT_255_2_778
10
119.6300395
20
41.4638844
11
119.6302395
21
41.4641844
0
LINE
8
DEFAULT_255_2_778
10
119.6554395
20
40.7941844
11
119.6551395
21
40.7944844
0
LINE
8
DEFAULT_255_2_778
10
144.21062
20
40.1794593
11
144.21062
21
42.6789593
0
LINE
8
DEFAULT_255_2_778
10
144.21062
20
42.6789593
11
126.51022
21
42.6789593
0
LINE
8
DEFAULT_255_2_778
10
126.51022
20
42.6789593
11
126.51072
21
40.1794593
0
LINE
8
DEFAULT_255_2_778
10
126.51072
20
40.1794593
11
126.62052
21
40.1794593
0
LINE
8
DEFAULT_255_2_778
10
126.62052
20
40.1794593
11
126.62052
21
42.5686593
0
LINE
8
DEFAULT_255_2_778
10
126.62052
20
42.5686593
11
144.10052
21
42.5686593
0
LINE
8
DEFAULT_255_2_778
10
144.10052
20
42.5686593
11
144.10212
21
40.1794593
0
LINE
8
DEFAULT_255_2_778
10
144.10212
20
40.1794593
11
144.21062
21
40.1794593
0
LINE
8
DEFAULT_255_2_778
10
130.3464781
20
40.5310375
11
130.5440781
21
40.5310375
0
LINE
8
DEFAULT_255_2_778
10
130.5440781
20
40.5310375
11
130.5440781
21
40.2611375
0
LINE
8
DEFAULT_255_2_778
10
130.5440781
20
40.2611375
11
130.3464781
21
40.2611375
0
LINE
8
DEFAULT_255_2_778
10
130.3464781
20
40.2611375
11
130.3464781
21
40.5310375
0
LINE
8
DEFAULT_255_2_778
10
127.2230781
20
40.5310375
11
127.4206781
21
40.5310375
0
LINE
8
DEFAULT_255_2_778
10
127.4206781
20
40.5310375
11
127.4206781
21
40.2611375
0
LINE
8
DEFAULT_255_2_778
10
127.4206781
20
40.2611375
11
127.2230781
21
40.2611375
0
LINE
8
DEFAULT_255_2_778
10
127.2230781
20
40.2611375
11
127.2230781
21
40.5310375
0
LINE
8
DEFAULT_255_2_778
10
131.3266781
20
41.8414698
11
131.0803781
21
41.6332698
0
LINE
8
DEFAULT_255_2_778
10
131.0803781
20
41.6332698
11
131.0287781
21
41.6059698
0
LINE
8
DEFAULT_255_2_778
10
131.0287781
20
41.6059698
11
131.0287781
21
41.4064698
0
LINE
8
DEFAULT_255_2_778
10
131.0419781
20
41.4131698
11
131.2814781
21
41.5771698
0
LINE
8
DEFAULT_255_2_778
10
131.2814781
20
41.5771698
11
131.3089781
21
41.6049698
0
LINE
8
DEFAULT_255_2_778
10
131.3089781
20
41.6049698
11
131.3089781
21
40.2611698
0
LINE
8
DEFAULT_255_2_778
10
131.3089781
20
40.2611698
11
131.4803781
21
40.2611698
0
LINE
8
DEFAULT_255_2_778
10
131.4803781
20
40.2611698
11
131.4803781
21
41.8520698
0
LINE
8
DEFAULT_255_2_778
10
131.4803781
20
41.8520698
11
131.3354781
21
41.8520698
0
ARC
8
DEFAULT_255_2_778
10
126.588436
20
41.0548323
40
1.9395762
50
359.6354686
51
6.8546503
0
ARC
8
DEFAULT_255_2_778
10
127.5700618
20
41.1780744
40
0.9502721
50
6.5409308
51
18.8058806
0
ARC
8
DEFAULT_255_2_778
10
128.0806474
20
41.3590566
40
0.408657
50
17.8627073
51
43.9977884
0
ARC
8
DEFAULT_255_2_778
10
128.1937154
20
41.4569477
40
0.2594487
50
45.7914749
51
91.6217143
0
ARC
8
DEFAULT_255_2_778
10
128.1564075
20
41.4734418
40
0.2446922
50
82.9658127
51
89.9056457
0
ARC
8
DEFAULT_255_2_778
10
128.1602004
20
41.5070949
40
0.2110659
50
90.9202543
51
153.8266201
0
ARC
8
DEFAULT_255_2_778
10
128.4882808
20
41.3060338
40
0.5952654
50
150.3852234
51
166.1757034
0
ARC
8
DEFAULT_255_2_778
10
129.200233
20
41.1174559
40
1.3317178
50
165.6164788
51
173.829193
0
ARC
8
DEFAULT_255_2_778
10
130.4295637
20
40.9772107
40
2.5690114
50
173.6666414
51
178.9632793
0
ARC
8
DEFAULT_255_2_778
10
130.0019204
20
41.0640362
40
2.1413275
50
181.0795507
51
187.3071228
0
ARC
8
DEFAULT_255_2_778
10
128.9117829
20
40.9192406
40
1.041639
50
187.0338915
51
197.5215129
0
ARC
8
DEFAULT_255_2_778
10
128.3324539
20
40.7299822
40
0.4322523
50
196.7178818
51
218.0606576
0
ARC
8
DEFAULT_255_2_778
10
128.1522993
20
40.5884626
40
0.2031602
50
217.9585244
51
270.6515051
0
ARC
8
DEFAULT_255_2_778
10
128.1541476
20
40.6489152
40
0.2636
50
270.1003717
51
277.0220325
0
ARC
8
DEFAULT_255_2_778
10
128.1896451
20
40.6671331
40
0.2798599
50
269.3300766
51
340.1724169
0
ARC
8
DEFAULT_255_2_778
10
127.7673056
20
40.8724645
40
0.7484743
50
336.3493337
51
351.1104551
0
ARC
8
DEFAULT_255_2_778
10
126.9560505
20
41.0109797
40
1.5714315
50
350.691588
51
358.9701419
0
ARC
8
DEFAULT_255_2_778
10
126.1864366
20
41.041794
40
2.3415365
50
358.55473
51
0.0170869
0
ARC
8
DEFAULT_255_2_778
10
126.8213139
20
41.0736819
40
1.8694007
50
359.6172
51
7.9480884
0
ARC
8
DEFAULT_255_2_778
10
127.6851697
20
41.1994969
40
0.9964596
50
7.6516205
51
21.5173441
0
ARC
8
DEFAULT_255_2_778
10
128.1433896
20
41.3876875
40
0.5011984
50
20.7162068
51
50.6745514
0
ARC
8
DEFAULT_255_2_778
10
128.1890171
20
41.4128035
40
0.4532688
50
53.1249101
51
90.9965548
0
ARC
8
DEFAULT_255_2_778
10
128.1702891
20
41.202369
40
0.6637233
50
89.063801
51
90.0014
0
ARC
8
DEFAULT_255_2_778
10
128.1992723
20
41.4255597
40
0.4414861
50
93.7662283
51
158.7665532
0
ARC
8
DEFAULT_255_2_778
10
128.6792649
20
41.1898637
40
0.9753336
50
156.0717067
51
170.1628432
0
ARC
8
DEFAULT_255_2_778
10
129.5132193
20
41.0355411
40
1.8234175
50
169.8620142
51
178.3031815
0
ARC
8
DEFAULT_255_2_778
10
130.1418415
20
41.0003914
40
2.4528606
50
177.917284
51
178.1402949
0
ARC
8
DEFAULT_255_2_778
10
130.1245502
20
41.135955
40
2.4349205
50
181.3169659
51
187.5764641
0
ARC
8
DEFAULT_255_2_778
10
129.0586553
20
40.9898855
40
1.3590784
50
187.3970036
51
197.1346096
0
ARC
8
DEFAULT_255_2_778
10
128.4190251
20
40.7867716
40
0.6880203
50
196.6638935
51
214.445034
0
ARC
8
DEFAULT_255_2_778
10
128.1538785
20
40.5999253
40
0.3637022
50
213.7966981
51
271.5205915
0
ARC
8
DEFAULT_255_2_778
10
128.1631083
20
40.7474053
40
0.5110544
50
270.047258
51
274.4513906
0
ARC
8
DEFAULT_255_2_778
10
128.2189174
20
40.6397142
40
0.4021461
50
267.6992023
51
334.9560392
0
ARC
8
DEFAULT_255_2_778
10
127.8382106
20
40.8452968
40
0.8344634
50
333.2326369
51
348.8384702
0
ARC
8
DEFAULT_255_2_778
10
127.0848997
20
41.0048097
40
1.6044389
50
348.457323
51
357.3668239
0
ARC
8
DEFAULT_255_2_778
10
126.2405673
20
41.0587986
40
2.4504069
50
357.0127667
51
0.0629846
0
LINE
8
DEFAULT_255_2_778
10
128.5279729
20
41.0424923
11
128.5279729
21
41.0424923
0
LINE
8
DEFAULT_255_2_778
10
128.6909729
20
41.0614923
11
128.6906729
21
41.0611923
0
ARC
8
DEFAULT_255_2_778
10
128.5109873
20
44.2307138
40
0.7047764
50
112.999527
51
163.939488
0
ARC
8
DEFAULT_255_2_778
10
129.040628
20
44.0450011
40
1.2655262
50
162.493366
51
176.1216889
0
ARC
8
DEFAULT_255_2_778
10
129.628442
20
43.989293
40
1.8558294
50
175.6331971
51
180.0841845
0
ARC
8
DEFAULT_255_2_778
10
129.2116499
20
43.9742312
40
1.4390882
50
179.508888
51
190.3433333
0
ARC
8
DEFAULT_255_2_778
10
128.5733416
20
43.851954
40
0.7892186
50
189.9306685
51
209.3490777
0
ARC
8
DEFAULT_255_2_778
10
128.3335647
20
43.7203179
40
0.5157059
50
209.6580576
51
243.4822278
0
ARC
8
DEFAULT_255_2_778
10
127.8290813
20
44.0352055
40
1.1061702
50
326.982966
51
353.3668822
0
ARC
8
DEFAULT_255_2_778
10
127.488395
20
44.0890972
40
1.4508705
50
352.8069831
51
0.1164099
0
ARC
8
DEFAULT_255_2_778
10
127.2003553
20
44.0898918
40
1.7389086
50
0.0709441
51
5.1164687
0
ARC
8
DEFAULT_255_2_778
10
127.0189236
20
44.0759613
40
1.9208612
50
5.0477103
51
5.7217482
0
ARC
8
DEFAULT_255_2_778
10
127.5156298
20
43.982712
40
1.4429605
50
11.3814667
51
21.1322611
0
ARC
8
DEFAULT_255_2_778
10
128.1125901
20
44.2182359
40
0.8012464
50
20.8127823
51
37.2834129
0
ARC
8
DEFAULT_255_2_778
10
128.3751122
20
44.4235253
40
0.4680351
50
36.7553684
51
91.4414127
0
ARC
8
DEFAULT_255_2_778
10
128.3649292
20
44.2124282
40
0.6789858
50
90.1341977
51
97.4571071
0
ARC
8
DEFAULT_255_2_778
10
128.3795046
20
44.0895177
40
0.8027498
50
97.3500699
51
100.3258683
0
LINE
8
DEFAULT_255_2_778
10
128.1033146
20
43.2588662
11
128.2356146
21
43.2258662
0
LINE
8
DEFAULT_255_2_778
10
128.2356146
20
43.2258662
11
129.0294146
21
43.2422662
0
LINE
8
DEFAULT_255_2_778
10
129.0294146
20
43.2422662
11
129.0294146
21
43.4324662
0
LINE
8
DEFAULT_255_2_778
10
129.0294146
20
43.4324662
11
128.7566146
21
43.4324662
0
LINE
8
DEFAULT_255_2_778
10
128.2356146
20
44.8792662
11
128.2356146
21
44.8794662
0
ARC
8
DEFAULT_255_2_778
10
127.1162976
20
44.044209
40
1.6155096
50
359.5687025
51
8.1029936
0
ARC
8
DEFAULT_255_2_778
10
127.9295775
20
44.1657223
40
0.7932418
50
7.693737
51
22.8308235
0
ARC
8
DEFAULT_255_2_778
10
128.3531195
20
44.3624469
40
0.3269918
50
19.8554814
51
91.9555037
0
ARC
8
DEFAULT_255_2_778
10
128.307946
20
44.3651782
40
0.3258503
50
84.007986
51
89.9225528
0
ARC
8
DEFAULT_255_2_778
10
128.3086957
20
44.4327972
40
0.2582311
50
90.0686152
51
155.5396792
0
ARC
8
DEFAULT_255_2_778
10
128.6719333
20
44.2239355
40
0.676516
50
152.1743744
51
167.4032241
0
ARC
8
DEFAULT_255_2_778
10
129.4092116
20
44.0476689
40
1.4345328
50
166.9546135
51
175.3702892
0
ARC
8
DEFAULT_255_2_778
10
130.3729457
20
43.9557071
40
2.4025853
50
175.0394449
51
178.615725
0
ARC
8
DEFAULT_255_2_778
10
129.759401
20
44.0526258
40
1.788762
50
181.2453829
51
188.5561001
0
ARC
8
DEFAULT_255_2_778
10
128.8577882
20
43.9117465
40
0.8762391
50
188.2179421
51
200.8522618
0
ARC
8
DEFAULT_255_2_778
10
128.3929479
20
43.727762
40
0.3764097
50
199.8674627
51
227.1555991
0
ARC
8
DEFAULT_255_2_778
10
128.2997859
20
43.6396545
40
0.2485995
50
229.0902651
51
271.3866605
0
ARC
8
DEFAULT_255_2_778
10
128.3052893
20
43.7421327
40
0.3510054
50
270.0836633
51
275.9970652
0
ARC
8
DEFAULT_255_2_778
10
128.355029
20
43.7205964
40
0.3278087
50
267.715402
51
339.6538452
0
ARC
8
DEFAULT_255_2_778
10
127.9552359
20
43.9065121
40
0.7681117
50
337.0189052
51
352.3536012
0
ARC
8
DEFAULT_255_2_778
10
127.1905866
20
44.0208264
40
1.5412157
50
351.924058
51
0.4171851
0
LINE
8
DEFAULT_255_2_778
10
128.7317615
20
44.0320483
11
128.7317615
21
44.0320483
0
LINE
8
DEFAULT_255_2_778
10
126.9651136
20
43.2567677
11
127.1511136
21
43.2837677
0
LINE
8
DEFAULT_255_2_778
10
127.1511136
20
43.2837677
11
127.2654136
21
43.3318677
0
LINE
8
DEFAULT_255_2_778
10
127.2654136
20
43.3318677
11
127.3580136
21
43.4043677
0
LINE
8
DEFAULT_255_2_778
10
127.3580136
20
43.4043677
11
127.4205136
21
43.4802677
0
LINE
8
DEFAULT_255_2_778
10
127.4205136
20
43.4802677
11
127.4699136
21
43.5657677
0
LINE
8
DEFAULT_255_2_778
10
127.4699136
20
43.5657677
11
127.4967136
21
43.6289677
0
LINE
8
DEFAULT_255_2_778
10
127.4967136
20
43.6289677
11
127.5146136
21
43.6845677
0
LINE
8
DEFAULT_255_2_778
10
127.5146136
20
43.6845677
11
127.5287136
21
43.7411677
0
LINE
8
DEFAULT_255_2_778
10
127.5287136
20
43.7411677
11
127.5390136
21
43.7985677
0
LINE
8
DEFAULT_255_2_778
10
127.5390136
20
43.7985677
11
127.5406136
21
44.2661677
0
LINE
8
DEFAULT_255_2_778
10
127.5406136
20
44.2661677
11
127.5313136
21
44.3232677
0
LINE
8
DEFAULT_255_2_778
10
127.5313136
20
44.3232677
11
127.5189136
21
44.3798677
0
LINE
8
DEFAULT_255_2_778
10
127.5189136
20
44.3798677
11
127.5027136
21
44.4356677
0
LINE
8
DEFAULT_255_2_778
10
127.5027136
20
44.4356677
11
127.4742136
21
44.5095677
0
LINE
8
DEFAULT_255_2_778
10
127.4742136
20
44.5095677
11
127.4355136
21
44.5838677
0
LINE
8
DEFAULT_255_2_778
10
127.4355136
20
44.5838677
11
127.3749136
21
44.6690677
0
LINE
8
DEFAULT_255_2_778
10
127.3749136
20
44.6690677
11
127.3009136
21
44.7410677
0
LINE
8
DEFAULT_255_2_778
10
127.3009136
20
44.7410677
11
127.1950136
21
44.8037677
0
LINE
8
DEFAULT_255_2_778
10
127.1950136
20
44.8037677
11
127.0135136
21
44.8505677
0
LINE
8
DEFAULT_255_2_778
10
127.0135136
20
44.8505677
11
126.9098136
21
44.8566677
0
LINE
8
DEFAULT_255_2_778
10
126.9098136
20
44.8566677
11
126.5042136
21
44.8566677
0
LINE
8
DEFAULT_255_2_778
10
126.5042136
20
44.8566677
11
126.5042136
21
43.2567677
0
LINE
8
DEFAULT_255_2_778
10
126.5042136
20
43.2567677
11
126.9442136
21
43.2567677
0
LINE
8
DEFAULT_255_2_778
10
126.9100802
20
44.6748958
11
126.6795802
21
44.6748958
0
LINE
8
DEFAULT_255_2_778
10
126.6795802
20
44.6748958
11
126.6795802
21
43.4376958
0
LINE
8
DEFAULT_255_2_778
10
126.6795802
20
43.4376958
11
127.0356802
21
43.4445958
0
LINE
8
DEFAULT_255_2_778
10
127.0356802
20
43.4445958
11
127.1674802
21
43.4897958
0
LINE
8
DEFAULT_255_2_778
10
127.1674802
20
43.4897958
11
127.2446802
21
43.5514958
0
LINE
8
DEFAULT_255_2_778
10
127.2446802
20
43.5514958
11
127.2872802
21
43.6077958
0
LINE
8
DEFAULT_255_2_778
10
127.2872802
20
43.6077958
11
127.3201802
21
43.6731958
0
LINE
8
DEFAULT_255_2_778
10
127.3201802
20
43.6731958
11
127.3383802
21
43.7249958
0
LINE
8
DEFAULT_255_2_778
10
127.3383802
20
43.7249958
11
127.3547802
21
43.7895958
0
LINE
8
DEFAULT_255_2_778
10
127.3547802
20
43.7895958
11
127.3627802
21
43.8332958
0
LINE
8
DEFAULT_255_2_778
10
127.3627802
20
43.8332958
11
127.3687802
21
43.8771958
0
LINE
8
DEFAULT_255_2_778
10
127.3687802
20
43.8771958
11
127.3677802
21
44.2478958
0
LINE
8
DEFAULT_255_2_778
10
127.3677802
20
44.2478958
11
127.3597802
21
44.2930958
0
LINE
8
DEFAULT_255_2_778
10
127.3597802
20
44.2930958
11
127.3489802
21
44.3377958
0
LINE
8
DEFAULT_255_2_778
10
127.3489802
20
44.3377958
11
127.3349802
21
44.3816958
0
LINE
8
DEFAULT_255_2_778
10
127.3349802
20
44.3816958
11
127.3002802
21
44.4592958
0
LINE
8
DEFAULT_255_2_778
10
127.3002802
20
44.4592958
11
127.2486802
21
44.5359958
0
LINE
8
DEFAULT_255_2_778
10
127.2486802
20
44.5359958
11
127.1703802
21
44.6071958
0
LINE
8
DEFAULT_255_2_778
10
127.1703802
20
44.6071958
11
127.0534802
21
44.6576958
0
LINE
8
DEFAULT_255_2_778
10
127.0534802
20
44.6576958
11
126.9256802
21
44.6748958
0
LINE
8
DEFAULT_255_2_778
10
126.9100802
20
44.6748958
11
126.6795802
21
44.6748958
0
LINE
8
DEFAULT_255_2_778
10
126.6795802
20
44.6748958
11
126.6795802
21
43.4376958
0
LINE
8
DEFAULT_255_2_778
10
126.6795802
20
43.4376958
11
127.0356802
21
43.4445958
0
LINE
8
DEFAULT_255_2_778
10
127.0356802
20
43.4445958
11
127.1674802
21
43.4897958
0
LINE
8
DEFAULT_255_2_778
10
127.1674802
20
43.4897958
11
127.2446802
21
43.5514958
0
LINE
8
DEFAULT_255_2_778
10
127.2446802
20
43.5514958
11
127.2872802
21
43.6077958
0
LINE
8
DEFAULT_255_2_778
10
127.2872802
20
43.6077958
11
127.3201802
21
43.6731958
0
LINE
8
DEFAULT_255_2_778
10
127.3201802
20
43.6731958
11
127.3383802
21
43.7249958
0
LINE
8
DEFAULT_255_2_778
10
127.3383802
20
43.7249958
11
127.3547802
21
43.7895958
0
LINE
8
DEFAULT_255_2_778
10
127.3547802
20
43.7895958
11
127.3627802
21
43.8332958
0
LINE
8
DEFAULT_255_2_778
10
127.3627802
20
43.8332958
11
127.3687802
21
43.8771958
0
LINE
8
DEFAULT_255_2_778
10
127.3687802
20
43.8771958
11
127.3677802
21
44.2478958
0
LINE
8
DEFAULT_255_2_778
10
127.3677802
20
44.2478958
11
127.3597802
21
44.2930958
0
LINE
8
DEFAULT_255_2_778
10
127.3597802
20
44.2930958
11
127.3489802
21
44.3377958
0
LINE
8
DEFAULT_255_2_778
10
127.3489802
20
44.3377958
11
127.3349802
21
44.3816958
0
LINE
8
DEFAULT_255_2_778
10
127.3349802
20
44.3816958
11
127.3002802
21
44.4592958
0
LINE
8
DEFAULT_255_2_778
10
127.3002802
20
44.4592958
11
127.2486802
21
44.5359958
0
LINE
8
DEFAULT_255_2_778
10
127.2486802
20
44.5359958
11
127.1703802
21
44.6071958
0
LINE
8
DEFAULT_255_2_778
10
127.1703802
20
44.6071958
11
127.0534802
21
44.6576958
0
LINE
8
DEFAULT_255_2_778
10
127.0534802
20
44.6576958
11
126.9256802
21
44.6748958
0
ARC
8
DEFAULT_255_2_778
10
130.2712699
20
44.0382868
40
0.2385462
50
15.1029018
51
84.46259
0
ARC
8
DEFAULT_255_2_778
10
129.9453888
20
43.9010828
40
0.590837
50
359.231825
51
19.7195318
0
ARC
8
DEFAULT_255_2_778
10
129.7857949
20
43.8934088
40
0.7503779
50
355.7285845
51
359.9811202
0
ARC
8
DEFAULT_255_2_778
10
128.1167944
20
43.9372056
40
2.4193487
50
355.6213637
51
357.6385411
0
ARC
8
DEFAULT_255_2_778
10
130.0191953
20
43.760506
40
0.5099493
50
329.3563618
51
359.0998699
0
ARC
8
DEFAULT_255_2_778
10
130.2748889
20
43.6303477
40
0.2243723
50
277.5031234
51
324.6667996
0
ARC
8
DEFAULT_255_2_778
10
130.2521658
20
43.7218536
40
0.3182377
50
279.0983426
51
279.4082515
0
ARC
8
DEFAULT_255_2_778
10
130.295694
20
43.6567302
40
0.249203
50
243.7595485
51
271.5623721
0
ARC
8
DEFAULT_255_2_778
10
130.3377401
20
43.6683961
40
0.2801549
50
184.0056181
51
237.0864691
0
ARC
8
DEFAULT_255_2_778
10
130.8624559
20
43.791756
40
0.8167892
50
188.1022541
51
190.0780759
0
ARC
8
DEFAULT_255_2_778
10
131.9519076
20
43.9271996
40
1.9145545
50
184.0779534
51
187.5199985
0
ARC
8
DEFAULT_255_2_778
10
123.0142862
20
43.2117991
40
7.0517449
50
4.7117407
51
4.739986
0
ARC
8
DEFAULT_255_2_778
10
128.1022192
20
43.6391603
40
1.9459058
50
4.579126
51
5.8507133
0
ARC
8
DEFAULT_255_2_778
10
130.9314615
20
43.8476827
40
0.8935307
50
168.2924992
51
180.6516885
0
ARC
8
DEFAULT_255_2_778
10
130.4684726
20
43.9489828
40
0.4196512
50
146.3384891
51
169.0086451
0
ARC
8
DEFAULT_255_2_778
10
130.29293
20
44.0683173
40
0.2074069
50
89.6246862
51
146.8977756
0
ARC
8
DEFAULT_255_2_778
10
130.3885896
20
44.057675
40
0.4002824
50
133.9146755
51
151.1497985
0
ARC
8
DEFAULT_255_2_778
10
130.3210359
20
44.1291003
40
0.3019765
50
105.2365207
51
134.080827
0
ARC
8
DEFAULT_255_2_778
10
130.3133048
20
44.1496611
40
0.2801143
50
89.9759255
51
104.8160093
0
ARC
8
DEFAULT_255_2_778
10
130.3134119
20
44.1448294
40
0.284946
50
86.9403129
51
89.9978622
0
ARC
8
DEFAULT_255_2_778
10
130.3053582
20
44.1016037
40
0.3285901
50
46.7637246
51
85.9402639
0
ARC
8
DEFAULT_255_2_778
10
130.2156147
20
43.9997928
40
0.4642583
50
24.5394444
51
47.3018303
0
ARC
8
DEFAULT_255_2_778
10
130.053505
20
43.9235992
40
0.6433734
50
8.1595951
51
24.7161389
0
ARC
8
DEFAULT_255_2_778
10
129.8681551
20
43.8922587
40
0.8313083
50
0.7692678
51
8.484653
0
LINE
8
DEFAULT_255_2_778
10
130.6993886
20
43.9034198
11
130.6993511
21
43.9029984
0
ARC
8
DEFAULT_255_2_778
10
127.2222348
20
44.1702781
40
3.4873738
50
351.1756887
51
355.6044207
0
ARC
8
DEFAULT_255_2_778
10
129.919244
20
43.7421729
40
0.7566716
50
335.6918882
51
351.8801223
0
ARC
8
DEFAULT_255_2_778
10
130.346169
20
43.5479319
40
0.2876403
50
273.6550134
51
335.9467919
0
ARC
8
DEFAULT_255_2_778
10
130.3087949
20
43.7451593
40
0.4874764
50
273.1507978
51
276.5623431
0
ARC
8
DEFAULT_255_2_778
10
130.3255018
20
43.6415069
40
0.3832199
50
249.2695437
51
271.5082575
0
ARC
8
DEFAULT_255_2_778
10
130.3363253
20
43.6144936
40
0.3623219
50
217.280782
51
246.1551723
0
ARC
8
DEFAULT_255_2_778
10
130.8244006
20
44.0502023
40
1.0158736
50
219.2743249
51
220.1609891
0
LINE
8
DEFAULT_255_2_778
10
130.2942886
20
44.2757198
11
130.2942886
21
44.2757198
0
LINE
8
DEFAULT_255_2_778
10
129.8725886
20
44.8874198
11
130.0379886
21
44.8874198
0
LINE
8
DEFAULT_255_2_778
10
130.0379886
20
44.8874198
11
130.0379886
21
44.2508198
0
LINE
8
DEFAULT_255_2_778
10
130.0379886
20
43.4071198
11
130.0379886
21
43.2830198
0
LINE
8
DEFAULT_255_2_778
10
130.0379886
20
43.2830198
11
129.8725886
21
43.2830198
0
LINE
8
DEFAULT_255_2_778
10
129.8725886
20
43.2830198
11
129.8725886
21
44.8869198
0
LINE
8
DEFAULT_255_2_778
10
129.8725886
20
44.8869198
11
129.8725886
21
44.8874198
0
LINE
8
DEFAULT_255_2_778
10
107.8592334
20
36.5774
11
106.4453334
21
36.5774
0
LINE
8
DEFAULT_255_2_778
10
106.4466334
20
36.5763666
11
106.4453334
21
37.9902666
0
LINE
8
DEFAULT_255_2_778
10
106.4453334
20
37.9902666
11
107.8592334
21
37.9902666
0
LINE
8
DEFAULT_255_2_778
10
107.8592334
20
37.9902666
11
107.8579334
21
36.5763666
0
LINE
8
DEFAULT_255_2_778
10
104.8593334
20
36.5774
11
103.4454334
21
36.5774
0
LINE
8
DEFAULT_255_2_778
10
103.4467334
20
36.5763666
11
103.4454334
21
37.9902666
0
LINE
8
DEFAULT_255_2_778
10
103.4454334
20
37.9902666
11
104.8593334
21
37.9902666
0
LINE
8
DEFAULT_255_2_778
10
104.8593334
20
37.9902666
11
104.8580334
21
36.5763666
0
LINE
8
DEFAULT_255_2_778
10
101.8592334
20
36.5774
11
100.4453334
21
36.5774
0
LINE
8
DEFAULT_255_2_778
10
100.4466334
20
36.5763666
11
100.4453334
21
37.9902666
0
LINE
8
DEFAULT_255_2_778
10
100.4453334
20
37.9902666
11
101.8592334
21
37.9902666
0
LINE
8
DEFAULT_255_2_778
10
101.8592334
20
37.9902666
11
101.8579334
21
36.5763666
0
LINE
8
DEFAULT_255_2_778
10
113.8594334
20
36.5782
11
112.4455334
21
36.5782
0
LINE
8
DEFAULT_255_2_778
10
112.4468334
20
36.5771666
11
112.4455334
21
37.9910666
0
LINE
8
DEFAULT_255_2_778
10
112.4455334
20
37.9910666
11
113.8594334
21
37.9910666
0
LINE
8
DEFAULT_255_2_778
10
113.8594334
20
37.9910666
11
113.8581334
21
36.5771666
0
LINE
8
DEFAULT_255_2_778
10
116.8592334
20
36.5782
11
115.4453334
21
36.5782
0
LINE
8
DEFAULT_255_2_778
10
115.4466334
20
36.5771666
11
115.4453334
21
37.9910666
0
LINE
8
DEFAULT_255_2_778
10
115.4453334
20
37.9910666
11
116.8592334
21
37.9910666
0
LINE
8
DEFAULT_255_2_778
10
116.8592334
20
37.9910666
11
116.8579334
21
36.5771666
0
LINE
8
DEFAULT_255_2_778
10
110.8593334
20
36.5782
11
109.4454334
21
36.5782
0
LINE
8
DEFAULT_255_2_778
10
109.4467334
20
36.5771666
11
109.4454334
21
37.9910666
0
LINE
8
DEFAULT_255_2_778
10
109.4454334
20
37.9910666
11
110.8593334
21
37.9910666
0
LINE
8
DEFAULT_255_2_778
10
110.8593334
20
37.9910666
11
110.8580334
21
36.5771666
0
LINE
8
DEFAULT_255_2_778
10
122.8592334
20
36.5787
11
121.4453334
21
36.5787
0
LINE
8
DEFAULT_255_2_778
10
121.4466334
20
36.5776666
11
121.4453334
21
37.9915666
0
LINE
8
DEFAULT_255_2_778
10
121.4453334
20
37.9915666
11
122.8592334
21
37.9915666
0
LINE
8
DEFAULT_255_2_778
10
122.8592334
20
37.9915666
11
122.8579334
21
36.5776666
0
LINE
8
DEFAULT_255_2_778
10
119.8594334
20
36.5787
11
118.4455334
21
36.5787
0
LINE
8
DEFAULT_255_2_778
10
118.4468334
20
36.5776666
11
118.4455334
21
37.9915666
0
LINE
8
DEFAULT_255_2_778
10
118.4455334
20
37.9915666
11
119.8594334
21
37.9915666
0
LINE
8
DEFAULT_255_2_778
10
119.8594334
20
37.9915666
11
119.8581334
21
36.5776666
0
LINE
8
DEFAULT_255_2_778
10
131.8593334
20
36.5782
11
130.4454334
21
36.5782
0
LINE
8
DEFAULT_255_2_778
10
130.4467334
20
36.5771666
11
130.4454334
21
37.9910666
0
LINE
8
DEFAULT_255_2_778
10
130.4454334
20
37.9910666
11
131.8593334
21
37.9910666
0
LINE
8
DEFAULT_255_2_778
10
131.8593334
20
37.9910666
11
131.8580334
21
36.5771666
0
LINE
8
DEFAULT_255_2_778
10
128.8592334
20
36.5782
11
127.4453334
21
36.5782
0
LINE
8
DEFAULT_255_2_778
10
127.4466334
20
36.5771666
11
127.4453334
21
37.9910666
0
LINE
8
DEFAULT_255_2_778
10
127.4453334
20
37.9910666
11
128.8592334
21
37.9910666
0
LINE
8
DEFAULT_255_2_778
10
128.8592334
20
37.9910666
11
128.8579334
21
36.5771666
0
LINE
8
DEFAULT_255_2_778
10
134.8595201
20
36.5782
11
133.4455201
21
36.5782
0
LINE
8
DEFAULT_255_2_778
10
133.4468334
20
36.5771666
11
133.4455334
21
37.9910666
0
LINE
8
DEFAULT_255_2_778
10
133.4455334
20
37.9910666
11
134.8594334
21
37.9910666
0
LINE
8
DEFAULT_255_2_778
10
134.8594334
20
37.9910666
11
134.8581334
21
36.5771666
0
LINE
8
DEFAULT_255_2_778
10
137.8592334
20
36.5787
11
136.4453334
21
36.5787
0
LINE
8
DEFAULT_255_2_778
10
136.4466334
20
36.5776666
11
136.4453334
21
37.9915666
0
LINE
8
DEFAULT_255_2_778
10
136.4453334
20
37.9915666
11
137.8592334
21
37.9915666
0
LINE
8
DEFAULT_255_2_778
10
137.8592334
20
37.9915666
11
137.8579334
21
36.5776666
0
LINE
8
DEFAULT_255_2_778
10
140.8593334
20
36.5787
11
139.4454334
21
36.5787
0
LINE
8
DEFAULT_255_2_778
10
139.4467334
20
36.5776666
11
139.4454334
21
37.9915666
0
LINE
8
DEFAULT_255_2_778
10
139.4454334
20
37.9915666
11
140.8593334
21
37.9915666
0
LINE
8
DEFAULT_255_2_778
10
140.8593334
20
37.9915666
11
140.8580334
21
36.5776666
0
LINE
8
DEFAULT_255_2_778
10
143.8592334
20
36.5787
11
142.4453334
21
36.5787
0
LINE
8
DEFAULT_255_2_778
10
142.4466334
20
36.5776666
11
142.4453334
21
37.9915666
0
LINE
8
DEFAULT_255_2_778
10
142.4453334
20
37.9915666
11
143.8592334
21
37.9915666
0
LINE
8
DEFAULT_255_2_778
10
143.8592334
20
37.9915666
11
143.8579334
21
36.5776666
0
LINE
8
DEFAULT_255_2_778
10
140.0063857
20
49.4765848
11
140.2378857
21
49.4765848
0
ARC
8
DEFAULT_255_2_778
10
139.5567069
20
49.4588552
40
0.6814095
50
1.4909419
51
23.0833043
0
ARC
8
DEFAULT_255_2_778
10
139.7377362
20
49.522988
40
0.4898761
50
24.4843837
51
74.3083979
0
ARC
8
DEFAULT_255_2_778
10
139.5841997
20
49.0740487
40
0.963971
50
72.739379
51
87.5845693
0
ARC
8
DEFAULT_255_2_778
10
139.5488411
20
48.6537226
40
1.3855259
50
86.8562158
51
88.5175516
0
ARC
8
DEFAULT_255_2_778
10
139.5697883
20
49.3435692
40
0.6953752
50
88.7724302
51
118.0764635
0
ARC
8
DEFAULT_255_2_778
10
139.5826507
20
49.3631298
40
0.6844789
50
119.7973181
51
150.4564826
0
ARC
8
DEFAULT_255_2_778
10
139.8651121
20
49.1797392
40
1.0208434
50
149.3187845
51
156.1577274
0
ARC
8
DEFAULT_255_2_778
10
139.8940055
20
49.1442914
40
1.0618025
50
155.0383238
51
169.3141488
0
ARC
8
DEFAULT_255_2_778
10
140.6980035
20
48.9837747
40
1.8816416
50
169.0506768
51
177.7983498
0
ARC
8
DEFAULT_255_2_778
10
141.3913851
20
48.9407817
40
2.5762148
50
177.4352986
51
178.7477035
0
ARC
8
DEFAULT_255_2_778
10
141.7595116
20
49.1112816
40
2.9459401
50
182.221578
51
187.6916715
0
ARC
8
DEFAULT_255_2_778
10
140.4189006
20
48.9254566
40
1.5925269
50
187.5217531
51
196.0726355
0
ARC
8
DEFAULT_255_2_778
10
139.6254676
20
48.6909944
40
0.7652164
50
195.651014
51
210.8722389
0
ARC
8
DEFAULT_255_2_778
10
139.3344369
20
48.5231574
40
0.4293319
50
211.5766986
51
223.3787206
0
ARC
8
DEFAULT_255_2_778
10
139.7615589
20
48.8681616
40
0.9776602
50
220.8816145
51
235.7312755
0
ARC
8
DEFAULT_255_2_778
10
139.5630413
20
48.5684515
40
0.6182155
50
235.2953802
51
269.6506868
0
ARC
8
DEFAULT_255_2_778
10
139.5568116
20
48.6142821
40
0.6640392
50
270.2123191
51
283.7469371
0
ARC
8
DEFAULT_255_2_778
10
139.5381924
20
48.7039841
40
0.755603
50
283.5019787
51
284.3281765
0
ARC
8
DEFAULT_255_2_778
10
139.439317
20
49.0342169
40
1.100123
50
285.0612557
51
297.9939178
0
ARC
8
DEFAULT_255_2_778
10
139.6893583
20
48.5770635
40
0.579127
50
297.3797092
51
323.224136
0
ARC
8
DEFAULT_255_2_778
10
139.7717268
20
48.4992785
40
0.4667632
50
324.8190721
51
1.2500121
0
ARC
8
DEFAULT_255_2_778
10
139.6172327
20
48.5093417
40
0.6211461
50
0.011004
51
2.2829533
0
LINE
8
DEFAULT_255_2_778
10
140.2378857
20
48.5340848
11
139.9981857
21
48.5340848
0
ARC
8
DEFAULT_255_2_778
10
139.6636313
20
48.527929
40
0.334611
50
323.393752
51
1.0541239
0
ARC
8
DEFAULT_255_2_778
10
139.6759264
20
48.5454079
40
0.3358442
50
282.3869464
51
319.7467206
0
ARC
8
DEFAULT_255_2_778
10
139.5638152
20
48.9669803
40
0.7718878
50
269.1144616
51
283.8025234
0
ARC
8
DEFAULT_255_2_778
10
139.611944
20
48.6869639
40
0.4954329
50
202.761103
51
263.0372615
0
ARC
8
DEFAULT_255_2_778
10
139.9885224
20
48.8673826
40
0.9127219
50
189.264069
51
204.0590434
0
ARC
8
DEFAULT_255_2_778
10
140.6840289
20
48.9882069
40
1.618624
50
180.3791168
51
189.5218485
0
ARC
8
DEFAULT_255_2_778
10
141.2470016
20
49.0068453
40
2.1817586
50
179.9968822
51
180.770752
0
ARC
8
DEFAULT_255_2_778
10
141.4943147
20
49.0057063
40
2.429072
50
177.8027706
51
179.9703341
0
ARC
8
DEFAULT_255_2_778
10
141.9132278
20
48.9897584
40
2.8482885
50
175.856013
51
177.8052797
0
ARC
8
DEFAULT_255_2_778
10
140.1949764
20
49.0868915
40
1.1278405
50
161.6843527
51
174.4696568
0
ARC
8
DEFAULT_255_2_778
10
139.6867678
20
49.2618525
40
0.5904307
50
136.7721313
51
162.3046428
0
ARC
8
DEFAULT_255_2_778
10
139.5876395
20
49.3377866
40
0.4663642
50
98.4528924
51
135.228275
0
ARC
8
DEFAULT_255_2_778
10
139.6476184
20
48.9753765
40
0.8336762
50
93.4310248
51
98.8689989
0
ARC
8
DEFAULT_255_2_778
10
139.6366983
20
49.1393564
40
0.6693375
50
90.0412722
51
93.3379883
0
ARC
8
DEFAULT_255_2_778
10
139.6474693
20
49.3882143
40
0.42063
50
65.579823
51
91.5330212
0
ARC
8
DEFAULT_255_2_778
10
139.6771085
20
49.4857609
40
0.3198348
50
15.0852628
51
63.1892798
0
ARC
8
DEFAULT_255_2_778
10
139.4266007
20
49.392907
40
0.5863862
50
8.2041634
51
17.4757457
0
LINE
8
DEFAULT_255_2_778
10
140.0069857
20
49.4765848
11
140.0063857
21
49.4765848
0
LINE
8
DEFAULT_255_2_778
10
140.2905156
20
52.214225
11
140.2813156
21
52.259725
0
LINE
8
DEFAULT_255_2_778
10
140.2813156
20
52.259725
11
140.2699156
21
52.299725
0
LINE
8
DEFAULT_255_2_778
10
140.2699156
20
52.299725
11
140.2469156
21
52.357325
0
LINE
8
DEFAULT_255_2_778
10
140.2469156
20
52.357325
11
140.2167156
21
52.410825
0
LINE
8
DEFAULT_255_2_778
10
140.2167156
20
52.410825
11
140.1667156
21
52.473525
0
LINE
8
DEFAULT_255_2_778
10
140.1667156
20
52.473525
11
140.0876156
21
52.540425
0
LINE
8
DEFAULT_255_2_778
10
140.0876156
20
52.540425
11
139.9926156
21
52.589925
0
LINE
8
DEFAULT_255_2_778
10
139.9926156
20
52.589925
11
139.8614156
21
52.623025
0
LINE
8
DEFAULT_255_2_778
10
139.8614156
20
52.623025
11
139.6918156
21
52.625125
0
LINE
8
DEFAULT_255_2_778
10
139.6918156
20
52.625125
11
139.5542156
21
52.593125
0
LINE
8
DEFAULT_255_2_778
10
139.5542156
20
52.593125
11
139.4560156
21
52.542325
0
LINE
8
DEFAULT_255_2_778
10
139.4560156
20
52.542325
11
139.3272156
21
52.413225
0
LINE
8
DEFAULT_255_2_778
10
139.3272156
20
52.413225
11
139.2737156
21
52.310225
0
LINE
8
DEFAULT_255_2_778
10
139.2737156
20
52.310225
11
139.2491156
21
52.227425
0
LINE
8
DEFAULT_255_2_778
10
139.2491156
20
52.227425
11
139.2386156
21
52.167925
0
LINE
8
DEFAULT_255_2_778
10
139.2386156
20
52.167925
11
139.2346156
21
52.131925
0
LINE
8
DEFAULT_255_2_778
10
139.2346156
20
52.131925
11
139.2319156
21
52.083525
0
LINE
8
DEFAULT_255_2_778
10
139.2319156
20
52.083525
11
139.2317156
21
52.059425
0
LINE
8
DEFAULT_255_2_778
10
139.2317156
20
52.059425
11
139.4521156
21
52.059425
0
LINE
8
DEFAULT_255_2_778
10
139.4521156
20
52.059425
11
139.4542156
21
52.110525
0
LINE
8
DEFAULT_255_2_778
10
139.4542156
20
52.110525
11
139.4571156
21
52.135925
0
LINE
8
DEFAULT_255_2_778
10
139.4571156
20
52.135925
11
139.4666156
21
52.183525
0
LINE
8
DEFAULT_255_2_778
10
139.4666156
20
52.183525
11
139.4854156
21
52.237525
0
LINE
8
DEFAULT_255_2_778
10
139.4854156
20
52.237525
11
139.5444156
21
52.325625
0
LINE
8
DEFAULT_255_2_778
10
139.5444156
20
52.325625
11
139.6685156
21
52.400725
0
LINE
8
DEFAULT_255_2_778
10
139.6685156
20
52.400725
11
139.8699156
21
52.399725
0
LINE
8
DEFAULT_255_2_778
10
139.8699156
20
52.399725
11
139.9934156
21
52.326425
0
LINE
8
DEFAULT_255_2_778
10
139.9934156
20
52.326425
11
140.0463156
21
52.249925
0
LINE
8
DEFAULT_255_2_778
10
140.0463156
20
52.249925
11
140.0680156
21
52.185625
0
LINE
8
DEFAULT_255_2_778
10
140.0680156
20
52.185625
11
140.0741156
21
52.153325
0
LINE
8
DEFAULT_255_2_778
10
140.0741156
20
52.153325
11
140.0731156
21
52.031125
0
LINE
8
DEFAULT_255_2_778
10
140.0731156
20
52.031125
11
140.0656156
21
51.993525
0
LINE
8
DEFAULT_255_2_778
10
140.0656156
20
51.993525
11
140.0498156
21
51.938225
0
LINE
8
DEFAULT_255_2_778
10
140.0498156
20
51.938225
11
140.0257156
21
51.875325
0
LINE
8
DEFAULT_255_2_778
10
140.0257156
20
51.875325
11
139.9738156
21
51.771325
0
LINE
8
DEFAULT_255_2_778
10
139.9738156
20
51.771325
11
139.9130156
21
51.672625
0
LINE
8
DEFAULT_255_2_778
10
139.9130156
20
51.672625
11
139.7989156
21
51.513325
0
LINE
8
DEFAULT_255_2_778
10
139.7989156
20
51.513325
11
139.6238156
21
51.301925
0
LINE
8
DEFAULT_255_2_778
10
139.6238156
20
51.301925
11
139.4026156
21
51.066725
0
LINE
8
DEFAULT_255_2_778
10
139.4026156
20
51.066725
11
139.1613156
21
50.838925
0
LINE
8
DEFAULT_255_2_778
10
139.1613156
20
50.838925
11
139.1613156
21
50.599525
0
LINE
8
DEFAULT_255_2_778
10
139.1613156
20
50.599525
11
140.3337156
21
50.599525
0
LINE
8
DEFAULT_255_2_778
10
140.3337156
20
50.599525
11
140.3337156
21
50.817725
0
LINE
8
DEFAULT_255_2_778
10
140.3337156
20
50.817725
11
139.4386156
21
50.817725
0
LINE
8
DEFAULT_255_2_778
10
139.4386156
20
50.817725
11
139.7918156
21
51.155925
0
LINE
8
DEFAULT_255_2_778
10
139.7918156
20
51.155925
11
139.9677156
21
51.350625
0
LINE
8
DEFAULT_255_2_778
10
139.9677156
20
51.350625
11
140.0638156
21
51.476825
0
LINE
8
DEFAULT_255_2_778
10
140.0638156
20
51.476825
11
140.1286156
21
51.576625
0
LINE
8
DEFAULT_255_2_778
10
140.1286156
20
51.576625
11
140.1860156
21
51.681125
0
LINE
8
DEFAULT_255_2_778
10
140.1860156
20
51.681125
11
140.2260156
21
51.769225
0
LINE
8
DEFAULT_255_2_778
10
140.2260156
20
51.769225
11
140.2554156
21
51.849325
0
LINE
8
DEFAULT_255_2_778
10
140.2554156
20
51.849325
11
140.2712156
21
51.903825
0
LINE
8
DEFAULT_255_2_778
10
140.2712156
20
51.903825
11
140.2839156
21
51.958925
0
LINE
8
DEFAULT_255_2_778
10
140.2839156
20
51.958925
11
140.2890156
21
51.986725
0
LINE
8
DEFAULT_255_2_778
10
140.2890156
20
51.986725
11
140.2929156
21
52.014425
0
LINE
8
DEFAULT_255_2_778
10
140.2929156
20
52.014425
11
140.2937156
21
52.190925
0
LINE
8
DEFAULT_255_2_778
10
140.2937156
20
52.190925
11
140.2903156
21
52.213925
0
LINE
8
DEFAULT_255_2_778
10
141.4788625
20
52.5878364
11
141.2859625
21
52.5878364
0
LINE
8
DEFAULT_255_2_778
10
141.2859625
20
52.5878364
11
141.0679625
21
52.3896364
0
LINE
8
DEFAULT_255_2_778
10
141.0679625
20
52.3896364
11
140.8787625
21
52.2801364
0
LINE
8
DEFAULT_255_2_778
10
140.8787625
20
52.2801364
11
140.8787625
21
52.0306364
0
LINE
8
DEFAULT_255_2_778
10
140.8787625
20
52.0306364
11
141.1803625
21
52.2137364
0
LINE
8
DEFAULT_255_2_778
10
141.1803625
20
52.2137364
11
141.2510625
21
52.2785364
0
LINE
8
DEFAULT_255_2_778
10
141.2510625
20
52.2785364
11
141.2510625
21
50.5989364
0
LINE
8
DEFAULT_255_2_778
10
141.2510625
20
50.5989364
11
141.4788625
21
50.5989364
0
LINE
8
DEFAULT_255_2_778
10
141.4788625
20
50.5989364
11
141.4788625
21
52.5875364
0
LINE
8
DEFAULT_255_2_778
10
138.3847493
20
52.5878364
11
138.1918493
21
52.5878364
0
LINE
8
DEFAULT_255_2_778
10
138.1918493
20
52.5878364
11
137.9738493
21
52.3896364
0
LINE
8
DEFAULT_255_2_778
10
137.9738493
20
52.3896364
11
137.7846493
21
52.2801364
0
LINE
8
DEFAULT_255_2_778
10
137.7846493
20
52.2801364
11
137.7846493
21
52.0306364
0
LINE
8
DEFAULT_255_2_778
10
137.7846493
20
52.0306364
11
138.0862493
21
52.2137364
0
LINE
8
DEFAULT_255_2_778
10
138.0862493
20
52.2137364
11
138.1569493
21
52.2785364
0
LINE
8
DEFAULT_255_2_778
10
138.1569493
20
52.2785364
11
138.1569493
21
50.5989364
0
LINE
8
DEFAULT_255_2_778
10
138.1569493
20
50.5989364
11
138.3847493
21
50.5989364
0
LINE
8
DEFAULT_255_2_778
10
138.3847493
20
50.5989364
11
138.3847493
21
52.5875364
0
LINE
8
DEFAULT_255_2_778
10
136.2284448
20
51.1302364
11
136.2509448
21
51.0628364
0
LINE
8
DEFAULT_255_2_778
10
136.2509448
20
51.0628364
11
136.2871448
21
50.9874364
0
LINE
8
DEFAULT_255_2_778
10
136.2871448
20
50.9874364
11
136.3543448
21
50.8974364
0
LINE
8
DEFAULT_255_2_778
10
136.3543448
20
50.8974364
11
136.4504448
21
50.8276364
0
LINE
8
DEFAULT_255_2_778
10
136.4504448
20
50.8276364
11
136.6096448
21
50.7879364
0
LINE
8
DEFAULT_255_2_778
10
136.6096448
20
50.7879364
11
136.7901448
21
50.8119364
0
LINE
8
DEFAULT_255_2_778
10
136.7901448
20
50.8119364
11
136.8919448
21
50.8696364
0
LINE
8
DEFAULT_255_2_778
10
136.8919448
20
50.8696364
11
136.9652448
21
50.9501364
0
LINE
8
DEFAULT_255_2_778
10
136.9652448
20
50.9501364
11
137.0115448
21
51.0318364
0
LINE
8
DEFAULT_255_2_778
10
137.0115448
20
51.0318364
11
137.0359448
21
51.0937364
0
LINE
8
DEFAULT_255_2_778
10
137.0359448
20
51.0937364
11
137.0515448
21
51.1480364
0
LINE
8
DEFAULT_255_2_778
10
137.0515448
20
51.1480364
11
137.0631448
21
51.2033364
0
LINE
8
DEFAULT_255_2_778
10
137.0631448
20
51.2033364
11
137.0690448
21
51.2406364
0
LINE
8
DEFAULT_255_2_778
10
137.0690448
20
51.2406364
11
137.0745448
21
51.2898364
0
LINE
8
DEFAULT_255_2_778
10
137.0745448
20
51.2898364
11
137.0766448
21
51.3144364
0
LINE
8
DEFAULT_255_2_778
10
137.0766448
20
51.3144364
11
137.0793448
21
51.3639364
0
LINE
8
DEFAULT_255_2_778
10
137.0793448
20
51.3639364
11
137.0801448
21
52.5997364
0
LINE
8
DEFAULT_255_2_778
10
137.0801448
20
52.5997364
11
137.3113448
21
52.5997364
0
LINE
8
DEFAULT_255_2_778
10
137.3113448
20
52.5997364
11
137.3089448
21
51.2660364
0
LINE
8
DEFAULT_255_2_778
10
137.3089448
20
51.2660364
11
137.3068448
21
51.2366364
0
LINE
8
DEFAULT_255_2_778
10
137.3068448
20
51.2366364
11
137.3042448
21
51.2075364
0
LINE
8
DEFAULT_255_2_778
10
137.3042448
20
51.2075364
11
137.3007448
21
51.1784364
0
LINE
8
DEFAULT_255_2_778
10
137.3007448
20
51.1784364
11
137.2917448
21
51.1205364
0
LINE
8
DEFAULT_255_2_778
10
137.2917448
20
51.1205364
11
137.2811448
21
51.0704364
0
LINE
8
DEFAULT_255_2_778
10
137.2811448
20
51.0704364
11
137.2679448
21
51.0210364
0
LINE
8
DEFAULT_255_2_778
10
137.2679448
20
51.0210364
11
137.2428448
21
50.9485364
0
LINE
8
DEFAULT_255_2_778
10
137.2428448
20
50.9485364
11
137.2052448
21
50.8694364
0
LINE
8
DEFAULT_255_2_778
10
137.2052448
20
50.8694364
11
137.1481448
21
50.7834364
0
LINE
8
DEFAULT_255_2_778
10
137.1481448
20
50.7834364
11
137.0650448
21
50.6982364
0
LINE
8
DEFAULT_255_2_778
10
137.0650448
20
50.6982364
11
136.9483448
21
50.6236364
0
LINE
8
DEFAULT_255_2_778
10
136.9483448
20
50.6236364
11
136.8107448
21
50.5773364
0
LINE
8
DEFAULT_255_2_778
10
136.8107448
20
50.5773364
11
136.6118448
21
50.5603364
0
LINE
8
DEFAULT_255_2_778
10
136.6118448
20
50.5603364
11
136.4191448
21
50.5884364
0
LINE
8
DEFAULT_255_2_778
10
136.4191448
20
50.5884364
11
136.2898448
21
50.6421364
0
LINE
8
DEFAULT_255_2_778
10
136.2898448
20
50.6421364
11
136.1792448
21
50.7246364
0
LINE
8
DEFAULT_255_2_778
10
136.1792448
20
50.7246364
11
136.1130448
21
50.8000364
0
LINE
8
DEFAULT_255_2_778
10
136.1130448
20
50.8000364
11
136.0585448
21
50.8879364
0
LINE
8
DEFAULT_255_2_778
10
136.0585448
20
50.8879364
11
136.0307448
21
50.9487364
0
LINE
8
DEFAULT_255_2_778
10
136.0307448
20
50.9487364
11
136.0056448
21
51.0212364
0
LINE
8
DEFAULT_255_2_778
10
136.0056448
20
51.0212364
11
135.9924448
21
51.0707364
0
LINE
8
DEFAULT_255_2_778
10
135.9924448
20
51.0707364
11
135.9818448
21
51.1207364
0
LINE
8
DEFAULT_255_2_778
10
135.9818448
20
51.1207364
11
135.9728448
21
51.1787364
0
LINE
8
DEFAULT_255_2_778
10
135.9728448
20
51.1787364
11
135.9693448
21
51.2078364
0
LINE
8
DEFAULT_255_2_778
10
135.9693448
20
51.2078364
11
135.9667448
21
51.2369364
0
LINE
8
DEFAULT_255_2_778
10
135.9667448
20
51.2369364
11
135.9646448
21
51.2662364
0
LINE
8
DEFAULT_255_2_778
10
135.9646448
20
51.2662364
11
135.9622448
21
52.6000364
0
LINE
8
DEFAULT_255_2_778
10
135.9622448
20
52.6000364
11
136.1948448
21
52.6000364
0
LINE
8
DEFAULT_255_2_778
10
136.1948448
20
52.6000364
11
136.1966448
21
51.3395364
0
LINE
8
DEFAULT_255_2_778
10
136.1966448
20
51.3395364
11
136.1982448
21
51.3149364
0
LINE
8
DEFAULT_255_2_778
10
136.1982448
20
51.3149364
11
136.2003448
21
51.2903364
0
LINE
8
DEFAULT_255_2_778
10
136.2003448
20
51.2903364
11
136.2061448
21
51.2411364
0
LINE
8
DEFAULT_255_2_778
10
136.2061448
20
51.2411364
11
136.2157448
21
51.1853364
0
LINE
8
DEFAULT_255_2_778
10
136.2157448
20
51.1853364
11
136.2289448
21
51.1302364
0
ARC
8
DEFAULT_255_2_778
10
143.4819382
20
51.944482
40
0.9134874
50
6.7281407
51
11.5736524
0
ARC
8
DEFAULT_255_2_778
10
143.603959
20
51.9708382
40
0.7886609
50
11.4763305
51
20.195703
0
ARC
8
DEFAULT_255_2_778
10
143.7038696
20
52.005693
40
0.6828622
50
20.3450582
51
23.3929711
0
ARC
8
DEFAULT_255_2_778
10
143.8387594
20
52.0724352
40
0.5326168
50
22.5646039
51
49.9440215
0
ARC
8
DEFAULT_255_2_778
10
143.8712201
20
52.0987212
40
0.4916713
50
50.8681667
51
73.0141773
0
ARC
8
DEFAULT_255_2_778
10
143.8231144
20
51.9397264
40
0.6577839
50
73.0525659
51
87.9474405
0
ARC
8
DEFAULT_255_2_778
10
143.8100608
20
51.7605558
40
0.8373332
50
87.4939066
51
90.0181025
0
ARC
8
DEFAULT_255_2_778
10
143.8100044
20
51.6894235
40
0.9084655
50
90.013127
51
92.0545726
0
ARC
8
DEFAULT_255_2_778
10
143.7688492
20
51.5958579
40
1.0014837
50
89.508815
51
89.9991116
0
ARC
8
DEFAULT_255_2_778
10
143.76308
20
51.7646128
40
0.8327489
50
89.6019879
51
103.5244981
0
ARC
8
DEFAULT_255_2_778
10
143.7170957
20
51.9555941
40
0.6363093
50
103.5203506
51
125.7378265
0
ARC
8
DEFAULT_255_2_778
10
143.8683159
20
51.8173719
40
0.8378822
50
128.6119261
51
167.9121818
0
ARC
8
DEFAULT_255_2_778
10
144.5575642
20
51.6017069
40
1.5584324
50
165.4648264
51
173.2670155
0
ARC
8
DEFAULT_255_2_778
10
144.8744048
20
51.560235
40
1.8779544
50
173.1437949
51
177.275291
0
ARC
8
DEFAULT_255_2_778
10
144.9613251
20
51.5551355
40
1.9650191
50
177.2472492
51
179.3448272
0
ARC
8
DEFAULT_255_2_778
10
144.7735518
20
51.5414666
40
1.7774846
50
178.8350328
51
179.9970304
0
ARC
8
DEFAULT_255_2_778
10
144.5181258
20
51.5338139
40
1.5220783
50
179.7084598
51
192.2691235
0
ARC
8
DEFAULT_255_2_778
10
144.1358536
20
51.4484448
40
1.1303979
50
192.158372
51
208.1454708
0
ARC
8
DEFAULT_255_2_778
10
143.8499665
20
51.2920524
40
0.8045498
50
207.9287531
51
229.6389819
0
ARC
8
DEFAULT_255_2_778
10
143.7113004
20
51.1337406
40
0.5941274
50
229.9415772
51
248.7777912
0
ARC
8
DEFAULT_255_2_778
10
143.787807
20
51.4105679
40
0.8803496
50
250.6583367
51
257.9685284
0
ARC
8
DEFAULT_255_2_778
10
143.7616084
20
51.2869278
40
0.7539644
50
257.9571604
51
266.7892325
0
ARC
8
DEFAULT_255_2_778
10
143.7569837
20
51.2244927
40
0.6913689
50
266.8820987
51
269.9898119
0
ARC
8
DEFAULT_255_2_778
10
143.7604901
20
51.1533992
40
0.6202861
50
269.6647491
51
296.8519282
0
ARC
8
DEFAULT_255_2_778
10
143.7351394
20
51.1859126
40
0.6607921
50
297.5396627
51
338.4981601
0
ARC
8
DEFAULT_255_2_778
10
143.7586442
20
51.1798474
40
0.6367069
50
338.2307099
51
347.5616867
0
ARC
8
DEFAULT_255_2_778
10
143.8062497
20
51.1688524
40
0.5878509
50
347.6087896
51
352.5474231
0
ARC
8
DEFAULT_255_2_778
10
143.6638731
20
51.2034169
40
0.5027068
50
332.0435446
51
349.1751529
0
ARC
8
DEFAULT_255_2_778
10
143.7596549
20
51.1519755
40
0.3939868
50
304.9009345
51
332.1214658
0
ARC
8
DEFAULT_255_2_778
10
143.7707133
20
51.1419258
40
0.3794319
50
269.6631502
51
304.3996832
0
ARC
8
DEFAULT_255_2_778
10
143.7687753
20
51.1778244
40
0.4153241
50
260.4991878
51
269.9596129
0
ARC
8
DEFAULT_255_2_778
10
143.7807352
20
51.2291175
40
0.4678996
50
232.0028163
51
260.091496
0
ARC
8
DEFAULT_255_2_778
10
143.846704
20
51.3158461
40
0.5768589
50
212.8267423
51
232.1424659
0
ARC
8
DEFAULT_255_2_778
10
143.9780787
20
51.4015661
40
0.7337241
50
198.2448112
51
212.8902544
0
ARC
8
DEFAULT_255_2_778
10
144.1903704
20
51.4725694
40
0.9575734
50
186.8745544
51
198.3028524
0
ARC
8
DEFAULT_255_2_778
10
144.4090271
20
51.5031758
40
1.178329
50
182.2845483
51
187.0794606
0
ARC
8
DEFAULT_255_2_778
10
144.7330942
20
51.653687
40
1.5143909
50
184.7879747
51
187.492919
0
ARC
8
DEFAULT_255_2_778
10
144.603921
20
51.6429159
40
1.3847693
50
181.8478836
51
184.7899785
0
ARC
8
DEFAULT_255_2_778
10
144.5094962
20
51.639546
40
1.290285
50
180.0085185
51
181.8335268
0
ARC
8
DEFAULT_255_2_778
10
144.3252594
20
51.6433477
40
1.1060554
50
170.274193
51
180.2068739
0
ARC
8
DEFAULT_255_2_778
10
144.0907934
20
51.6840473
40
0.8680841
50
158.0962693
51
170.3075581
0
ARC
8
DEFAULT_255_2_778
10
143.9320048
20
51.748423
40
0.6967432
50
142.6453853
51
158.1367852
0
ARC
8
DEFAULT_255_2_778
10
143.8361301
20
51.8222799
40
0.5757207
50
122.5925019
51
142.6988145
0
ARC
8
DEFAULT_255_2_778
10
143.7893839
20
51.8948069
40
0.4894348
50
102.6070641
51
122.5553613
0
ARC
8
DEFAULT_255_2_778
10
143.7753282
20
51.951563
40
0.4309812
50
90.8858356
51
102.4303735
0
ARC
8
DEFAULT_255_2_778
10
143.7743286
20
51.9754826
40
0.4070494
50
89.9984185
51
90.7972089
0
ARC
8
DEFAULT_255_2_778
10
143.7818132
20
52.031791
40
0.3508206
50
30.939307
51
91.220629
0
ARC
8
DEFAULT_255_2_778
10
143.7158774
20
51.9949728
40
0.4263101
50
12.2141061
51
30.6274823
0
ARC
8
DEFAULT_255_2_778
10
143.6164711
20
51.9697233
40
0.5288208
50
7.1020218
51
12.6092486
0
LINE
8
DEFAULT_255_2_778
10
144.1410347
20
52.0351049
11
144.3891347
21
52.0515049
0
LINE
8
DEFAULT_255_2_778
10
144.3891347
20
51.0926049
11
144.1576347
21
51.1090049
0
LINE
8
DEFAULT_255_2_778
10
144.1412347
20
52.0351049
11
144.1410347
21
52.0351049
0
LINE
8
DEFAULT_255_2_778
10
133.9174857
20
52.0875848
11
134.1489857
21
52.0875848
0
ARC
8
DEFAULT_255_2_778
10
133.4678069
20
52.0698552
40
0.6814095
50
1.4909419
51
23.0833043
0
ARC
8
DEFAULT_255_2_778
10
133.6488362
20
52.133988
40
0.4898761
50
24.4843837
51
74.3083979
0
ARC
8
DEFAULT_255_2_778
10
133.4952997
20
51.6850487
40
0.963971
50
72.739379
51
87.5845693
0
ARC
8
DEFAULT_255_2_778
10
133.4599411
20
51.2647226
40
1.3855259
50
86.8562158
51
88.5175516
0
ARC
8
DEFAULT_255_2_778
10
133.4808883
20
51.9545692
40
0.6953752
50
88.7724302
51
118.0764635
0
ARC
8
DEFAULT_255_2_778
10
133.4937507
20
51.9741298
40
0.6844789
50
119.7973181
51
150.4564826
0
ARC
8
DEFAULT_255_2_778
10
133.7762121
20
51.7907392
40
1.0208434
50
149.3187845
51
156.1577274
0
ARC
8
DEFAULT_255_2_778
10
133.8051055
20
51.7552914
40
1.0618025
50
155.0383238
51
169.3141488
0
ARC
8
DEFAULT_255_2_778
10
134.6091035
20
51.5947747
40
1.8816416
50
169.0506768
51
177.7983498
0
ARC
8
DEFAULT_255_2_778
10
135.3024851
20
51.5517817
40
2.5762148
50
177.4352986
51
178.7477035
0
ARC
8
DEFAULT_255_2_778
10
135.6706116
20
51.7222816
40
2.9459401
50
182.221578
51
187.6916715
0
ARC
8
DEFAULT_255_2_778
10
134.3300006
20
51.5364566
40
1.5925269
50
187.5217531
51
196.0726355
0
ARC
8
DEFAULT_255_2_778
10
133.5365676
20
51.3019944
40
0.7652164
50
195.651014
51
210.8722389
0
ARC
8
DEFAULT_255_2_778
10
133.2455369
20
51.1341574
40
0.4293319
50
211.5766986
51
223.3787206
0
ARC
8
DEFAULT_255_2_778
10
133.6726589
20
51.4791616
40
0.9776602
50
220.8816145
51
235.7312755
0
ARC
8
DEFAULT_255_2_778
10
133.4741413
20
51.1794515
40
0.6182155
50
235.2953802
51
269.6506868
0
ARC
8
DEFAULT_255_2_778
10
133.4679116
20
51.2252821
40
0.6640392
50
270.2123191
51
283.7469371
0
ARC
8
DEFAULT_255_2_778
10
133.4492924
20
51.3149841
40
0.755603
50
283.5019787
51
284.3281765
0
ARC
8
DEFAULT_255_2_778
10
133.350417
20
51.6452169
40
1.100123
50
285.0612557
51
297.9939178
0
ARC
8
DEFAULT_255_2_778
10
133.6004583
20
51.1880635
40
0.579127
50
297.3797092
51
323.224136
0
ARC
8
DEFAULT_255_2_778
10
133.6828268
20
51.1102785
40
0.4667632
50
324.8190721
51
1.2500121
0
ARC
8
DEFAULT_255_2_778
10
133.5283327
20
51.1203417
40
0.6211461
50
0.011004
51
2.2829533
0
LINE
8
DEFAULT_255_2_778
10
134.1489857
20
51.1450848
11
133.9092857
21
51.1450848
0
ARC
8
DEFAULT_255_2_778
10
133.5747313
20
51.138929
40
0.334611
50
323.393752
51
1.0541239
0
ARC
8
DEFAULT_255_2_778
10
133.5870264
20
51.1564079
40
0.3358442
50
282.3869464
51
319.7467206
0
ARC
8
DEFAULT_255_2_778
10
133.4749152
20
51.5779803
40
0.7718878
50
269.1144616
51
283.8025234
0
ARC
8
DEFAULT_255_2_778
10
133.523044
20
51.2979639
40
0.4954329
50
202.761103
51
263.0372615
0
ARC
8
DEFAULT_255_2_778
10
133.8996224
20
51.4783826
40
0.9127219
50
189.264069
51
204.0590434
0
ARC
8
DEFAULT_255_2_778
10
134.5951289
20
51.5992069
40
1.618624
50
180.3791168
51
189.5218485
0
ARC
8
DEFAULT_255_2_778
10
135.1581016
20
51.6178453
40
2.1817586
50
179.9968822
51
180.770752
0
ARC
8
DEFAULT_255_2_778
10
135.4054147
20
51.6167063
40
2.429072
50
177.8027706
51
179.9703341
0
ARC
8
DEFAULT_255_2_778
10
135.8243278
20
51.6007584
40
2.8482885
50
175.856013
51
177.8052797
0
ARC
8
DEFAULT_255_2_778
10
134.1060764
20
51.6978915
40
1.1278405
50
161.6843527
51
174.4696568
0
ARC
8
DEFAULT_255_2_778
10
133.5978678
20
51.8728525
40
0.5904307
50
136.7721313
51
162.3046428
0
ARC
8
DEFAULT_255_2_778
10
133.4987395
20
51.9487866
40
0.4663642
50
98.4528924
51
135.228275
0
ARC
8
DEFAULT_255_2_778
10
133.5587184
20
51.5863765
40
0.8336762
50
93.4310248
51
98.8689989
0
ARC
8
DEFAULT_255_2_778
10
133.5477983
20
51.7503564
40
0.6693375
50
90.0412722
51
93.3379883
0
ARC
8
DEFAULT_255_2_778
10
133.5585693
20
51.9992143
40
0.42063
50
65.579823
51
91.5330212
0
ARC
8
DEFAULT_255_2_778
10
133.5882085
20
52.0967609
40
0.3198348
50
15.0852628
51
63.1892798
0
ARC
8
DEFAULT_255_2_778
10
133.3377007
20
52.003907
40
0.5863862
50
8.2041634
51
17.4757457
0
LINE
8
DEFAULT_255_2_778
10
133.9180857
20
52.0875848
11
133.9174857
21
52.0875848
0
LINE
8
DEFAULT_255_2_778
10
135.1456949
20
51.4520166
11
135.3506949
21
51.4856166
0
LINE
8
DEFAULT_255_2_778
10
135.3506949
20
51.4856166
11
135.4755949
21
51.5470166
0
LINE
8
DEFAULT_255_2_778
10
135.4755949
20
51.5470166
11
135.5642949
21
51.6248166
0
LINE
8
DEFAULT_255_2_778
10
135.5642949
20
51.6248166
11
135.6226949
21
51.7060166
0
LINE
8
DEFAULT_255_2_778
10
135.6226949
20
51.7060166
11
135.6531949
21
51.7695166
0
LINE
8
DEFAULT_255_2_778
10
135.6531949
20
51.7695166
11
135.6748949
21
51.8367166
0
LINE
8
DEFAULT_255_2_778
10
135.6748949
20
51.8367166
11
135.6838949
21
51.8759166
0
LINE
8
DEFAULT_255_2_778
10
135.6838949
20
51.8759166
11
135.6909949
21
51.9203166
0
LINE
8
DEFAULT_255_2_778
10
135.6909949
20
51.9203166
11
135.6909949
21
52.1436166
0
LINE
8
DEFAULT_255_2_778
10
135.6909949
20
52.1436166
11
135.6838949
21
52.1875166
0
LINE
8
DEFAULT_255_2_778
10
135.6838949
20
52.1875166
11
135.6700949
21
52.2428166
0
LINE
8
DEFAULT_255_2_778
10
135.6700949
20
52.2428166
11
135.6459949
21
52.3082166
0
LINE
8
DEFAULT_255_2_778
10
135.6459949
20
52.3082166
11
135.6041949
21
52.3825166
0
LINE
8
DEFAULT_255_2_778
10
135.6041949
20
52.3825166
11
135.5269949
21
52.4691166
0
LINE
8
DEFAULT_255_2_778
10
135.5269949
20
52.4691166
11
135.4147949
21
52.5431166
0
LINE
8
DEFAULT_255_2_778
10
135.4147949
20
52.5431166
11
135.2800949
21
52.5876166
0
LINE
8
DEFAULT_255_2_778
10
135.2800949
20
52.5876166
11
135.1233949
21
52.6024166
0
LINE
8
DEFAULT_255_2_778
10
135.1233949
20
52.6024166
11
134.5053949
21
52.6024166
0
LINE
8
DEFAULT_255_2_778
10
134.5053949
20
52.6024166
11
134.5053949
21
50.6024166
0
LINE
8
DEFAULT_255_2_778
10
134.5053949
20
50.6024166
11
134.7379949
21
50.6024166
0
LINE
8
DEFAULT_255_2_778
10
134.7379949
20
50.6024166
11
134.7379949
21
51.4515166
0
LINE
8
DEFAULT_255_2_778
10
134.7379949
20
51.4515166
11
135.1233949
21
51.4515166
0
LINE
8
DEFAULT_255_2_778
10
135.1233949
20
52.3757166
11
134.7379949
21
52.3757166
0
LINE
8
DEFAULT_255_2_778
10
134.7379949
20
52.3757166
11
134.7379949
21
51.6782166
0
LINE
8
DEFAULT_255_2_778
10
134.7379949
20
51.6782166
11
135.2504949
21
51.6954166
0
LINE
8
DEFAULT_255_2_778
10
135.2504949
20
51.6954166
11
135.3668949
21
51.7618166
0
LINE
8
DEFAULT_255_2_778
10
135.3668949
20
51.7618166
11
135.4216949
21
51.8325166
0
LINE
8
DEFAULT_255_2_778
10
135.4216949
20
51.8325166
11
135.4464949
21
51.8909166
0
LINE
8
DEFAULT_255_2_778
10
135.4464949
20
51.8909166
11
135.4573949
21
51.9349166
0
LINE
8
DEFAULT_255_2_778
10
135.4573949
20
51.9349166
11
135.4573949
21
52.1232166
0
LINE
8
DEFAULT_255_2_778
10
135.4573949
20
52.1232166
11
135.4427949
21
52.1770166
0
LINE
8
DEFAULT_255_2_778
10
135.4427949
20
52.1770166
11
135.4107949
21
52.2418166
0
LINE
8
DEFAULT_255_2_778
10
135.4107949
20
52.2418166
11
135.3340949
21
52.3193166
0
LINE
8
DEFAULT_255_2_778
10
135.3340949
20
52.3193166
11
135.2051949
21
52.3688166
0
LINE
8
DEFAULT_255_2_778
10
135.2051949
20
52.3688166
11
135.1371949
21
52.3751166
0
LINE
8
DEFAULT_255_2_778
10
141.8009949
20
52.5836166
11
142.8013949
21
52.5836166
0
LINE
8
DEFAULT_255_2_778
10
142.8013949
20
52.5836166
11
142.8013949
21
52.3852166
0
LINE
8
DEFAULT_255_2_778
10
142.8013949
20
52.3852166
11
142.2309949
21
50.5662166
0
LINE
8
DEFAULT_255_2_778
10
142.2309949
20
50.5662166
11
142.0986949
21
50.6241166
0
LINE
8
DEFAULT_255_2_778
10
142.0986949
20
50.6241166
11
142.6690949
21
52.4018166
0
LINE
8
DEFAULT_255_2_778
10
142.6690949
20
52.4018166
11
142.6690949
21
52.4431166
0
LINE
8
DEFAULT_255_2_778
10
142.6690949
20
52.4431166
11
141.8009949
21
52.4431166
0
LINE
8
DEFAULT_255_2_778
10
141.8009949
20
52.4431166
11
141.8009949
21
52.5836166
0
LINE
8
DEFAULT_255_2_778
10
136.7160042
20
49.9713343
11
136.8533042
21
49.9713343
0
LINE
8
DEFAULT_255_2_778
10
136.8533042
20
49.9713343
11
136.3122042
21
47.8210343
0
LINE
8
DEFAULT_255_2_778
10
136.3122042
20
47.8210343
11
136.1749042
21
47.8210343
0
LINE
8
DEFAULT_255_2_778
10
136.1749042
20
47.8210343
11
136.7160042
21
49.9713343
0
LINE
8
DEFAULT_255_2_778
10
137.7204625
20
47.971725
11
137.9130625
21
47.992025
0
LINE
8
DEFAULT_255_2_778
10
137.9130625
20
47.992025
11
138.0453625
21
48.030725
0
LINE
8
DEFAULT_255_2_778
10
138.0453625
20
48.030725
11
138.1638625
21
48.092825
0
LINE
8
DEFAULT_255_2_778
10
138.1638625
20
48.092825
11
138.2593625
21
48.173325
0
LINE
8
DEFAULT_255_2_778
10
138.2593625
20
48.173325
11
138.3244625
21
48.250325
0
LINE
8
DEFAULT_255_2_778
10
138.3244625
20
48.250325
11
138.3792625
21
48.335525
0
LINE
8
DEFAULT_255_2_778
10
138.3792625
20
48.335525
11
138.4128625
21
48.402925
0
LINE
8
DEFAULT_255_2_778
10
138.4128625
20
48.402925
11
138.4379625
21
48.467025
0
LINE
8
DEFAULT_255_2_778
10
138.4379625
20
48.467025
11
138.4580625
21
48.532325
0
LINE
8
DEFAULT_255_2_778
10
138.4580625
20
48.532325
11
138.4736625
21
48.599025
0
LINE
8
DEFAULT_255_2_778
10
138.4736625
20
48.599025
11
138.4800625
21
48.632625
0
LINE
8
DEFAULT_255_2_778
10
138.4800625
20
48.632625
11
138.4853625
21
48.666425
0
LINE
8
DEFAULT_255_2_778
10
138.4853625
20
48.666425
11
138.4898625
21
48.700625
0
LINE
8
DEFAULT_255_2_778
10
138.4898625
20
48.700625
11
138.4935625
21
48.734725
0
LINE
8
DEFAULT_255_2_778
10
138.4935625
20
48.734725
11
138.4964625
21
48.769125
0
LINE
8
DEFAULT_255_2_778
10
138.4964625
20
48.769125
11
138.4964625
21
49.126325
0
LINE
8
DEFAULT_255_2_778
10
138.4964625
20
49.126325
11
138.4932625
21
49.162825
0
LINE
8
DEFAULT_255_2_778
10
138.4932625
20
49.162825
11
138.4892625
21
49.199125
0
LINE
8
DEFAULT_255_2_778
10
138.4892625
20
49.199125
11
138.4845625
21
49.235025
0
LINE
8
DEFAULT_255_2_778
10
138.4845625
20
49.235025
11
138.4789625
21
49.271025
0
LINE
8
DEFAULT_255_2_778
10
138.4789625
20
49.271025
11
138.4723625
21
49.306725
0
LINE
8
DEFAULT_255_2_778
10
138.4723625
20
49.306725
11
138.4556625
21
49.377425
0
LINE
8
DEFAULT_255_2_778
10
138.4556625
20
49.377425
11
138.4342625
21
49.446725
0
LINE
8
DEFAULT_255_2_778
10
138.4342625
20
49.446725
11
138.4075625
21
49.514425
0
LINE
8
DEFAULT_255_2_778
10
138.4075625
20
49.514425
11
138.3617625
21
49.604125
0
LINE
8
DEFAULT_255_2_778
10
138.3617625
20
49.604125
11
138.3053625
21
49.688325
0
LINE
8
DEFAULT_255_2_778
10
138.3053625
20
49.688325
11
138.2212625
21
49.781725
0
LINE
8
DEFAULT_255_2_778
10
138.2212625
20
49.781725
11
138.1225625
21
49.857625
0
LINE
8
DEFAULT_255_2_778
10
138.1225625
20
49.857625
11
137.9998625
21
49.916625
0
LINE
8
DEFAULT_255_2_778
10
137.9998625
20
49.916625
11
137.8122625
21
49.961325
0
LINE
8
DEFAULT_255_2_778
10
137.8122625
20
49.961325
11
137.6473625
21
49.971925
0
LINE
8
DEFAULT_255_2_778
10
137.6473625
20
49.971925
11
137.1089625
21
49.971925
0
LINE
8
DEFAULT_255_2_778
10
137.1089625
20
49.971925
11
137.1089625
21
47.971925
0
LINE
8
DEFAULT_255_2_778
10
137.1089625
20
47.971925
11
137.6931625
21
47.971925
0
LINE
8
DEFAULT_255_2_778
10
135.6738386
20
49.4435708
11
135.9053386
21
49.4435708
0
ARC
8
DEFAULT_255_2_778
10
135.2241598
20
49.4258413
40
0.6814095
50
1.4909419
51
23.0833043
0
ARC
8
DEFAULT_255_2_778
10
135.4051891
20
49.489974
40
0.4898761
50
24.4843837
51
74.3083979
0
ARC
8
DEFAULT_255_2_778
10
135.2516526
20
49.0410347
40
0.963971
50
72.739379
51
87.5845693
0
ARC
8
DEFAULT_255_2_778
10
135.2162941
20
48.6207087
40
1.3855259
50
86.8562158
51
88.5175516
0
ARC
8
DEFAULT_255_2_778
10
135.2372413
20
49.3105552
40
0.6953752
50
88.7724302
51
118.0764635
0
ARC
8
DEFAULT_255_2_778
10
135.2501036
20
49.3301159
40
0.6844789
50
119.7973181
51
150.4564826
0
ARC
8
DEFAULT_255_2_778
10
135.5325651
20
49.1467252
40
1.0208434
50
149.3187845
51
156.1577274
0
ARC
8
DEFAULT_255_2_778
10
135.5614585
20
49.1112774
40
1.0618025
50
155.0383238
51
169.3141488
0
ARC
8
DEFAULT_255_2_778
10
136.3654565
20
48.9507608
40
1.8816416
50
169.0506768
51
177.7983498
0
ARC
8
DEFAULT_255_2_778
10
137.0588381
20
48.9077677
40
2.5762148
50
177.4352986
51
178.7477035
0
ARC
8
DEFAULT_255_2_778
10
137.4269646
20
49.0782676
40
2.9459401
50
182.221578
51
187.6916715
0
ARC
8
DEFAULT_255_2_778
10
136.0863536
20
48.8924426
40
1.5925269
50
187.5217531
51
196.0726355
0
ARC
8
DEFAULT_255_2_778
10
135.2929206
20
48.6579804
40
0.7652164
50
195.651014
51
210.8722389
0
ARC
8
DEFAULT_255_2_778
10
135.0018898
20
48.4901435
40
0.4293319
50
211.5766986
51
223.3787206
0
ARC
8
DEFAULT_255_2_778
10
135.4290119
20
48.8351477
40
0.9776602
50
220.8816145
51
235.7312755
0
ARC
8
DEFAULT_255_2_778
10
135.2304943
20
48.5354375
40
0.6182155
50
235.2953802
51
269.6506868
0
ARC
8
DEFAULT_255_2_778
10
135.2242645
20
48.5812682
40
0.6640392
50
270.2123191
51
283.7469371
0
ARC
8
DEFAULT_255_2_778
10
135.2056454
20
48.6709702
40
0.755603
50
283.5019787
51
284.3281765
0
ARC
8
DEFAULT_255_2_778
10
135.1067699
20
49.001203
40
1.100123
50
285.0612557
51
297.9939178
0
ARC
8
DEFAULT_255_2_778
10
135.3568112
20
48.5440495
40
0.579127
50
297.3797092
51
323.224136
0
ARC
8
DEFAULT_255_2_778
10
135.4391797
20
48.4662646
40
0.4667632
50
324.8190721
51
1.2500121
0
ARC
8
DEFAULT_255_2_778
10
135.2846856
20
48.4763278
40
0.6211461
50
0.011004
51
2.2829533
0
LINE
8
DEFAULT_255_2_778
10
135.9053386
20
48.5010708
11
135.6656386
21
48.5010708
0
ARC
8
DEFAULT_255_2_778
10
135.3312407
20
48.4949191
40
0.3344545
50
323.3729417
51
1.0539116
0
ARC
8
DEFAULT_255_2_778
10
135.3435028
20
48.5123066
40
0.3356616
50
282.4836056
51
319.7398805
0
ARC
8
DEFAULT_255_2_778
10
135.2310817
20
48.9335729
40
0.771496
50
269.1055751
51
283.8726734
0
ARC
8
DEFAULT_255_2_778
10
135.2791156
20
48.6538584
40
0.4953443
50
202.7552058
51
263.0338351
0
ARC
8
DEFAULT_255_2_778
10
135.6558487
20
48.8343362
40
0.9127975
50
189.2624124
51
204.0554005
0
ARC
8
DEFAULT_255_2_778
10
136.3515034
20
48.9551666
40
1.6188469
50
180.3791304
51
189.5202462
0
ARC
8
DEFAULT_255_2_778
10
136.9140815
20
48.973802
40
2.1815867
50
179.996882
51
180.7707836
0
ARC
8
DEFAULT_255_2_778
10
137.1617525
20
48.972668
40
2.4292581
50
177.8027303
51
179.9704546
0
ARC
8
DEFAULT_255_2_778
10
137.580768
20
48.9567285
40
2.8485765
50
175.8561115
51
177.8054925
0
ARC
8
DEFAULT_255_2_778
10
135.8620832
20
49.0541045
40
1.1276731
50
161.6936819
51
174.4804174
0
ARC
8
DEFAULT_255_2_778
10
135.3538634
20
49.2289781
40
0.5902812
50
136.7770787
51
162.3142328
0
ARC
8
DEFAULT_255_2_778
10
135.2547727
20
49.304853
40
0.4662817
50
98.4519473
51
135.2321326
0
ARC
8
DEFAULT_255_2_778
10
135.3147713
20
48.9423625
40
0.8336762
50
93.4310248
51
98.8689989
0
ARC
8
DEFAULT_255_2_778
10
135.3038512
20
49.1063424
40
0.6693375
50
90.0412722
51
93.3379883
0
ARC
8
DEFAULT_255_2_778
10
135.3146222
20
49.3552003
40
0.42063
50
65.579823
51
91.5330212
0
ARC
8
DEFAULT_255_2_778
10
135.3442615
20
49.452747
40
0.3198348
50
15.0852628
51
63.1892798
0
ARC
8
DEFAULT_255_2_778
10
135.0937536
20
49.359893
40
0.5863862
50
8.2041634
51
17.4757457
0
LINE
8
DEFAULT_255_2_778
10
135.6741386
20
49.4435708
11
135.6738386
21
49.4435708
0
LINE
8
DEFAULT_255_2_778
10
141.0274386
20
49.9726708
11
141.1647386
21
49.9726708
0
LINE
8
DEFAULT_255_2_778
10
141.1647386
20
49.9726708
11
140.6236386
21
47.8224708
0
LINE
8
DEFAULT_255_2_778
10
140.6236386
20
47.8224708
11
140.4863386
21
47.8224708
0
LINE
8
DEFAULT_255_2_778
10
140.4863386
20
47.8224708
11
141.0274386
21
49.9726708
0
LINE
8
DEFAULT_255_2_778
10
137.6473542
20
49.7446448
11
137.3412542
21
49.7446448
0
LINE
8
DEFAULT_255_2_778
10
137.3412542
20
49.7446448
11
137.3412542
21
48.1981448
0
LINE
8
DEFAULT_255_2_778
10
137.3412542
20
48.1981448
11
137.7905542
21
48.2034448
0
LINE
8
DEFAULT_255_2_778
10
137.7905542
20
48.2034448
11
137.9381542
21
48.2394448
0
LINE
8
DEFAULT_255_2_778
10
137.9381542
20
48.2394448
11
138.0363542
21
48.2926448
0
LINE
8
DEFAULT_255_2_778
10
138.0363542
20
48.2926448
11
138.1159542
21
48.3669448
0
LINE
8
DEFAULT_255_2_778
10
138.1159542
20
48.3669448
11
138.1590542
21
48.4278448
0
LINE
8
DEFAULT_255_2_778
10
138.1590542
20
48.4278448
11
138.1950542
21
48.5000448
0
LINE
8
DEFAULT_255_2_778
10
138.1950542
20
48.5000448
11
138.2159542
21
48.5569448
0
LINE
8
DEFAULT_255_2_778
10
138.2159542
20
48.5569448
11
138.2313542
21
48.6103448
0
LINE
8
DEFAULT_255_2_778
10
138.2313542
20
48.6103448
11
138.2434542
21
48.6646448
0
LINE
8
DEFAULT_255_2_778
10
138.2434542
20
48.6646448
11
138.2527542
21
48.7193448
0
LINE
8
DEFAULT_255_2_778
10
138.2527542
20
48.7193448
11
138.2564542
21
48.7469448
0
LINE
8
DEFAULT_255_2_778
10
138.2564542
20
48.7469448
11
138.2609542
21
48.7855448
0
LINE
8
DEFAULT_255_2_778
10
138.2609542
20
48.7855448
11
138.2606542
21
49.1697448
0
LINE
8
DEFAULT_255_2_778
10
138.2606542
20
49.1697448
11
138.2530542
21
49.2231448
0
LINE
8
DEFAULT_255_2_778
10
138.2530542
20
49.2231448
11
138.2424542
21
49.2760448
0
LINE
8
DEFAULT_255_2_778
10
138.2424542
20
49.2760448
11
138.2286542
21
49.3281448
0
LINE
8
DEFAULT_255_2_778
10
138.2286542
20
49.3281448
11
138.2111542
21
49.3795448
0
LINE
8
DEFAULT_255_2_778
10
138.2111542
20
49.3795448
11
138.1752542
21
49.4578448
0
LINE
8
DEFAULT_255_2_778
10
138.1752542
20
49.4578448
11
138.1215542
21
49.5406448
0
LINE
8
DEFAULT_255_2_778
10
138.1215542
20
49.5406448
11
138.0550542
21
49.6126448
0
LINE
8
DEFAULT_255_2_778
10
138.0550542
20
49.6126448
11
137.9587542
21
49.6790448
0
LINE
8
DEFAULT_255_2_778
10
137.9587542
20
49.6790448
11
137.8071542
21
49.7298448
0
LINE
8
DEFAULT_255_2_778
10
137.8071542
20
49.7298448
11
137.6669542
21
49.7441448
0
LINE
8
DEFAULT_255_2_778
10
133.4087625
20
47.988625
11
133.6013625
21
48.008925
0
LINE
8
DEFAULT_255_2_778
10
133.6013625
20
48.008925
11
133.7336625
21
48.047625
0
LINE
8
DEFAULT_255_2_778
10
133.7336625
20
48.047625
11
133.8521625
21
48.109725
0
LINE
8
DEFAULT_255_2_778
10
133.8521625
20
48.109725
11
133.9476625
21
48.190225
0
LINE
8
DEFAULT_255_2_778
10
133.9476625
20
48.190225
11
134.0130625
21
48.267225
0
LINE
8
DEFAULT_255_2_778
10
134.0130625
20
48.267225
11
134.0678625
21
48.352425
0
LINE
8
DEFAULT_255_2_778
10
134.0678625
20
48.352425
11
134.1014625
21
48.419825
0
LINE
8
DEFAULT_255_2_778
10
134.1014625
20
48.419825
11
134.1265625
21
48.483925
0
LINE
8
DEFAULT_255_2_778
10
134.1265625
20
48.483925
11
134.1466625
21
48.549225
0
LINE
8
DEFAULT_255_2_778
10
134.1466625
20
48.549225
11
134.1622625
21
48.615925
0
LINE
8
DEFAULT_255_2_778
10
134.1622625
20
48.615925
11
134.1685625
21
48.649525
0
LINE
8
DEFAULT_255_2_778
10
134.1685625
20
48.649525
11
134.1739625
21
48.683325
0
LINE
8
DEFAULT_255_2_778
10
134.1739625
20
48.683325
11
134.1784625
21
48.717525
0
LINE
8
DEFAULT_255_2_778
10
134.1784625
20
48.717525
11
134.1821625
21
48.751625
0
LINE
8
DEFAULT_255_2_778
10
134.1821625
20
48.751625
11
134.1850625
21
48.786025
0
LINE
8
DEFAULT_255_2_778
10
134.1850625
20
48.786025
11
134.1850625
21
49.143225
0
LINE
8
DEFAULT_255_2_778
10
134.1850625
20
49.143225
11
134.1818625
21
49.179725
0
LINE
8
DEFAULT_255_2_778
10
134.1818625
20
49.179725
11
134.1778625
21
49.216025
0
LINE
8
DEFAULT_255_2_778
10
134.1778625
20
49.216025
11
134.1731625
21
49.251925
0
LINE
8
DEFAULT_255_2_778
10
134.1731625
20
49.251925
11
134.1675625
21
49.287925
0
LINE
8
DEFAULT_255_2_778
10
134.1675625
20
49.287925
11
134.1609625
21
49.323625
0
LINE
8
DEFAULT_255_2_778
10
134.1609625
20
49.323625
11
134.1442625
21
49.394325
0
LINE
8
DEFAULT_255_2_778
10
134.1442625
20
49.394325
11
134.1228625
21
49.463625
0
LINE
8
DEFAULT_255_2_778
10
134.1228625
20
49.463625
11
134.0961625
21
49.531325
0
LINE
8
DEFAULT_255_2_778
10
134.0961625
20
49.531325
11
134.0503625
21
49.621025
0
LINE
8
DEFAULT_255_2_778
10
134.0503625
20
49.621025
11
133.9939625
21
49.705225
0
LINE
8
DEFAULT_255_2_778
10
133.9939625
20
49.705225
11
133.9098625
21
49.798625
0
LINE
8
DEFAULT_255_2_778
10
133.9098625
20
49.798625
11
133.8111625
21
49.874525
0
LINE
8
DEFAULT_255_2_778
10
133.8111625
20
49.874525
11
133.6884625
21
49.933525
0
LINE
8
DEFAULT_255_2_778
10
133.6884625
20
49.933525
11
133.5008625
21
49.978225
0
LINE
8
DEFAULT_255_2_778
10
133.5008625
20
49.978225
11
133.3359625
21
49.988825
0
LINE
8
DEFAULT_255_2_778
10
133.3359625
20
49.988825
11
132.7975625
21
49.988825
0
LINE
8
DEFAULT_255_2_778
10
132.7975625
20
49.988825
11
132.7975625
21
47.988825
0
LINE
8
DEFAULT_255_2_778
10
132.7975625
20
47.988825
11
133.3820625
21
47.988825
0
LINE
8
DEFAULT_255_2_778
10
133.3356542
20
49.7615448
11
133.0295542
21
49.7615448
0
LINE
8
DEFAULT_255_2_778
10
133.0295542
20
49.7615448
11
133.0295542
21
48.2150448
0
LINE
8
DEFAULT_255_2_778
10
133.0295542
20
48.2150448
11
133.4788542
21
48.2203448
0
LINE
8
DEFAULT_255_2_778
10
133.4788542
20
48.2203448
11
133.6264542
21
48.2563448
0
LINE
8
DEFAULT_255_2_778
10
133.6264542
20
48.2563448
11
133.7246542
21
48.3095448
0
LINE
8
DEFAULT_255_2_778
10
133.7246542
20
48.3095448
11
133.8042542
21
48.3838448
0
LINE
8
DEFAULT_255_2_778
10
133.8042542
20
48.3838448
11
133.8473542
21
48.4447448
0
LINE
8
DEFAULT_255_2_778
10
133.8473542
20
48.4447448
11
133.8833542
21
48.5169448
0
LINE
8
DEFAULT_255_2_778
10
133.8833542
20
48.5169448
11
133.9042542
21
48.5738448
0
LINE
8
DEFAULT_255_2_778
10
133.9042542
20
48.5738448
11
133.9196542
21
48.6272448
0
LINE
8
DEFAULT_255_2_778
10
133.9196542
20
48.6272448
11
133.9317542
21
48.6815448
0
LINE
8
DEFAULT_255_2_778
10
133.9317542
20
48.6815448
11
133.9410542
21
48.7362448
0
LINE
8
DEFAULT_255_2_778
10
133.9410542
20
48.7362448
11
133.9447542
21
48.7638448
0
LINE
8
DEFAULT_255_2_778
10
133.9447542
20
48.7638448
11
133.9492542
21
48.8024448
0
LINE
8
DEFAULT_255_2_778
10
133.9492542
20
48.8024448
11
133.9489542
21
49.1866448
0
LINE
8
DEFAULT_255_2_778
10
133.9489542
20
49.1866448
11
133.9413542
21
49.2400448
0
LINE
8
DEFAULT_255_2_778
10
133.9413542
20
49.2400448
11
133.9307542
21
49.2929448
0
LINE
8
DEFAULT_255_2_778
10
133.9307542
20
49.2929448
11
133.9169542
21
49.3450448
0
LINE
8
DEFAULT_255_2_778
10
133.9169542
20
49.3450448
11
133.8994542
21
49.3964448
0
LINE
8
DEFAULT_255_2_778
10
133.8994542
20
49.3964448
11
133.8635542
21
49.4747448
0
LINE
8
DEFAULT_255_2_778
10
133.8635542
20
49.4747448
11
133.8098542
21
49.5575448
0
LINE
8
DEFAULT_255_2_778
10
133.8098542
20
49.5575448
11
133.7433542
21
49.6295448
0
LINE
8
DEFAULT_255_2_778
10
133.7433542
20
49.6295448
11
133.6470542
21
49.6959448
0
LINE
8
DEFAULT_255_2_778
10
133.6470542
20
49.6959448
11
133.4954542
21
49.7467448
0
LINE
8
DEFAULT_255_2_778
10
133.4954542
20
49.7467448
11
133.3552542
21
49.7610448
0
LINE
8
DEFAULT_255_2_778
10
144.3722857
20
49.3755848
11
144.6037857
21
49.3755848
0
ARC
8
DEFAULT_255_2_778
10
143.9226069
20
49.3578552
40
0.6814095
50
1.4909419
51
23.0833043
0
ARC
8
DEFAULT_255_2_778
10
144.1036362
20
49.421988
40
0.4898761
50
24.4843837
51
74.3083979
0
ARC
8
DEFAULT_255_2_778
10
143.9500997
20
48.9730487
40
0.963971
50
72.739379
51
87.5845693
0
ARC
8
DEFAULT_255_2_778
10
143.9147411
20
48.5527226
40
1.3855259
50
86.8562158
51
88.5175516
0
ARC
8
DEFAULT_255_2_778
10
143.9356883
20
49.2425692
40
0.6953752
50
88.7724302
51
118.0764635
0
ARC
8
DEFAULT_255_2_778
10
143.9485507
20
49.2621298
40
0.6844789
50
119.7973181
51
150.4564826
0
ARC
8
DEFAULT_255_2_778
10
144.2310121
20
49.0787392
40
1.0208434
50
149.3187845
51
156.1577274
0
ARC
8
DEFAULT_255_2_778
10
144.2599055
20
49.0432914
40
1.0618025
50
155.0383238
51
169.3141488
0
ARC
8
DEFAULT_255_2_778
10
145.0639035
20
48.8827747
40
1.8816416
50
169.0506768
51
177.7983498
0
ARC
8
DEFAULT_255_2_778
10
145.7572851
20
48.8397817
40
2.5762148
50
177.4352986
51
178.7477035
0
ARC
8
DEFAULT_255_2_778
10
146.1254116
20
49.0102816
40
2.9459401
50
182.221578
51
187.6916715
0
ARC
8
DEFAULT_255_2_778
10
144.7848006
20
48.8244566
40
1.5925269
50
187.5217531
51
196.0726355
0
ARC
8
DEFAULT_255_2_778
10
143.9913676
20
48.5899944
40
0.7652164
50
195.651014
51
210.8722389
0
ARC
8
DEFAULT_255_2_778
10
143.7003369
20
48.4221574
40
0.4293319
50
211.5766986
51
223.3787206
0
ARC
8
DEFAULT_255_2_778
10
144.1274589
20
48.7671616
40
0.9776602
50
220.8816145
51
235.7312755
0
ARC
8
DEFAULT_255_2_778
10
143.9289413
20
48.4674515
40
0.6182155
50
235.2953802
51
269.6506868
0
ARC
8
DEFAULT_255_2_778
10
143.9227116
20
48.5132821
40
0.6640392
50
270.2123191
51
283.7469371
0
ARC
8
DEFAULT_255_2_778
10
143.9040924
20
48.6029841
40
0.755603
50
283.5019787
51
284.3281765
0
ARC
8
DEFAULT_255_2_778
10
143.805217
20
48.9332169
40
1.100123
50
285.0612557
51
297.9939178
0
ARC
8
DEFAULT_255_2_778
10
144.0552583
20
48.4760635
40
0.579127
50
297.3797092
51
323.224136
0
ARC
8
DEFAULT_255_2_778
10
144.1376268
20
48.3982785
40
0.4667632
50
324.8190721
51
1.2500121
0
ARC
8
DEFAULT_255_2_778
10
143.9831327
20
48.4083417
40
0.6211461
50
0.011004
51
2.2829533
0
LINE
8
DEFAULT_255_2_778
10
144.6037857
20
48.4330848
11
144.3640857
21
48.4330848
0
ARC
8
DEFAULT_255_2_778
10
144.0295313
20
48.426929
40
0.334611
50
323.393752
51
1.0541239
0
ARC
8
DEFAULT_255_2_778
10
144.0418264
20
48.4444079
40
0.3358442
50
282.3869464
51
319.7467206
0
ARC
8
DEFAULT_255_2_778
10
143.9297152
20
48.8659803
40
0.7718878
50
269.1144616
51
283.8025234
0
ARC
8
DEFAULT_255_2_778
10
143.977844
20
48.5859639
40
0.4954329
50
202.761103
51
263.0372615
0
ARC
8
DEFAULT_255_2_778
10
144.3544224
20
48.7663826
40
0.9127219
50
189.264069
51
204.0590434
0
ARC
8
DEFAULT_255_2_778
10
145.0499289
20
48.8872069
40
1.618624
50
180.3791168
51
189.5218485
0
ARC
8
DEFAULT_255_2_778
10
145.6129016
20
48.9058453
40
2.1817586
50
179.9968822
51
180.770752
0
ARC
8
DEFAULT_255_2_778
10
145.8602147
20
48.9047063
40
2.429072
50
177.8027706
51
179.9703341
0
ARC
8
DEFAULT_255_2_778
10
146.2791278
20
48.8887584
40
2.8482885
50
175.856013
51
177.8052797
0
ARC
8
DEFAULT_255_2_778
10
144.5608764
20
48.9858915
40
1.1278405
50
161.6843527
51
174.4696568
0
ARC
8
DEFAULT_255_2_778
10
144.0526678
20
49.1608525
40
0.5904307
50
136.7721313
51
162.3046428
0
ARC
8
DEFAULT_255_2_778
10
143.9535395
20
49.2367866
40
0.4663642
50
98.4528924
51
135.228275
0
ARC
8
DEFAULT_255_2_778
10
144.0135184
20
48.8743765
40
0.8336762
50
93.4310248
51
98.8689989
0
ARC
8
DEFAULT_255_2_778
10
144.0025983
20
49.0383564
40
0.6693375
50
90.0412722
51
93.3379883
0
ARC
8
DEFAULT_255_2_778
10
144.0133693
20
49.2872143
40
0.42063
50
65.579823
51
91.5330212
0
ARC
8
DEFAULT_255_2_778
10
144.0430085
20
49.3847609
40
0.3198348
50
15.0852628
51
63.1892798
0
ARC
8
DEFAULT_255_2_778
10
143.7925007
20
49.291907
40
0.5863862
50
8.2041634
51
17.4757457
0
LINE
8
DEFAULT_255_2_778
10
144.3728857
20
49.3755848
11
144.3722857
21
49.3755848
0
LINE
8
DEFAULT_255_2_778
10
142.1069625
20
47.920925
11
142.2995625
21
47.941225
0
LINE
8
DEFAULT_255_2_778
10
142.2995625
20
47.941225
11
142.4318625
21
47.979925
0
LINE
8
DEFAULT_255_2_778
10
142.4318625
20
47.979925
11
142.5503625
21
48.042025
0
LINE
8
DEFAULT_255_2_778
10
142.5503625
20
48.042025
11
142.6458625
21
48.122525
0
LINE
8
DEFAULT_255_2_778
10
142.6458625
20
48.122525
11
142.7109625
21
48.199525
0
LINE
8
DEFAULT_255_2_778
10
142.7109625
20
48.199525
11
142.7657625
21
48.284725
0
LINE
8
DEFAULT_255_2_778
10
142.7657625
20
48.284725
11
142.7993625
21
48.352125
0
LINE
8
DEFAULT_255_2_778
10
142.7993625
20
48.352125
11
142.8244625
21
48.416225
0
LINE
8
DEFAULT_255_2_778
10
142.8244625
20
48.416225
11
142.8445625
21
48.481525
0
LINE
8
DEFAULT_255_2_778
10
142.8445625
20
48.481525
11
142.8601625
21
48.548225
0
LINE
8
DEFAULT_255_2_778
10
142.8601625
20
48.548225
11
142.8665625
21
48.581825
0
LINE
8
DEFAULT_255_2_778
10
142.8665625
20
48.581825
11
142.8718625
21
48.615625
0
LINE
8
DEFAULT_255_2_778
10
142.8718625
20
48.615625
11
142.8763625
21
48.649825
0
LINE
8
DEFAULT_255_2_778
10
142.8763625
20
48.649825
11
142.8800625
21
48.683925
0
LINE
8
DEFAULT_255_2_778
10
142.8800625
20
48.683925
11
142.8829625
21
48.718325
0
LINE
8
DEFAULT_255_2_778
10
142.8829625
20
48.718325
11
142.8829625
21
49.075525
0
LINE
8
DEFAULT_255_2_778
10
142.8829625
20
49.075525
11
142.8797625
21
49.112025
0
LINE
8
DEFAULT_255_2_778
10
142.8797625
20
49.112025
11
142.8757625
21
49.148325
0
LINE
8
DEFAULT_255_2_778
10
142.8757625
20
49.148325
11
142.8710625
21
49.184225
0
LINE
8
DEFAULT_255_2_778
10
142.8710625
20
49.184225
11
142.8654625
21
49.220225
0
LINE
8
DEFAULT_255_2_778
10
142.8654625
20
49.220225
11
142.8588625
21
49.255925
0
LINE
8
DEFAULT_255_2_778
10
142.8588625
20
49.255925
11
142.8421625
21
49.326625
0
LINE
8
DEFAULT_255_2_778
10
142.8421625
20
49.326625
11
142.8207625
21
49.395925
0
LINE
8
DEFAULT_255_2_778
10
142.8207625
20
49.395925
11
142.7940625
21
49.463625
0
LINE
8
DEFAULT_255_2_778
10
142.7940625
20
49.463625
11
142.7482625
21
49.553325
0
LINE
8
DEFAULT_255_2_778
10
142.7482625
20
49.553325
11
142.6918625
21
49.637525
0
LINE
8
DEFAULT_255_2_778
10
142.6918625
20
49.637525
11
142.6077625
21
49.730925
0
LINE
8
DEFAULT_255_2_778
10
142.6077625
20
49.730925
11
142.5090625
21
49.806825
0
LINE
8
DEFAULT_255_2_778
10
142.5090625
20
49.806825
11
142.3863625
21
49.865825
0
LINE
8
DEFAULT_255_2_778
10
142.3863625
20
49.865825
11
142.1987625
21
49.910525
0
LINE
8
DEFAULT_255_2_778
10
142.1987625
20
49.910525
11
142.0338625
21
49.921125
0
LINE
8
DEFAULT_255_2_778
10
142.0338625
20
49.921125
11
141.4954625
21
49.921125
0
LINE
8
DEFAULT_255_2_778
10
141.4954625
20
49.921125
11
141.4954625
21
47.921125
0
LINE
8
DEFAULT_255_2_778
10
141.4954625
20
47.921125
11
142.0796625
21
47.921125
0
LINE
8
DEFAULT_255_2_778
10
142.0338542
20
49.6938448
11
141.7277542
21
49.6938448
0
LINE
8
DEFAULT_255_2_778
10
141.7277542
20
49.6938448
11
141.7277542
21
48.1473448
0
LINE
8
DEFAULT_255_2_778
10
141.7277542
20
48.1473448
11
142.1770542
21
48.1526448
0
LINE
8
DEFAULT_255_2_778
10
142.1770542
20
48.1526448
11
142.3246542
21
48.1886448
0
LINE
8
DEFAULT_255_2_778
10
142.3246542
20
48.1886448
11
142.4228542
21
48.2418448
0
LINE
8
DEFAULT_255_2_778
10
142.4228542
20
48.2418448
11
142.5024542
21
48.3161448
0
LINE
8
DEFAULT_255_2_778
10
142.5024542
20
48.3161448
11
142.5455542
21
48.3770448
0
LINE
8
DEFAULT_255_2_778
10
142.5455542
20
48.3770448
11
142.5815542
21
48.4492448
0
LINE
8
DEFAULT_255_2_778
10
142.5815542
20
48.4492448
11
142.6024542
21
48.5061448
0
LINE
8
DEFAULT_255_2_778
10
142.6024542
20
48.5061448
11
142.6178542
21
48.5595448
0
LINE
8
DEFAULT_255_2_778
10
142.6178542
20
48.5595448
11
142.6299542
21
48.6138448
0
LINE
8
DEFAULT_255_2_778
10
142.6299542
20
48.6138448
11
142.6392542
21
48.6685448
0
LINE
8
DEFAULT_255_2_778
10
142.6392542
20
48.6685448
11
142.6429542
21
48.6961448
0
LINE
8
DEFAULT_255_2_778
10
142.6429542
20
48.6961448
11
142.6474542
21
48.7347448
0
LINE
8
DEFAULT_255_2_778
10
142.6474542
20
48.7347448
11
142.6471542
21
49.1189448
0
LINE
8
DEFAULT_255_2_778
10
142.6471542
20
49.1189448
11
142.6395542
21
49.1723448
0
LINE
8
DEFAULT_255_2_778
10
142.6395542
20
49.1723448
11
142.6289542
21
49.2252448
0
LINE
8
DEFAULT_255_2_778
10
142.6289542
20
49.2252448
11
142.6151542
21
49.2773448
0
LINE
8
DEFAULT_255_2_778
10
142.6151542
20
49.2773448
11
142.5976542
21
49.3287448
0
LINE
8
DEFAULT_255_2_778
10
142.5976542
20
49.3287448
11
142.5617542
21
49.4070448
0
LINE
8
DEFAULT_255_2_778
10
142.5617542
20
49.4070448
11
142.5080542
21
49.4898448
0
LINE
8
DEFAULT_255_2_778
10
142.5080542
20
49.4898448
11
142.4415542
21
49.5618448
0
LINE
8
DEFAULT_255_2_778
10
142.4415542
20
49.5618448
11
142.3452542
21
49.6282448
0
LINE
8
DEFAULT_255_2_778
10
142.3452542
20
49.6282448
11
142.1936542
21
49.6790448
0
LINE
8
DEFAULT_255_2_778
10
142.1936542
20
49.6790448
11
142.0534542
21
49.6933448
0
LINE
8
DEFAULT_255_2_778
10
13.8522334
20
62.5809
11
12.4383334
21
62.5809
0
LINE
8
DEFAULT_255_2_778
10
12.4396334
20
62.5798666
11
12.4383334
21
63.9937666
0
LINE
8
DEFAULT_255_2_778
10
12.4383334
20
63.9937666
11
13.8522334
21
63.9937666
0
LINE
8
DEFAULT_255_2_778
10
13.8522334
20
63.9937666
11
13.8509334
21
62.5798666
0
LINE
8
DEFAULT_255_2_778
10
12.3018323
20
57.5140666
11
13.9017323
21
57.5140666
0
LINE
8
DEFAULT_255_2_778
10
13.9017323
20
57.5140666
11
13.9017323
21
57.3389666
0
LINE
8
DEFAULT_255_2_778
10
13.9017323
20
57.3389666
11
12.3018323
21
57.3389666
0
LINE
8
DEFAULT_255_2_778
10
12.3018323
20
57.3389666
11
12.3018323
21
57.5140666
0
LINE
8
DEFAULT_255_2_778
10
12.3018323
20
58.8290666
11
13.9017323
21
58.8290666
0
LINE
8
DEFAULT_255_2_778
10
13.9017323
20
58.8290666
11
13.9017323
21
58.5941666
0
LINE
8
DEFAULT_255_2_778
10
13.9017323
20
58.5941666
11
12.5751323
21
57.9762666
0
LINE
8
DEFAULT_255_2_778
10
12.5751323
20
57.9762666
11
13.9017323
21
57.9762666
0
LINE
8
DEFAULT_255_2_778
10
13.9017323
20
57.9762666
11
13.9017323
21
57.8022666
0
LINE
8
DEFAULT_255_2_778
10
13.9017323
20
57.8022666
11
12.3018323
21
57.8022666
0
LINE
8
DEFAULT_255_2_778
10
12.3018323
20
57.8022666
11
12.3018323
21
58.0300666
0
LINE
8
DEFAULT_255_2_778
10
12.3018323
20
58.0300666
11
13.6432323
21
58.6549666
0
LINE
8
DEFAULT_255_2_778
10
13.6432323
20
58.6549666
11
12.3018323
21
58.6549666
0
LINE
8
DEFAULT_255_2_778
10
12.3018323
20
58.6549666
11
12.3018323
21
58.8290666
0
LINE
8
DEFAULT_255_2_778
10
12.3018
20
60.0837312
11
12.4833
21
60.0837312
0
LINE
8
DEFAULT_255_2_778
10
12.4833
20
60.0837312
11
12.4833
21
59.6545312
0
LINE
8
DEFAULT_255_2_778
10
12.4833
20
59.6545312
11
13.902
21
59.6545312
0
LINE
8
DEFAULT_255_2_778
10
13.902
20
59.6545312
11
13.902
21
59.4794312
0
LINE
8
DEFAULT_255_2_778
10
13.902
20
59.4794312
11
12.4833
21
59.4794312
0
LINE
8
DEFAULT_255_2_778
10
12.4833
20
59.4794312
11
12.4833
21
59.0502312
0
LINE
8
DEFAULT_255_2_778
10
12.4833
20
59.0502312
11
12.3018
21
59.0502312
0
LINE
8
DEFAULT_255_2_778
10
12.3018
20
59.0502312
11
12.3018
21
60.0834312
0
LINE
8
DEFAULT_255_2_778
10
13.6741959
20
54.9952781
11
12.3348959
21
55.3844781
0
LINE
8
DEFAULT_255_2_778
10
12.3348959
20
55.3844781
11
12.3348959
21
55.6683781
0
LINE
8
DEFAULT_255_2_778
10
12.3348959
20
55.6683781
11
13.9347959
21
55.6683781
0
LINE
8
DEFAULT_255_2_778
10
13.9347959
20
55.6683781
11
13.9347959
21
55.4932781
0
LINE
8
DEFAULT_255_2_778
10
13.9347959
20
55.4932781
11
12.5004959
21
55.4932781
0
LINE
8
DEFAULT_255_2_778
10
12.5004959
20
55.4932781
11
13.9347959
21
55.0823781
0
LINE
8
DEFAULT_255_2_778
10
13.9347959
20
55.0823781
11
13.9347959
21
54.9063781
0
LINE
8
DEFAULT_255_2_778
10
13.9347959
20
54.9063781
11
12.5025959
21
54.4846781
0
LINE
8
DEFAULT_255_2_778
10
12.5025959
20
54.4846781
11
13.9347959
21
54.4846781
0
LINE
8
DEFAULT_255_2_778
10
13.9347959
20
54.4846781
11
13.9347959
21
54.3094781
0
LINE
8
DEFAULT_255_2_778
10
13.9347959
20
54.3094781
11
12.3348959
21
54.3094781
0
LINE
8
DEFAULT_255_2_778
10
12.3348959
20
54.3094781
11
12.3348959
21
54.5933781
0
LINE
8
DEFAULT_255_2_778
10
12.3348959
20
54.5933781
11
13.6741959
21
54.9952781
0
LINE
8
DEFAULT_255_2_778
10
13.9016959
20
55.8917781
11
12.3017959
21
56.4169781
0
LINE
8
DEFAULT_255_2_778
10
12.3017959
20
56.4169781
11
12.3017959
21
56.6092781
0
LINE
8
DEFAULT_255_2_778
10
12.3017959
20
56.6092781
11
13.9016959
21
57.1344781
0
LINE
8
DEFAULT_255_2_778
10
13.9016959
20
57.1344781
11
13.9016959
21
56.9439781
0
LINE
8
DEFAULT_255_2_778
10
13.9016959
20
56.9439781
11
13.4844959
21
56.8150781
0
LINE
8
DEFAULT_255_2_778
10
13.4844959
20
56.8150781
11
13.4844959
21
56.2126781
0
LINE
8
DEFAULT_255_2_778
10
13.4844959
20
56.2126781
11
13.9016959
21
56.0856781
0
LINE
8
DEFAULT_255_2_778
10
13.9016959
20
56.0856781
11
13.9016959
21
55.8914781
0
LINE
8
DEFAULT_255_2_778
10
12.5081958
20
56.514001
11
13.3029958
21
56.269001
0
LINE
8
DEFAULT_255_2_778
10
13.3029958
20
56.269001
11
13.3029958
21
56.759801
0
LINE
8
DEFAULT_255_2_778
10
13.3029958
20
56.759801
11
12.5081958
21
56.514001
0
LINE
8
DEFAULT_255_2_778
10
10.7206323
20
55.0561302
11
10.9021323
21
55.0561302
0
LINE
8
DEFAULT_255_2_778
10
10.9021323
20
55.0561302
11
10.9021323
21
54.2597302
0
LINE
8
DEFAULT_255_2_778
10
10.9021323
20
54.2597302
11
9.3022323
21
54.2597302
0
LINE
8
DEFAULT_255_2_778
10
9.3022323
20
54.2597302
11
9.3022323
21
55.0400302
0
LINE
8
DEFAULT_255_2_778
10
9.3022323
20
55.0400302
11
9.4837323
21
55.0400302
0
LINE
8
DEFAULT_255_2_778
10
9.4837323
20
55.0400302
11
9.4837323
21
54.4349302
0
LINE
8
DEFAULT_255_2_778
10
9.4837323
20
54.4349302
11
9.9883323
21
54.4349302
0
LINE
8
DEFAULT_255_2_778
10
9.9883323
20
54.4349302
11
9.9883323
21
55.0164302
0
LINE
8
DEFAULT_255_2_778
10
9.9883323
20
55.0164302
11
10.1698323
21
55.0164302
0
LINE
8
DEFAULT_255_2_778
10
10.1698323
20
55.0164302
11
10.1698323
21
54.4349302
0
LINE
8
DEFAULT_255_2_778
10
10.1698323
20
54.4349302
11
10.7209323
21
54.4349302
0
LINE
8
DEFAULT_255_2_778
10
10.7209323
20
54.4349302
11
10.7209323
21
55.0564302
0
ARC
8
DEFAULT_255_2_778
10
10.3983009
20
55.761985
40
0.2031957
50
103.6911025
51
180.5808761
0
ARC
8
DEFAULT_255_2_778
10
10.5114388
20
55.5107909
40
0.4767098
50
103.2945959
51
109.768332
0
ARC
8
DEFAULT_255_2_778
10
10.2896575
20
55.9220807
40
0.2083527
50
112.0271609
51
144.4277632
0
ARC
8
DEFAULT_255_2_778
10
10.216241
20
55.9816878
40
0.1141081
50
147.3286604
51
180.3463017
0
ARC
8
DEFAULT_255_2_778
10
10.2405511
20
55.9813607
40
0.1384167
50
180.1500902
51
189.7058709
0
ARC
8
DEFAULT_255_2_778
10
9.7634742
20
55.8366029
40
0.3616351
50
19.6186793
51
86.5525734
0
ARC
8
DEFAULT_255_2_778
10
9.716394
20
55.5768478
40
0.6245398
50
83.6729785
51
90.1303212
0
ARC
8
DEFAULT_255_2_778
10
9.7164331
20
55.4045113
40
0.7968762
50
90.1049455
51
95.2504621
0
ARC
8
DEFAULT_255_2_778
10
9.7214122
20
55.3327606
40
0.8687831
50
95.1444353
51
95.3030806
0
ARC
8
DEFAULT_255_2_778
10
9.6617045
20
55.7724011
40
0.4259218
50
92.7707265
51
119.8267147
0
ARC
8
DEFAULT_255_2_778
10
9.6183787
20
55.8788923
40
0.3123667
50
122.6489088
51
173.5965229
0
ARC
8
DEFAULT_255_2_778
10
9.8493244
20
55.8234316
40
0.5488427
50
170.5303114
51
175.4443174
0
LINE
8
DEFAULT_255_2_778
10
9.3019156
20
55.288725
11
10.9061156
21
55.280525
0
LINE
8
DEFAULT_255_2_778
10
10.9061156
20
55.280525
11
10.9061156
21
55.462225
0
LINE
8
DEFAULT_255_2_778
10
10.9061156
20
55.462225
11
10.1951156
21
55.462225
0
LINE
8
DEFAULT_255_2_778
10
10.1951156
20
55.462225
11
10.1951156
21
55.759925
0
LINE
8
DEFAULT_255_2_778
10
10.4018156
20
55.974725
11
10.8979156
21
56.065725
0
LINE
8
DEFAULT_255_2_778
10
10.8979156
20
56.065725
11
10.8979156
21
56.239325
0
LINE
8
DEFAULT_255_2_778
10
10.8979156
20
56.239325
11
10.2115156
21
56.115225
0
LINE
8
DEFAULT_255_2_778
10
9.3022156
20
55.867025
11
9.3019156
21
55.288725
0
ARC
8
DEFAULT_255_2_778
10
9.6063879
20
55.7475325
40
0.3986232
50
358.2155735
51
21.7816898
0
ARC
8
DEFAULT_255_2_778
10
9.7781602
20
55.8071316
40
0.2171613
50
23.9973844
51
92.3174071
0
ARC
8
DEFAULT_255_2_778
10
9.7486292
20
55.5977743
40
0.4268456
50
87.2136078
51
90.0283855
0
ARC
8
DEFAULT_255_2_778
10
9.7351337
20
55.7455649
40
0.2793709
50
87.2745796
51
122.9120209
0
ARC
8
DEFAULT_255_2_778
10
9.730041
20
55.7892851
40
0.2406899
50
127.5542838
51
173.6245784
0
ARC
8
DEFAULT_255_2_778
10
10.0078739
20
55.7304391
40
0.524068
50
170.60233
51
180.3847641
0
LINE
8
DEFAULT_255_2_778
10
10.0048177
20
55.4624198
11
10.0048177
21
55.7351198
0
LINE
8
DEFAULT_255_2_778
10
9.4838177
20
55.7269198
11
9.4838177
21
55.4624198
0
LINE
8
DEFAULT_255_2_778
10
9.4838177
20
55.4624198
11
10.0048177
21
55.4624198
0
LINE
8
DEFAULT_255_2_778
10
10.0048177
20
55.7351198
11
10.0048177
21
55.7351198
0
ARC
8
DEFAULT_255_2_778
10
10.3983009
20
56.961385
40
0.2031957
50
103.6911025
51
180.5808761
0
ARC
8
DEFAULT_255_2_778
10
10.5114388
20
56.7101909
40
0.4767098
50
103.2945959
51
109.768332
0
ARC
8
DEFAULT_255_2_778
10
10.2896575
20
57.1214807
40
0.2083527
50
112.0271609
51
144.4277632
0
ARC
8
DEFAULT_255_2_778
10
10.216241
20
57.1810878
40
0.1141081
50
147.3286604
51
180.3463017
0
ARC
8
DEFAULT_255_2_778
10
10.2405511
20
57.1807607
40
0.1384167
50
180.1500902
51
189.7058709
0
ARC
8
DEFAULT_255_2_778
10
9.7634742
20
57.0360029
40
0.3616351
50
19.6186793
51
86.5525734
0
ARC
8
DEFAULT_255_2_778
10
9.716394
20
56.7762478
40
0.6245398
50
83.6729785
51
90.1303212
0
ARC
8
DEFAULT_255_2_778
10
9.7164331
20
56.6039113
40
0.7968762
50
90.1049455
51
95.2504621
0
ARC
8
DEFAULT_255_2_778
10
9.7214122
20
56.5321606
40
0.8687831
50
95.1444353
51
95.3030806
0
ARC
8
DEFAULT_255_2_778
10
9.6617045
20
56.9718011
40
0.4259218
50
92.7707265
51
119.8267147
0
ARC
8
DEFAULT_255_2_778
10
9.6183787
20
57.0782923
40
0.3123667
50
122.6489088
51
173.5965229
0
ARC
8
DEFAULT_255_2_778
10
9.8493244
20
57.0228316
40
0.5488427
50
170.5303114
51
175.4443174
0
LINE
8
DEFAULT_255_2_778
10
9.3019156
20
56.488125
11
10.9061156
21
56.479925
0
LINE
8
DEFAULT_255_2_778
10
10.9061156
20
56.479925
11
10.9061156
21
56.661625
0
LINE
8
DEFAULT_255_2_778
10
10.9061156
20
56.661625
11
10.1951156
21
56.661625
0
LINE
8
DEFAULT_255_2_778
10
10.1951156
20
56.661625
11
10.1951156
21
56.959325
0
LINE
8
DEFAULT_255_2_778
10
10.4018156
20
57.174125
11
10.8979156
21
57.265125
0
LINE
8
DEFAULT_255_2_778
10
10.8979156
20
57.265125
11
10.8979156
21
57.438725
0
LINE
8
DEFAULT_255_2_778
10
10.8979156
20
57.438725
11
10.2115156
21
57.314625
0
LINE
8
DEFAULT_255_2_778
10
9.3022156
20
57.066425
11
9.3019156
21
56.488125
0
ARC
8
DEFAULT_255_2_778
10
9.6063879
20
56.9468325
40
0.3986232
50
358.2155735
51
21.7816898
0
ARC
8
DEFAULT_255_2_778
10
9.7781602
20
57.0064316
40
0.2171613
50
23.9973844
51
92.3174071
0
ARC
8
DEFAULT_255_2_778
10
9.7486292
20
56.7970743
40
0.4268456
50
87.2136078
51
90.0283855
0
ARC
8
DEFAULT_255_2_778
10
9.7351337
20
56.9448649
40
0.2793709
50
87.2745796
51
122.9120209
0
ARC
8
DEFAULT_255_2_778
10
9.730041
20
56.9885851
40
0.2406899
50
127.5542838
51
173.6245784
0
ARC
8
DEFAULT_255_2_778
10
10.0078739
20
56.9297391
40
0.524068
50
170.60233
51
180.3847641
0
LINE
8
DEFAULT_255_2_778
10
10.0048177
20
56.6617198
11
10.0048177
21
56.9344198
0
LINE
8
DEFAULT_255_2_778
10
9.4838177
20
56.9262198
11
9.4838177
21
56.6617198
0
LINE
8
DEFAULT_255_2_778
10
9.4838177
20
56.6617198
11
10.0048177
21
56.6617198
0
LINE
8
DEFAULT_255_2_778
10
10.0048177
20
56.9344198
11
10.0048177
21
56.9344198
0
ARC
8
DEFAULT_255_2_778
10
10.3983009
20
59.564885
40
0.2031957
50
103.6911025
51
180.5808761
0
ARC
8
DEFAULT_255_2_778
10
10.5114388
20
59.3136909
40
0.4767098
50
103.2945959
51
109.768332
0
ARC
8
DEFAULT_255_2_778
10
10.2896575
20
59.7249807
40
0.2083527
50
112.0271609
51
144.4277632
0
ARC
8
DEFAULT_255_2_778
10
10.216241
20
59.7845878
40
0.1141081
50
147.3286604
51
180.3463017
0
ARC
8
DEFAULT_255_2_778
10
10.2405511
20
59.7842607
40
0.1384167
50
180.1500902
51
189.7058709
0
ARC
8
DEFAULT_255_2_778
10
9.7634742
20
59.6395029
40
0.3616351
50
19.6186793
51
86.5525734
0
ARC
8
DEFAULT_255_2_778
10
9.716394
20
59.3797478
40
0.6245398
50
83.6729785
51
90.1303212
0
ARC
8
DEFAULT_255_2_778
10
9.7164331
20
59.2074113
40
0.7968762
50
90.1049455
51
95.2504621
0
ARC
8
DEFAULT_255_2_778
10
9.7214122
20
59.1356606
40
0.8687831
50
95.1444353
51
95.3030806
0
ARC
8
DEFAULT_255_2_778
10
9.6617045
20
59.5753011
40
0.4259218
50
92.7707265
51
119.8267147
0
ARC
8
DEFAULT_255_2_778
10
9.6183787
20
59.6817923
40
0.3123667
50
122.6489088
51
173.5965229
0
ARC
8
DEFAULT_255_2_778
10
9.8493244
20
59.6263316
40
0.5488427
50
170.5303114
51
175.4443174
0
LINE
8
DEFAULT_255_2_778
10
9.3019156
20
59.091625
11
10.9061156
21
59.083425
0
LINE
8
DEFAULT_255_2_778
10
10.9061156
20
59.083425
11
10.9061156
21
59.265125
0
LINE
8
DEFAULT_255_2_778
10
10.9061156
20
59.265125
11
10.1951156
21
59.265125
0
LINE
8
DEFAULT_255_2_778
10
10.1951156
20
59.265125
11
10.1951156
21
59.562825
0
LINE
8
DEFAULT_255_2_778
10
10.4018156
20
59.777625
11
10.8979156
21
59.868625
0
LINE
8
DEFAULT_255_2_778
10
10.8979156
20
59.868625
11
10.8979156
21
60.042225
0
LINE
8
DEFAULT_255_2_778
10
10.8979156
20
60.042225
11
10.2115156
21
59.918125
0
LINE
8
DEFAULT_255_2_778
10
9.3022156
20
59.669925
11
9.3019156
21
59.091625
0
ARC
8
DEFAULT_255_2_778
10
9.6063879
20
59.5503325
40
0.3986232
50
358.2155735
51
21.7816898
0
ARC
8
DEFAULT_255_2_778
10
9.7781602
20
59.6099316
40
0.2171613
50
23.9973844
51
92.3174071
0
ARC
8
DEFAULT_255_2_778
10
9.7486292
20
59.4005743
40
0.4268456
50
87.2136078
51
90.0283855
0
ARC
8
DEFAULT_255_2_778
10
9.7351337
20
59.5483649
40
0.2793709
50
87.2745796
51
122.9120209
0
ARC
8
DEFAULT_255_2_778
10
9.730041
20
59.5920851
40
0.2406899
50
127.5542838
51
173.6245784
0
ARC
8
DEFAULT_255_2_778
10
10.0078739
20
59.5332391
40
0.524068
50
170.60233
51
180.3847641
0
LINE
8
DEFAULT_255_2_778
10
10.0048177
20
59.2652198
11
10.0048177
21
59.5379198
0
LINE
8
DEFAULT_255_2_778
10
9.4838177
20
59.5297198
11
9.4838177
21
59.2652198
0
LINE
8
DEFAULT_255_2_778
10
9.4838177
20
59.2652198
11
10.0048177
21
59.2652198
0
LINE
8
DEFAULT_255_2_778
10
10.0048177
20
59.5379198
11
10.0048177
21
59.5379198
0
ARC
8
DEFAULT_255_2_778
10
10.0828972
20
57.2233404
40
1.6192471
50
89.5594107
51
99.1522307
0
ARC
8
DEFAULT_255_2_778
10
9.9586828
20
57.960752
40
0.8714823
50
98.8010325
51
115.2650268
0
ARC
8
DEFAULT_255_2_778
10
9.7902735
20
58.3065684
40
0.4868901
50
114.7115373
51
177.6364465
0
ARC
8
DEFAULT_255_2_778
10
10.0883412
20
58.2585548
40
0.7874931
50
175.0395507
51
180.0738632
0
ARC
8
DEFAULT_255_2_778
10
9.7961409
20
58.272393
40
0.4955149
50
181.7177421
51
244.3606011
0
ARC
8
DEFAULT_255_2_778
10
9.9808595
20
58.6269732
40
0.895206
50
243.5220427
51
259.2721155
0
ARC
8
DEFAULT_255_2_778
10
10.1255491
20
59.3422058
40
1.6248964
50
258.9539203
51
268.2825093
0
ARC
8
DEFAULT_255_2_778
10
10.0226006
20
59.8099657
40
2.0926294
50
271.4854688
51
278.982923
0
ARC
8
DEFAULT_255_2_778
10
10.1739803
20
58.8815666
40
1.1519898
50
278.755989
51
290.7080341
0
ARC
8
DEFAULT_255_2_778
10
10.3768433
20
58.361303
40
0.5936329
50
290.1493312
51
312.9841655
0
ARC
8
DEFAULT_255_2_778
10
10.47958
20
58.2340749
40
0.4306706
50
314.5259233
51
2.1595067
0
ARC
8
DEFAULT_255_2_778
10
10.2565235
20
58.2498467
40
0.6534214
50
0.0400278
51
3.878046
0
ARC
8
DEFAULT_255_2_778
10
10.3871658
20
58.3081195
40
0.521473
50
358.4528135
51
28.3938401
0
ARC
8
DEFAULT_255_2_778
10
10.4332018
20
58.3105814
40
0.4802097
50
30.7480553
51
67.5529599
0
ARC
8
DEFAULT_255_2_778
10
10.2451436
20
57.8996606
40
0.9319556
50
66.5134179
51
81.1442064
0
ARC
8
DEFAULT_255_2_778
10
10.1172226
20
57.141149
40
1.7011454
50
80.8200407
51
89.3817132
0
ARC
8
DEFAULT_255_2_778
10
10.0956118
20
56.5219855
40
2.320554
50
89.0131241
51
90.006496
0
LINE
8
DEFAULT_255_2_778
10
10.0953487
20
58.8425396
11
10.0953487
21
58.8425396
0
ARC
8
DEFAULT_255_2_778
10
10.1016754
20
56.9799838
40
1.6797437
50
89.5794801
51
97.8859353
0
ARC
8
DEFAULT_255_2_778
10
9.9788466
20
57.8264308
40
0.8244679
50
97.5013787
51
112.0447122
0
ARC
8
DEFAULT_255_2_778
10
9.7998575
20
58.2479054
40
0.3667079
50
110.8397878
51
145.588154
0
ARC
8
DEFAULT_255_2_778
10
9.7738055
20
58.2841083
40
0.3251082
50
148.2580816
51
181.4674979
0
ARC
8
DEFAULT_255_2_778
10
9.7599135
20
58.2422031
40
0.3129167
50
173.8397175
51
179.9202718
0
ARC
8
DEFAULT_255_2_778
10
9.6985672
20
58.2435539
40
0.2515719
50
180.2084704
51
245.0988896
0
ARC
8
DEFAULT_255_2_778
10
9.9090484
20
58.6049649
40
0.6691307
50
241.7797799
51
257.3008046
0
ARC
8
DEFAULT_255_2_778
10
10.0928845
20
59.366728
40
1.4527211
50
256.8322977
51
265.359504
0
ARC
8
DEFAULT_255_2_778
10
10.1906465
20
60.3877257
40
2.4783257
50
265.0164344
51
268.6556886
0
ARC
8
DEFAULT_255_2_778
10
10.0930374
20
59.7668682
40
1.8572053
50
271.2176487
51
278.3414448
0
ARC
8
DEFAULT_255_2_778
10
10.2341503
20
58.8363633
40
0.9160843
50
278.0518689
51
289.9543484
0
ARC
8
DEFAULT_255_2_778
10
10.4175499
20
58.3499032
40
0.3962912
50
289.0327127
51
314.2913095
0
ARC
8
DEFAULT_255_2_778
10
10.5214558
20
58.2344375
40
0.2411638
50
315.7774781
51
1.3409002
0
ARC
8
DEFAULT_255_2_778
10
10.4254805
20
58.2395759
40
0.3370735
50
0.0858483
51
6.1662551
0
ARC
8
DEFAULT_255_2_778
10
10.4382241
20
58.2866785
40
0.3225637
50
358.0641816
51
70.4903435
0
ARC
8
DEFAULT_255_2_778
10
10.2427155
20
57.8611691
40
0.7900623
50
67.430117
51
82.531987
0
ARC
8
DEFAULT_255_2_778
10
10.1254796
20
57.0604494
40
1.5992739
50
82.0959878
51
90.4111403
0
LINE
8
DEFAULT_255_2_778
10
10.1140037
20
58.6596823
11
10.1140037
21
58.6596823
0
LINE
8
DEFAULT_255_2_778
10
7.8575261
20
62.5809021
11
6.4370261
21
62.5809021
0
LINE
8
DEFAULT_255_2_778
10
6.4383261
20
62.5798021
11
6.4370261
21
63.9932021
0
LINE
8
DEFAULT_255_2_778
10
6.4370261
20
63.9932021
11
7.8575261
21
63.9932021
0
LINE
8
DEFAULT_255_2_778
10
7.8575261
20
63.9932021
11
7.8562261
21
62.5798021
0
LINE
8
DEFAULT_255_2_778
10
6.3018
20
57.5572312
11
6.4833
21
57.5572312
0
LINE
8
DEFAULT_255_2_778
10
6.4833
20
57.5572312
11
6.4833
21
57.1280312
0
LINE
8
DEFAULT_255_2_778
10
6.4833
20
57.1280312
11
7.902
21
57.1280312
0
LINE
8
DEFAULT_255_2_778
10
7.902
20
57.1280312
11
7.902
21
56.9529312
0
LINE
8
DEFAULT_255_2_778
10
7.902
20
56.9529312
11
6.4833
21
56.9529312
0
LINE
8
DEFAULT_255_2_778
10
6.4833
20
56.9529312
11
6.4833
21
56.5237312
0
LINE
8
DEFAULT_255_2_778
10
6.4833
20
56.5237312
11
6.3018
21
56.5237312
0
LINE
8
DEFAULT_255_2_778
10
6.3018
20
56.5237312
11
6.3018
21
57.5569312
0
LINE
8
DEFAULT_255_2_778
10
6.3018396
20
53.2527781
11
7.9017396
21
53.2527781
0
LINE
8
DEFAULT_255_2_778
10
7.9017396
20
53.2527781
11
7.9017396
21
53.0177781
0
LINE
8
DEFAULT_255_2_778
10
7.9017396
20
53.0177781
11
6.5751396
21
52.3999781
0
LINE
8
DEFAULT_255_2_778
10
6.5751396
20
52.3999781
11
7.9017396
21
52.3999781
0
LINE
8
DEFAULT_255_2_778
10
7.9017396
20
52.3999781
11
7.9017396
21
52.2258781
0
LINE
8
DEFAULT_255_2_778
10
7.9017396
20
52.2258781
11
6.3018396
21
52.2258781
0
LINE
8
DEFAULT_255_2_778
10
6.3018396
20
52.2258781
11
6.3018396
21
52.4537781
0
LINE
8
DEFAULT_255_2_778
10
6.3018396
20
52.4537781
11
7.6432396
21
53.0786781
0
LINE
8
DEFAULT_255_2_778
10
7.6432396
20
53.0786781
11
6.3018396
21
53.0786781
0
LINE
8
DEFAULT_255_2_778
10
6.3018396
20
53.0786781
11
6.3018396
21
53.2527781
0
LINE
8
DEFAULT_255_2_778
10
6.3018396
20
54.6190781
11
8.0221396
21
54.2118781
0
LINE
8
DEFAULT_255_2_778
10
8.0221396
20
54.2118781
11
8.0221396
21
54.1084781
0
LINE
8
DEFAULT_255_2_778
10
8.0221396
20
54.1084781
11
6.3018396
21
54.5155781
0
LINE
8
DEFAULT_255_2_778
10
6.3018396
20
54.5155781
11
6.3018396
21
54.6190781
0
ARC
8
DEFAULT_255_2_778
10
7.4043009
20
50.179585
40
0.2031957
50
103.6911025
51
180.5808761
0
ARC
8
DEFAULT_255_2_778
10
7.5174388
20
49.9283909
40
0.4767098
50
103.2945959
51
109.768332
0
ARC
8
DEFAULT_255_2_778
10
7.2956575
20
50.3396807
40
0.2083527
50
112.0271609
51
144.4277632
0
ARC
8
DEFAULT_255_2_778
10
7.222241
20
50.3992878
40
0.1141081
50
147.3286604
51
180.3463017
0
ARC
8
DEFAULT_255_2_778
10
7.2465511
20
50.3989607
40
0.1384167
50
180.1500902
51
189.7058709
0
ARC
8
DEFAULT_255_2_778
10
6.7694742
20
50.2542029
40
0.3616351
50
19.6186793
51
86.5525734
0
ARC
8
DEFAULT_255_2_778
10
6.722394
20
49.9944478
40
0.6245398
50
83.6729785
51
90.1303212
0
ARC
8
DEFAULT_255_2_778
10
6.7224331
20
49.8221113
40
0.7968762
50
90.1049455
51
95.2504621
0
ARC
8
DEFAULT_255_2_778
10
6.7274122
20
49.7503606
40
0.8687831
50
95.1444353
51
95.3030806
0
ARC
8
DEFAULT_255_2_778
10
6.6677045
20
50.1900011
40
0.4259218
50
92.7707265
51
119.8267147
0
ARC
8
DEFAULT_255_2_778
10
6.6243787
20
50.2964923
40
0.3123667
50
122.6489088
51
173.5965229
0
ARC
8
DEFAULT_255_2_778
10
6.8553244
20
50.2410316
40
0.5488427
50
170.5303114
51
175.4443174
0
LINE
8
DEFAULT_255_2_778
10
6.3079156
20
49.706325
11
7.9121156
21
49.698125
0
LINE
8
DEFAULT_255_2_778
10
7.9121156
20
49.698125
11
7.9121156
21
49.879825
0
LINE
8
DEFAULT_255_2_778
10
7.9121156
20
49.879825
11
7.2011156
21
49.879825
0
LINE
8
DEFAULT_255_2_778
10
7.2011156
20
49.879825
11
7.2011156
21
50.177525
0
LINE
8
DEFAULT_255_2_778
10
7.4078156
20
50.392325
11
7.9039156
21
50.483325
0
LINE
8
DEFAULT_255_2_778
10
7.9039156
20
50.483325
11
7.9039156
21
50.656925
0
LINE
8
DEFAULT_255_2_778
10
7.9039156
20
50.656925
11
7.2175156
21
50.532825
0
LINE
8
DEFAULT_255_2_778
10
6.3082156
20
50.284625
11
6.3079156
21
49.706325
0
ARC
8
DEFAULT_255_2_778
10
6.6123879
20
50.1650325
40
0.3986232
50
358.2155735
51
21.7816898
0
ARC
8
DEFAULT_255_2_778
10
6.7841602
20
50.2246316
40
0.2171613
50
23.9973844
51
92.3174071
0
ARC
8
DEFAULT_255_2_778
10
6.7546292
20
50.0152743
40
0.4268456
50
87.2136078
51
90.0283855
0
ARC
8
DEFAULT_255_2_778
10
6.7411337
20
50.1630649
40
0.2793709
50
87.2745796
51
122.9120209
0
ARC
8
DEFAULT_255_2_778
10
6.736041
20
50.2067851
40
0.2406899
50
127.5542838
51
173.6245784
0
ARC
8
DEFAULT_255_2_778
10
7.0138739
20
50.1479391
40
0.524068
50
170.60233
51
180.3847641
0
LINE
8
DEFAULT_255_2_778
10
7.0108177
20
49.8799198
11
7.0108177
21
50.1526198
0
LINE
8
DEFAULT_255_2_778
10
6.4898177
20
50.1444198
11
6.4898177
21
49.8799198
0
LINE
8
DEFAULT_255_2_778
10
6.4898177
20
49.8799198
11
7.0108177
21
49.8799198
0
LINE
8
DEFAULT_255_2_778
10
7.0108177
20
50.1526198
11
7.0108177
21
50.1526198
0
LINE
8
DEFAULT_255_2_778
10
6.2912498
20
50.905152
11
6.2912498
21
51.086852
0
LINE
8
DEFAULT_255_2_778
10
6.2912498
20
51.086852
11
7.3165498
21
51.086852
0
ARC
8
DEFAULT_255_2_778
10
7.2489328
20
52.1937195
40
1.108931
50
273.4957778
51
283.3825832
0
ARC
8
DEFAULT_255_2_778
10
7.4030041
20
51.570575
40
0.4670812
50
282.6883289
51
302.1164789
0
ARC
8
DEFAULT_255_2_778
10
7.5477277
20
51.3471651
40
0.2009547
50
301.0323086
51
0.8864654
0
ARC
8
DEFAULT_255_2_778
10
7.4724921
20
51.3496902
40
0.2761667
50
0.1211333
51
7.2520443
0
ARC
8
DEFAULT_255_2_778
10
7.2019917
20
51.3974858
40
0.5446117
50
358.6391731
51
359.9934849
0
ARC
8
DEFAULT_255_2_778
10
7.4106121
20
51.4109059
40
0.3362616
50
357.7021654
51
32.2360623
0
ARC
8
DEFAULT_255_2_778
10
7.4471523
20
51.4107978
40
0.3060386
50
35.904725
51
77.1799539
0
ARC
8
DEFAULT_255_2_778
10
7.3366731
20
51.0147056
40
0.7170455
50
75.5947186
51
90.9527784
0
LINE
8
DEFAULT_255_2_778
10
7.3247498
20
51.731652
11
6.2994498
21
51.731652
0
ARC
8
DEFAULT_255_2_778
10
7.3455978
20
50.9934772
40
0.9285609
50
76.1450166
51
90.7804523
0
ARC
8
DEFAULT_255_2_778
10
7.4646895
20
51.4437601
40
0.4629263
50
42.7287403
51
77.1104036
0
ARC
8
DEFAULT_255_2_778
10
7.4469437
20
51.45611
40
0.4680586
50
6.7122841
51
40.1433986
0
ARC
8
DEFAULT_255_2_778
10
7.119601
20
51.3961024
40
0.8004559
50
359.7601801
51
8.239621
0
ARC
8
DEFAULT_255_2_778
10
7.2529315
20
51.3919828
40
0.6671188
50
340.8297743
51
0.0660601
0
ARC
8
DEFAULT_255_2_778
10
7.5115071
20
51.3070647
40
0.395025
50
277.1252097
51
340.147932
0
ARC
8
DEFAULT_255_2_778
10
7.4280262
20
51.6255967
40
0.7227517
50
274.2707986
51
280.5619267
0
ARC
8
DEFAULT_255_2_778
10
6.690738
20
55.9215193
40
0.4069844
50
113.0713958
51
178.5857331
0
ARC
8
DEFAULT_255_2_778
10
6.9231214
20
55.8874637
40
0.6407633
50
176.0535077
51
180.0454217
0
ARC
8
DEFAULT_255_2_778
10
7.0096993
20
55.8873167
40
0.727341
50
180.0284393
51
182.9920089
0
ARC
8
DEFAULT_255_2_778
10
6.8364457
20
55.8469037
40
0.5531013
50
179.7463875
51
202.4801966
0
ARC
8
DEFAULT_255_2_778
10
6.6646214
20
55.7881631
40
0.3720488
50
204.239534
51
259.153598
0
ARC
8
DEFAULT_255_2_778
10
6.7673963
20
56.1477258
40
0.7452711
50
256.5944023
51
268.3817509
0
ARC
8
DEFAULT_255_2_778
10
6.7050333
20
55.9717718
40
0.5705179
50
274.1529561
51
296.1626087
0
ARC
8
DEFAULT_255_2_778
10
6.7860477
20
55.7873311
40
0.3693532
50
297.4982721
51
351.6120818
0
ARC
8
DEFAULT_255_2_778
10
7.4700638
20
55.9381899
40
0.2414067
50
87.7037536
51
167.6428901
0
ARC
8
DEFAULT_255_2_778
10
7.5067187
20
55.6938257
40
0.4863262
50
89.9609928
51
93.1805587
0
ARC
8
DEFAULT_255_2_778
10
7.521645
20
55.9624805
40
0.2181603
50
11.2453418
51
93.8360109
0
ARC
8
DEFAULT_255_2_778
10
7.155318
20
55.8523881
40
0.6000371
50
358.9270294
51
14.7367002
0
ARC
8
DEFAULT_255_2_778
10
7.4631273
20
55.8280594
40
0.2924157
50
328.4176258
51
2.5661964
0
ARC
8
DEFAULT_255_2_778
10
7.5146057
20
55.8186593
40
0.2443748
50
276.5880837
51
323.9695594
0
ARC
8
DEFAULT_255_2_778
10
7.4531071
20
56.1023476
40
0.5340089
50
269.5968685
51
279.6522184
0
ARC
8
DEFAULT_255_2_778
10
7.4790237
20
56.2694877
40
0.8751389
50
268.0568641
51
269.9848706
0
ARC
8
DEFAULT_255_2_778
10
7.4912481
20
55.96917
40
0.5749561
50
268.7586863
51
290.3396561
0
ARC
8
DEFAULT_255_2_778
10
7.5507176
20
55.7811017
40
0.3780655
50
291.7959214
51
348.0649308
0
ARC
8
DEFAULT_255_2_778
10
7.1215741
20
55.9040369
40
0.8239589
50
345.8719254
51
0.8146595
0
ARC
8
DEFAULT_255_2_778
10
7.3258382
20
55.8587112
40
0.6222316
50
5.259764
51
26.423173
0
ARC
8
DEFAULT_255_2_778
10
7.519498
20
55.9443828
40
0.4107883
50
27.7422506
51
83.3665381
0
ARC
8
DEFAULT_255_2_778
10
7.4466808
20
55.6201304
40
0.7421012
50
80.6730925
51
89.1607983
0
ARC
8
DEFAULT_255_2_778
10
7.5530334
20
55.5736428
40
0.7942693
50
96.9045496
51
112.3612035
0
ARC
8
DEFAULT_255_2_778
10
7.3766096
20
55.9689522
40
0.3617915
50
110.3393374
51
164.6946231
0
ARC
8
DEFAULT_255_2_778
10
11.2005016
20
54.6845963
40
4.395076
50
161.702266
51
165.9692232
0
ARC
8
DEFAULT_255_2_778
10
6.6684997
20
55.8531172
40
0.2871458
50
310.0494301
51
338.9868709
0
ARC
8
DEFAULT_255_2_778
10
6.7285132
20
55.7936725
40
0.2031715
50
268.6602146
51
307.8802575
0
ARC
8
DEFAULT_255_2_778
10
6.727082
20
55.9228124
40
0.3322725
50
255.3807018
51
269.4276165
0
ARC
8
DEFAULT_255_2_778
10
6.7569301
20
56.0534165
40
0.4661993
50
252.1528292
51
255.8823982
0
ARC
8
DEFAULT_255_2_778
10
6.7302536
20
55.8486385
40
0.2657402
50
176.85419
51
244.0693233
0
ARC
8
DEFAULT_255_2_778
10
6.8957059
20
55.8630746
40
0.4307921
50
177.4219207
51
179.9804565
0
ARC
8
DEFAULT_255_2_778
10
7.0117759
20
55.8067518
40
0.5516447
50
157.222066
51
172.1126265
0
ARC
8
DEFAULT_255_2_778
10
6.6485282
20
55.9691099
40
0.1541338
50
112.1645937
51
160.5922156
0
ARC
8
DEFAULT_255_2_778
10
6.623924
20
56.0092488
40
0.1079494
50
104.08689
51
108.1046265
0
ARC
8
DEFAULT_255_2_778
10
5.9356242
20
58.0818181
40
2.0762406
50
288.5938671
51
289.8043764
0
ARC
8
DEFAULT_255_2_778
10
2.4117291
20
67.9596689
40
12.5638338
50
289.6619166
51
290.022988
0
LINE
8
DEFAULT_255_2_778
10
6.2994498
20
51.731652
11
6.2994498
21
51.921952
0
LINE
8
DEFAULT_255_2_778
10
6.2994498
20
51.921952
11
7.3329498
21
51.921952
0
LINE
8
DEFAULT_255_2_778
10
7.4818498
20
50.904852
11
6.2912498
21
50.905152
0
LINE
8
DEFAULT_255_2_778
10
6.7130498
20
56.155552
11
6.7130498
21
56.329052
0
LINE
8
DEFAULT_255_2_778
10
6.7130498
20
56.329052
11
6.5312498
21
56.295952
0
LINE
8
DEFAULT_255_2_778
10
7.1514498
20
55.733452
11
7.2342498
21
55.989852
0
LINE
8
DEFAULT_255_2_778
10
7.4493498
20
55.568352
11
7.4493498
21
55.394852
0
LINE
8
DEFAULT_255_2_778
10
6.7135498
20
56.155252
11
6.7130498
21
56.155552
0
LINE
8
DEFAULT_255_2_778
10
7.2223498
20
59.665952
11
7.2210498
21
59.695852
0
LINE
8
DEFAULT_255_2_778
10
7.2210498
20
59.695852
11
7.2181498
21
59.725752
0
LINE
8
DEFAULT_255_2_778
10
7.2181498
20
59.725752
11
7.2133498
21
59.755452
0
LINE
8
DEFAULT_255_2_778
10
7.2133498
20
59.755452
11
7.1998498
21
59.809352
0
LINE
8
DEFAULT_255_2_778
10
7.1998498
20
59.809352
11
7.1736498
21
59.871852
0
LINE
8
DEFAULT_255_2_778
10
7.1736498
20
59.871852
11
7.1215498
21
59.946752
0
LINE
8
DEFAULT_255_2_778
10
7.1215498
20
59.946752
11
7.0191498
21
60.026852
0
LINE
8
DEFAULT_255_2_778
10
7.0191498
20
60.026852
11
6.8831498
21
60.072652
0
LINE
8
DEFAULT_255_2_778
10
6.8831498
20
60.072652
11
6.6688498
21
60.077952
0
LINE
8
DEFAULT_255_2_778
10
6.6688498
20
60.077952
11
6.5121498
21
60.032452
0
LINE
8
DEFAULT_255_2_778
10
6.5121498
20
60.032452
11
6.4082498
21
59.954352
0
LINE
8
DEFAULT_255_2_778
10
6.4082498
20
59.954352
11
6.3550498
21
59.881352
0
LINE
8
DEFAULT_255_2_778
10
6.3550498
20
59.881352
11
6.3280498
21
59.820552
0
LINE
8
DEFAULT_255_2_778
10
6.3280498
20
59.820552
11
6.3134498
21
59.768652
0
LINE
8
DEFAULT_255_2_778
10
6.3134498
20
59.768652
11
6.3074498
21
59.735352
0
LINE
8
DEFAULT_255_2_778
10
6.3074498
20
59.735352
11
6.3037498
21
59.701452
0
LINE
8
DEFAULT_255_2_778
10
6.3037498
20
59.701452
11
6.3015498
21
59.185252
0
LINE
8
DEFAULT_255_2_778
10
6.3015498
20
59.185252
11
7.9015498
21
59.185252
0
LINE
8
DEFAULT_255_2_778
10
7.9015498
20
59.185252
11
7.9015498
21
59.360452
0
LINE
8
DEFAULT_255_2_778
10
7.9015498
20
59.360452
11
7.2223498
21
59.360452
0
LINE
8
DEFAULT_255_2_778
10
7.2223498
20
59.360452
11
7.2223498
21
59.650652
0
LINE
8
DEFAULT_255_2_778
10
6.4833969
20
59.651175
11
6.4833969
21
59.360975
0
LINE
8
DEFAULT_255_2_778
10
6.4833969
20
59.360975
11
7.0413969
21
59.360975
0
LINE
8
DEFAULT_255_2_778
10
7.0413969
20
59.360975
11
7.0395969
21
59.687375
0
LINE
8
DEFAULT_255_2_778
10
7.0395969
20
59.687375
11
7.0355969
21
59.714375
0
LINE
8
DEFAULT_255_2_778
10
7.0355969
20
59.714375
11
7.0217969
21
59.762275
0
LINE
8
DEFAULT_255_2_778
10
7.0217969
20
59.762275
11
6.9744969
21
59.834575
0
LINE
8
DEFAULT_255_2_778
10
6.9744969
20
59.834575
11
6.8463969
21
59.900675
0
LINE
8
DEFAULT_255_2_778
10
6.8463969
20
59.900675
11
6.6264969
21
59.886075
0
LINE
8
DEFAULT_255_2_778
10
6.6264969
20
59.886075
11
6.5280969
21
59.809875
0
LINE
8
DEFAULT_255_2_778
10
6.5280969
20
59.809875
11
6.4965969
21
59.746175
0
LINE
8
DEFAULT_255_2_778
10
6.4965969
20
59.746175
11
6.4883969
21
59.712575
0
LINE
8
DEFAULT_255_2_778
10
6.4883969
20
59.712575
11
6.4844969
21
59.681875
0
LINE
8
DEFAULT_255_2_778
10
6.4844969
20
59.681875
11
6.4833969
21
59.661275
0
ARC
8
DEFAULT_255_2_778
10
7.0732972
20
57.2895404
40
1.6192471
50
89.5594107
51
99.1522307
0
ARC
8
DEFAULT_255_2_778
10
6.9490828
20
58.026952
40
0.8714823
50
98.8010325
51
115.2650268
0
ARC
8
DEFAULT_255_2_778
10
6.7806735
20
58.3727684
40
0.4868901
50
114.7115373
51
177.6364465
0
ARC
8
DEFAULT_255_2_778
10
7.0787412
20
58.3247548
40
0.7874931
50
175.0395507
51
180.0738632
0
ARC
8
DEFAULT_255_2_778
10
6.7865409
20
58.338593
40
0.4955149
50
181.7177421
51
244.3606011
0
ARC
8
DEFAULT_255_2_778
10
6.9712595
20
58.6931732
40
0.895206
50
243.5220427
51
259.2721155
0
ARC
8
DEFAULT_255_2_778
10
7.1159491
20
59.4084058
40
1.6248964
50
258.9539203
51
268.2825093
0
ARC
8
DEFAULT_255_2_778
10
7.0130006
20
59.8761657
40
2.0926294
50
271.4854688
51
278.982923
0
ARC
8
DEFAULT_255_2_778
10
7.1643803
20
58.9477666
40
1.1519898
50
278.755989
51
290.7080341
0
ARC
8
DEFAULT_255_2_778
10
7.3672433
20
58.427503
40
0.5936329
50
290.1493312
51
312.9841655
0
ARC
8
DEFAULT_255_2_778
10
7.46998
20
58.3002749
40
0.4306706
50
314.5259233
51
2.1595067
0
ARC
8
DEFAULT_255_2_778
10
7.2469235
20
58.3160467
40
0.6534214
50
0.0400278
51
3.878046
0
ARC
8
DEFAULT_255_2_778
10
7.3775658
20
58.3743195
40
0.521473
50
358.4528135
51
28.3938401
0
ARC
8
DEFAULT_255_2_778
10
7.4236018
20
58.3767814
40
0.4802097
50
30.7480553
51
67.5529599
0
ARC
8
DEFAULT_255_2_778
10
7.2355436
20
57.9658606
40
0.9319556
50
66.5134179
51
81.1442064
0
ARC
8
DEFAULT_255_2_778
10
7.1076226
20
57.207349
40
1.7011454
50
80.8200407
51
89.3817132
0
ARC
8
DEFAULT_255_2_778
10
7.0860118
20
56.5881855
40
2.320554
50
89.0131241
51
90.006496
0
LINE
8
DEFAULT_255_2_778
10
7.0857487
20
58.9087396
11
7.0857487
21
58.9087396
0
ARC
8
DEFAULT_255_2_778
10
7.0919873
20
57.0461838
40
1.6797437
50
89.5794801
51
97.8859353
0
ARC
8
DEFAULT_255_2_778
10
6.9691584
20
57.8926308
40
0.8244679
50
97.5013787
51
112.0447122
0
ARC
8
DEFAULT_255_2_778
10
6.7901694
20
58.3141054
40
0.3667079
50
110.8397878
51
145.588154
0
ARC
8
DEFAULT_255_2_778
10
6.7641174
20
58.3503083
40
0.3251082
50
148.2580816
51
181.4674979
0
ARC
8
DEFAULT_255_2_778
10
6.7502253
20
58.3084031
40
0.3129167
50
173.8397175
51
179.9202718
0
ARC
8
DEFAULT_255_2_778
10
6.688879
20
58.3097539
40
0.2515719
50
180.2084704
51
245.0988896
0
ARC
8
DEFAULT_255_2_778
10
6.8993602
20
58.6711649
40
0.6691307
50
241.7797799
51
257.3008046
0
ARC
8
DEFAULT_255_2_778
10
7.0831963
20
59.432928
40
1.4527211
50
256.8322977
51
265.359504
0
ARC
8
DEFAULT_255_2_778
10
7.1809584
20
60.4539257
40
2.4783257
50
265.0164344
51
268.6556886
0
ARC
8
DEFAULT_255_2_778
10
7.0833493
20
59.8330682
40
1.8572053
50
271.2176487
51
278.3414448
0
ARC
8
DEFAULT_255_2_778
10
7.2244622
20
58.9025633
40
0.9160843
50
278.0518689
51
289.9543484
0
ARC
8
DEFAULT_255_2_778
10
7.4078618
20
58.4161032
40
0.3962912
50
289.0327127
51
314.2913095
0
ARC
8
DEFAULT_255_2_778
10
7.5117677
20
58.3006375
40
0.2411638
50
315.7774781
51
1.3409002
0
ARC
8
DEFAULT_255_2_778
10
7.4157924
20
58.3057759
40
0.3370735
50
0.0858483
51
6.1662551
0
ARC
8
DEFAULT_255_2_778
10
7.428536
20
58.3528785
40
0.3225637
50
358.0641816
51
70.4903435
0
ARC
8
DEFAULT_255_2_778
10
7.2330274
20
57.9273691
40
0.7900623
50
67.430117
51
82.531987
0
ARC
8
DEFAULT_255_2_778
10
7.1157915
20
57.1266494
40
1.5992739
50
82.0959878
51
90.4111403
0
LINE
8
DEFAULT_255_2_778
10
7.1043156
20
58.7258823
11
7.1043156
21
58.7258823
0
LINE
8
DEFAULT_255_2_778
10
10.8592334
20
62.5809
11
9.4453334
21
62.5809
0
LINE
8
DEFAULT_255_2_778
10
9.4466334
20
62.5798666
11
9.4453334
21
63.9937666
0
LINE
8
DEFAULT_255_2_778
10
9.4453334
20
63.9937666
11
10.8592334
21
63.9937666
0
LINE
8
DEFAULT_255_2_778
10
10.8592334
20
63.9937666
11
10.8579334
21
62.5798666
0
LINE
8
DEFAULT_255_2_778
10
69.479027
20
100.2747302
11
69.479027
21
96.7856302
0
LINE
8
DEFAULT_255_2_778
10
141.511527
20
100.2670302
11
141.325827
21
100.1779302
0
LINE
8
DEFAULT_255_2_778
10
141.325827
20
100.1779302
11
141.251227
21
100.0485302
0
LINE
8
DEFAULT_255_2_778
10
141.251227
20
100.0485302
11
141.200727
21
99.8887302
0
LINE
8
DEFAULT_255_2_778
10
141.200727
20
99.8887302
11
141.153627
21
99.6709302
0
LINE
8
DEFAULT_255_2_778
10
141.153627
20
99.6709302
11
141.131127
21
99.5331302
0
LINE
8
DEFAULT_255_2_778
10
140.630527
20
99.4669302
11
137.481427
21
99.4669302
0
LINE
8
DEFAULT_255_2_778
10
137.4815032
20
99.8421
11
141.1907032
21
99.8421
0
ENDSEC
0
EOF