0
SECTION
2
HEADER
9
$MEASUREMENT
70
1
0
ENDSEC
0
SECTION
2
TABLES
0
TABLE
2
LTYPE
0
LTYPE
72
65
70
64
2
CONTINUOUS
3
______
73
0
40
0
0
ENDTAB
0
TABLE
2
LAYER
0
LAYER
2
DEFAULT_255_2_778
70
0
62
255
6
CONTINUOUS
0
LAYER
2
DEFAULT_255_1_234
70
0
62
255
6
CONTINUOUS
0
LAYER
2
DEFAULT_255_2_778_1
70
0
62
255
6
CONTINUOUS
0
ENDTAB
0
ENDSEC
0
SECTION
2
ENTITIES
0
ARC
8
DEFAULT_255_2_778
10
3.5695693
20
75.805203
40
0.7914215
50
129.1312896
51
180.1450914
0
ARC
8
DEFAULT_255_2_778
10
3.5698345
20
75.8056901
40
0.7912112
50
89.854026
51
129.1684493
0
ARC
8
DEFAULT_255_2_778
10
25.7988937
20
75.8053767
40
0.7915249
50
39.4792447
51
90.147911
0
ARC
8
DEFAULT_255_2_778
10
25.7994935
20
75.8052233
40
0.7911595
50
359.8533901
51
39.5154338
0
ARC
8
DEFAULT_255_2_778
10
25.7991693
20
-1.9863492
40
0.7914836
50
309.4761667
51
0.1482649
0
ARC
8
DEFAULT_255_2_778
10
25.798898
20
-1.9867803
40
0.7913235
50
269.8517415
51
309.511178
0
ARC
8
DEFAULT_255_2_778
10
3.569842
20
-1.9867221
40
0.7913815
50
219.1282118
51
270.1454017
0
ARC
8
DEFAULT_255_2_778
10
3.5695247
20
-1.9863397
40
0.7913769
50
179.8524075
51
219.1641908
0
LINE
8
DEFAULT_255_2_778
10
3.5718503
20
76.5968989
11
25.7968503
21
76.5968989
0
LINE
8
DEFAULT_255_2_778
10
26.5906503
20
75.8031989
11
26.5906503
21
-1.9843011
0
LINE
8
DEFAULT_255_2_778
10
25.7968503
20
-2.7781011
11
3.5718503
21
-2.7781011
0
LINE
8
DEFAULT_255_2_778
10
2.7781503
20
-1.9843011
11
2.7781503
21
75.8031989
0
LINE
8
DEFAULT_255_1_234
10
6.6316835
20
1.1804243
11
6.6581882
21
1.1804243
0
LINE
8
DEFAULT_255_1_234
10
6.6581882
20
1.1804243
11
6.6581882
21
1.054326
0
LINE
8
DEFAULT_255_1_234
10
6.6581882
20
1.054326
11
6.6308803
21
1.054326
0
LINE
8
DEFAULT_255_1_234
10
6.0839189
20
0.4551583
11
6.0839189
21
0.5121836
0
LINE
8
DEFAULT_255_1_234
10
6.2333093
20
0.4929075
11
6.2333093
21
0.4382917
0
ARC
8
DEFAULT_255_1_234
10
6.6361151
20
0.5545455
40
0.4998079
50
90.6001036
51
104.514704
0
ARC
8
DEFAULT_255_1_234
10
6.5972667
20
0.6990131
40
0.3502176
50
104.2855254
51
133.862935
0
ARC
8
DEFAULT_255_1_234
10
6.6136424
20
0.688183
40
0.3693984
50
134.5302688
51
161.6210873
0
ARC
8
DEFAULT_255_1_234
10
6.7789613
20
0.6298895
40
0.5446739
50
161.2849839
51
174.2076652
0
ARC
8
DEFAULT_255_1_234
10
6.919655
20
0.6104787
40
0.6866274
50
173.7810589
51
174.9254635
0
ARC
8
DEFAULT_255_1_234
10
6.4646382
20
0.4721839
40
0.3033419
50
95.8330959
51
138.9954921
0
ARC
8
DEFAULT_255_1_234
10
6.4869738
20
0.3443375
40
0.4328947
50
89.8753725
51
97.0544009
0
ARC
8
DEFAULT_255_1_234
10
6.4917204
20
0.4278748
40
0.3493769
50
71.6407809
51
90.6240094
0
ARC
8
DEFAULT_255_1_234
10
6.5067777
20
0.4833082
40
0.2920396
50
39.6367836
51
71.019018
0
ARC
8
DEFAULT_255_1_234
10
6.443125
20
0.4282998
40
0.3761538
50
10.658731
51
39.9043955
0
ARC
8
DEFAULT_255_1_234
10
6.2883333
20
0.3946686
40
0.5345136
50
359.682601
51
11.132623
0
ARC
8
DEFAULT_255_1_234
10
6.2843464
20
0.387601
40
0.5385081
50
347.2486944
51
0.4369317
0
ARC
8
DEFAULT_255_1_234
10
6.4510941
20
0.3474807
40
0.3670249
50
318.1409698
51
347.6118597
0
ARC
8
DEFAULT_255_1_234
10
6.4835934
20
0.3207702
40
0.3250007
50
275.6342139
51
317.8248465
0
ARC
8
DEFAULT_255_1_234
10
6.4615045
20
0.4507219
40
0.4565864
50
269.8874292
51
276.7917694
0
ARC
8
DEFAULT_255_1_234
10
6.4560116
20
0.3481743
40
0.3540676
50
246.9140195
51
270.7437342
0
ARC
8
DEFAULT_255_1_234
10
6.4566506
20
0.3339384
40
0.3412781
50
218.1665114
51
245.878116
0
ARC
8
DEFAULT_255_1_234
10
6.5445967
20
0.4075279
40
0.455911
50
191.4115814
51
218.6077802
0
ARC
8
DEFAULT_255_1_234
10
6.7384056
20
0.4509833
40
0.6545001
50
179.6345085
51
191.7836486
0
ARC
8
DEFAULT_255_1_234
10
7.2966393
20
0.5188697
40
1.2127388
50
171.4525249
51
180.3158839
0
ARC
8
DEFAULT_255_1_234
10
6.8571269
20
0.5872608
40
0.7679464
50
157.9802646
51
171.6246686
0
ARC
8
DEFAULT_255_1_234
10
6.635729
20
0.6755421
40
0.5296008
50
141.4298019
51
157.854097
0
ARC
8
DEFAULT_255_1_234
10
6.571561
20
0.7209381
40
0.4511509
50
102.8715806
51
140.8564722
0
ARC
8
DEFAULT_255_1_234
10
6.6363226
20
0.4769552
40
0.7034845
50
90.3778349
51
103.5869322
0
ARC
8
DEFAULT_255_1_234
10
6.4625002
20
0.416473
40
0.2370698
50
89.8751008
51
126.2071704
0
ARC
8
DEFAULT_255_1_234
10
6.4670792
20
0.4010303
40
0.2522934
50
124.9745049
51
144.895901
0
ARC
8
DEFAULT_255_1_234
10
6.4494982
20
0.415356
40
0.2296779
50
145.2974905
51
160.2660252
0
ARC
8
DEFAULT_255_1_234
10
6.7567521
20
0.4351071
40
0.5234525
50
179.6514266
51
190.2855912
0
ARC
8
DEFAULT_255_1_234
10
6.5873658
20
0.4031786
40
0.3510893
50
190.0945431
51
207.5098196
0
ARC
8
DEFAULT_255_1_234
10
6.5307928
20
0.3762623
40
0.288489
50
207.9583163
51
216.3251085
0
ARC
8
DEFAULT_255_1_234
10
6.4968036
20
0.3483105
40
0.2445587
50
215.7661442
51
232.5456785
0
ARC
8
DEFAULT_255_1_234
10
6.4585019
20
0.2996482
40
0.1826382
50
232.8005391
51
270.6605633
0
ARC
8
DEFAULT_255_1_234
10
6.463072
20
0.3360612
40
0.2190529
50
269.35537
51
288.4744281
0
ARC
8
DEFAULT_255_1_234
10
6.4723617
20
0.3011118
40
0.1829749
50
289.1833337
51
322.9683818
0
ARC
8
DEFAULT_255_1_234
10
6.4112139
20
0.3493391
40
0.2608399
50
322.6007884
51
346.5182367
0
ARC
8
DEFAULT_255_1_234
10
6.2954735
20
0.3788616
40
0.3802777
50
346.2582162
51
358.7741648
0
ARC
8
DEFAULT_255_1_234
10
6.1936404
20
0.3843965
40
0.4822176
50
358.3755224
51
0.0098023
0
ARC
8
DEFAULT_255_1_234
10
6.2692591
20
0.3871657
40
0.4066078
50
359.6214041
51
11.2839074
0
ARC
8
DEFAULT_255_1_234
10
6.3969738
20
0.4138066
40
0.2761514
50
11.0482309
51
31.8146458
0
ARC
8
DEFAULT_255_1_234
10
6.4278781
20
0.4305584
40
0.2410679
50
32.3035391
51
38.082671
0
ARC
8
DEFAULT_255_1_234
10
6.4699441
20
0.4686662
40
0.1844966
50
36.825067
51
85.7415724
0
ARC
8
DEFAULT_255_1_234
10
6.4632274
20
0.4186301
40
0.2349122
50
85.0140713
51
90.0513278
0
LINE
8
DEFAULT_255_1_234
10
7.6982983
20
0.6768343
11
7.6982983
21
0.550736
0
LINE
8
DEFAULT_255_1_234
10
7.6982983
20
0.550736
11
7.1914957
21
0.550736
0
LINE
8
DEFAULT_255_1_234
10
7.1914957
20
0.550736
11
7.1914957
21
0.1362983
0
LINE
8
DEFAULT_255_1_234
10
7.1914957
20
0.1362983
11
7.7802221
21
0.1362983
0
LINE
8
DEFAULT_255_1_234
10
7.7802221
20
0.1362983
11
7.7802221
21
0.0102
0
LINE
8
DEFAULT_255_1_234
10
7.7802221
20
0.0102
11
7.0372863
21
0.0102
0
LINE
8
DEFAULT_255_1_234
10
7.0372863
20
0.0102
11
7.0372863
21
1.1796211
0
LINE
8
DEFAULT_255_1_234
10
7.0372863
20
1.1796211
11
7.7721903
21
1.1796211
0
LINE
8
DEFAULT_255_1_234
10
7.7721903
20
1.1796211
11
7.7721903
21
1.0527196
0
LINE
8
DEFAULT_255_1_234
10
7.7721903
20
1.0527196
11
7.1914957
21
1.0527196
0
LINE
8
DEFAULT_255_1_234
10
7.1914957
20
1.0527196
11
7.1914957
21
0.6768343
0
LINE
8
DEFAULT_255_1_234
10
7.1914957
20
0.6768343
11
7.6982983
21
0.6768343
0
LINE
8
DEFAULT_255_1_234
10
8.7480465
20
0.8414849
11
8.593034
21
0.8414849
0
LINE
8
DEFAULT_255_1_234
10
7.9006981
20
0.3491394
11
8.0557107
21
0.3491394
0
ARC
8
DEFAULT_255_1_234
10
8.6589153
20
1.7361768
40
1.252368
50
248.9199003
51
254.1439814
0
ARC
8
DEFAULT_255_1_234
10
8.4908648
20
1.3035234
40
0.788226
50
241.633709
51
249.0064503
0
ARC
8
DEFAULT_255_1_234
10
8.3380042
20
1.0234317
40
0.4691427
50
230.498225
51
241.8087113
0
ARC
8
DEFAULT_255_1_234
10
8.2595616
20
0.9234906
40
0.3421437
50
227.4064532
51
229.9881192
0
ARC
8
DEFAULT_255_1_234
10
8.2108137
20
0.8759088
40
0.2741476
50
200.6781896
51
228.1763934
0
ARC
8
DEFAULT_255_1_234
10
8.2180447
20
0.8744077
40
0.2804109
50
179.5061581
51
199.8694617
0
ARC
8
DEFAULT_255_1_234
10
8.2171199
20
0.881821
40
0.2795204
50
132.4834203
51
181.0242172
0
ARC
8
DEFAULT_255_1_234
10
8.2766782
20
0.8255704
40
0.3612768
50
129.2532479
51
133.4242687
0
ARC
8
DEFAULT_255_1_234
10
8.2913231
20
0.8035965
40
0.3875675
50
101.98776
51
128.8742646
0
ARC
8
DEFAULT_255_1_234
10
8.3311842
20
0.6314741
40
0.5642249
50
89.5906553
51
102.3169264
0
ARC
8
DEFAULT_255_1_234
10
8.3382334
20
0.6633148
40
0.5323783
50
77.2360837
51
90.3248275
0
ARC
8
DEFAULT_255_1_234
10
8.3589413
20
0.76004
40
0.4334697
50
63.837784
51
77.0809408
0
ARC
8
DEFAULT_255_1_234
10
8.3867175
20
0.8117911
40
0.3747796
50
45.9864267
51
64.1607727
0
ARC
8
DEFAULT_255_1_234
10
8.4128056
20
0.8415866
40
0.3352302
50
32.2747395
51
45.6547121
0
ARC
8
DEFAULT_255_1_234
10
8.4194497
20
0.843488
40
0.328603
50
359.6507365
51
32.6130309
0
ARC
8
DEFAULT_255_1_234
10
8.3251592
20
0.843966
40
0.2678863
50
359.469343
51
14.9832209
0
ARC
8
DEFAULT_255_1_234
10
8.3956654
20
0.8628539
40
0.1948938
50
14.9781179
51
48.2004265
0
ARC
8
DEFAULT_255_1_234
10
8.3792299
20
0.8421983
40
0.2212521
50
48.5927837
51
74.1241538
0
ARC
8
DEFAULT_255_1_234
10
8.3458788
20
0.7321248
40
0.3362561
50
73.7888341
51
86.6652678
0
ARC
8
DEFAULT_255_1_234
10
8.3356354
20
0.6113881
40
0.4573953
50
86.2640471
51
90.0526343
0
ARC
8
DEFAULT_255_1_234
10
8.3328066
20
0.6509192
40
0.4178709
50
89.6697524
51
99.2309573
0
ARC
8
DEFAULT_255_1_234
10
8.3085517
20
0.7953964
40
0.2713749
50
99.069534
51
113.7658566
0
ARC
8
DEFAULT_255_1_234
10
8.2811708
20
0.8599677
40
0.2012469
50
114.0401004
51
127.9850673
0
ARC
8
DEFAULT_255_1_234
10
8.2571272
20
0.889573
40
0.1631167
50
127.7287463
51
176.7105154
0
ARC
8
DEFAULT_255_1_234
10
8.324999
20
0.8794693
40
0.2315392
50
175.1779447
51
180.0581938
0
ARC
8
DEFAULT_255_1_234
10
8.2406836
20
0.8782428
40
0.1472271
50
179.6142195
51
228.1246017
0
ARC
8
DEFAULT_255_1_234
10
8.2848505
20
0.9191308
40
0.2072299
50
226.5779593
51
230.8800004
0
ARC
8
DEFAULT_255_1_234
10
8.3319584
20
0.9816636
40
0.2854818
50
231.4635071
51
241.9260842
0
ARC
8
DEFAULT_255_1_234
10
8.4516762
20
1.20198
40
0.53622
50
241.7178533
51
248.3259551
0
ARC
8
DEFAULT_255_1_234
10
8.5902134
20
1.5452064
40
0.9063478
50
248.2007737
51
252.4528373
0
ARC
8
DEFAULT_255_1_234
10
8.7105858
20
1.9173441
40
1.2974635
50
252.3391078
51
254.3469452
0
ARC
8
DEFAULT_255_1_234
10
7.9563561
20
-0.7803852
40
1.5037162
50
71.0197183
51
74.4087047
0
ARC
8
DEFAULT_255_1_234
10
8.1258246
20
-0.2911889
40
0.9859993
50
66.1847285
51
71.086374
0
ARC
8
DEFAULT_255_1_234
10
8.2814559
20
0.05922
40
0.6025855
50
59.3536294
51
66.2691831
0
ARC
8
DEFAULT_255_1_234
10
8.3703211
20
0.2095609
40
0.4279449
50
49.1020879
51
59.3293958
0
ARC
8
DEFAULT_255_1_234
10
8.4521951
20
0.3028834
40
0.3038015
50
32.7919921
51
49.2505539
0
ARC
8
DEFAULT_255_1_234
10
8.4843041
20
0.3257191
40
0.264448
50
31.1181161
51
32.4005348
0
ARC
8
DEFAULT_255_1_234
10
8.4754579
20
0.3221779
40
0.2738556
50
8.1116974
51
30.7958831
0
ARC
8
DEFAULT_255_1_234
10
8.3944247
20
0.3083753
40
0.3560327
50
359.8389159
51
8.4706516
0
ARC
8
DEFAULT_255_1_234
10
8.4570038
20
0.3035137
40
0.2934776
50
337.4731098
51
0.7537279
0
ARC
8
DEFAULT_255_1_234
10
8.4748733
20
0.3015387
40
0.2762607
50
307.5917067
51
336.4315538
0
ARC
8
DEFAULT_255_1_234
10
8.4288561
20
0.3528102
40
0.3449979
50
307.6551545
51
308.4529766
0
ARC
8
DEFAULT_255_1_234
10
8.405828
20
0.388325
40
0.3871988
50
284.3734338
51
307.1424381
0
ARC
8
DEFAULT_255_1_234
10
8.356311
20
0.5704932
40
0.5759636
50
272.4382747
51
284.646547
0
ARC
8
DEFAULT_255_1_234
10
8.3436319
20
0.7504893
40
0.7563528
50
269.9708387
51
272.8178037
0
ARC
8
DEFAULT_255_1_234
10
8.3393358
20
0.5466716
40
0.5525489
50
248.2707594
51
270.4055579
0
ARC
8
DEFAULT_255_1_234
10
8.33391
20
0.5276192
40
0.5328452
50
246.1383403
51
248.0542782
0
ARC
8
DEFAULT_255_1_234
10
8.2920478
20
0.4396843
40
0.4355005
50
233.1670131
51
246.4950969
0
ARC
8
DEFAULT_255_1_234
10
8.2366383
20
0.3648812
40
0.3424126
50
215.3403242
51
233.0843104
0
ARC
8
DEFAULT_255_1_234
10
8.2093815
20
0.3450549
40
0.3087104
50
179.2419209
51
215.2648451
0
ARC
8
DEFAULT_255_1_234
10
8.2861409
20
0.3464666
40
0.2304457
50
179.335461
51
199.1045811
0
ARC
8
DEFAULT_255_1_234
10
8.2529085
20
0.3377766
40
0.1962176
50
199.8828939
51
232.7063202
0
ARC
8
DEFAULT_255_1_234
10
8.3001353
20
0.3971788
40
0.2720938
50
232.3738199
51
255.5136649
0
ARC
8
DEFAULT_255_1_234
10
8.334222
20
0.5215835
40
0.4010747
50
255.2446292
51
267.5320849
0
ARC
8
DEFAULT_255_1_234
10
8.3429843
20
0.6448702
40
0.5246356
50
267.1557994
51
270.0286766
0
ARC
8
DEFAULT_255_1_234
10
8.3457616
20
0.600495
40
0.4802668
50
269.7000017
51
278.1660162
0
ARC
8
DEFAULT_255_1_234
10
8.371362
20
0.4274515
40
0.3053425
50
278.0231263
51
290.625471
0
ARC
8
DEFAULT_255_1_234
10
8.4061308
20
0.3347025
40
0.206291
50
290.6619762
51
307.0370976
0
ARC
8
DEFAULT_255_1_234
10
8.4361697
20
0.2978504
40
0.1587906
50
306.3943566
51
355.3030547
0
ARC
8
DEFAULT_255_1_234
10
8.3849628
20
0.3055113
40
0.2104809
50
354.3660432
51
0.0698737
0
ARC
8
DEFAULT_255_1_234
10
8.3991973
20
0.3077617
40
0.1962563
50
359.417946
51
16.1971788
0
ARC
8
DEFAULT_255_1_234
10
8.4447284
20
0.3202418
40
0.149053
50
16.4723299
51
52.6262157
0
ARC
8
DEFAULT_255_1_234
10
8.3626338
20
0.2118433
40
0.2850296
50
52.7386432
51
62.4979148
0
ARC
8
DEFAULT_255_1_234
10
8.2241415
20
-0.0487717
40
0.5801521
50
62.2515216
51
68.1220564
0
ARC
8
DEFAULT_255_1_234
10
8.0521325
20
-0.4715128
40
1.0365451
50
68.0062803
51
71.8053402
0
ARC
8
DEFAULT_255_1_234
10
7.8725697
20
-1.0100242
40
1.6042013
50
71.7183119
51
73.9258742
0
LINE
8
DEFAULT_255_1_234
10
9.6644679
20
1.1796211
11
9.6644679
21
1.096091
0
LINE
8
DEFAULT_255_1_234
10
9.6644679
20
1.096091
11
9.1801541
21
0.0102
0
LINE
8
DEFAULT_255_1_234
10
9.1801541
20
0.0102
11
9.0243383
21
0.0102
0
LINE
8
DEFAULT_255_1_234
10
9.0243383
20
0.0102
11
9.5070458
21
1.0575387
0
LINE
8
DEFAULT_255_1_234
10
9.5070458
20
1.0575387
11
8.8741448
21
1.0575387
0
LINE
8
DEFAULT_255_1_234
10
8.8741448
20
1.0575387
11
8.8741448
21
1.1796211
0
LINE
8
DEFAULT_255_1_234
10
8.8741448
20
1.1796211
11
9.6644679
21
1.1796211
0
LINE
8
DEFAULT_255_1_234
10
10.5993622
20
0.1314792
11
10.5993622
21
0.0102
0
LINE
8
DEFAULT_255_1_234
10
10.5993622
20
0.0102
11
9.8331344
21
0.0102
0
LINE
8
DEFAULT_255_1_234
10
9.8331344
20
0.0102
11
9.8331344
21
0.1170221
0
LINE
8
DEFAULT_255_1_234
10
9.8331344
20
0.1170221
11
10.237934
21
0.5667995
0
LINE
8
DEFAULT_255_1_234
10
9.9592327
20
0.8350595
11
9.8106455
21
0.8350595
0
LINE
8
DEFAULT_255_1_234
10
10.3254799
20
0.4712218
11
10.0122421
21
0.1314792
0
LINE
8
DEFAULT_255_1_234
10
10.0122421
20
0.1314792
11
10.5993622
21
0.1314792
0
ARC
8
DEFAULT_255_1_234
10
8.8889173
20
1.7597527
40
1.8008286
50
318.5132453
51
320.7828378
0
ARC
8
DEFAULT_255_1_234
10
9.4176148
20
1.3294426
40
1.1191493
50
320.7372736
51
323.9737074
0
ARC
8
DEFAULT_255_1_234
10
9.8096004
20
1.0454361
40
0.6350923
50
323.8961724
51
328.6421089
0
ARC
8
DEFAULT_255_1_234
10
10.0142599
20
0.9192031
40
0.3946393
50
328.8299013
51
331.789948
0
ARC
8
DEFAULT_255_1_234
10
10.1139778
20
0.8677509
40
0.2824501
50
331.4255242
51
352.9364833
0
ARC
8
DEFAULT_255_1_234
10
10.1276279
20
0.8646976
40
0.2685315
50
353.2248685
51
0.0169286
0
ARC
8
DEFAULT_255_1_234
10
10.1486155
20
0.866995
40
0.2475536
50
359.4866256
51
15.9339782
0
ARC
8
DEFAULT_255_1_234
10
10.1993141
20
0.8806286
40
0.1950618
50
16.1714718
51
43.5284424
0
ARC
8
DEFAULT_255_1_234
10
10.2070449
20
0.8883573
40
0.184134
50
43.4415429
51
83.1661404
0
ARC
8
DEFAULT_255_1_234
10
10.1936367
20
0.8146771
40
0.258926
50
82.160215
51
90.1505798
0
ARC
8
DEFAULT_255_1_234
10
10.1904795
20
0.7609865
40
0.3126255
50
89.5460705
51
102.5418777
0
ARC
8
DEFAULT_255_1_234
10
10.1661881
20
0.8640665
40
0.2067346
50
102.1739365
51
129.2061916
0
ARC
8
DEFAULT_255_1_234
10
10.1582953
20
0.8765094
40
0.1921118
50
129.7279328
51
135.7542026
0
ARC
8
DEFAULT_255_1_234
10
10.170448
20
0.8668045
40
0.2075944
50
136.175737
51
166.3674722
0
ARC
8
DEFAULT_255_1_234
10
10.27114
20
0.8398182
40
0.3118201
50
165.9092917
51
178.8683903
0
ARC
8
DEFAULT_255_1_234
10
10.3576261
20
0.8351179
40
0.3983935
50
178.438168
51
180.0083905
0
ARC
8
DEFAULT_255_1_234
10
10.2174863
20
0.8390231
40
0.4068601
50
163.2878735
51
180.5581814
0
ARC
8
DEFAULT_255_1_234
10
10.1373124
20
0.861084
40
0.3237344
50
133.454115
51
162.9470031
0
ARC
8
DEFAULT_255_1_234
10
10.1551666
20
0.8421
40
0.349795
50
100.7869394
51
133.4384016
0
ARC
8
DEFAULT_255_1_234
10
10.1899437
20
0.6872319
40
0.5084616
50
89.6605301
51
101.3704185
0
ARC
8
DEFAULT_255_1_234
10
10.1965776
20
0.6933496
40
0.502348
50
78.2171172
51
90.4130393
0
ARC
8
DEFAULT_255_1_234
10
10.2320854
20
0.8557637
40
0.3361092
50
55.9268222
51
78.4888551
0
ARC
8
DEFAULT_255_1_234
10
10.2517294
20
0.8896324
40
0.2970617
50
47.9292255
51
55.4054003
0
ARC
8
DEFAULT_255_1_234
10
10.2618855
20
0.8999502
40
0.2825983
50
4.3347696
51
48.0560701
0
ARC
8
DEFAULT_255_1_234
10
10.1523249
20
0.8829601
40
0.393225
50
359.925209
51
5.5967654
0
ARC
8
DEFAULT_255_1_234
10
10.195214
20
0.8885816
40
0.3503892
50
337.8914096
51
358.9967724
0
ARC
8
DEFAULT_255_1_234
10
9.9238553
20
0.9932706
40
0.6412172
50
326.9135351
51
338.3505194
0
ARC
8
DEFAULT_255_1_234
10
9.5252856
20
1.2487284
40
1.1146189
50
319.6472867
51
327.095818
0
ARC
8
DEFAULT_255_1_234
10
9.1419859
20
1.5649
40
1.6114559
50
317.2586784
51
319.9046139
0
LINE
8
DEFAULT_255_1_234
10
10.972838
20
0.5459169
11
10.972838
21
0.6671962
0
LINE
8
DEFAULT_255_1_234
10
10.972838
20
0.6671962
11
11.0844792
21
0.6671962
0
LINE
8
DEFAULT_255_1_234
10
10.894127
20
0.8728087
11
10.7455398
21
0.8728087
0
LINE
8
DEFAULT_255_1_234
10
10.7350986
20
0.3186187
11
10.8844889
21
0.3186187
0
LINE
8
DEFAULT_255_1_234
10
11.0844792
20
0.5459169
11
10.972838
21
0.5459169
0
ARC
8
DEFAULT_255_1_234
10
11.0815658
20
1.0064713
40
0.3392876
50
270.4919872
51
281.8951556
0
ARC
8
DEFAULT_255_1_234
10
11.105692
20
0.8962702
40
0.2264817
50
281.6691735
51
301.2943132
0
ARC
8
DEFAULT_255_1_234
10
11.122713
20
0.8651304
40
0.1910381
50
301.7833094
51
311.7545298
0
ARC
8
DEFAULT_255_1_234
10
11.1318706
20
0.8549748
40
0.1773635
50
311.7323931
51
354.2802411
0
ARC
8
DEFAULT_255_1_234
10
11.0592331
20
0.8674722
40
0.2509385
50
353.0937916
51
0.1181479
0
ARC
8
DEFAULT_255_1_234
10
11.0131116
20
0.8722386
40
0.2970898
50
359.1805295
51
15.0453146
0
ARC
8
DEFAULT_255_1_234
10
11.1476953
20
0.9114992
40
0.1569564
50
13.9577229
51
77.6713066
0
ARC
8
DEFAULT_255_1_234
10
11.1090482
20
0.7729949
40
0.3006298
50
76.1116566
51
90.7026153
0
ARC
8
DEFAULT_255_1_234
10
11.1031321
20
0.8003545
40
0.2732568
50
89.5324876
51
103.531937
0
ARC
8
DEFAULT_255_1_234
10
11.0830765
20
0.8802884
40
0.1908508
50
103.2931773
51
133.5619022
0
ARC
8
DEFAULT_255_1_234
10
11.0786253
20
0.8862375
40
0.1834746
50
133.8349307
51
173.5344437
0
ARC
8
DEFAULT_255_1_234
10
11.1509296
20
0.8734213
40
0.2568033
50
172.5096846
51
180.1366907
0
ARC
8
DEFAULT_255_1_234
10
11.055819
20
0.8768622
40
0.3103056
50
155.3484492
51
180.7484736
0
ARC
8
DEFAULT_255_1_234
10
11.0509279
20
0.8739846
40
0.3070957
50
131.5744599
51
154.4798489
0
ARC
8
DEFAULT_255_1_234
10
11.0822427
20
0.842331
40
0.3515643
50
96.9875458
51
131.9690667
0
ARC
8
DEFAULT_255_1_234
10
11.1041906
20
0.7177636
40
0.4779224
50
89.8596053
51
97.7825159
0
ARC
8
DEFAULT_255_1_234
10
11.108997
20
0.6915616
40
0.5041361
50
78.3655447
51
90.4131539
0
ARC
8
DEFAULT_255_1_234
10
11.1447887
20
0.8574887
40
0.3344039
50
56.6229102
51
78.638727
0
ARC
8
DEFAULT_255_1_234
10
11.1662831
20
0.8950805
40
0.2912001
50
47.0253525
51
56.0854072
0
ARC
8
DEFAULT_255_1_234
10
11.1682611
20
0.8990223
40
0.2869704
50
10.9208013
51
46.7778124
0
ARC
8
DEFAULT_255_1_234
10
11.0318678
20
0.8674857
40
0.426899
50
359.6364486
51
11.6087304
0
ARC
8
DEFAULT_255_1_234
10
11.2153522
20
0.8659752
40
0.243409
50
332.3549906
51
359.7179418
0
ARC
8
DEFAULT_255_1_234
10
11.1503123
20
0.8968142
40
0.3153459
50
325.2333722
51
332.8745602
0
ARC
8
DEFAULT_255_1_234
10
11.1655747
20
0.8861828
40
0.2967456
50
292.9802137
51
325.2392345
0
ARC
8
DEFAULT_255_1_234
10
11.1381121
20
0.9395863
40
0.3566604
50
292.5402179
51
293.6924929
0
ARC
8
DEFAULT_255_1_234
10
11.1773717
20
0.2941091
40
0.3307468
50
57.6435486
51
72.8625112
0
ARC
8
DEFAULT_255_1_234
10
11.2128216
20
0.3515549
40
0.2632492
50
36.7248896
51
57.4697979
0
ARC
8
DEFAULT_255_1_234
10
11.2116849
20
0.352822
40
0.2634081
50
8.0545065
51
36.356114
0
ARC
8
DEFAULT_255_1_234
10
11.1254034
20
0.3373174
40
0.3510261
50
359.8320645
51
8.5869982
0
ARC
8
DEFAULT_255_1_234
10
11.0878811
20
0.3325101
40
0.3885653
50
343.9829931
51
0.5571613
0
ARC
8
DEFAULT_255_1_234
10
11.1765008
20
0.3082438
40
0.2966924
50
311.6359546
51
343.7651759
0
ARC
8
DEFAULT_255_1_234
10
11.1386577
20
0.3509102
40
0.3537231
50
279.7829875
51
311.6255694
0
ARC
8
DEFAULT_255_1_234
10
11.1085353
20
0.494628
40
0.5004971
50
269.7286406
51
280.3856417
0
ARC
8
DEFAULT_255_1_234
10
11.1023426
20
0.4904996
40
0.4963778
50
256.6828919
51
270.4412052
0
ARC
8
DEFAULT_255_1_234
10
11.0684722
20
0.3520394
40
0.3538406
50
229.4223008
51
256.8556159
0
ARC
8
DEFAULT_255_1_234
10
11.0270114
20
0.3053736
40
0.2914296
50
181.818294
51
229.6455059
0
ARC
8
DEFAULT_255_1_234
10
11.1310071
20
0.3184496
40
0.3959084
50
179.9755256
51
183.2323064
0
ARC
8
DEFAULT_255_1_234
10
11.1137816
20
0.3164037
40
0.2293034
50
179.4465117
51
196.2869258
0
ARC
8
DEFAULT_255_1_234
10
11.0650224
20
0.3030651
40
0.1787621
50
196.5661473
51
227.705904
0
ARC
8
DEFAULT_255_1_234
10
11.0814319
20
0.3214155
40
0.2033784
50
227.7652068
51
257.8762805
0
ARC
8
DEFAULT_255_1_234
10
11.1039289
20
0.4157156
40
0.3003081
50
257.4584385
51
270.426602
0
ARC
8
DEFAULT_255_1_234
10
11.1084856
20
0.4446996
40
0.329292
50
269.5962073
51
280.8789248
0
ARC
8
DEFAULT_255_1_234
10
11.1314384
20
0.3300685
40
0.2123908
50
280.6346389
51
299.8595945
0
ARC
8
DEFAULT_255_1_234
10
11.1505291
20
0.2938212
40
0.171457
50
300.3576302
51
314.5517981
0
ARC
8
DEFAULT_255_1_234
10
11.1422351
20
0.2998919
40
0.1816095
50
315.0728369
51
345.0431014
0
ARC
8
DEFAULT_255_1_234
10
11.0499166
20
0.3267841
40
0.2777492
50
344.5986631
51
357.9269593
0
ARC
8
DEFAULT_255_1_234
10
10.9603492
20
0.3329276
40
0.3674917
50
357.4748886
51
0.0231117
0
ARC
8
DEFAULT_255_1_234
10
11.0626601
20
0.3353679
40
0.2651907
50
359.5047933
51
13.4239635
0
ARC
8
DEFAULT_255_1_234
10
11.1493245
20
0.3575478
40
0.1757509
50
12.9498199
51
48.7551375
0
ARC
8
DEFAULT_255_1_234
10
11.1310979
20
0.33264
40
0.2065134
50
49.5088623
51
72.1836453
0
ARC
8
DEFAULT_255_1_234
10
11.0953131
20
0.2264291
40
0.3185836
50
71.9010081
51
84.3554254
0
ARC
8
DEFAULT_255_1_234
10
11.0791763
20
0.0903326
40
0.4556151
50
84.0193428
51
89.333121
0
LINE
8
DEFAULT_255_1_234
10
12.1687639
20
1.1852433
11
12.1687639
21
0.0102
0
LINE
8
DEFAULT_255_1_234
10
12.1687639
20
0.0102
11
12.0193735
21
0.0102
0
LINE
8
DEFAULT_255_1_234
10
12.0193735
20
0.0102
11
12.0193735
21
1.0005133
0
LINE
8
DEFAULT_255_1_234
10
12.0193735
20
1.0005133
11
11.7197897
21
0.8904785
0
LINE
8
DEFAULT_255_1_234
10
11.7197897
20
0.8904785
11
11.7197897
21
1.0254117
0
LINE
8
DEFAULT_255_1_234
10
11.7197897
20
1.0254117
11
12.1454718
21
1.1852433
0
LINE
8
DEFAULT_255_1_234
10
12.1454718
20
1.1852433
11
12.1687639
21
1.1852433
0
LINE
8
DEFAULT_255_1_234
10
12.9285663
20
0.5676026
11
12.9285663
21
0.4463234
0
LINE
8
DEFAULT_255_1_234
10
12.9285663
20
0.4463234
11
12.5366175
21
0.4463234
0
LINE
8
DEFAULT_255_1_234
10
12.5366175
20
0.4463234
11
12.5366175
21
0.5676026
0
LINE
8
DEFAULT_255_1_234
10
12.5366175
20
0.5676026
11
12.9285663
21
0.5676026
0
LINE
8
DEFAULT_255_1_234
10
13.6851561
20
1.1796211
11
13.6851561
21
0.402952
0
LINE
8
DEFAULT_255_1_234
10
13.6851561
20
0.402952
11
13.8473972
21
0.402952
0
LINE
8
DEFAULT_255_1_234
10
13.8473972
20
0.402952
11
13.8473972
21
0.2816728
0
LINE
8
DEFAULT_255_1_234
10
13.8473972
20
0.2816728
11
13.6851561
21
0.2816728
0
LINE
8
DEFAULT_255_1_234
10
13.6851561
20
0.2816728
11
13.6851561
21
0.0102
0
LINE
8
DEFAULT_255_1_234
10
13.6851561
20
0.0102
11
13.5357657
21
0.0102
0
LINE
8
DEFAULT_255_1_234
10
13.5357657
20
0.0102
11
13.5357657
21
0.2816728
0
LINE
8
DEFAULT_255_1_234
10
13.5357657
20
0.2816728
11
13.0032615
21
0.2816728
0
LINE
8
DEFAULT_255_1_234
10
13.0032615
20
0.2816728
11
13.0032615
21
0.3692187
0
LINE
8
DEFAULT_255_1_234
10
13.0032615
20
0.3692187
11
13.5269308
21
1.1796211
0
LINE
8
DEFAULT_255_1_234
10
13.5269308
20
1.1796211
11
13.6851561
21
1.1796211
0
LINE
8
DEFAULT_255_1_234
10
13.5180959
20
0.9442912
11
13.171928
21
0.402952
0
LINE
8
DEFAULT_255_1_234
10
13.171928
20
0.402952
11
13.5357657
21
0.402952
0
LINE
8
DEFAULT_255_1_234
10
13.5357657
20
0.402952
11
13.5357657
21
0.9764181
0
LINE
8
DEFAULT_255_1_234
10
13.5357657
20
0.9764181
11
13.5180959
21
0.9442912
0
LINE
8
DEFAULT_255_1_234
10
14.9188311
20
1.1796211
11
14.9188311
21
0.0102
0
LINE
8
DEFAULT_255_1_234
10
14.9188311
20
0.0102
11
14.7638185
21
0.0102
0
LINE
8
DEFAULT_255_1_234
10
14.7638185
20
0.0102
11
14.7638185
21
0.550736
0
LINE
8
DEFAULT_255_1_234
10
14.7638185
20
0.550736
11
14.1742889
21
0.550736
0
LINE
8
DEFAULT_255_1_234
10
14.1742889
20
0.550736
11
14.1742889
21
0.0102
0
LINE
8
DEFAULT_255_1_234
10
14.1742889
20
0.0102
11
14.0200795
21
0.0102
0
LINE
8
DEFAULT_255_1_234
10
14.0200795
20
0.0102
11
14.0200795
21
1.1796211
0
LINE
8
DEFAULT_255_1_234
10
14.0200795
20
1.1796211
11
14.1742889
21
1.1796211
0
LINE
8
DEFAULT_255_1_234
10
14.1742889
20
1.1796211
11
14.1742889
21
0.6768343
0
LINE
8
DEFAULT_255_1_234
10
14.1742889
20
0.6768343
11
14.7638185
21
0.6768343
0
LINE
8
DEFAULT_255_1_234
10
14.7638185
20
0.6768343
11
14.7638185
21
1.1796211
0
LINE
8
DEFAULT_255_1_234
10
14.7638185
20
1.1796211
11
14.9188311
21
1.1796211
0
LINE
8
DEFAULT_255_1_234
10
15.5163924
20
0.0102
11
15.1927133
21
0.0102
0
LINE
8
DEFAULT_255_1_234
10
15.1927133
20
0.0102
11
15.1927133
21
1.1796211
0
LINE
8
DEFAULT_255_1_234
10
15.1927133
20
1.1796211
11
15.5228178
21
1.1796211
0
LINE
8
DEFAULT_255_1_234
10
16.0384554
20
0.6342661
11
16.0384554
21
0.5595709
0
LINE
8
DEFAULT_255_1_234
10
15.5268336
20
1.0527196
11
15.3469227
21
1.0527196
0
LINE
8
DEFAULT_255_1_234
10
15.3469227
20
1.0527196
11
15.3469227
21
0.1362983
0
LINE
8
DEFAULT_255_1_234
10
15.3469227
20
0.1362983
11
15.5091638
21
0.1362983
0
LINE
8
DEFAULT_255_1_234
10
15.8858523
20
0.5627836
11
15.8858523
21
0.6310534
0
ARC
8
DEFAULT_255_1_234
10
15.526712
20
0.5930894
40
0.5865446
50
75.4101064
51
90.3804066
0
ARC
8
DEFAULT_255_1_234
10
15.5496634
20
0.6887492
40
0.4881916
50
60.145586
51
75.1888407
0
ARC
8
DEFAULT_255_1_234
10
15.5655409
20
0.7164199
40
0.4562893
50
26.5253612
51
60.1450928
0
ARC
8
DEFAULT_255_1_234
10
15.4535159
20
0.6570158
40
0.5830602
50
7.4030428
51
26.8320788
0
ARC
8
DEFAULT_255_1_234
10
15.2940915
20
0.6321804
40
0.7443669
50
0.1605367
51
7.7176192
0
ARC
8
DEFAULT_255_1_234
10
15.310482
20
0.5557434
40
0.7279835
50
348.7289388
51
0.3012466
0
ARC
8
DEFAULT_255_1_234
10
15.476125
20
0.5228386
40
0.559104
50
333.0706509
51
348.7181832
0
ARC
8
DEFAULT_255_1_234
10
15.5728008
20
0.4703319
40
0.4491417
50
299.2531685
51
333.4571258
0
ARC
8
DEFAULT_255_1_234
10
15.5367147
20
0.5388828
40
0.5265881
50
278.107187
51
299.0339503
0
ARC
8
DEFAULT_255_1_234
10
15.5111226
20
0.6896216
40
0.679442
50
270.4443897
51
278.4511052
0
ARC
8
DEFAULT_255_1_234
10
15.5132056
20
0.5967213
40
0.4604407
50
269.4970433
51
284.0205042
0
ARC
8
DEFAULT_255_1_234
10
15.5487357
20
0.4601978
40
0.3193797
50
283.7700273
51
318.1555492
0
ARC
8
DEFAULT_255_1_234
10
15.5150115
20
0.4854367
40
0.3613588
50
318.7415601
51
343.6873628
0
ARC
8
DEFAULT_255_1_234
10
15.3346139
20
0.5417832
40
0.5503313
50
343.3325091
51
355.8548958
0
ARC
8
DEFAULT_255_1_234
10
15.1247823
20
0.5617319
40
0.7610708
50
355.4988528
51
0.0791727
0
ARC
8
DEFAULT_255_1_234
10
15.2030446
20
0.635278
40
0.6828208
50
359.6455037
51
9.8607896
0
ARC
8
DEFAULT_255_1_234
10
15.4391144
20
0.6779099
40
0.4429406
50
9.6571907
51
26.1932807
0
ARC
8
DEFAULT_255_1_234
10
15.5319132
20
0.7210118
40
0.3406537
50
26.5777228
51
40.1532208
0
ARC
8
DEFAULT_255_1_234
10
15.5574859
20
0.7409619
40
0.308246
50
40.3840491
51
80.1431104
0
ARC
8
DEFAULT_255_1_234
10
15.5247976
20
0.5960333
40
0.4566909
50
79.2152159
51
89.7445637
0
LINE
8
DEFAULT_255_1_234
10
16.4488772
20
0.5459169
11
16.4488772
21
0.6671962
0
LINE
8
DEFAULT_255_1_234
10
16.4488772
20
0.6671962
11
16.5605184
21
0.6671962
0
LINE
8
DEFAULT_255_1_234
10
16.3701662
20
0.8728087
11
16.221579
21
0.8728087
0
LINE
8
DEFAULT_255_1_234
10
16.2111377
20
0.3186187
11
16.3605281
21
0.3186187
0
LINE
8
DEFAULT_255_1_234
10
16.5605184
20
0.5459169
11
16.4488772
21
0.5459169
0
ARC
8
DEFAULT_255_1_234
10
16.557605
20
1.0064713
40
0.3392876
50
270.4919872
51
281.8951556
0
ARC
8
DEFAULT_255_1_234
10
16.5817312
20
0.8962702
40
0.2264817
50
281.6691735
51
301.2943132
0
ARC
8
DEFAULT_255_1_234
10
16.5987522
20
0.8651304
40
0.1910381
50
301.7833094
51
311.7545298
0
ARC
8
DEFAULT_255_1_234
10
16.6079098
20
0.8549748
40
0.1773635
50
311.7323931
51
354.2802411
0
ARC
8
DEFAULT_255_1_234
10
16.5352723
20
0.8674722
40
0.2509385
50
353.0937916
51
0.1181479
0
ARC
8
DEFAULT_255_1_234
10
16.4891508
20
0.8722386
40
0.2970898
50
359.1805295
51
15.0453146
0
ARC
8
DEFAULT_255_1_234
10
16.6237345
20
0.9114992
40
0.1569564
50
13.9577229
51
77.6713066
0
ARC
8
DEFAULT_255_1_234
10
16.5850874
20
0.7729949
40
0.3006298
50
76.1116566
51
90.7026153
0
ARC
8
DEFAULT_255_1_234
10
16.5791712
20
0.8003545
40
0.2732568
50
89.5324876
51
103.531937
0
ARC
8
DEFAULT_255_1_234
10
16.5591156
20
0.8802884
40
0.1908508
50
103.2931773
51
133.5619022
0
ARC
8
DEFAULT_255_1_234
10
16.5546645
20
0.8862375
40
0.1834746
50
133.8349307
51
173.5344437
0
ARC
8
DEFAULT_255_1_234
10
16.6269688
20
0.8734213
40
0.2568033
50
172.5096846
51
180.1366907
0
ARC
8
DEFAULT_255_1_234
10
16.5318582
20
0.8768622
40
0.3103056
50
155.3484492
51
180.7484736
0
ARC
8
DEFAULT_255_1_234
10
16.5269671
20
0.8739846
40
0.3070957
50
131.5744599
51
154.4798489
0
ARC
8
DEFAULT_255_1_234
10
16.5582818
20
0.842331
40
0.3515643
50
96.9875458
51
131.9690667
0
ARC
8
DEFAULT_255_1_234
10
16.5802298
20
0.7177636
40
0.4779224
50
89.8596053
51
97.7825159
0
ARC
8
DEFAULT_255_1_234
10
16.5850361
20
0.6915616
40
0.5041361
50
78.3655447
51
90.4131539
0
ARC
8
DEFAULT_255_1_234
10
16.6208279
20
0.8574887
40
0.3344039
50
56.6229102
51
78.638727
0
ARC
8
DEFAULT_255_1_234
10
16.6423223
20
0.8950805
40
0.2912001
50
47.0253525
51
56.0854072
0
ARC
8
DEFAULT_255_1_234
10
16.6443003
20
0.8990223
40
0.2869704
50
10.9208013
51
46.7778124
0
ARC
8
DEFAULT_255_1_234
10
16.5079069
20
0.8674857
40
0.426899
50
359.6364486
51
11.6087304
0
ARC
8
DEFAULT_255_1_234
10
16.6913913
20
0.8659752
40
0.243409
50
332.3549906
51
359.7179418
0
ARC
8
DEFAULT_255_1_234
10
16.6263515
20
0.8968142
40
0.3153459
50
325.2333722
51
332.8745602
0
ARC
8
DEFAULT_255_1_234
10
16.6416139
20
0.8861828
40
0.2967456
50
292.9802137
51
325.2392345
0
ARC
8
DEFAULT_255_1_234
10
16.6141512
20
0.9395863
40
0.3566604
50
292.5402179
51
293.6924929
0
ARC
8
DEFAULT_255_1_234
10
16.6534108
20
0.2941091
40
0.3307468
50
57.6435486
51
72.8625112
0
ARC
8
DEFAULT_255_1_234
10
16.6888608
20
0.3515549
40
0.2632492
50
36.7248896
51
57.4697979
0
ARC
8
DEFAULT_255_1_234
10
16.6877241
20
0.352822
40
0.2634081
50
8.0545065
51
36.356114
0
ARC
8
DEFAULT_255_1_234
10
16.6014426
20
0.3373174
40
0.3510261
50
359.8320645
51
8.5869982
0
ARC
8
DEFAULT_255_1_234
10
16.5639202
20
0.3325101
40
0.3885653
50
343.9829931
51
0.5571613
0
ARC
8
DEFAULT_255_1_234
10
16.6525399
20
0.3082438
40
0.2966924
50
311.6359546
51
343.7651759
0
ARC
8
DEFAULT_255_1_234
10
16.6146969
20
0.3509102
40
0.3537231
50
279.7829875
51
311.6255694
0
ARC
8
DEFAULT_255_1_234
10
16.5845745
20
0.494628
40
0.5004971
50
269.7286406
51
280.3856417
0
ARC
8
DEFAULT_255_1_234
10
16.5783817
20
0.4904996
40
0.4963778
50
256.6828919
51
270.4412052
0
ARC
8
DEFAULT_255_1_234
10
16.5445113
20
0.3520394
40
0.3538406
50
229.4223008
51
256.8556159
0
ARC
8
DEFAULT_255_1_234
10
16.5030506
20
0.3053736
40
0.2914296
50
181.818294
51
229.6455059
0
ARC
8
DEFAULT_255_1_234
10
16.6070462
20
0.3184496
40
0.3959084
50
179.9755256
51
183.2323064
0
ARC
8
DEFAULT_255_1_234
10
16.5898208
20
0.3164037
40
0.2293034
50
179.4465117
51
196.2869258
0
ARC
8
DEFAULT_255_1_234
10
16.5410616
20
0.3030651
40
0.1787621
50
196.5661473
51
227.705904
0
ARC
8
DEFAULT_255_1_234
10
16.5574711
20
0.3214155
40
0.2033784
50
227.7652068
51
257.8762805
0
ARC
8
DEFAULT_255_1_234
10
16.5799681
20
0.4157156
40
0.3003081
50
257.4584385
51
270.426602
0
ARC
8
DEFAULT_255_1_234
10
16.5845247
20
0.4446996
40
0.329292
50
269.5962073
51
280.8789248
0
ARC
8
DEFAULT_255_1_234
10
16.6074776
20
0.3300685
40
0.2123908
50
280.6346389
51
299.8595945
0
ARC
8
DEFAULT_255_1_234
10
16.6265683
20
0.2938212
40
0.171457
50
300.3576302
51
314.5517981
0
ARC
8
DEFAULT_255_1_234
10
16.6182743
20
0.2998919
40
0.1816095
50
315.0728369
51
345.0431014
0
ARC
8
DEFAULT_255_1_234
10
16.5259557
20
0.3267841
40
0.2777492
50
344.5986631
51
357.9269593
0
ARC
8
DEFAULT_255_1_234
10
16.4363884
20
0.3329276
40
0.3674917
50
357.4748886
51
0.0231117
0
ARC
8
DEFAULT_255_1_234
10
16.5386993
20
0.3353679
40
0.2651907
50
359.5047933
51
13.4239635
0
ARC
8
DEFAULT_255_1_234
10
16.6253636
20
0.3575478
40
0.1757509
50
12.9498199
51
48.7551375
0
ARC
8
DEFAULT_255_1_234
10
16.607137
20
0.33264
40
0.2065134
50
49.5088623
51
72.1836453
0
ARC
8
DEFAULT_255_1_234
10
16.5713523
20
0.2264291
40
0.3185836
50
71.9010081
51
84.3554254
0
ARC
8
DEFAULT_255_1_234
10
16.5552155
20
0.0903326
40
0.4556151
50
84.0193428
51
89.333121
0
LINE
8
DEFAULT_255_1_234
10
17.9227012
20
0.1314792
11
17.9227012
21
0.0102
0
LINE
8
DEFAULT_255_1_234
10
17.9227012
20
0.0102
11
17.1564733
21
0.0102
0
LINE
8
DEFAULT_255_1_234
10
17.1564733
20
0.0102
11
17.1564733
21
0.1170221
0
LINE
8
DEFAULT_255_1_234
10
17.1564733
20
0.1170221
11
17.5612729
21
0.5667995
0
LINE
8
DEFAULT_255_1_234
10
17.2825716
20
0.8350595
11
17.1339845
21
0.8350595
0
LINE
8
DEFAULT_255_1_234
10
17.6488189
20
0.4712218
11
17.3355811
21
0.1314792
0
LINE
8
DEFAULT_255_1_234
10
17.3355811
20
0.1314792
11
17.9227012
21
0.1314792
0
ARC
8
DEFAULT_255_1_234
10
16.2122563
20
1.7597527
40
1.8008286
50
318.5132453
51
320.7828378
0
ARC
8
DEFAULT_255_1_234
10
16.7409537
20
1.3294426
40
1.1191493
50
320.7372736
51
323.9737074
0
ARC
8
DEFAULT_255_1_234
10
17.1329394
20
1.0454361
40
0.6350923
50
323.8961724
51
328.6421089
0
ARC
8
DEFAULT_255_1_234
10
17.3375989
20
0.9192031
40
0.3946393
50
328.8299013
51
331.789948
0
ARC
8
DEFAULT_255_1_234
10
17.4373168
20
0.8677509
40
0.2824501
50
331.4255242
51
352.9364833
0
ARC
8
DEFAULT_255_1_234
10
17.4509668
20
0.8646976
40
0.2685315
50
353.2248685
51
0.0169286
0
ARC
8
DEFAULT_255_1_234
10
17.4719545
20
0.866995
40
0.2475536
50
359.4866256
51
15.9339782
0
ARC
8
DEFAULT_255_1_234
10
17.522653
20
0.8806286
40
0.1950618
50
16.1714718
51
43.5284424
0
ARC
8
DEFAULT_255_1_234
10
17.5303839
20
0.8883573
40
0.184134
50
43.4415429
51
83.1661404
0
ARC
8
DEFAULT_255_1_234
10
17.5169757
20
0.8146771
40
0.258926
50
82.160215
51
90.1505798
0
ARC
8
DEFAULT_255_1_234
10
17.5138184
20
0.7609865
40
0.3126255
50
89.5460705
51
102.5418777
0
ARC
8
DEFAULT_255_1_234
10
17.4895271
20
0.8640665
40
0.2067346
50
102.1739365
51
129.2061916
0
ARC
8
DEFAULT_255_1_234
10
17.4816342
20
0.8765094
40
0.1921118
50
129.7279328
51
135.7542026
0
ARC
8
DEFAULT_255_1_234
10
17.493787
20
0.8668045
40
0.2075944
50
136.175737
51
166.3674722
0
ARC
8
DEFAULT_255_1_234
10
17.5944789
20
0.8398182
40
0.3118201
50
165.9092917
51
178.8683903
0
ARC
8
DEFAULT_255_1_234
10
17.680965
20
0.8351179
40
0.3983935
50
178.438168
51
180.0083905
0
ARC
8
DEFAULT_255_1_234
10
17.5408253
20
0.8390231
40
0.4068601
50
163.2878735
51
180.5581814
0
ARC
8
DEFAULT_255_1_234
10
17.4606514
20
0.861084
40
0.3237344
50
133.454115
51
162.9470031
0
ARC
8
DEFAULT_255_1_234
10
17.4785055
20
0.8421
40
0.349795
50
100.7869394
51
133.4384016
0
ARC
8
DEFAULT_255_1_234
10
17.5132827
20
0.6872319
40
0.5084616
50
89.6605301
51
101.3704185
0
ARC
8
DEFAULT_255_1_234
10
17.5199166
20
0.6933496
40
0.502348
50
78.2171172
51
90.4130393
0
ARC
8
DEFAULT_255_1_234
10
17.5554244
20
0.8557637
40
0.3361092
50
55.9268222
51
78.4888551
0
ARC
8
DEFAULT_255_1_234
10
17.5750684
20
0.8896324
40
0.2970617
50
47.9292255
51
55.4054003
0
ARC
8
DEFAULT_255_1_234
10
17.5852245
20
0.8999502
40
0.2825983
50
4.3347696
51
48.0560701
0
ARC
8
DEFAULT_255_1_234
10
17.4756638
20
0.8829601
40
0.393225
50
359.925209
51
5.5967654
0
ARC
8
DEFAULT_255_1_234
10
17.518553
20
0.8885816
40
0.3503892
50
337.8914096
51
358.9967724
0
ARC
8
DEFAULT_255_1_234
10
17.2471942
20
0.9932706
40
0.6412172
50
326.9135351
51
338.3505194
0
ARC
8
DEFAULT_255_1_234
10
16.8486246
20
1.2487284
40
1.1146189
50
319.6472867
51
327.095818
0
ARC
8
DEFAULT_255_1_234
10
16.4653249
20
1.5649
40
1.6114559
50
317.2586784
51
319.9046139
0
LINE
8
DEFAULT_255_1_234
10
18.4046055
20
0.5676026
11
18.4046055
21
0.4463234
0
LINE
8
DEFAULT_255_1_234
10
18.4046055
20
0.4463234
11
18.0126566
21
0.4463234
0
LINE
8
DEFAULT_255_1_234
10
18.0126566
20
0.4463234
11
18.0126566
21
0.5676026
0
LINE
8
DEFAULT_255_1_234
10
18.0126566
20
0.5676026
11
18.4046055
21
0.5676026
0
LINE
8
DEFAULT_255_1_234
10
19.2672142
20
0.7017327
11
19.2672142
21
0.5089709
0
LINE
8
DEFAULT_255_1_234
10
18.5290974
20
0.4888916
11
18.5290974
21
0.6872755
0
LINE
8
DEFAULT_255_1_234
10
19.118627
20
0.4688123
11
19.118627
21
0.7121739
0
LINE
8
DEFAULT_255_1_234
10
18.6776846
20
0.7234184
11
18.6776846
21
0.4856789
0
ARC
8
DEFAULT_255_1_234
10
18.0425031
20
0.5040805
40
1.2247208
50
353.8441951
51
0.2287902
0
ARC
8
DEFAULT_255_1_234
10
18.5064535
20
0.4522806
40
0.7578929
50
344.4934747
51
353.9765454
0
ARC
8
DEFAULT_255_1_234
10
18.8057125
20
0.3671981
40
0.4467846
50
329.2803592
51
344.7472793
0
ARC
8
DEFAULT_255_1_234
10
18.904995
20
0.3127018
40
0.3336173
50
324.9352394
51
328.6160465
0
ARC
8
DEFAULT_255_1_234
10
18.9427059
20
0.2863427
40
0.2876076
50
280.580143
51
324.9173126
0
ARC
8
DEFAULT_255_1_234
10
18.9025851
20
0.4534099
40
0.4592847
50
269.5977311
51
281.6734359
0
ARC
8
DEFAULT_255_1_234
10
18.8953757
20
0.4414173
40
0.4472986
50
256.6228859
51
270.51044
0
ARC
8
DEFAULT_255_1_234
10
18.8551735
20
0.2865877
40
0.2873874
50
215.8618325
51
257.2788573
0
ARC
8
DEFAULT_255_1_234
10
18.9572766
20
0.3550977
40
0.4102928
50
197.9693508
51
215.2623606
0
ARC
8
DEFAULT_255_1_234
10
19.2057882
20
0.4389709
40
0.6725652
50
187.8816417
51
198.2346507
0
ARC
8
DEFAULT_255_1_234
10
19.601609
20
0.4961079
40
1.0724845
50
180.8976217
51
188.0055519
0
ARC
8
DEFAULT_255_1_234
10
19.8816278
20
0.5064777
40
1.3526448
50
180.7449369
51
181.1510016
0
ARC
8
DEFAULT_255_1_234
10
19.7239007
20
0.6921042
40
1.1948131
50
173.7675579
51
180.231553
0
ARC
8
DEFAULT_255_1_234
10
19.2721154
20
0.7431666
40
0.7401564
50
164.3058563
51
173.9002247
0
ARC
8
DEFAULT_255_1_234
10
18.9809223
20
0.8270656
40
0.4371288
50
148.7922025
51
164.568378
0
ARC
8
DEFAULT_255_1_234
10
18.8857675
20
0.8801929
40
0.3282386
50
144.5883898
51
148.1176286
0
ARC
8
DEFAULT_255_1_234
10
18.8514573
20
0.9041315
40
0.2864044
50
101.6440918
51
144.514236
0
ARC
8
DEFAULT_255_1_234
10
18.893964
20
0.7352069
40
0.4604934
50
89.5284041
51
102.5819763
0
ARC
8
DEFAULT_255_1_234
10
18.9018727
20
0.7313018
40
0.464401
50
77.0437873
51
90.5081339
0
ARC
8
DEFAULT_255_1_234
10
18.9420729
20
0.8955615
40
0.2953195
50
48.2778575
51
77.4994676
0
ARC
8
DEFAULT_255_1_234
10
18.949336
20
0.9084746
40
0.2808655
50
36.3142134
51
47.6305865
0
ARC
8
DEFAULT_255_1_234
10
18.8624667
20
0.8499515
40
0.3855453
50
18.2931786
51
35.6769206
0
ARC
8
DEFAULT_255_1_234
10
18.6081426
20
0.7626593
40
0.654423
50
8.024666
51
18.5605216
0
ARC
8
DEFAULT_255_1_234
10
18.1918346
20
0.7011792
40
1.0752407
50
1.1274072
51
8.1718305
0
ARC
8
DEFAULT_255_1_234
10
17.8682537
20
0.6884885
40
1.3990231
50
0.5424119
51
1.3863029
0
ARC
8
DEFAULT_255_1_234
10
18.0503915
20
0.7157342
40
1.0682415
50
359.8090433
51
4.9407866
0
ARC
8
DEFAULT_255_1_234
10
18.4713929
20
0.7533113
40
0.6455691
50
4.8362157
51
12.2904523
0
ARC
8
DEFAULT_255_1_234
10
18.7469044
20
0.8146965
40
0.3633074
50
12.0805627
51
23.8173984
0
ARC
8
DEFAULT_255_1_234
10
18.8642749
20
0.8643919
40
0.2358723
50
24.2871213
51
31.3935614
0
ARC
8
DEFAULT_255_1_234
10
18.9167446
20
0.8987233
40
0.1732111
50
30.7407893
51
82.4657128
0
ARC
8
DEFAULT_255_1_234
10
18.898758
20
0.8103691
40
0.263235
50
81.1060089
51
90.2184952
0
ARC
8
DEFAULT_255_1_234
10
18.8951879
20
0.8361924
40
0.2374236
50
89.3806855
51
105.6762551
0
ARC
8
DEFAULT_255_1_234
10
18.876851
20
0.9028567
40
0.1682847
50
105.7981136
51
149.7388061
0
ARC
8
DEFAULT_255_1_234
10
18.9832588
20
0.838895
40
0.2924306
50
149.4208916
51
163.6286378
0
ARC
8
DEFAULT_255_1_234
10
19.1923476
20
0.775125
40
0.5110213
50
163.3763315
51
172.1410975
0
ARC
8
DEFAULT_255_1_234
10
19.5224195
20
0.7278518
40
0.8444586
50
172.0259487
51
178.0703232
0
ARC
8
DEFAULT_255_1_234
10
19.8254285
20
0.7134906
40
1.1477868
50
177.8631668
51
179.5044149
0
ARC
8
DEFAULT_255_1_234
10
19.7181689
20
0.4820389
40
1.0404907
50
179.7995573
51
185.2460446
0
ARC
8
DEFAULT_255_1_234
10
19.3138729
20
0.4437513
40
0.6343885
50
185.1411642
51
193.0079639
0
ARC
8
DEFAULT_255_1_234
10
19.0495201
20
0.3812641
40
0.3627568
50
192.7897626
51
205.2507664
0
ARC
8
DEFAULT_255_1_234
10
18.9448748
20
0.3345415
40
0.2481908
50
205.8005384
51
211.2537509
0
ARC
8
DEFAULT_255_1_234
10
18.8925189
20
0.299458
40
0.1852521
50
210.3789793
51
238.4008143
0
ARC
8
DEFAULT_255_1_234
10
18.890571
20
0.3041376
40
0.1882621
50
239.6520629
51
265.9793761
0
ARC
8
DEFAULT_255_1_234
10
18.8990911
20
0.3713427
40
0.2559272
50
265.1315437
51
270.060332
0
ARC
8
DEFAULT_255_1_234
10
18.9019689
20
0.3389534
40
0.2235528
50
269.3314664
51
287.2178029
0
ARC
8
DEFAULT_255_1_234
10
18.9157541
20
0.2886279
40
0.1714108
50
287.7958004
51
329.080874
0
ARC
8
DEFAULT_255_1_234
10
18.8199998
20
0.348393
40
0.2842745
50
328.6634704
51
343.3325132
0
ARC
8
DEFAULT_255_1_234
10
18.6027018
20
0.4160863
40
0.5118644
50
343.0499468
51
351.9393422
0
ARC
8
DEFAULT_255_1_234
10
18.2560318
20
0.4671949
40
0.8622784
50
351.8069023
51
357.7959224
0
ARC
8
DEFAULT_255_1_234
10
17.9324874
20
0.4839721
40
1.1862365
50
357.5871873
51
359.2677531
0
LINE
8
DEFAULT_255_1_234
10
19.5957123
20
1.1796211
11
19.8776263
21
0.7314501
0
LINE
8
DEFAULT_255_1_234
10
19.8776263
20
0.7314501
11
20.1579339
21
1.1796211
0
LINE
8
DEFAULT_255_1_234
10
20.1579339
20
1.1796211
11
20.3394512
21
1.1796211
0
LINE
8
DEFAULT_255_1_234
10
20.3394512
20
1.1796211
11
19.9699913
21
0.5997296
0
LINE
8
DEFAULT_255_1_234
10
19.9699913
20
0.5997296
11
20.3482861
21
0.0102
0
LINE
8
DEFAULT_255_1_234
10
20.3482861
20
0.0102
11
20.1651625
21
0.0102
0
LINE
8
DEFAULT_255_1_234
10
20.1651625
20
0.0102
11
19.8776263
21
0.4664027
0
LINE
8
DEFAULT_255_1_234
10
19.8776263
20
0.4664027
11
19.5884837
21
0.0102
0
LINE
8
DEFAULT_255_1_234
10
19.5884837
20
0.0102
11
19.4061632
21
0.0102
0
LINE
8
DEFAULT_255_1_234
10
19.4061632
20
0.0102
11
19.7852613
21
0.5997296
0
LINE
8
DEFAULT_255_1_234
10
19.7852613
20
0.5997296
11
19.4149981
21
1.1796211
0
LINE
8
DEFAULT_255_1_234
10
19.4149981
20
1.1796211
11
19.5957123
21
1.1796211
0
LINE
8
DEFAULT_255_1_234
10
20.9329967
20
0.0102
11
20.5273939
21
0.0102
0
LINE
8
DEFAULT_255_1_234
10
20.5273939
20
0.0102
11
20.5273939
21
1.1796211
0
LINE
8
DEFAULT_255_1_234
10
20.5273939
20
1.1796211
11
20.9097046
21
1.1796211
0
LINE
8
DEFAULT_255_1_234
10
20.9386189
20
0.5571614
11
20.6816033
21
0.5571614
0
LINE
8
DEFAULT_255_1_234
10
20.6816033
20
0.5571614
11
20.6816033
21
0.1362983
0
LINE
8
DEFAULT_255_1_234
10
20.6816033
20
0.1362983
11
20.9362094
21
0.1362983
0
LINE
8
DEFAULT_255_1_234
10
20.6816033
20
1.0527196
11
20.6816033
21
0.6808501
0
LINE
8
DEFAULT_255_1_234
10
20.6816033
20
0.6808501
11
20.9145237
21
0.6808501
0
LINE
8
DEFAULT_255_1_234
10
20.9097046
20
1.0527196
11
20.6816033
21
1.0527196
0
ARC
8
DEFAULT_255_1_234
10
20.9134755
20
0.4428901
40
0.7367406
50
82.1257326
51
90.2932599
0
ARC
8
DEFAULT_255_1_234
10
20.952371
20
0.7147013
40
0.4621653
50
69.9044149
51
82.2857423
0
ARC
8
DEFAULT_255_1_234
10
21.0094388
20
0.8689637
40
0.2976871
50
51.1838526
51
70.0181538
0
ARC
8
DEFAULT_255_1_234
10
21.0349354
20
0.906024
40
0.2528517
50
12.1017251
51
50.4214761
0
ARC
8
DEFAULT_255_1_234
10
20.8965228
20
0.8712676
40
0.3955061
50
359.5251267
51
12.8211707
0
ARC
8
DEFAULT_255_1_234
10
21.0545155
20
0.8643344
40
0.2375281
50
323.4908128
51
0.8817314
0
ARC
8
DEFAULT_255_1_234
10
21.0126841
20
0.896655
40
0.2903817
50
298.6825083
51
323.2756573
0
ARC
8
DEFAULT_255_1_234
10
20.9765204
20
0.9567649
40
0.3604842
50
293.1999386
51
299.1396394
0
ARC
8
DEFAULT_255_1_234
10
21.0438177
20
0.3482126
40
0.2871098
50
54.0011765
51
74.9167975
0
ARC
8
DEFAULT_255_1_234
10
21.0554536
20
0.3679332
40
0.2643248
50
36.3580696
51
53.5291921
0
ARC
8
DEFAULT_255_1_234
10
21.0427778
20
0.3588998
40
0.2798884
50
4.8189881
51
36.3089977
0
ARC
8
DEFAULT_255_1_234
10
20.9648614
20
0.347927
40
0.358478
50
359.9370252
51
5.5204067
0
ARC
8
DEFAULT_255_1_234
10
20.9324135
20
0.3438667
40
0.3909429
50
344.7478609
51
0.5373281
0
ARC
8
DEFAULT_255_1_234
10
21.0315106
20
0.3171544
40
0.2883093
50
311.1786488
51
344.6886812
0
ARC
8
DEFAULT_255_1_234
10
21.0023153
20
0.3534987
40
0.3348923
50
286.0418249
51
310.8441291
0
ARC
8
DEFAULT_255_1_234
10
20.9515985
20
0.5181807
40
0.5071869
50
274.1042341
51
286.4071509
0
ARC
8
DEFAULT_255_1_234
10
20.9339241
20
0.7065229
40
0.6963234
50
269.9236873
51
274.445647
0
ARC
8
DEFAULT_255_1_234
10
20.9385242
20
0.4725537
40
0.3362634
50
269.6055768
51
281.3740047
0
ARC
8
DEFAULT_255_1_234
10
20.961588
20
0.3632353
40
0.224546
50
281.1055983
51
302.5132223
0
ARC
8
DEFAULT_255_1_234
10
20.9762779
20
0.3368823
40
0.1944357
50
303.0368945
51
311.8811219
0
ARC
8
DEFAULT_255_1_234
10
20.9834186
20
0.328389
40
0.1833454
50
311.9916004
51
351.7143462
0
ARC
8
DEFAULT_255_1_234
10
20.9017416
20
0.344893
40
0.2665871
50
350.7339597
51
0.2221581
0
ARC
8
DEFAULT_255_1_234
10
20.8909862
20
0.3505467
40
0.2773789
50
359.0456241
51
17.2296242
0
ARC
8
DEFAULT_255_1_234
10
20.9948979
20
0.3814163
40
0.1689915
50
17.6685481
51
78.9940892
0
ARC
8
DEFAULT_255_1_234
10
20.9432143
20
0.1959224
40
0.3612658
50
76.5635957
51
90.6980921
0
LINE
8
DEFAULT_255_1_234
10
20.9388127
20
0.5571613
11
20.9386189
21
0.5571614
0
ARC
8
DEFAULT_255_1_234
10
20.9167803
20
1.0094036
40
0.3285612
50
269.6064736
51
281.4533503
0
ARC
8
DEFAULT_255_1_234
10
20.9390623
20
0.9042688
40
0.2210975
50
281.2041486
51
302.5148063
0
ARC
8
DEFAULT_255_1_234
10
20.9527473
20
0.8796241
40
0.1929674
50
303.021671
51
309.8369575
0
ARC
8
DEFAULT_255_1_234
10
20.9710935
20
0.8590488
40
0.1654181
50
309.5228395
51
356.9509836
0
ARC
8
DEFAULT_255_1_234
10
20.9047517
20
0.8685932
40
0.2322512
50
355.4701227
51
0.0492546
0
ARC
8
DEFAULT_255_1_234
10
20.8768608
20
0.8708094
40
0.2601498
50
359.5558597
51
11.2096359
0
ARC
8
DEFAULT_255_1_234
10
20.9725898
20
0.890623
40
0.1623975
50
10.9182341
51
31.3230275
0
ARC
8
DEFAULT_255_1_234
10
21.0011631
20
0.9065214
40
0.1297302
50
31.8852677
51
52.1412565
0
ARC
8
DEFAULT_255_1_234
10
20.9737364
20
0.867775
40
0.1771663
50
52.8285564
51
71.9850297
0
ARC
8
DEFAULT_255_1_234
10
20.9361541
20
0.7571664
40
0.2939794
50
71.6863486
51
82.8455995
0
ARC
8
DEFAULT_255_1_234
10
20.9122077
20
0.5762149
40
0.476506
50
82.6984714
51
90.1729175
0
ARC
8
DEFAULT_255_1_234
10
20.9099711
20
0.6985623
40
0.3541573
50
89.8708275
51
90.0431131
0
LINE
8
DEFAULT_255_1_234
10
22.2461859
20
0.7017327
11
22.2461859
21
0.5089709
0
LINE
8
DEFAULT_255_1_234
10
21.5080691
20
0.4888916
11
21.5080691
21
0.6872755
0
LINE
8
DEFAULT_255_1_234
10
22.0975987
20
0.4688123
11
22.0975987
21
0.7121739
0
LINE
8
DEFAULT_255_1_234
10
21.6566563
20
0.7234184
11
21.6566563
21
0.4856789
0
ARC
8
DEFAULT_255_1_234
10
21.0214748
20
0.5040805
40
1.2247208
50
353.8441951
51
0.2287902
0
ARC
8
DEFAULT_255_1_234
10
21.4854252
20
0.4522806
40
0.7578929
50
344.4934747
51
353.9765454
0
ARC
8
DEFAULT_255_1_234
10
21.7846842
20
0.3671981
40
0.4467846
50
329.2803592
51
344.7472793
0
ARC
8
DEFAULT_255_1_234
10
21.8839667
20
0.3127018
40
0.3336173
50
324.9352394
51
328.6160465
0
ARC
8
DEFAULT_255_1_234
10
21.9216776
20
0.2863427
40
0.2876076
50
280.580143
51
324.9173126
0
ARC
8
DEFAULT_255_1_234
10
21.8815568
20
0.4534099
40
0.4592847
50
269.5977311
51
281.6734359
0
ARC
8
DEFAULT_255_1_234
10
21.8743474
20
0.4414173
40
0.4472986
50
256.6228859
51
270.51044
0
ARC
8
DEFAULT_255_1_234
10
21.8341452
20
0.2865877
40
0.2873874
50
215.8618325
51
257.2788573
0
ARC
8
DEFAULT_255_1_234
10
21.9362484
20
0.3550977
40
0.4102928
50
197.9693508
51
215.2623606
0
ARC
8
DEFAULT_255_1_234
10
22.1847599
20
0.4389709
40
0.6725652
50
187.8816417
51
198.2346507
0
ARC
8
DEFAULT_255_1_234
10
22.5805807
20
0.4961079
40
1.0724845
50
180.8976217
51
188.0055519
0
ARC
8
DEFAULT_255_1_234
10
22.8605996
20
0.5064777
40
1.3526448
50
180.7449369
51
181.1510016
0
ARC
8
DEFAULT_255_1_234
10
22.7028725
20
0.6921042
40
1.1948131
50
173.7675579
51
180.231553
0
ARC
8
DEFAULT_255_1_234
10
22.2510871
20
0.7431666
40
0.7401564
50
164.3058563
51
173.9002247
0
ARC
8
DEFAULT_255_1_234
10
21.959894
20
0.8270656
40
0.4371288
50
148.7922025
51
164.568378
0
ARC
8
DEFAULT_255_1_234
10
21.8647392
20
0.8801929
40
0.3282386
50
144.5883898
51
148.1176286
0
ARC
8
DEFAULT_255_1_234
10
21.830429
20
0.9041315
40
0.2864044
50
101.6440918
51
144.514236
0
ARC
8
DEFAULT_255_1_234
10
21.8729357
20
0.7352069
40
0.4604934
50
89.5284041
51
102.5819763
0
ARC
8
DEFAULT_255_1_234
10
21.8808445
20
0.7313018
40
0.464401
50
77.0437873
51
90.5081339
0
ARC
8
DEFAULT_255_1_234
10
21.9210446
20
0.8955615
40
0.2953195
50
48.2778575
51
77.4994676
0
ARC
8
DEFAULT_255_1_234
10
21.9283078
20
0.9084746
40
0.2808655
50
36.3142134
51
47.6305865
0
ARC
8
DEFAULT_255_1_234
10
21.8414385
20
0.8499515
40
0.3855453
50
18.2931786
51
35.6769206
0
ARC
8
DEFAULT_255_1_234
10
21.5871143
20
0.7626593
40
0.654423
50
8.024666
51
18.5605216
0
ARC
8
DEFAULT_255_1_234
10
21.1708064
20
0.7011792
40
1.0752407
50
1.1274072
51
8.1718305
0
ARC
8
DEFAULT_255_1_234
10
20.8472254
20
0.6884885
40
1.3990231
50
0.5424119
51
1.3863029
0
ARC
8
DEFAULT_255_1_234
10
21.0293632
20
0.7157342
40
1.0682415
50
359.8090433
51
4.9407866
0
ARC
8
DEFAULT_255_1_234
10
21.4503646
20
0.7533113
40
0.6455691
50
4.8362157
51
12.2904523
0
ARC
8
DEFAULT_255_1_234
10
21.7258761
20
0.8146965
40
0.3633074
50
12.0805627
51
23.8173984
0
ARC
8
DEFAULT_255_1_234
10
21.8432466
20
0.8643919
40
0.2358723
50
24.2871213
51
31.3935614
0
ARC
8
DEFAULT_255_1_234
10
21.8957163
20
0.8987233
40
0.1732111
50
30.7407893
51
82.4657128
0
ARC
8
DEFAULT_255_1_234
10
21.8777298
20
0.8103691
40
0.263235
50
81.1060089
51
90.2184952
0
ARC
8
DEFAULT_255_1_234
10
21.8741596
20
0.8361924
40
0.2374236
50
89.3806855
51
105.6762551
0
ARC
8
DEFAULT_255_1_234
10
21.8558227
20
0.9028567
40
0.1682847
50
105.7981136
51
149.7388061
0
ARC
8
DEFAULT_255_1_234
10
21.9622305
20
0.838895
40
0.2924306
50
149.4208916
51
163.6286378
0
ARC
8
DEFAULT_255_1_234
10
22.1713193
20
0.775125
40
0.5110213
50
163.3763315
51
172.1410975
0
ARC
8
DEFAULT_255_1_234
10
22.5013912
20
0.7278518
40
0.8444586
50
172.0259487
51
178.0703232
0
ARC
8
DEFAULT_255_1_234
10
22.8044002
20
0.7134906
40
1.1477868
50
177.8631668
51
179.5044149
0
ARC
8
DEFAULT_255_1_234
10
22.6971406
20
0.4820389
40
1.0404907
50
179.7995573
51
185.2460446
0
ARC
8
DEFAULT_255_1_234
10
22.2928446
20
0.4437513
40
0.6343885
50
185.1411642
51
193.0079639
0
ARC
8
DEFAULT_255_1_234
10
22.0284918
20
0.3812641
40
0.3627568
50
192.7897626
51
205.2507664
0
ARC
8
DEFAULT_255_1_234
10
21.9238465
20
0.3345415
40
0.2481908
50
205.8005384
51
211.2537509
0
ARC
8
DEFAULT_255_1_234
10
21.8714906
20
0.299458
40
0.1852521
50
210.3789793
51
238.4008143
0
ARC
8
DEFAULT_255_1_234
10
21.8695428
20
0.3041376
40
0.1882621
50
239.6520629
51
265.9793761
0
ARC
8
DEFAULT_255_1_234
10
21.8780628
20
0.3713427
40
0.2559272
50
265.1315437
51
270.060332
0
ARC
8
DEFAULT_255_1_234
10
21.8809407
20
0.3389534
40
0.2235528
50
269.3314664
51
287.2178029
0
ARC
8
DEFAULT_255_1_234
10
21.8947259
20
0.2886279
40
0.1714108
50
287.7958004
51
329.080874
0
ARC
8
DEFAULT_255_1_234
10
21.7989715
20
0.348393
40
0.2842745
50
328.6634704
51
343.3325132
0
ARC
8
DEFAULT_255_1_234
10
21.5816735
20
0.4160863
40
0.5118644
50
343.0499468
51
351.9393422
0
ARC
8
DEFAULT_255_1_234
10
21.2350035
20
0.4671949
40
0.8622784
50
351.8069023
51
357.7959224
0
ARC
8
DEFAULT_255_1_234
10
20.9114591
20
0.4839721
40
1.1862365
50
357.5871873
51
359.2677531
0
LINE
8
DEFAULT_255_2_778
10
9.3927417
20
60.721908
11
10.7156417
21
60.721908
0
LINE
8
DEFAULT_255_2_778
10
10.7156417
20
60.721908
11
10.7156417
21
35.586508
0
LINE
8
DEFAULT_255_2_778
10
9.3926834
20
35.5864333
11
12.0384834
21
35.5864333
0
LINE
8
DEFAULT_255_2_778
10
12.0384834
20
35.5864333
11
12.0384834
21
30.2947333
0
LINE
8
DEFAULT_255_2_778
10
12.0384834
20
30.2947333
11
9.3926834
21
30.2947333
0
LINE
8
DEFAULT_255_2_778
10
9.3926834
20
30.2947333
11
9.3926834
21
35.5864333
0
ARC
8
DEFAULT_255_2_778_1
10
13.1922591
20
30.397177
40
4.816461
50
120.9442904
51
122.351755
0
ARC
8
DEFAULT_255_2_778_1
10
12.7456523
20
31.1008039
40
3.9830657
50
122.3407904
51
124.1946752
0
ARC
8
DEFAULT_255_2_778_1
10
12.3057464
20
31.7473306
40
3.2010724
50
124.1855758
51
126.4338849
0
ARC
8
DEFAULT_255_2_778_1
10
11.9198129
20
32.2700611
40
2.5513094
50
126.4326926
51
128.8877368
0
ARC
8
DEFAULT_255_2_778_1
10
11.5849968
20
32.6844658
40
2.0185498
50
128.8749205
51
131.8726567
0
ARC
8
DEFAULT_255_2_778_1
10
11.2878677
20
33.0154854
40
1.5737356
50
131.8616166
51
135.4168838
0
ARC
8
DEFAULT_255_2_778_1
10
11.025068
20
33.2736765
40
1.2053256
50
135.3893975
51
139.9687014
0
ARC
8
DEFAULT_255_2_778_1
10
10.7921889
20
33.4685102
40
0.9016937
50
139.9301659
51
145.9260426
0
ARC
8
DEFAULT_255_2_778_1
10
10.596054
20
33.6005104
40
0.6652776
50
145.8787362
51
153.8146208
0
ARC
8
DEFAULT_255_2_778_1
10
10.4439553
20
33.6748797
40
0.4959714
50
153.770634
51
164.3484794
0
ARC
8
DEFAULT_255_2_778_1
10
10.3426387
20
33.7030786
40
0.3908039
50
164.3220276
51
179.8083066
0
ARC
8
DEFAULT_255_2_778_1
10
10.3636789
20
33.711215
40
0.4118985
50
180.9499449
51
213.8111542
0
ARC
8
DEFAULT_255_2_778_1
10
10.6395828
20
33.8807896
40
0.73561
50
212.8271214
51
224.258472
0
ARC
8
DEFAULT_255_2_778_1
10
11.0224335
20
34.2501236
40
1.267567
50
224.1376218
51
231.4508261
0
ARC
8
DEFAULT_255_2_778_1
10
11.6651195
20
35.0531168
40
2.2960809
50
231.3955893
51
236.1256478
0
ARC
8
DEFAULT_255_2_778_1
10
13.4974223
20
37.7996293
40
5.5976905
50
236.2233172
51
239.1314682
0
ARC
8
DEFAULT_255_2_778_1
10
25.447327
20
57.5273568
40
28.6623793
50
238.8606853
51
239.0711101
0
ARC
8
DEFAULT_255_2_778_1
10
6.2751281
20
25.4302653
40
8.7248518
50
57.2420924
51
59.4062964
0
ARC
8
DEFAULT_255_2_778_1
10
9.5028241
20
30.4612102
40
2.747542
50
52.8289294
51
57.079028
0
ARC
8
DEFAULT_255_2_778_1
10
10.2774783
20
31.4815488
40
1.466457
50
46.3041868
51
52.8596521
0
ARC
8
DEFAULT_255_2_778_1
10
10.7097073
20
31.9316842
40
0.8424061
50
36.2174211
51
46.4090895
0
ARC
8
DEFAULT_255_2_778_1
10
10.9942088
20
32.1365128
40
0.4918609
50
17.400375
51
36.5489745
0
ARC
8
DEFAULT_255_2_778_1
10
11.1082994
20
32.1763754
40
0.3710912
50
0.0676858
51
16.7951297
0
ARC
8
DEFAULT_255_2_778_1
10
11.0872613
20
32.1782428
40
0.3921317
50
343.8035191
51
359.7912046
0
ARC
8
DEFAULT_255_2_778_1
10
10.9809912
20
32.2087167
40
0.5026844
50
333.2506233
51
343.8465691
0
ARC
8
DEFAULT_255_2_778_1
10
10.8271757
20
32.2854313
40
0.6745679
50
325.6600948
51
333.3122657
0
ARC
8
DEFAULT_255_2_778_1
10
10.6317344
20
32.4182296
40
0.9108568
50
319.7560915
51
325.6976089
0
ARC
8
DEFAULT_255_2_778_1
10
10.403599
20
32.6100002
40
1.2088854
50
315.4577584
51
319.8037947
0
ARC
8
DEFAULT_255_2_778_1
10
10.1402127
20
32.8688507
40
1.5781764
50
311.7298824
51
315.4670864
0
ARC
8
DEFAULT_255_2_778_1
10
9.8311879
20
33.2144074
40
2.0417554
50
308.723055
51
311.7470879
0
ARC
8
DEFAULT_255_2_778_1
10
9.476989
20
33.6556492
40
2.6075745
50
306.1165163
51
308.7300151
0
ARC
8
DEFAULT_255_2_778_1
10
9.0740091
20
34.2069523
40
3.2904564
50
303.9559446
51
306.1266333
0
ARC
8
DEFAULT_255_2_778_1
10
8.6624432
20
34.816215
40
4.0257023
50
302.3733397
51
303.9712246
0
ARC
8
DEFAULT_255_2_778_1
10
8.2428347
20
35.4777058
40
4.8090549
50
300.9434827
51
302.3758078
0
LINE
8
DEFAULT_255_2_778
10
10.7156417
20
30.294808
11
10.7156417
21
5.159408
0
LINE
8
DEFAULT_255_2_778
10
10.7156417
20
5.159408
11
9.3927417
21
5.159408
0
ARC
8
DEFAULT_255_2_778
10
7.7537439
20
76.1073128
40
3.0466403
50
251.6724781
51
258.5987661
0
ARC
8
DEFAULT_255_2_778
10
7.5394558
20
75.0261316
40
1.9444375
50
258.4907215
51
268.3974115
0
ARC
8
DEFAULT_255_2_778
10
7.5171542
20
74.5954995
40
1.5133848
50
268.7854544
51
269.9953942
0
ARC
8
DEFAULT_255_2_778
10
7.5274263
20
74.1461726
40
1.0641086
50
269.4403512
51
279.6841037
0
ARC
8
DEFAULT_255_2_778
10
7.6415978
20
73.5166567
40
0.4244099
50
278.7863046
51
300.3428271
0
ARC
8
DEFAULT_255_2_778
10
7.7606279
20
73.31403
40
0.1894089
50
300.2328316
51
1.9014863
0
ARC
8
DEFAULT_255_2_778
10
7.745908
20
73.3231715
40
0.2040445
50
359.1977832
51
359.9996968
0
ARC
8
DEFAULT_255_2_778
10
7.752475
20
73.3240013
40
0.1974794
50
359.7589479
51
47.2071953
0
ARC
8
DEFAULT_255_2_778
10
7.618413
20
73.1750429
40
0.3978723
50
47.6130098
51
60.824453
0
ARC
8
DEFAULT_255_2_778
10
7.0178997
20
72.1580677
40
1.5788249
50
59.7878046
51
64.8721208
0
ARC
8
DEFAULT_255_2_778
10
6.0919837
20
70.2268461
40
3.7205057
50
64.5916011
51
66.820345
0
ARC
8
DEFAULT_255_2_778
10
9.6372482
20
78.5849609
40
5.3584611
50
244.3087082
51
247.1497851
0
ARC
8
DEFAULT_255_2_778
10
8.548378
20
76.329372
40
2.8538059
50
240.2312866
51
244.3765687
0
ARC
8
DEFAULT_255_2_778
10
7.7790999
20
74.9949805
40
1.3135689
50
233.2094737
51
240.4596791
0
ARC
8
DEFAULT_255_2_778
10
7.3558445
20
74.4249409
40
0.603585
50
225.678902
51
232.9782433
0
ARC
8
DEFAULT_255_2_778
10
7.396101
20
74.4497518
40
0.6495632
50
178.2741582
51
224.667467
0
ARC
8
DEFAULT_255_2_778
10
7.506051
20
74.4831559
40
0.7593447
50
157.036112
51
181.044431
0
ARC
8
DEFAULT_255_2_778
10
7.3786854
20
74.5239246
40
0.6262846
50
124.9253006
51
155.9241303
0
ARC
8
DEFAULT_255_2_778
10
7.5959789
20
74.2155358
40
1.0035357
50
100.4079723
51
125.0168617
0
ARC
8
DEFAULT_255_2_778
10
7.6990521
20
73.7214723
40
1.5081396
50
89.6483922
51
100.8684975
0
ARC
8
DEFAULT_255_2_778
10
7.7082565
20
73.3692665
40
1.8603169
50
89.5079487
51
89.9984402
0
ARC
8
DEFAULT_255_2_778
10
7.7098896
20
73.3040371
40
1.9255311
50
83.9170631
51
89.5732113
0
ARC
8
DEFAULT_255_2_778
10
7.507084
20
71.2964635
40
3.9433074
50
80.7325723
51
84.0779772
0
ARC
8
DEFAULT_255_2_778
10
7.020778
20
68.2735497
40
7.0050837
50
78.5086351
51
80.7886813
0
ARC
8
DEFAULT_255_2_778
10
7.66195
20
72.8730221
40
1.9415426
50
67.135818
51
78.0934208
0
ARC
8
DEFAULT_255_2_778
10
7.7851137
20
73.4434486
40
1.3579807
50
78.2126325
51
89.7333975
0
ARC
8
DEFAULT_255_2_778
10
7.7793169
20
73.8578048
40
0.9436877
50
89.2643807
51
100.5577599
0
ARC
8
DEFAULT_255_2_778
10
7.6665349
20
74.4265957
40
0.3639224
50
99.5099416
51
124.0285213
0
ARC
8
DEFAULT_255_2_778
10
7.57032
20
74.5766933
40
0.1857341
50
125.3416971
51
182.2767689
0
ARC
8
DEFAULT_255_2_778
10
7.5498732
20
74.5700853
40
0.1651425
50
180.2673353
51
239.6912529
0
ARC
8
DEFAULT_255_2_778
10
7.9317524
20
75.168404
40
0.8748407
50
237.8744287
51
242.8176978
0
ARC
8
DEFAULT_255_2_778
10
9.4128979
20
77.9790997
40
4.0518771
50
242.3429481
51
244.0446069
0
ARC
8
DEFAULT_255_2_778
10
12.366878
20
84.0129499
40
10.7700062
50
243.963828
51
244.8175572
0
ARC
8
DEFAULT_255_2_778
10
15.3890528
20
90.4046513
40
17.8401724
50
244.7685545
51
244.971514
0
ARC
8
DEFAULT_255_2_778
10
5.8608283
20
69.9098652
40
4.7613433
50
62.2451122
51
65.4192096
0
ARC
8
DEFAULT_255_2_778
10
6.9253351
20
71.921774
40
2.4851839
50
57.2979848
51
62.3628589
0
ARC
8
DEFAULT_255_2_778
10
7.6799627
20
73.087458
40
1.0965802
50
48.7493094
51
57.571194
0
ARC
8
DEFAULT_255_2_778
10
8.0114821
20
73.4757759
40
0.586081
50
44.3424824
51
48.0852666
0
ARC
8
DEFAULT_255_2_778
10
7.9782325
20
73.4562146
40
0.6236013
50
1.3523843
51
43.4925744
0
ARC
8
DEFAULT_255_2_778
10
7.7102854
20
73.4232828
40
0.8926473
50
359.9763756
51
3.0599076
0
ARC
8
DEFAULT_255_2_778
10
7.8642098
20
73.4081968
40
0.7388693
50
333.0409438
51
1.1413791
0
ARC
8
DEFAULT_255_2_778
10
7.8947469
20
73.4150035
40
0.7150136
50
300.8436672
51
331.44521
0
ARC
8
DEFAULT_255_2_778
10
7.6945587
20
73.7290479
40
1.0873327
50
281.4188469
51
301.4162372
0
ARC
8
DEFAULT_255_2_778
10
7.5631994
20
74.3378698
40
1.7101299
50
270.2272327
51
281.6944092
0
ARC
8
DEFAULT_255_2_778
10
7.5453128
20
74.8135692
40
2.185955
50
269.9983113
51
270.6466065
0
LINE
8
DEFAULT_255_2_778
10
7.5452484
20
72.6276142
11
7.5437325
21
72.6276147
0
ARC
8
DEFAULT_255_2_778
10
7.5508484
20
75.8105647
40
3.1829579
50
256.2431122
51
269.871909
0
ARC
8
DEFAULT_255_2_778
10
21.7540021
20
76.0293817
40
2.9666503
50
251.5318157
51
258.7258279
0
ARC
8
DEFAULT_255_2_778
10
21.5537563
20
75.007451
40
1.9252941
50
258.62435
51
268.8252909
0
ARC
8
DEFAULT_255_2_778
10
21.5354665
20
74.6125972
40
1.5301823
50
269.2068806
51
269.9987259
0
ARC
8
DEFAULT_255_2_778
10
21.5473171
20
74.1483861
40
1.0660376
50
269.3612297
51
279.5899087
0
ARC
8
DEFAULT_255_2_778
10
21.6607762
20
73.5169001
40
0.424527
50
278.6895227
51
300.2363944
0
ARC
8
DEFAULT_255_2_778
10
21.7798406
20
73.313447
40
0.188796
50
300.1108484
51
1.9024905
0
ARC
8
DEFAULT_255_2_778
10
21.74389
20
73.3240898
40
0.2246851
50
358.8842611
51
0.0019649
0
ARC
8
DEFAULT_255_2_778
10
21.7769114
20
73.3280062
40
0.1917038
50
358.831716
51
47.0900458
0
ARC
8
DEFAULT_255_2_778
10
21.6376597
20
73.1695519
40
0.402612
50
47.9285592
51
61.0836101
0
ARC
8
DEFAULT_255_2_778
10
21.0429796
20
72.1512787
40
1.5817315
50
60.0631222
51
65.1602386
0
ARC
8
DEFAULT_255_2_778
10
20.1314272
20
70.225206
40
3.7125866
50
64.8807046
51
67.1209578
0
ARC
8
DEFAULT_255_2_778
10
23.627479
20
78.5146565
40
5.2839333
50
244.2656926
51
247.1407051
0
ARC
8
DEFAULT_255_2_778
10
22.559432
20
76.3064327
40
2.8309849
50
240.1545061
51
244.3326325
0
ARC
8
DEFAULT_255_2_778
10
21.7855871
20
74.9704023
40
1.2870531
50
232.697515
51
240.4357497
0
ARC
8
DEFAULT_255_2_778
10
21.3704829
20
74.4193895
40
0.5972006
50
225.5850892
51
232.3393736
0
ARC
8
DEFAULT_255_2_778
10
21.4133264
20
74.448961
40
0.6483829
50
178.7795739
51
224.7095916
0
ARC
8
DEFAULT_255_2_778
10
21.6668642
20
74.4729812
40
0.9018316
50
179.997867
51
180.6487041
0
ARC
8
DEFAULT_255_2_778
10
21.5167061
20
74.4867926
40
0.7517998
50
156.9195758
51
181.050088
0
ARC
8
DEFAULT_255_2_778
10
21.3927805
20
74.5262389
40
0.6224513
50
124.7111133
51
155.7879672
0
ARC
8
DEFAULT_255_2_778
10
21.6049077
20
74.2359843
40
0.9818859
50
101.7943006
51
125.2417472
0
ARC
8
DEFAULT_255_2_778
10
21.7294568
20
73.6825359
40
1.5491324
50
89.5237779
51
102.119608
0
ARC
8
DEFAULT_255_2_778
10
21.727965
20
73.1277684
40
2.1038954
50
83.2897778
51
89.6087235
0
ARC
8
DEFAULT_255_2_778
10
21.5234013
20
71.3154907
40
3.9276711
50
79.3121016
51
83.4152109
0
ARC
8
DEFAULT_255_2_778
10
21.2067148
20
69.5508502
40
5.7204535
50
78.2244786
51
79.4731175
0
ARC
8
DEFAULT_255_2_778
10
21.6833903
20
72.8845601
40
1.9313541
50
67.1320052
51
78.3124693
0
ARC
8
DEFAULT_255_2_778
10
21.8010805
20
73.436809
40
1.3667182
50
78.4541134
51
89.7546716
0
ARC
8
DEFAULT_255_2_778
10
21.7948662
20
73.8654688
40
0.9381236
50
89.263032
51
100.5789495
0
ARC
8
DEFAULT_255_2_778
10
21.6820638
20
74.4321991
40
0.3603816
50
99.4915893
51
124.3627674
0
ARC
8
DEFAULT_255_2_778
10
21.5871509
20
74.5792673
40
0.1854666
50
125.8028369
51
182.2896157
0
ARC
8
DEFAULT_255_2_778
10
21.5489799
20
74.571772
40
0.1471476
50
179.9666171
51
180.1001736
0
ARC
8
DEFAULT_255_2_778
10
21.5661858
20
74.5717311
40
0.1643535
50
180.0754351
51
239.8483251
0
ARC
8
DEFAULT_255_2_778
10
21.9354551
20
75.153813
40
0.8535847
50
238.0402264
51
243.0370307
0
ARC
8
DEFAULT_255_2_778
10
23.4787463
20
78.1059461
40
4.1847343
50
242.5305029
51
244.1852103
0
ARC
8
DEFAULT_255_2_778
10
26.6265515
20
84.5761116
40
11.3799845
50
244.1038809
51
244.9214171
0
ARC
8
DEFAULT_255_2_778
10
29.8771528
20
91.484826
40
19.0152051
50
244.8737354
51
245.0669821
0
ARC
8
DEFAULT_255_2_778
10
19.8876742
20
69.951571
40
4.7223648
50
62.036831
51
65.2981624
0
ARC
8
DEFAULT_255_2_778
10
20.9516164
20
71.9461714
40
2.4617531
50
57.1110762
51
62.1404081
0
ARC
8
DEFAULT_255_2_778
10
21.7042272
20
73.099297
40
1.0847836
50
48.3568195
51
57.4187314
0
ARC
8
DEFAULT_255_2_778
10
22.028946
20
73.4756639
40
0.5878002
50
44.453022
51
47.6325253
0
ARC
8
DEFAULT_255_2_778
10
21.9973779
20
73.4574098
40
0.6231843
50
1.0876759
51
43.6183889
0
ARC
8
DEFAULT_255_2_778
10
21.7304111
20
73.4253301
40
0.8911213
50
359.9797211
51
2.8243422
0
ARC
8
DEFAULT_255_2_778
10
21.8798151
20
73.4102736
40
0.7418639
50
333.2156265
51
1.138567
0
ARC
8
DEFAULT_255_2_778
10
21.9146495
20
73.4147363
40
0.7130495
50
300.9658303
51
331.6339563
0
ARC
8
DEFAULT_255_2_778
10
21.7181382
20
73.72397
40
1.0793606
50
281.9136331
51
301.4645182
0
ARC
8
DEFAULT_255_2_778
10
21.5849532
20
74.3211054
40
1.6911426
50
270.5804277
51
282.1523279
0
ARC
8
DEFAULT_255_2_778
10
21.5638102
20
74.8150177
40
2.1853034
50
269.9959061
51
271.0035609
0
LINE
8
DEFAULT_255_2_778
10
21.5636541
20
72.6297142
11
21.5621325
21
72.6297147
0
ARC
8
DEFAULT_255_2_778
10
21.5690949
20
75.8138913
40
3.1841842
50
256.2458002
51
269.8747201
0
LINE
8
DEFAULT_255_2_778
10
6.7957325
20
72.7204147
11
6.7957325
21
73.2152147
0
LINE
8
DEFAULT_255_2_778
10
8.4163325
20
75.1382147
11
8.4163325
21
74.6620147
0
LINE
8
DEFAULT_255_2_778
10
6.7939325
20
72.7189147
11
6.7957325
21
72.7204147
0
LINE
8
DEFAULT_255_2_778
10
8.9865325
20
75.1877147
11
9.6628325
21
75.1877147
0
LINE
8
DEFAULT_255_2_778
10
9.6628325
20
75.1877147
11
9.6628325
21
72.6802147
0
LINE
8
DEFAULT_255_2_778
10
9.6628325
20
72.6802147
11
8.9865325
21
72.6802147
0
LINE
8
DEFAULT_255_2_778
10
8.9865325
20
72.6802147
11
8.9865325
21
75.1877147
0
LINE
8
DEFAULT_255_2_778
10
10.2808325
20
72.6802147
11
10.2808325
21
75.1877147
0
LINE
8
DEFAULT_255_2_778
10
10.2808325
20
75.1877147
11
12.0131325
21
75.1877147
0
LINE
8
DEFAULT_255_2_778
10
12.0131325
20
75.1877147
11
12.0131325
21
74.7339147
0
LINE
8
DEFAULT_255_2_778
10
12.0131325
20
74.7339147
11
10.9320325
21
74.7339147
0
LINE
8
DEFAULT_255_2_778
10
10.9320325
20
74.7339147
11
10.9320325
21
74.1677147
0
LINE
8
DEFAULT_255_2_778
10
10.9320325
20
74.1677147
11
11.8734325
21
74.1677147
0
LINE
8
DEFAULT_255_2_778
10
11.8734325
20
74.1677147
11
11.8734325
21
73.7542147
0
LINE
8
DEFAULT_255_2_778
10
11.8734325
20
73.7542147
11
10.9320325
21
73.7542147
0
LINE
8
DEFAULT_255_2_778
10
10.9320325
20
73.7542147
11
10.9320325
21
73.1589147
0
LINE
8
DEFAULT_255_2_778
10
10.9320325
20
73.1589147
11
12.0411325
21
73.1589147
0
LINE
8
DEFAULT_255_2_778
10
12.0411325
20
73.1589147
11
12.0411325
21
72.6786147
0
LINE
8
DEFAULT_255_2_778
10
12.0411325
20
72.6786147
11
10.2808325
21
72.6802147
0
LINE
8
DEFAULT_255_2_778
10
12.4816325
20
72.6802147
11
12.4816325
21
75.1877147
0
LINE
8
DEFAULT_255_2_778
10
12.4816325
20
75.1877147
11
13.3574325
21
75.1877147
0
LINE
8
DEFAULT_255_2_778
10
13.3574325
20
75.1877147
11
13.9670325
21
73.5854147
0
LINE
8
DEFAULT_255_2_778
10
13.9670325
20
73.5854147
11
14.5896325
21
75.1877147
0
LINE
8
DEFAULT_255_2_778
10
14.5896325
20
75.1877147
11
15.4214325
21
75.1877147
0
LINE
8
DEFAULT_255_2_778
10
15.4214325
20
75.1877147
11
15.4214325
21
72.6802147
0
LINE
8
DEFAULT_255_2_778
10
15.4214325
20
72.6802147
11
14.7811325
21
72.6802147
0
LINE
8
DEFAULT_255_2_778
10
14.7811325
20
72.6802147
11
14.7811325
21
74.4561147
0
LINE
8
DEFAULT_255_2_778
10
14.7811325
20
74.4561147
11
14.0723325
21
72.6559147
0
LINE
8
DEFAULT_255_2_778
10
14.0723325
20
72.6559147
11
13.6514325
21
72.6559147
0
LINE
8
DEFAULT_255_2_778
10
13.6514325
20
72.6559147
11
12.9558325
21
74.4561147
0
LINE
8
DEFAULT_255_2_778
10
12.9558325
20
74.4561147
11
12.9558325
21
72.6800147
0
LINE
8
DEFAULT_255_2_778
10
12.9558325
20
72.6800147
11
12.4816325
21
72.6802147
0
LINE
8
DEFAULT_255_2_778
10
16.0408325
20
72.6802147
11
16.0408325
21
75.1877147
0
LINE
8
DEFAULT_255_2_778
10
16.0408325
20
75.1877147
11
17.7730325
21
75.1877147
0
LINE
8
DEFAULT_255_2_778
10
17.7730325
20
75.1877147
11
17.7730325
21
74.7339147
0
LINE
8
DEFAULT_255_2_778
10
17.7730325
20
74.7339147
11
16.6920325
21
74.7339147
0
LINE
8
DEFAULT_255_2_778
10
16.6920325
20
74.7339147
11
16.6920325
21
74.1677147
0
LINE
8
DEFAULT_255_2_778
10
16.6920325
20
74.1677147
11
17.6333325
21
74.1677147
0
LINE
8
DEFAULT_255_2_778
10
17.6333325
20
74.1677147
11
17.6333325
21
73.7542147
0
LINE
8
DEFAULT_255_2_778
10
17.6333325
20
73.7542147
11
16.6920325
21
73.7542147
0
LINE
8
DEFAULT_255_2_778
10
16.6920325
20
73.7542147
11
16.6920325
21
73.1589147
0
LINE
8
DEFAULT_255_2_778
10
16.6920325
20
73.1589147
11
17.8029325
21
73.1589147
0
LINE
8
DEFAULT_255_2_778
10
17.8029325
20
73.1589147
11
17.8029325
21
72.6786147
0
LINE
8
DEFAULT_255_2_778
10
17.8029325
20
72.6786147
11
16.0408325
21
72.6802147
0
LINE
8
DEFAULT_255_2_778
10
18.2453325
20
72.6802147
11
18.2453325
21
75.1877147
0
LINE
8
DEFAULT_255_2_778
10
18.2453325
20
75.1877147
11
19.0282325
21
75.1877147
0
LINE
8
DEFAULT_255_2_778
10
19.0282325
20
75.1877147
11
19.8585325
21
73.5089147
0
LINE
8
DEFAULT_255_2_778
10
19.8585325
20
73.5089147
11
19.8585325
21
75.1877147
0
LINE
8
DEFAULT_255_2_778
10
19.8585325
20
75.1877147
11
20.3342325
21
75.1877147
0
LINE
8
DEFAULT_255_2_778
10
20.3342325
20
75.1877147
11
20.3342325
21
72.6802147
0
LINE
8
DEFAULT_255_2_778
10
20.3342325
20
72.6802147
11
19.5738325
21
72.6802147
0
LINE
8
DEFAULT_255_2_778
10
19.5738325
20
72.6802147
11
18.7213325
21
74.3815147
0
LINE
8
DEFAULT_255_2_778
10
18.7213325
20
74.3815147
11
18.7213325
21
72.6802147
0
LINE
8
DEFAULT_255_2_778
10
18.7213325
20
72.6802147
11
18.2453325
21
72.6802147
0
LINE
8
DEFAULT_255_2_778
10
20.8142325
20
72.7207147
11
20.8142325
21
73.2155147
0
LINE
8
DEFAULT_255_2_778
10
22.3741325
20
75.1509147
11
22.4339325
21
75.1403147
0
LINE
8
DEFAULT_255_2_778
10
22.4339325
20
75.1403147
11
22.4339325
21
74.6641147
0
LINE
8
DEFAULT_255_2_778
10
20.8120325
20
72.7210147
11
20.8142325
21
72.7207147
0
LINE
8
DEFAULT_255_1_234
10
8.6713023
20
70.9559849
11
8.5162897
21
70.9559849
0
LINE
8
DEFAULT_255_1_234
10
7.8239539
20
70.4636394
11
7.9789665
21
70.4636394
0
ARC
8
DEFAULT_255_1_234
10
8.582171
20
71.8506768
40
1.252368
50
248.9199003
51
254.1439814
0
ARC
8
DEFAULT_255_1_234
10
8.4141205
20
71.4180234
40
0.788226
50
241.633709
51
249.0064503
0
ARC
8
DEFAULT_255_1_234
10
8.26126
20
71.1379317
40
0.4691427
50
230.498225
51
241.8087113
0
ARC
8
DEFAULT_255_1_234
10
8.1828174
20
71.0379906
40
0.3421437
50
227.4064532
51
229.9881192
0
ARC
8
DEFAULT_255_1_234
10
8.1340694
20
70.9904088
40
0.2741476
50
200.6781896
51
228.1763934
0
ARC
8
DEFAULT_255_1_234
10
8.1413005
20
70.9889077
40
0.2804109
50
179.5061581
51
199.8694617
0
ARC
8
DEFAULT_255_1_234
10
8.1403757
20
70.996321
40
0.2795204
50
132.4834203
51
181.0242172
0
ARC
8
DEFAULT_255_1_234
10
8.1999339
20
70.9400704
40
0.3612768
50
129.2532479
51
133.4242687
0
ARC
8
DEFAULT_255_1_234
10
8.2145789
20
70.9180965
40
0.3875675
50
101.98776
51
128.8742646
0
ARC
8
DEFAULT_255_1_234
10
8.2544399
20
70.7459741
40
0.5642249
50
89.5906553
51
102.3169264
0
ARC
8
DEFAULT_255_1_234
10
8.2614891
20
70.7778148
40
0.5323783
50
77.2360837
51
90.3248275
0
ARC
8
DEFAULT_255_1_234
10
8.2821971
20
70.87454
40
0.4334697
50
63.837784
51
77.0809408
0
ARC
8
DEFAULT_255_1_234
10
8.3099732
20
70.9262911
40
0.3747796
50
45.9864267
51
64.1607727
0
ARC
8
DEFAULT_255_1_234
10
8.3360614
20
70.9560866
40
0.3352302
50
32.2747395
51
45.6547121
0
ARC
8
DEFAULT_255_1_234
10
8.3427054
20
70.957988
40
0.328603
50
359.6507365
51
32.6130309
0
ARC
8
DEFAULT_255_1_234
10
8.248415
20
70.958466
40
0.2678863
50
359.469343
51
14.9832209
0
ARC
8
DEFAULT_255_1_234
10
8.3189212
20
70.9773539
40
0.1948938
50
14.9781179
51
48.2004265
0
ARC
8
DEFAULT_255_1_234
10
8.3024856
20
70.9566983
40
0.2212521
50
48.5927837
51
74.1241538
0
ARC
8
DEFAULT_255_1_234
10
8.2691346
20
70.8466248
40
0.3362561
50
73.7888341
51
86.6652678
0
ARC
8
DEFAULT_255_1_234
10
8.2588911
20
70.7258881
40
0.4573953
50
86.2640471
51
90.0526343
0
ARC
8
DEFAULT_255_1_234
10
8.2560624
20
70.7654192
40
0.4178709
50
89.6697524
51
99.2309573
0
ARC
8
DEFAULT_255_1_234
10
8.2318075
20
70.9098964
40
0.2713749
50
99.069534
51
113.7658566
0
ARC
8
DEFAULT_255_1_234
10
8.2044266
20
70.9744677
40
0.2012469
50
114.0401004
51
127.9850673
0
ARC
8
DEFAULT_255_1_234
10
8.180383
20
71.004073
40
0.1631167
50
127.7287463
51
176.7105154
0
ARC
8
DEFAULT_255_1_234
10
8.2482547
20
70.9939693
40
0.2315392
50
175.1779447
51
180.0581938
0
ARC
8
DEFAULT_255_1_234
10
8.1639394
20
70.9927428
40
0.1472271
50
179.6142195
51
228.1246017
0
ARC
8
DEFAULT_255_1_234
10
8.2081063
20
71.0336308
40
0.2072299
50
226.5779593
51
230.8800004
0
ARC
8
DEFAULT_255_1_234
10
8.2552141
20
71.0961636
40
0.2854818
50
231.4635071
51
241.9260842
0
ARC
8
DEFAULT_255_1_234
10
8.3749319
20
71.31648
40
0.53622
50
241.7178533
51
248.3259551
0
ARC
8
DEFAULT_255_1_234
10
8.5134691
20
71.6597064
40
0.9063478
50
248.2007737
51
252.4528373
0
ARC
8
DEFAULT_255_1_234
10
8.6338416
20
72.0318441
40
1.2974635
50
252.3391078
51
254.3469452
0
ARC
8
DEFAULT_255_1_234
10
7.8796119
20
69.3341148
40
1.5037162
50
71.0197183
51
74.4087047
0
ARC
8
DEFAULT_255_1_234
10
8.0490804
20
69.8233111
40
0.9859993
50
66.1847285
51
71.086374
0
ARC
8
DEFAULT_255_1_234
10
8.2047116
20
70.17372
40
0.6025855
50
59.3536294
51
66.2691831
0
ARC
8
DEFAULT_255_1_234
10
8.2935769
20
70.3240609
40
0.4279449
50
49.1020879
51
59.3293958
0
ARC
8
DEFAULT_255_1_234
10
8.3754509
20
70.4173834
40
0.3038015
50
32.7919921
51
49.2505539
0
ARC
8
DEFAULT_255_1_234
10
8.4075599
20
70.4402191
40
0.264448
50
31.1181161
51
32.4005348
0
ARC
8
DEFAULT_255_1_234
10
8.3987136
20
70.4366779
40
0.2738556
50
8.1116974
51
30.7958831
0
ARC
8
DEFAULT_255_1_234
10
8.3176804
20
70.4228753
40
0.3560327
50
359.8389159
51
8.4706516
0
ARC
8
DEFAULT_255_1_234
10
8.3802596
20
70.4180137
40
0.2934776
50
337.4731098
51
0.7537279
0
ARC
8
DEFAULT_255_1_234
10
8.3981291
20
70.4160387
40
0.2762607
50
307.5917067
51
336.4315538
0
ARC
8
DEFAULT_255_1_234
10
8.3521119
20
70.4673102
40
0.3449979
50
307.6551545
51
308.4529766
0
ARC
8
DEFAULT_255_1_234
10
8.3290838
20
70.502825
40
0.3871988
50
284.3734338
51
307.1424381
0
ARC
8
DEFAULT_255_1_234
10
8.2795668
20
70.6849932
40
0.5759636
50
272.4382747
51
284.646547
0
ARC
8
DEFAULT_255_1_234
10
8.2668876
20
70.8649893
40
0.7563528
50
269.9708387
51
272.8178037
0
ARC
8
DEFAULT_255_1_234
10
8.2625916
20
70.6611716
40
0.5525489
50
248.2707594
51
270.4055579
0
ARC
8
DEFAULT_255_1_234
10
8.2571657
20
70.6421192
40
0.5328452
50
246.1383403
51
248.0542782
0
ARC
8
DEFAULT_255_1_234
10
8.2153036
20
70.5541843
40
0.4355005
50
233.1670131
51
246.4950969
0
ARC
8
DEFAULT_255_1_234
10
8.1598941
20
70.4793812
40
0.3424126
50
215.3403242
51
233.0843104
0
ARC
8
DEFAULT_255_1_234
10
8.1326372
20
70.4595549
40
0.3087104
50
179.2419209
51
215.2648451
0
ARC
8
DEFAULT_255_1_234
10
8.2093966
20
70.4609666
40
0.2304457
50
179.335461
51
199.1045811
0
ARC
8
DEFAULT_255_1_234
10
8.1761643
20
70.4522766
40
0.1962176
50
199.8828939
51
232.7063202
0
ARC
8
DEFAULT_255_1_234
10
8.2233911
20
70.5116788
40
0.2720938
50
232.3738199
51
255.5136649
0
ARC
8
DEFAULT_255_1_234
10
8.2574778
20
70.6360835
40
0.4010747
50
255.2446292
51
267.5320849
0
ARC
8
DEFAULT_255_1_234
10
8.2662401
20
70.7593702
40
0.5246356
50
267.1557994
51
270.0286766
0
ARC
8
DEFAULT_255_1_234
10
8.2690173
20
70.714995
40
0.4802668
50
269.7000017
51
278.1660162
0
ARC
8
DEFAULT_255_1_234
10
8.2946178
20
70.5419515
40
0.3053425
50
278.0231263
51
290.625471
0
ARC
8
DEFAULT_255_1_234
10
8.3293865
20
70.4492025
40
0.206291
50
290.6619762
51
307.0370976
0
ARC
8
DEFAULT_255_1_234
10
8.3594254
20
70.4123504
40
0.1587906
50
306.3943566
51
355.3030547
0
ARC
8
DEFAULT_255_1_234
10
8.3082186
20
70.4200113
40
0.2104809
50
354.3660432
51
0.0698737
0
ARC
8
DEFAULT_255_1_234
10
8.3224531
20
70.4222617
40
0.1962563
50
359.417946
51
16.1971788
0
ARC
8
DEFAULT_255_1_234
10
8.3679841
20
70.4347418
40
0.149053
50
16.4723299
51
52.6262157
0
ARC
8
DEFAULT_255_1_234
10
8.2858895
20
70.3263433
40
0.2850296
50
52.7386432
51
62.4979148
0
ARC
8
DEFAULT_255_1_234
10
8.1473972
20
70.0657283
40
0.5801521
50
62.2515216
51
68.1220564
0
ARC
8
DEFAULT_255_1_234
10
7.9753883
20
69.6429872
40
1.0365451
50
68.0062803
51
71.8053402
0
ARC
8
DEFAULT_255_1_234
10
7.7958255
20
69.1044758
40
1.6042013
50
71.7183119
51
73.9258742
0
LINE
8
DEFAULT_255_1_234
10
9.0367464
20
71.2941211
11
9.0367464
21
70.1247
0
LINE
8
DEFAULT_255_1_234
10
9.0367464
20
70.1247
11
8.882537
21
70.1247
0
LINE
8
DEFAULT_255_1_234
10
8.882537
20
70.1247
11
8.882537
21
71.2941211
0
LINE
8
DEFAULT_255_1_234
10
8.882537
20
71.2941211
11
9.0367464
21
71.2941211
0
LINE
8
DEFAULT_255_1_234
10
9.3186604
20
71.2941211
11
9.5178475
21
71.2941211
0
LINE
8
DEFAULT_255_1_234
10
9.5178475
20
71.2941211
11
9.9001583
21
70.3399506
0
LINE
8
DEFAULT_255_1_234
10
9.9001583
20
70.3399506
11
10.282469
21
71.2941211
0
LINE
8
DEFAULT_255_1_234
10
10.282469
20
71.2941211
11
10.4824593
21
71.2941211
0
LINE
8
DEFAULT_255_1_234
10
10.4824593
20
71.2941211
11
10.4824593
21
70.1247
0
LINE
8
DEFAULT_255_1_234
10
10.4824593
20
70.1247
11
10.3282499
21
70.1247
0
LINE
8
DEFAULT_255_1_234
10
10.3282499
20
70.1247
11
10.3282499
21
70.5800996
0
LINE
8
DEFAULT_255_1_234
10
10.3282499
20
70.5800996
11
10.342707
21
71.0716419
0
LINE
8
DEFAULT_255_1_234
10
10.342707
20
71.0716419
11
9.9587899
21
70.1247
0
LINE
8
DEFAULT_255_1_234
10
9.9587899
20
70.1247
11
9.8407234
21
70.1247
0
LINE
8
DEFAULT_255_1_234
10
9.8407234
20
70.1247
11
9.4576095
21
71.0692324
0
LINE
8
DEFAULT_255_1_234
10
9.4576095
20
71.0692324
11
9.4728698
21
70.5800996
0
LINE
8
DEFAULT_255_1_234
10
9.4728698
20
70.5800996
11
9.4728698
21
70.1247
0
LINE
8
DEFAULT_255_1_234
10
9.4728698
20
70.1247
11
9.3186604
21
70.1247
0
LINE
8
DEFAULT_255_1_234
10
9.3186604
20
70.1247
11
9.3186604
21
71.2941211
0
LINE
8
DEFAULT_255_1_234
10
11.5265853
20
70.1247
11
11.4149441
21
70.4299061
0
LINE
8
DEFAULT_255_1_234
10
11.4149441
20
70.4299061
11
10.9250081
21
70.4299061
0
LINE
8
DEFAULT_255_1_234
10
10.9250081
20
70.4299061
11
10.8149732
21
70.1247
0
LINE
8
DEFAULT_255_1_234
10
10.8149732
20
70.1247
11
10.6559448
21
70.1247
0
LINE
8
DEFAULT_255_1_234
10
10.6559448
20
70.1247
11
11.1025095
21
71.2941211
0
LINE
8
DEFAULT_255_1_234
10
11.1025095
20
71.2941211
11
11.2374427
21
71.2941211
0
LINE
8
DEFAULT_255_1_234
10
11.2374427
20
71.2941211
11
11.6848105
21
70.1247
0
LINE
8
DEFAULT_255_1_234
10
11.6848105
20
70.1247
11
11.5265853
21
70.1247
0
LINE
8
DEFAULT_255_1_234
10
11.1699761
20
71.1037689
11
10.9715921
21
70.5568075
0
LINE
8
DEFAULT_255_1_234
10
10.9715921
20
70.5568075
11
11.3691632
21
70.5568075
0
LINE
8
DEFAULT_255_1_234
10
11.3691632
20
70.5568075
11
11.1699761
21
71.1037689
0
LINE
8
DEFAULT_255_1_234
10
12.546616
20
71.2941211
11
12.546616
21
71.1672196
0
LINE
8
DEFAULT_255_1_234
10
12.546616
20
71.1672196
11
12.1707307
21
71.1672196
0
LINE
8
DEFAULT_255_1_234
10
12.1707307
20
71.1672196
11
12.1707307
21
70.1247
0
LINE
8
DEFAULT_255_1_234
10
12.1707307
20
70.1247
11
12.0173245
21
70.1247
0
LINE
8
DEFAULT_255_1_234
10
12.0173245
20
70.1247
11
12.0173245
21
71.1672196
0
LINE
8
DEFAULT_255_1_234
10
12.0173245
20
71.1672196
11
11.6422423
21
71.1672196
0
LINE
8
DEFAULT_255_1_234
10
11.6422423
20
71.1672196
11
11.6422423
21
71.2941211
0
LINE
8
DEFAULT_255_1_234
10
11.6422423
20
71.2941211
11
12.546616
21
71.2941211
0
LINE
8
DEFAULT_255_1_234
10
12.8855554
20
71.2941211
11
12.8855554
21
70.1247
0
LINE
8
DEFAULT_255_1_234
10
12.8855554
20
70.1247
11
12.731346
21
70.1247
0
LINE
8
DEFAULT_255_1_234
10
12.731346
20
70.1247
11
12.731346
21
71.2941211
0
LINE
8
DEFAULT_255_1_234
10
12.731346
20
71.2941211
11
12.8855554
21
71.2941211
0
LINE
8
DEFAULT_255_1_234
10
13.872656
20
70.4957663
11
14.0276686
21
70.4957663
0
LINE
8
DEFAULT_255_1_234
10
13.1273107
20
70.6547947
11
13.1273107
21
70.7672391
0
LINE
8
DEFAULT_255_1_234
10
14.0276686
20
70.9182357
11
13.872656
21
70.9182357
0
LINE
8
DEFAULT_255_1_234
10
13.2823232
20
70.7632232
11
13.2823232
21
70.6499757
0
ARC
8
DEFAULT_255_1_234
10
13.4796072
20
70.5554846
40
0.5513052
50
340.1774281
51
353.7814284
0
ARC
8
DEFAULT_255_1_234
10
13.6367425
20
70.4969582
40
0.3836379
50
311.4558989
51
340.4421614
0
ARC
8
DEFAULT_255_1_234
10
13.6334093
20
70.5080528
40
0.3941894
50
282.4333181
51
310.7513653
0
ARC
8
DEFAULT_255_1_234
10
13.5894832
20
70.6895679
40
0.5809175
50
269.9358511
51
282.809604
0
ARC
8
DEFAULT_255_1_234
10
13.5842899
20
70.8353212
40
0.7266847
50
270.0021091
51
270.3581957
0
ARC
8
DEFAULT_255_1_234
10
13.5790315
20
70.5752585
40
0.4666519
50
250.7884749
51
270.6489167
0
ARC
8
DEFAULT_255_1_234
10
13.562215
20
70.5115319
40
0.4009729
50
219.3627325
51
250.0611886
0
ARC
8
DEFAULT_255_1_234
10
13.6451361
20
70.5820042
40
0.5097822
50
193.5479632
51
219.5756669
0
ARC
8
DEFAULT_255_1_234
10
13.8822982
20
70.6435919
40
0.7547848
50
181.1218675
51
193.87563
0
ARC
8
DEFAULT_255_1_234
10
14.0893163
20
70.654658
40
0.9620055
50
179.9918545
51
181.5394234
0
ARC
8
DEFAULT_255_1_234
10
13.9042265
20
70.7709788
40
0.7769248
50
169.5837241
51
180.2757934
0
ARC
8
DEFAULT_255_1_234
10
13.7205203
20
70.8049229
40
0.590109
50
155.0365899
51
169.6003176
0
ARC
8
DEFAULT_255_1_234
10
13.6069667
20
70.8596677
40
0.4640625
50
136.783148
51
155.2472683
0
ARC
8
DEFAULT_255_1_234
10
13.5680144
20
70.8927562
40
0.4130255
50
121.7633186
51
136.428115
0
ARC
8
DEFAULT_255_1_234
10
13.5815106
20
70.8678227
40
0.4413323
50
95.6459699
51
121.5490577
0
ARC
8
DEFAULT_255_1_234
10
13.5972388
20
70.7569949
40
0.55319
50
89.924208
51
96.1377933
0
ARC
8
DEFAULT_255_1_234
10
13.6022821
20
70.7688542
40
0.5413475
50
76.6779277
51
90.4563316
0
ARC
8
DEFAULT_255_1_234
10
13.6416444
20
70.9279114
40
0.3775041
50
47.485847
51
76.9287264
0
ARC
8
DEFAULT_255_1_234
10
13.6269417
20
70.9179159
40
0.3948286
50
16.5424086
51
46.8933463
0
ARC
8
DEFAULT_255_1_234
10
13.4661574
20
70.8650861
40
0.564021
50
5.4072051
51
17.0365086
0
ARC
8
DEFAULT_255_1_234
10
13.3222591
20
70.8419679
40
0.5556559
50
7.8891745
51
15.9239216
0
ARC
8
DEFAULT_255_1_234
10
13.5209605
20
70.8996631
40
0.3487515
50
15.7653144
51
27.9410532
0
ARC
8
DEFAULT_255_1_234
10
13.6313822
20
70.958779
40
0.2235026
50
27.8166557
51
46.4008329
0
ARC
8
DEFAULT_255_1_234
10
13.6363465
20
70.9582082
40
0.2205286
50
47.4371857
51
75.0698205
0
ARC
8
DEFAULT_255_1_234
10
13.605486
20
70.8507765
40
0.3322915
50
74.7008593
51
87.8124495
0
ARC
8
DEFAULT_255_1_234
10
13.5981547
20
70.7451844
40
0.4380987
50
87.3814673
51
90.0240855
0
ARC
8
DEFAULT_255_1_234
10
13.5943091
20
70.8629291
40
0.3203749
50
89.3451631
51
108.5745436
0
ARC
8
DEFAULT_255_1_234
10
13.5806196
20
70.9142908
40
0.2673494
50
109.2998449
51
143.3037509
0
ARC
8
DEFAULT_255_1_234
10
13.6568268
20
70.8556881
40
0.3634757
50
143.0753173
51
163.1916937
0
ARC
8
DEFAULT_255_1_234
10
13.8519996
20
70.7940967
40
0.5681262
50
162.9373603
51
174.6208611
0
ARC
8
DEFAULT_255_1_234
10
14.1146038
20
70.765301
40
0.8322832
50
174.3419979
51
180.1430411
0
ARC
8
DEFAULT_255_1_234
10
14.0215194
20
70.6458698
40
0.7392076
50
179.6817502
51
189.150529
0
ARC
8
DEFAULT_255_1_234
10
13.7714443
20
70.604219
40
0.4856932
50
188.9910863
51
203.5773039
0
ARC
8
DEFAULT_255_1_234
10
13.6634775
20
70.5594211
40
0.3688271
50
203.9077269
51
215.1312379
0
ARC
8
DEFAULT_255_1_234
10
13.5711869
20
70.4878941
40
0.2522457
50
213.9071664
51
263.8849284
0
ARC
8
DEFAULT_255_1_234
10
13.5837198
20
70.5663518
40
0.3316174
50
263.1758525
51
270.1031083
0
ARC
8
DEFAULT_255_1_234
10
13.586929
20
70.6910365
40
0.4563091
50
269.6719807
51
279.0609165
0
ARC
8
DEFAULT_255_1_234
10
13.6136058
20
70.5297907
40
0.2928759
50
278.8750225
51
293.6346586
0
ARC
8
DEFAULT_255_1_234
10
13.6456266
20
70.45459
40
0.2111472
50
293.8553404
51
310.0518804
0
ARC
8
DEFAULT_255_1_234
10
13.646112
20
70.4483516
40
0.2060917
50
311.0646779
51
332.0108348
0
ARC
8
DEFAULT_255_1_234
10
13.5268847
20
70.5140978
40
0.3422352
50
331.6588543
51
343.2878891
0
ARC
8
DEFAULT_255_1_234
10
13.3206362
20
70.5774798
40
0.5580003
50
343.1446044
51
351.010618
0
ARC
8
DEFAULT_255_1_234
10
13.1665008
20
70.6055871
40
0.7146438
50
350.7157277
51
351.1602153
0
LINE
8
DEFAULT_255_1_234
10
15.4211751
20
70.9559849
11
15.2661626
21
70.9559849
0
LINE
8
DEFAULT_255_1_234
10
14.5738268
20
70.4636394
11
14.7288393
21
70.4636394
0
ARC
8
DEFAULT_255_1_234
10
15.3320439
20
71.8506768
40
1.252368
50
248.9199003
51
254.1439814
0
ARC
8
DEFAULT_255_1_234
10
15.1639934
20
71.4180234
40
0.788226
50
241.633709
51
249.0064503
0
ARC
8
DEFAULT_255_1_234
10
15.0111328
20
71.1379317
40
0.4691427
50
230.498225
51
241.8087113
0
ARC
8
DEFAULT_255_1_234
10
14.9326902
20
71.0379906
40
0.3421437
50
227.4064532
51
229.9881192
0
ARC
8
DEFAULT_255_1_234
10
14.8839423
20
70.9904088
40
0.2741476
50
200.6781896
51
228.1763934
0
ARC
8
DEFAULT_255_1_234
10
14.8911734
20
70.9889077
40
0.2804109
50
179.5061581
51
199.8694617
0
ARC
8
DEFAULT_255_1_234
10
14.8902485
20
70.996321
40
0.2795204
50
132.4834203
51
181.0242172
0
ARC
8
DEFAULT_255_1_234
10
14.9498068
20
70.9400704
40
0.3612768
50
129.2532479
51
133.4242687
0
ARC
8
DEFAULT_255_1_234
10
14.9644517
20
70.9180965
40
0.3875675
50
101.98776
51
128.8742646
0
ARC
8
DEFAULT_255_1_234
10
15.0043128
20
70.7459741
40
0.5642249
50
89.5906553
51
102.3169264
0
ARC
8
DEFAULT_255_1_234
10
15.011362
20
70.7778148
40
0.5323783
50
77.2360837
51
90.3248275
0
ARC
8
DEFAULT_255_1_234
10
15.0320699
20
70.87454
40
0.4334697
50
63.837784
51
77.0809408
0
ARC
8
DEFAULT_255_1_234
10
15.0598461
20
70.9262911
40
0.3747796
50
45.9864267
51
64.1607727
0
ARC
8
DEFAULT_255_1_234
10
15.0859342
20
70.9560866
40
0.3352302
50
32.2747395
51
45.6547121
0
ARC
8
DEFAULT_255_1_234
10
15.0925783
20
70.957988
40
0.328603
50
359.6507365
51
32.6130309
0
ARC
8
DEFAULT_255_1_234
10
14.9982878
20
70.958466
40
0.2678863
50
359.469343
51
14.9832209
0
ARC
8
DEFAULT_255_1_234
10
15.0687941
20
70.9773539
40
0.1948938
50
14.9781179
51
48.2004265
0
ARC
8
DEFAULT_255_1_234
10
15.0523585
20
70.9566983
40
0.2212521
50
48.5927837
51
74.1241538
0
ARC
8
DEFAULT_255_1_234
10
15.0190074
20
70.8466248
40
0.3362561
50
73.7888341
51
86.6652678
0
ARC
8
DEFAULT_255_1_234
10
15.008764
20
70.7258881
40
0.4573953
50
86.2640471
51
90.0526343
0
ARC
8
DEFAULT_255_1_234
10
15.0059352
20
70.7654192
40
0.4178709
50
89.6697524
51
99.2309573
0
ARC
8
DEFAULT_255_1_234
10
14.9816803
20
70.9098964
40
0.2713749
50
99.069534
51
113.7658566
0
ARC
8
DEFAULT_255_1_234
10
14.9542994
20
70.9744677
40
0.2012469
50
114.0401004
51
127.9850673
0
ARC
8
DEFAULT_255_1_234
10
14.9302558
20
71.004073
40
0.1631167
50
127.7287463
51
176.7105154
0
ARC
8
DEFAULT_255_1_234
10
14.9981276
20
70.9939693
40
0.2315392
50
175.1779447
51
180.0581938
0
ARC
8
DEFAULT_255_1_234
10
14.9138123
20
70.9927428
40
0.1472271
50
179.6142195
51
228.1246017
0
ARC
8
DEFAULT_255_1_234
10
14.9579791
20
71.0336308
40
0.2072299
50
226.5779593
51
230.8800004
0
ARC
8
DEFAULT_255_1_234
10
15.005087
20
71.0961636
40
0.2854818
50
231.4635071
51
241.9260842
0
ARC
8
DEFAULT_255_1_234
10
15.1248048
20
71.31648
40
0.53622
50
241.7178533
51
248.3259551
0
ARC
8
DEFAULT_255_1_234
10
15.263342
20
71.6597064
40
0.9063478
50
248.2007737
51
252.4528373
0
ARC
8
DEFAULT_255_1_234
10
15.3837145
20
72.0318441
40
1.2974635
50
252.3391078
51
254.3469452
0
ARC
8
DEFAULT_255_1_234
10
14.6294847
20
69.3341148
40
1.5037162
50
71.0197183
51
74.4087047
0
ARC
8
DEFAULT_255_1_234
10
14.7989532
20
69.8233111
40
0.9859993
50
66.1847285
51
71.086374
0
ARC
8
DEFAULT_255_1_234
10
14.9545845
20
70.17372
40
0.6025855
50
59.3536294
51
66.2691831
0
ARC
8
DEFAULT_255_1_234
10
15.0434497
20
70.3240609
40
0.4279449
50
49.1020879
51
59.3293958
0
ARC
8
DEFAULT_255_1_234
10
15.1253237
20
70.4173834
40
0.3038015
50
32.7919921
51
49.2505539
0
ARC
8
DEFAULT_255_1_234
10
15.1574327
20
70.4402191
40
0.264448
50
31.1181161
51
32.4005348
0
ARC
8
DEFAULT_255_1_234
10
15.1485865
20
70.4366779
40
0.2738556
50
8.1116974
51
30.7958831
0
ARC
8
DEFAULT_255_1_234
10
15.0675533
20
70.4228753
40
0.3560327
50
359.8389159
51
8.4706516
0
ARC
8
DEFAULT_255_1_234
10
15.1301324
20
70.4180137
40
0.2934776
50
337.4731098
51
0.7537279
0
ARC
8
DEFAULT_255_1_234
10
15.1480019
20
70.4160387
40
0.2762607
50
307.5917067
51
336.4315538
0
ARC
8
DEFAULT_255_1_234
10
15.1019847
20
70.4673102
40
0.3449979
50
307.6551545
51
308.4529766
0
ARC
8
DEFAULT_255_1_234
10
15.0789566
20
70.502825
40
0.3871988
50
284.3734338
51
307.1424381
0
ARC
8
DEFAULT_255_1_234
10
15.0294396
20
70.6849932
40
0.5759636
50
272.4382747
51
284.646547
0
ARC
8
DEFAULT_255_1_234
10
15.0167605
20
70.8649893
40
0.7563528
50
269.9708387
51
272.8178037
0
ARC
8
DEFAULT_255_1_234
10
15.0124645
20
70.6611716
40
0.5525489
50
248.2707594
51
270.4055579
0
ARC
8
DEFAULT_255_1_234
10
15.0070386
20
70.6421192
40
0.5328452
50
246.1383403
51
248.0542782
0
ARC
8
DEFAULT_255_1_234
10
14.9651765
20
70.5541843
40
0.4355005
50
233.1670131
51
246.4950969
0
ARC
8
DEFAULT_255_1_234
10
14.909767
20
70.4793812
40
0.3424126
50
215.3403242
51
233.0843104
0
ARC
8
DEFAULT_255_1_234
10
14.8825101
20
70.4595549
40
0.3087104
50
179.2419209
51
215.2648451
0
ARC
8
DEFAULT_255_1_234
10
14.9592695
20
70.4609666
40
0.2304457
50
179.335461
51
199.1045811
0
ARC
8
DEFAULT_255_1_234
10
14.9260371
20
70.4522766
40
0.1962176
50
199.8828939
51
232.7063202
0
ARC
8
DEFAULT_255_1_234
10
14.973264
20
70.5116788
40
0.2720938
50
232.3738199
51
255.5136649
0
ARC
8
DEFAULT_255_1_234
10
15.0073506
20
70.6360835
40
0.4010747
50
255.2446292
51
267.5320849
0
ARC
8
DEFAULT_255_1_234
10
15.016113
20
70.7593702
40
0.5246356
50
267.1557994
51
270.0286766
0
ARC
8
DEFAULT_255_1_234
10
15.0188902
20
70.714995
40
0.4802668
50
269.7000017
51
278.1660162
0
ARC
8
DEFAULT_255_1_234
10
15.0444907
20
70.5419515
40
0.3053425
50
278.0231263
51
290.625471
0
ARC
8
DEFAULT_255_1_234
10
15.0792594
20
70.4492025
40
0.206291
50
290.6619762
51
307.0370976
0
ARC
8
DEFAULT_255_1_234
10
15.1092983
20
70.4123504
40
0.1587906
50
306.3943566
51
355.3030547
0
ARC
8
DEFAULT_255_1_234
10
15.0580914
20
70.4200113
40
0.2104809
50
354.3660432
51
0.0698737
0
ARC
8
DEFAULT_255_1_234
10
15.072326
20
70.4222617
40
0.1962563
50
359.417946
51
16.1971788
0
ARC
8
DEFAULT_255_1_234
10
15.117857
20
70.4347418
40
0.149053
50
16.4723299
51
52.6262157
0
ARC
8
DEFAULT_255_1_234
10
15.0357624
20
70.3263433
40
0.2850296
50
52.7386432
51
62.4979148
0
ARC
8
DEFAULT_255_1_234
10
14.8972701
20
70.0657283
40
0.5801521
50
62.2515216
51
68.1220564
0
ARC
8
DEFAULT_255_1_234
10
14.7252612
20
69.6429872
40
1.0365451
50
68.0062803
51
71.8053402
0
ARC
8
DEFAULT_255_1_234
10
14.5456983
20
69.1044758
40
1.6042013
50
71.7183119
51
73.9258742
0
LINE
8
DEFAULT_255_1_234
10
16.3375965
20
71.2941211
11
16.3375965
21
71.210591
0
LINE
8
DEFAULT_255_1_234
10
16.3375965
20
71.210591
11
15.8532827
21
70.1247
0
LINE
8
DEFAULT_255_1_234
10
15.8532827
20
70.1247
11
15.6974669
21
70.1247
0
LINE
8
DEFAULT_255_1_234
10
15.6974669
20
70.1247
11
16.1801744
21
71.1720387
0
LINE
8
DEFAULT_255_1_234
10
16.1801744
20
71.1720387
11
15.5472734
21
71.1720387
0
LINE
8
DEFAULT_255_1_234
10
15.5472734
20
71.1720387
11
15.5472734
21
71.2941211
0
LINE
8
DEFAULT_255_1_234
10
15.5472734
20
71.2941211
11
16.3375965
21
71.2941211
0
LINE
8
DEFAULT_255_1_234
10
16.8307452
20
70.6821026
11
16.8307452
21
70.5608234
0
LINE
8
DEFAULT_255_1_234
10
16.8307452
20
70.5608234
11
16.4387964
21
70.5608234
0
LINE
8
DEFAULT_255_1_234
10
16.4387964
20
70.5608234
11
16.4387964
21
70.6821026
0
LINE
8
DEFAULT_255_1_234
10
16.4387964
20
70.6821026
11
16.8307452
21
70.6821026
0
LINE
8
DEFAULT_255_1_234
10
17.4483859
20
71.2997433
11
17.4483859
21
70.1247
0
LINE
8
DEFAULT_255_1_234
10
17.4483859
20
70.1247
11
17.2989956
21
70.1247
0
LINE
8
DEFAULT_255_1_234
10
17.2989956
20
70.1247
11
17.2989956
21
71.1150133
0
LINE
8
DEFAULT_255_1_234
10
17.2989956
20
71.1150133
11
16.9994117
21
71.0049785
0
LINE
8
DEFAULT_255_1_234
10
16.9994117
20
71.0049785
11
16.9994117
21
71.1399117
0
LINE
8
DEFAULT_255_1_234
10
16.9994117
20
71.1399117
11
17.4250938
21
71.2997433
0
LINE
8
DEFAULT_255_1_234
10
17.4250938
20
71.2997433
11
17.4483859
21
71.2997433
0
LINE
8
DEFAULT_255_1_234
10
18.6499339
20
70.2459792
11
18.6499339
21
70.1247
0
LINE
8
DEFAULT_255_1_234
10
18.6499339
20
70.1247
11
17.8837061
21
70.1247
0
LINE
8
DEFAULT_255_1_234
10
17.8837061
20
70.1247
11
17.8837061
21
70.2315221
0
LINE
8
DEFAULT_255_1_234
10
17.8837061
20
70.2315221
11
18.2885057
21
70.6812995
0
LINE
8
DEFAULT_255_1_234
10
18.0098044
20
70.9495595
11
17.8612172
21
70.9495595
0
LINE
8
DEFAULT_255_1_234
10
18.3760517
20
70.5857218
11
18.0628139
21
70.2459792
0
LINE
8
DEFAULT_255_1_234
10
18.0628139
20
70.2459792
11
18.6499339
21
70.2459792
0
ARC
8
DEFAULT_255_1_234
10
16.939489
20
71.8742527
40
1.8008286
50
318.5132453
51
320.7828378
0
ARC
8
DEFAULT_255_1_234
10
17.4681865
20
71.4439426
40
1.1191493
50
320.7372736
51
323.9737074
0
ARC
8
DEFAULT_255_1_234
10
17.8601721
20
71.1599361
40
0.6350923
50
323.8961724
51
328.6421089
0
ARC
8
DEFAULT_255_1_234
10
18.0648317
20
71.0337031
40
0.3946393
50
328.8299013
51
331.789948
0
ARC
8
DEFAULT_255_1_234
10
18.1645495
20
70.9822509
40
0.2824501
50
331.4255242
51
352.9364833
0
ARC
8
DEFAULT_255_1_234
10
18.1781996
20
70.9791976
40
0.2685315
50
353.2248685
51
0.0169286
0
ARC
8
DEFAULT_255_1_234
10
18.1991873
20
70.981495
40
0.2475536
50
359.4866256
51
15.9339782
0
ARC
8
DEFAULT_255_1_234
10
18.2498858
20
70.9951286
40
0.1950618
50
16.1714718
51
43.5284424
0
ARC
8
DEFAULT_255_1_234
10
18.2576166
20
71.0028573
40
0.184134
50
43.4415429
51
83.1661404
0
ARC
8
DEFAULT_255_1_234
10
18.2442085
20
70.9291771
40
0.258926
50
82.160215
51
90.1505798
0
ARC
8
DEFAULT_255_1_234
10
18.2410512
20
70.8754865
40
0.3126255
50
89.5460705
51
102.5418777
0
ARC
8
DEFAULT_255_1_234
10
18.2167598
20
70.9785665
40
0.2067346
50
102.1739365
51
129.2061916
0
ARC
8
DEFAULT_255_1_234
10
18.208867
20
70.9910094
40
0.1921118
50
129.7279328
51
135.7542026
0
ARC
8
DEFAULT_255_1_234
10
18.2210197
20
70.9813045
40
0.2075944
50
136.175737
51
166.3674722
0
ARC
8
DEFAULT_255_1_234
10
18.3217117
20
70.9543182
40
0.3118201
50
165.9092917
51
178.8683903
0
ARC
8
DEFAULT_255_1_234
10
18.4081978
20
70.9496179
40
0.3983935
50
178.438168
51
180.0083905
0
ARC
8
DEFAULT_255_1_234
10
18.268058
20
70.9535231
40
0.4068601
50
163.2878735
51
180.5581814
0
ARC
8
DEFAULT_255_1_234
10
18.1878841
20
70.975584
40
0.3237344
50
133.454115
51
162.9470031
0
ARC
8
DEFAULT_255_1_234
10
18.2057383
20
70.9566
40
0.349795
50
100.7869394
51
133.4384016
0
ARC
8
DEFAULT_255_1_234
10
18.2405154
20
70.8017319
40
0.5084616
50
89.6605301
51
101.3704185
0
ARC
8
DEFAULT_255_1_234
10
18.2471493
20
70.8078496
40
0.502348
50
78.2171172
51
90.4130393
0
ARC
8
DEFAULT_255_1_234
10
18.2826571
20
70.9702637
40
0.3361092
50
55.9268222
51
78.4888551
0
ARC
8
DEFAULT_255_1_234
10
18.3023012
20
71.0041324
40
0.2970617
50
47.9292255
51
55.4054003
0
ARC
8
DEFAULT_255_1_234
10
18.3124572
20
71.0144502
40
0.2825983
50
4.3347696
51
48.0560701
0
ARC
8
DEFAULT_255_1_234
10
18.2028966
20
70.9974601
40
0.393225
50
359.925209
51
5.5967654
0
ARC
8
DEFAULT_255_1_234
10
18.2457858
20
71.0030816
40
0.3503892
50
337.8914096
51
358.9967724
0
ARC
8
DEFAULT_255_1_234
10
17.974427
20
71.1077706
40
0.6412172
50
326.9135351
51
338.3505194
0
ARC
8
DEFAULT_255_1_234
10
17.5758574
20
71.3632284
40
1.1146189
50
319.6472867
51
327.095818
0
ARC
8
DEFAULT_255_1_234
10
17.1925577
20
71.6794
40
1.6114559
50
317.2586784
51
319.9046139
0
LINE
8
DEFAULT_255_1_234
10
19.5406537
20
70.8162327
11
19.5406537
21
70.6234709
0
LINE
8
DEFAULT_255_1_234
10
18.802537
20
70.6033916
11
18.802537
21
70.8017755
0
LINE
8
DEFAULT_255_1_234
10
19.3920666
20
70.5833123
11
19.3920666
21
70.8266739
0
LINE
8
DEFAULT_255_1_234
10
18.9511241
20
70.8379184
11
18.9511241
21
70.6001789
0
ARC
8
DEFAULT_255_1_234
10
18.3159427
20
70.6185805
40
1.2247208
50
353.8441951
51
0.2287902
0
ARC
8
DEFAULT_255_1_234
10
18.779893
20
70.5667806
40
0.7578929
50
344.4934747
51
353.9765454
0
ARC
8
DEFAULT_255_1_234
10
19.0791521
20
70.4816981
40
0.4467846
50
329.2803592
51
344.7472793
0
ARC
8
DEFAULT_255_1_234
10
19.1784345
20
70.4272018
40
0.3336173
50
324.9352394
51
328.6160465
0
ARC
8
DEFAULT_255_1_234
10
19.2161454
20
70.4008427
40
0.2876076
50
280.580143
51
324.9173126
0
ARC
8
DEFAULT_255_1_234
10
19.1760247
20
70.5679099
40
0.4592847
50
269.5977311
51
281.6734359
0
ARC
8
DEFAULT_255_1_234
10
19.1688152
20
70.5559173
40
0.4472986
50
256.6228859
51
270.51044
0
ARC
8
DEFAULT_255_1_234
10
19.128613
20
70.4010877
40
0.2873874
50
215.8618325
51
257.2788573
0
ARC
8
DEFAULT_255_1_234
10
19.2307162
20
70.4695977
40
0.4102928
50
197.9693508
51
215.2623606
0
ARC
8
DEFAULT_255_1_234
10
19.4792277
20
70.5534709
40
0.6725652
50
187.8816417
51
198.2346507
0
ARC
8
DEFAULT_255_1_234
10
19.8750486
20
70.6106079
40
1.0724845
50
180.8976217
51
188.0055519
0
ARC
8
DEFAULT_255_1_234
10
20.1550674
20
70.6209777
40
1.3526448
50
180.7449369
51
181.1510016
0
ARC
8
DEFAULT_255_1_234
10
19.9973403
20
70.8066042
40
1.1948131
50
173.7675579
51
180.231553
0
ARC
8
DEFAULT_255_1_234
10
19.5455549
20
70.8576666
40
0.7401564
50
164.3058563
51
173.9002247
0
ARC
8
DEFAULT_255_1_234
10
19.2543618
20
70.9415656
40
0.4371288
50
148.7922025
51
164.568378
0
ARC
8
DEFAULT_255_1_234
10
19.159207
20
70.9946929
40
0.3282386
50
144.5883898
51
148.1176286
0
ARC
8
DEFAULT_255_1_234
10
19.1248968
20
71.0186315
40
0.2864044
50
101.6440918
51
144.514236
0
ARC
8
DEFAULT_255_1_234
10
19.1674035
20
70.8497069
40
0.4604934
50
89.5284041
51
102.5819763
0
ARC
8
DEFAULT_255_1_234
10
19.1753123
20
70.8458018
40
0.464401
50
77.0437873
51
90.5081339
0
ARC
8
DEFAULT_255_1_234
10
19.2155125
20
71.0100615
40
0.2953195
50
48.2778575
51
77.4994676
0
ARC
8
DEFAULT_255_1_234
10
19.2227756
20
71.0229746
40
0.2808655
50
36.3142134
51
47.6305865
0
ARC
8
DEFAULT_255_1_234
10
19.1359063
20
70.9644515
40
0.3855453
50
18.2931786
51
35.6769206
0
ARC
8
DEFAULT_255_1_234
10
18.8815822
20
70.8771593
40
0.654423
50
8.024666
51
18.5605216
0
ARC
8
DEFAULT_255_1_234
10
18.4652742
20
70.8156792
40
1.0752407
50
1.1274072
51
8.1718305
0
ARC
8
DEFAULT_255_1_234
10
18.1416932
20
70.8029885
40
1.3990231
50
0.5424119
51
1.3863029
0
ARC
8
DEFAULT_255_1_234
10
18.323831
20
70.8302342
40
1.0682415
50
359.8090433
51
4.9407866
0
ARC
8
DEFAULT_255_1_234
10
18.7448324
20
70.8678113
40
0.6455691
50
4.8362157
51
12.2904523
0
ARC
8
DEFAULT_255_1_234
10
19.0203439
20
70.9291965
40
0.3633074
50
12.0805627
51
23.8173984
0
ARC
8
DEFAULT_255_1_234
10
19.1377144
20
70.9788919
40
0.2358723
50
24.2871213
51
31.3935614
0
ARC
8
DEFAULT_255_1_234
10
19.1901841
20
71.0132233
40
0.1732111
50
30.7407893
51
82.4657128
0
ARC
8
DEFAULT_255_1_234
10
19.1721976
20
70.9248691
40
0.263235
50
81.1060089
51
90.2184952
0
ARC
8
DEFAULT_255_1_234
10
19.1686275
20
70.9506924
40
0.2374236
50
89.3806855
51
105.6762551
0
ARC
8
DEFAULT_255_1_234
10
19.1502905
20
71.0173567
40
0.1682847
50
105.7981136
51
149.7388061
0
ARC
8
DEFAULT_255_1_234
10
19.2566984
20
70.953395
40
0.2924306
50
149.4208916
51
163.6286378
0
ARC
8
DEFAULT_255_1_234
10
19.4657872
20
70.889625
40
0.5110213
50
163.3763315
51
172.1410975
0
ARC
8
DEFAULT_255_1_234
10
19.7958591
20
70.8423518
40
0.8444586
50
172.0259487
51
178.0703232
0
ARC
8
DEFAULT_255_1_234
10
20.098868
20
70.8279906
40
1.1477868
50
177.8631668
51
179.5044149
0
ARC
8
DEFAULT_255_1_234
10
19.9916085
20
70.5965389
40
1.0404907
50
179.7995573
51
185.2460446
0
ARC
8
DEFAULT_255_1_234
10
19.5873124
20
70.5582513
40
0.6343885
50
185.1411642
51
193.0079639
0
ARC
8
DEFAULT_255_1_234
10
19.3229596
20
70.4957641
40
0.3627568
50
192.7897626
51
205.2507664
0
ARC
8
DEFAULT_255_1_234
10
19.2183143
20
70.4490415
40
0.2481908
50
205.8005384
51
211.2537509
0
ARC
8
DEFAULT_255_1_234
10
19.1659584
20
70.413958
40
0.1852521
50
210.3789793
51
238.4008143
0
ARC
8
DEFAULT_255_1_234
10
19.1640106
20
70.4186376
40
0.1882621
50
239.6520629
51
265.9793761
0
ARC
8
DEFAULT_255_1_234
10
19.1725306
20
70.4858427
40
0.2559272
50
265.1315437
51
270.060332
0
ARC
8
DEFAULT_255_1_234
10
19.1754085
20
70.4534534
40
0.2235528
50
269.3314664
51
287.2178029
0
ARC
8
DEFAULT_255_1_234
10
19.1891937
20
70.4031279
40
0.1714108
50
287.7958004
51
329.080874
0
ARC
8
DEFAULT_255_1_234
10
19.0934394
20
70.462893
40
0.2842745
50
328.6634704
51
343.3325132
0
ARC
8
DEFAULT_255_1_234
10
18.8761414
20
70.5305863
40
0.5118644
50
343.0499468
51
351.9393422
0
ARC
8
DEFAULT_255_1_234
10
18.5294714
20
70.5816949
40
0.8622784
50
351.8069023
51
357.7959224
0
ARC
8
DEFAULT_255_1_234
10
18.205927
20
70.5984721
40
1.1862365
50
357.5871873
51
359.2677531
0
LINE
8
DEFAULT_255_1_234
10
20.4643036
20
70.8162327
11
20.4643036
21
70.6234709
0
LINE
8
DEFAULT_255_1_234
10
19.7261869
20
70.6033916
11
19.7261869
21
70.8017755
0
LINE
8
DEFAULT_255_1_234
10
20.3157165
20
70.5833123
11
20.3157165
21
70.8266739
0
LINE
8
DEFAULT_255_1_234
10
19.874774
20
70.8379184
11
19.874774
21
70.6001789
0
ARC
8
DEFAULT_255_1_234
10
19.2395926
20
70.6185805
40
1.2247208
50
353.8441951
51
0.2287902
0
ARC
8
DEFAULT_255_1_234
10
19.7035429
20
70.5667806
40
0.7578929
50
344.4934747
51
353.9765454
0
ARC
8
DEFAULT_255_1_234
10
20.002802
20
70.4816981
40
0.4467846
50
329.2803592
51
344.7472793
0
ARC
8
DEFAULT_255_1_234
10
20.1020844
20
70.4272018
40
0.3336173
50
324.9352394
51
328.6160465
0
ARC
8
DEFAULT_255_1_234
10
20.1397953
20
70.4008427
40
0.2876076
50
280.580143
51
324.9173126
0
ARC
8
DEFAULT_255_1_234
10
20.0996746
20
70.5679099
40
0.4592847
50
269.5977311
51
281.6734359
0
ARC
8
DEFAULT_255_1_234
10
20.0924651
20
70.5559173
40
0.4472986
50
256.6228859
51
270.51044
0
ARC
8
DEFAULT_255_1_234
10
20.0522629
20
70.4010877
40
0.2873874
50
215.8618325
51
257.2788573
0
ARC
8
DEFAULT_255_1_234
10
20.1543661
20
70.4695977
40
0.4102928
50
197.9693508
51
215.2623606
0
ARC
8
DEFAULT_255_1_234
10
20.4028776
20
70.5534709
40
0.6725652
50
187.8816417
51
198.2346507
0
ARC
8
DEFAULT_255_1_234
10
20.7986985
20
70.6106079
40
1.0724845
50
180.8976217
51
188.0055519
0
ARC
8
DEFAULT_255_1_234
10
21.0787173
20
70.6209777
40
1.3526448
50
180.7449369
51
181.1510016
0
ARC
8
DEFAULT_255_1_234
10
20.9209902
20
70.8066042
40
1.1948131
50
173.7675579
51
180.231553
0
ARC
8
DEFAULT_255_1_234
10
20.4692048
20
70.8576666
40
0.7401564
50
164.3058563
51
173.9002247
0
ARC
8
DEFAULT_255_1_234
10
20.1780117
20
70.9415656
40
0.4371288
50
148.7922025
51
164.568378
0
ARC
8
DEFAULT_255_1_234
10
20.0828569
20
70.9946929
40
0.3282386
50
144.5883898
51
148.1176286
0
ARC
8
DEFAULT_255_1_234
10
20.0485467
20
71.0186315
40
0.2864044
50
101.6440918
51
144.514236
0
ARC
8
DEFAULT_255_1_234
10
20.0910534
20
70.8497069
40
0.4604934
50
89.5284041
51
102.5819763
0
ARC
8
DEFAULT_255_1_234
10
20.0989622
20
70.8458018
40
0.464401
50
77.0437873
51
90.5081339
0
ARC
8
DEFAULT_255_1_234
10
20.1391624
20
71.0100615
40
0.2953195
50
48.2778575
51
77.4994676
0
ARC
8
DEFAULT_255_1_234
10
20.1464255
20
71.0229746
40
0.2808655
50
36.3142134
51
47.6305865
0
ARC
8
DEFAULT_255_1_234
10
20.0595562
20
70.9644515
40
0.3855453
50
18.2931786
51
35.6769206
0
ARC
8
DEFAULT_255_1_234
10
19.8052321
20
70.8771593
40
0.654423
50
8.024666
51
18.5605216
0
ARC
8
DEFAULT_255_1_234
10
19.3889241
20
70.8156792
40
1.0752407
50
1.1274072
51
8.1718305
0
ARC
8
DEFAULT_255_1_234
10
19.0653431
20
70.8029885
40
1.3990231
50
0.5424119
51
1.3863029
0
ARC
8
DEFAULT_255_1_234
10
19.2474809
20
70.8302342
40
1.0682415
50
359.8090433
51
4.9407866
0
ARC
8
DEFAULT_255_1_234
10
19.6684823
20
70.8678113
40
0.6455691
50
4.8362157
51
12.2904523
0
ARC
8
DEFAULT_255_1_234
10
19.9439938
20
70.9291965
40
0.3633074
50
12.0805627
51
23.8173984
0
ARC
8
DEFAULT_255_1_234
10
20.0613643
20
70.9788919
40
0.2358723
50
24.2871213
51
31.3935614
0
ARC
8
DEFAULT_255_1_234
10
20.113834
20
71.0132233
40
0.1732111
50
30.7407893
51
82.4657128
0
ARC
8
DEFAULT_255_1_234
10
20.0958475
20
70.9248691
40
0.263235
50
81.1060089
51
90.2184952
0
ARC
8
DEFAULT_255_1_234
10
20.0922774
20
70.9506924
40
0.2374236
50
89.3806855
51
105.6762551
0
ARC
8
DEFAULT_255_1_234
10
20.0739404
20
71.0173567
40
0.1682847
50
105.7981136
51
149.7388061
0
ARC
8
DEFAULT_255_1_234
10
20.1803483
20
70.953395
40
0.2924306
50
149.4208916
51
163.6286378
0
ARC
8
DEFAULT_255_1_234
10
20.3894371
20
70.889625
40
0.5110213
50
163.3763315
51
172.1410975
0
ARC
8
DEFAULT_255_1_234
10
20.719509
20
70.8423518
40
0.8444586
50
172.0259487
51
178.0703232
0
ARC
8
DEFAULT_255_1_234
10
21.0225179
20
70.8279906
40
1.1477868
50
177.8631668
51
179.5044149
0
ARC
8
DEFAULT_255_1_234
10
20.9152584
20
70.5965389
40
1.0404907
50
179.7995573
51
185.2460446
0
ARC
8
DEFAULT_255_1_234
10
20.5109623
20
70.5582513
40
0.6343885
50
185.1411642
51
193.0079639
0
ARC
8
DEFAULT_255_1_234
10
20.2466095
20
70.4957641
40
0.3627568
50
192.7897626
51
205.2507664
0
ARC
8
DEFAULT_255_1_234
10
20.1419642
20
70.4490415
40
0.2481908
50
205.8005384
51
211.2537509
0
ARC
8
DEFAULT_255_1_234
10
20.0896083
20
70.413958
40
0.1852521
50
210.3789793
51
238.4008143
0
ARC
8
DEFAULT_255_1_234
10
20.0876605
20
70.4186376
40
0.1882621
50
239.6520629
51
265.9793761
0
ARC
8
DEFAULT_255_1_234
10
20.0961805
20
70.4858427
40
0.2559272
50
265.1315437
51
270.060332
0
ARC
8
DEFAULT_255_1_234
10
20.0990584
20
70.4534534
40
0.2235528
50
269.3314664
51
287.2178029
0
ARC
8
DEFAULT_255_1_234
10
20.1128436
20
70.4031279
40
0.1714108
50
287.7958004
51
329.080874
0
ARC
8
DEFAULT_255_1_234
10
20.0170893
20
70.462893
40
0.2842745
50
328.6634704
51
343.3325132
0
ARC
8
DEFAULT_255_1_234
10
19.7997913
20
70.5305863
40
0.5118644
50
343.0499468
51
351.9393422
0
ARC
8
DEFAULT_255_1_234
10
19.4531213
20
70.5816949
40
0.8622784
50
351.8069023
51
357.7959224
0
ARC
8
DEFAULT_255_1_234
10
19.1295769
20
70.5984721
40
1.1862365
50
357.5871873
51
359.2677531
0
LINE
8
DEFAULT_255_1_234
10
4.2454489
20
69.3098211
11
4.2454489
21
68.2664983
0
LINE
8
DEFAULT_255_1_234
10
4.2454489
20
68.2664983
11
4.7996389
21
68.2664983
0
LINE
8
DEFAULT_255_1_234
10
4.7996389
20
68.2664983
11
4.7996389
21
68.1404
0
LINE
8
DEFAULT_255_1_234
10
4.7996389
20
68.1404
11
4.0904364
21
68.1404
0
LINE
8
DEFAULT_255_1_234
10
4.0904364
20
68.1404
11
4.0904364
21
69.3098211
0
LINE
8
DEFAULT_255_1_234
10
4.0904364
20
69.3098211
11
4.2454489
21
69.3098211
0
LINE
8
DEFAULT_255_1_234
10
5.377924
20
69.1090276
11
5.377924
21
68.7676788
0
LINE
8
DEFAULT_255_1_234
10
5.377924
20
68.7676788
11
5.7040126
21
68.7676788
0
LINE
8
DEFAULT_255_1_234
10
5.7040126
20
68.7676788
11
5.7040126
21
68.6271233
0
LINE
8
DEFAULT_255_1_234
10
5.7040126
20
68.6271233
11
5.377924
21
68.6271233
0
LINE
8
DEFAULT_255_1_234
10
5.377924
20
68.6271233
11
5.377924
21
68.2576634
0
LINE
8
DEFAULT_255_1_234
10
5.377924
20
68.2576634
11
5.2285337
21
68.2576634
0
LINE
8
DEFAULT_255_1_234
10
5.2285337
20
68.2576634
11
5.2285337
21
68.6271233
0
LINE
8
DEFAULT_255_1_234
10
5.2285337
20
68.6271233
11
4.9024451
21
68.6271233
0
LINE
8
DEFAULT_255_1_234
10
4.9024451
20
68.6271233
11
4.9024451
21
68.7676788
0
LINE
8
DEFAULT_255_1_234
10
4.9024451
20
68.7676788
11
5.2285337
21
68.7676788
0
LINE
8
DEFAULT_255_1_234
10
5.2285337
20
68.7676788
11
5.2285337
21
69.1090276
0
LINE
8
DEFAULT_255_1_234
10
5.2285337
20
69.1090276
11
5.377924
21
69.1090276
0
LINE
8
DEFAULT_255_1_234
10
4.2984378
20
5.1761169
11
4.2984378
21
5.2973962
0
LINE
8
DEFAULT_255_1_234
10
4.2984378
20
5.2973962
11
4.410079
21
5.2973962
0
LINE
8
DEFAULT_255_1_234
10
4.2197268
20
5.5030087
11
4.0711396
21
5.5030087
0
LINE
8
DEFAULT_255_1_234
10
4.0606983
20
4.9488188
11
4.2100887
21
4.9488188
0
LINE
8
DEFAULT_255_1_234
10
4.410079
20
5.1761169
11
4.2984378
21
5.1761169
0
ARC
8
DEFAULT_255_1_234
10
4.4071656
20
5.6366713
40
0.3392876
50
270.4919872
51
281.8951556
0
ARC
8
DEFAULT_255_1_234
10
4.4312918
20
5.5264702
40
0.2264817
50
281.6691735
51
301.2943132
0
ARC
8
DEFAULT_255_1_234
10
4.4483128
20
5.4953304
40
0.1910381
50
301.7833094
51
311.7545298
0
ARC
8
DEFAULT_255_1_234
10
4.4574704
20
5.4851748
40
0.1773635
50
311.7323931
51
354.2802411
0
ARC
8
DEFAULT_255_1_234
10
4.3848329
20
5.4976722
40
0.2509385
50
353.0937916
51
0.1181479
0
ARC
8
DEFAULT_255_1_234
10
4.3387114
20
5.5024386
40
0.2970898
50
359.1805295
51
15.0453146
0
ARC
8
DEFAULT_255_1_234
10
4.4732951
20
5.5416992
40
0.1569564
50
13.9577229
51
77.6713066
0
ARC
8
DEFAULT_255_1_234
10
4.434648
20
5.4031949
40
0.3006298
50
76.1116566
51
90.7026153
0
ARC
8
DEFAULT_255_1_234
10
4.4287318
20
5.4305545
40
0.2732568
50
89.5324876
51
103.531937
0
ARC
8
DEFAULT_255_1_234
10
4.4086762
20
5.5104884
40
0.1908508
50
103.2931773
51
133.5619022
0
ARC
8
DEFAULT_255_1_234
10
4.4042251
20
5.5164375
40
0.1834746
50
133.8349307
51
173.5344437
0
ARC
8
DEFAULT_255_1_234
10
4.4765294
20
5.5036213
40
0.2568033
50
172.5096846
51
180.1366907
0
ARC
8
DEFAULT_255_1_234
10
4.3814188
20
5.5070622
40
0.3103056
50
155.3484492
51
180.7484736
0
ARC
8
DEFAULT_255_1_234
10
4.3765277
20
5.5041846
40
0.3070957
50
131.5744599
51
154.4798489
0
ARC
8
DEFAULT_255_1_234
10
4.4078424
20
5.472531
40
0.3515643
50
96.9875458
51
131.9690667
0
ARC
8
DEFAULT_255_1_234
10
4.4297904
20
5.3479636
40
0.4779224
50
89.8596053
51
97.7825159
0
ARC
8
DEFAULT_255_1_234
10
4.4345967
20
5.3217616
40
0.5041361
50
78.3655447
51
90.4131539
0
ARC
8
DEFAULT_255_1_234
10
4.4703885
20
5.4876887
40
0.3344039
50
56.6229102
51
78.638727
0
ARC
8
DEFAULT_255_1_234
10
4.4918829
20
5.5252805
40
0.2912001
50
47.0253525
51
56.0854072
0
ARC
8
DEFAULT_255_1_234
10
4.4938609
20
5.5292223
40
0.2869704
50
10.9208013
51
46.7778124
0
ARC
8
DEFAULT_255_1_234
10
4.3574675
20
5.4976857
40
0.426899
50
359.6364486
51
11.6087304
0
ARC
8
DEFAULT_255_1_234
10
4.5409519
20
5.4961752
40
0.243409
50
332.3549906
51
359.7179418
0
ARC
8
DEFAULT_255_1_234
10
4.4759121
20
5.5270142
40
0.3153459
50
325.2333722
51
332.8745602
0
ARC
8
DEFAULT_255_1_234
10
4.4911744
20
5.5163828
40
0.2967456
50
292.9802137
51
325.2392345
0
ARC
8
DEFAULT_255_1_234
10
4.4637118
20
5.5697863
40
0.3566604
50
292.5402179
51
293.6924929
0
ARC
8
DEFAULT_255_1_234
10
4.5029714
20
4.9243091
40
0.3307468
50
57.6435486
51
72.8625112
0
ARC
8
DEFAULT_255_1_234
10
4.5384214
20
4.9817549
40
0.2632492
50
36.7248896
51
57.4697979
0
ARC
8
DEFAULT_255_1_234
10
4.5372847
20
4.983022
40
0.2634081
50
8.0545065
51
36.356114
0
ARC
8
DEFAULT_255_1_234
10
4.4510032
20
4.9675174
40
0.3510261
50
359.8320645
51
8.5869982
0
ARC
8
DEFAULT_255_1_234
10
4.4134808
20
4.9627101
40
0.3885653
50
343.9829931
51
0.5571613
0
ARC
8
DEFAULT_255_1_234
10
4.5021005
20
4.9384438
40
0.2966924
50
311.6359546
51
343.7651759
0
ARC
8
DEFAULT_255_1_234
10
4.4642574
20
4.9811102
40
0.3537231
50
279.7829875
51
311.6255694
0
ARC
8
DEFAULT_255_1_234
10
4.4341351
20
5.124828
40
0.5004971
50
269.7286406
51
280.3856417
0
ARC
8
DEFAULT_255_1_234
10
4.4279423
20
5.1206996
40
0.4963778
50
256.6828919
51
270.4412052
0
ARC
8
DEFAULT_255_1_234
10
4.3940719
20
4.9822394
40
0.3538406
50
229.4223008
51
256.8556159
0
ARC
8
DEFAULT_255_1_234
10
4.3526112
20
4.9355736
40
0.2914296
50
181.818294
51
229.6455059
0
ARC
8
DEFAULT_255_1_234
10
4.4566068
20
4.9486496
40
0.3959084
50
179.9755256
51
183.2323064
0
ARC
8
DEFAULT_255_1_234
10
4.4393814
20
4.9466037
40
0.2293034
50
179.4465117
51
196.2869258
0
ARC
8
DEFAULT_255_1_234
10
4.3906222
20
4.9332651
40
0.1787621
50
196.5661473
51
227.705904
0
ARC
8
DEFAULT_255_1_234
10
4.4070317
20
4.9516155
40
0.2033784
50
227.7652068
51
257.8762805
0
ARC
8
DEFAULT_255_1_234
10
4.4295287
20
5.0459156
40
0.3003081
50
257.4584385
51
270.426602
0
ARC
8
DEFAULT_255_1_234
10
4.4340853
20
5.0748996
40
0.329292
50
269.5962073
51
280.8789248
0
ARC
8
DEFAULT_255_1_234
10
4.4570382
20
4.9602685
40
0.2123908
50
280.6346389
51
299.8595945
0
ARC
8
DEFAULT_255_1_234
10
4.4761289
20
4.9240212
40
0.171457
50
300.3576302
51
314.5517981
0
ARC
8
DEFAULT_255_1_234
10
4.4678349
20
4.9300919
40
0.1816095
50
315.0728369
51
345.0431014
0
ARC
8
DEFAULT_255_1_234
10
4.3755163
20
4.9569841
40
0.2777492
50
344.5986631
51
357.9269593
0
ARC
8
DEFAULT_255_1_234
10
4.2859489
20
4.9631276
40
0.3674917
50
357.4748886
51
0.0231117
0
ARC
8
DEFAULT_255_1_234
10
4.3882599
20
4.9655679
40
0.2651907
50
359.5047933
51
13.4239635
0
ARC
8
DEFAULT_255_1_234
10
4.4749242
20
4.9877478
40
0.1757509
50
12.9498199
51
48.7551375
0
ARC
8
DEFAULT_255_1_234
10
4.4566976
20
4.96284
40
0.2065134
50
49.5088623
51
72.1836453
0
ARC
8
DEFAULT_255_1_234
10
4.4209129
20
4.8566291
40
0.3185836
50
71.9010081
51
84.3554254
0
ARC
8
DEFAULT_255_1_234
10
4.4047761
20
4.7205326
40
0.4556151
50
84.0193428
51
89.333121
0
LINE
8
DEFAULT_255_1_234
10
5.3305162
20
5.1978026
11
5.3305162
21
5.0765234
0
LINE
8
DEFAULT_255_1_234
10
5.3305162
20
5.0765234
11
4.9385673
21
5.0765234
0
LINE
8
DEFAULT_255_1_234
10
4.9385673
20
5.0765234
11
4.9385673
21
5.1978026
0
LINE
8
DEFAULT_255_1_234
10
4.9385673
20
5.1978026
11
5.3305162
21
5.1978026
0
LINE
8
DEFAULT_255_1_234
10
4.2703378
20
13.1136169
11
4.2703378
21
13.2348962
0
LINE
8
DEFAULT_255_1_234
10
4.2703378
20
13.2348962
11
4.381979
21
13.2348962
0
LINE
8
DEFAULT_255_1_234
10
4.1916268
20
13.4405087
11
4.0430396
21
13.4405087
0
LINE
8
DEFAULT_255_1_234
10
4.0325983
20
12.8863188
11
4.1819887
21
12.8863188
0
LINE
8
DEFAULT_255_1_234
10
4.381979
20
13.1136169
11
4.2703378
21
13.1136169
0
ARC
8
DEFAULT_255_1_234
10
4.3790656
20
13.5741713
40
0.3392876
50
270.4919872
51
281.8951556
0
ARC
8
DEFAULT_255_1_234
10
4.4031918
20
13.4639702
40
0.2264817
50
281.6691735
51
301.2943132
0
ARC
8
DEFAULT_255_1_234
10
4.4202128
20
13.4328304
40
0.1910381
50
301.7833094
51
311.7545298
0
ARC
8
DEFAULT_255_1_234
10
4.4293704
20
13.4226748
40
0.1773635
50
311.7323931
51
354.2802411
0
ARC
8
DEFAULT_255_1_234
10
4.3567329
20
13.4351722
40
0.2509385
50
353.0937916
51
0.1181479
0
ARC
8
DEFAULT_255_1_234
10
4.3106114
20
13.4399386
40
0.2970898
50
359.1805295
51
15.0453146
0
ARC
8
DEFAULT_255_1_234
10
4.4451951
20
13.4791992
40
0.1569564
50
13.9577229
51
77.6713066
0
ARC
8
DEFAULT_255_1_234
10
4.406548
20
13.3406949
40
0.3006298
50
76.1116566
51
90.7026153
0
ARC
8
DEFAULT_255_1_234
10
4.4006318
20
13.3680545
40
0.2732568
50
89.5324876
51
103.531937
0
ARC
8
DEFAULT_255_1_234
10
4.3805762
20
13.4479884
40
0.1908508
50
103.2931773
51
133.5619022
0
ARC
8
DEFAULT_255_1_234
10
4.3761251
20
13.4539375
40
0.1834746
50
133.8349307
51
173.5344437
0
ARC
8
DEFAULT_255_1_234
10
4.4484294
20
13.4411213
40
0.2568033
50
172.5096846
51
180.1366907
0
ARC
8
DEFAULT_255_1_234
10
4.3533188
20
13.4445622
40
0.3103056
50
155.3484492
51
180.7484736
0
ARC
8
DEFAULT_255_1_234
10
4.3484277
20
13.4416846
40
0.3070957
50
131.5744599
51
154.4798489
0
ARC
8
DEFAULT_255_1_234
10
4.3797424
20
13.410031
40
0.3515643
50
96.9875458
51
131.9690667
0
ARC
8
DEFAULT_255_1_234
10
4.4016904
20
13.2854636
40
0.4779224
50
89.8596053
51
97.7825159
0
ARC
8
DEFAULT_255_1_234
10
4.4064967
20
13.2592616
40
0.5041361
50
78.3655447
51
90.4131539
0
ARC
8
DEFAULT_255_1_234
10
4.4422885
20
13.4251887
40
0.3344039
50
56.6229102
51
78.638727
0
ARC
8
DEFAULT_255_1_234
10
4.4637829
20
13.4627805
40
0.2912001
50
47.0253525
51
56.0854072
0
ARC
8
DEFAULT_255_1_234
10
4.4657609
20
13.4667223
40
0.2869704
50
10.9208013
51
46.7778124
0
ARC
8
DEFAULT_255_1_234
10
4.3293675
20
13.4351857
40
0.426899
50
359.6364486
51
11.6087304
0
ARC
8
DEFAULT_255_1_234
10
4.5128519
20
13.4336752
40
0.243409
50
332.3549906
51
359.7179418
0
ARC
8
DEFAULT_255_1_234
10
4.4478121
20
13.4645142
40
0.3153459
50
325.2333722
51
332.8745602
0
ARC
8
DEFAULT_255_1_234
10
4.4630744
20
13.4538828
40
0.2967456
50
292.9802137
51
325.2392345
0
ARC
8
DEFAULT_255_1_234
10
4.4356118
20
13.5072863
40
0.3566604
50
292.5402179
51
293.6924929
0
ARC
8
DEFAULT_255_1_234
10
4.4748714
20
12.8618091
40
0.3307468
50
57.6435486
51
72.8625112
0
ARC
8
DEFAULT_255_1_234
10
4.5103214
20
12.9192549
40
0.2632492
50
36.7248896
51
57.4697979
0
ARC
8
DEFAULT_255_1_234
10
4.5091847
20
12.920522
40
0.2634081
50
8.0545065
51
36.356114
0
ARC
8
DEFAULT_255_1_234
10
4.4229032
20
12.9050174
40
0.3510261
50
359.8320645
51
8.5869982
0
ARC
8
DEFAULT_255_1_234
10
4.3853808
20
12.9002101
40
0.3885653
50
343.9829931
51
0.5571613
0
ARC
8
DEFAULT_255_1_234
10
4.4740005
20
12.8759438
40
0.2966924
50
311.6359546
51
343.7651759
0
ARC
8
DEFAULT_255_1_234
10
4.4361574
20
12.9186102
40
0.3537231
50
279.7829875
51
311.6255694
0
ARC
8
DEFAULT_255_1_234
10
4.4060351
20
13.062328
40
0.5004971
50
269.7286406
51
280.3856417
0
ARC
8
DEFAULT_255_1_234
10
4.3998423
20
13.0581996
40
0.4963778
50
256.6828919
51
270.4412052
0
ARC
8
DEFAULT_255_1_234
10
4.3659719
20
12.9197394
40
0.3538406
50
229.4223008
51
256.8556159
0
ARC
8
DEFAULT_255_1_234
10
4.3245112
20
12.8730736
40
0.2914296
50
181.818294
51
229.6455059
0
ARC
8
DEFAULT_255_1_234
10
4.4285068
20
12.8861496
40
0.3959084
50
179.9755256
51
183.2323064
0
ARC
8
DEFAULT_255_1_234
10
4.4112814
20
12.8841037
40
0.2293034
50
179.4465117
51
196.2869258
0
ARC
8
DEFAULT_255_1_234
10
4.3625222
20
12.8707651
40
0.1787621
50
196.5661473
51
227.705904
0
ARC
8
DEFAULT_255_1_234
10
4.3789317
20
12.8891155
40
0.2033784
50
227.7652068
51
257.8762805
0
ARC
8
DEFAULT_255_1_234
10
4.4014287
20
12.9834156
40
0.3003081
50
257.4584385
51
270.426602
0
ARC
8
DEFAULT_255_1_234
10
4.4059853
20
13.0123996
40
0.329292
50
269.5962073
51
280.8789248
0
ARC
8
DEFAULT_255_1_234
10
4.4289382
20
12.8977685
40
0.2123908
50
280.6346389
51
299.8595945
0
ARC
8
DEFAULT_255_1_234
10
4.4480289
20
12.8615212
40
0.171457
50
300.3576302
51
314.5517981
0
ARC
8
DEFAULT_255_1_234
10
4.4397349
20
12.8675919
40
0.1816095
50
315.0728369
51
345.0431014
0
ARC
8
DEFAULT_255_1_234
10
4.3474163
20
12.8944841
40
0.2777492
50
344.5986631
51
357.9269593
0
ARC
8
DEFAULT_255_1_234
10
4.2578489
20
12.9006276
40
0.3674917
50
357.4748886
51
0.0231117
0
ARC
8
DEFAULT_255_1_234
10
4.3601599
20
12.9030679
40
0.2651907
50
359.5047933
51
13.4239635
0
ARC
8
DEFAULT_255_1_234
10
4.4468242
20
12.9252478
40
0.1757509
50
12.9498199
51
48.7551375
0
ARC
8
DEFAULT_255_1_234
10
4.4285976
20
12.90034
40
0.2065134
50
49.5088623
51
72.1836453
0
ARC
8
DEFAULT_255_1_234
10
4.3928129
20
12.7941291
40
0.3185836
50
71.9010081
51
84.3554254
0
ARC
8
DEFAULT_255_1_234
10
4.3766761
20
12.6580326
40
0.4556151
50
84.0193428
51
89.333121
0
LINE
8
DEFAULT_255_1_234
10
5.4188764
20
13.5465276
11
5.4188764
21
13.2051788
0
LINE
8
DEFAULT_255_1_234
10
5.4188764
20
13.2051788
11
5.7449649
21
13.2051788
0
LINE
8
DEFAULT_255_1_234
10
5.7449649
20
13.2051788
11
5.7449649
21
13.0646233
0
LINE
8
DEFAULT_255_1_234
10
5.7449649
20
13.0646233
11
5.4188764
21
13.0646233
0
LINE
8
DEFAULT_255_1_234
10
5.4188764
20
13.0646233
11
5.4188764
21
12.6951634
0
LINE
8
DEFAULT_255_1_234
10
5.4188764
20
12.6951634
11
5.269486
21
12.6951634
0
LINE
8
DEFAULT_255_1_234
10
5.269486
20
12.6951634
11
5.269486
21
13.0646233
0
LINE
8
DEFAULT_255_1_234
10
5.269486
20
13.0646233
11
4.9433975
21
13.0646233
0
LINE
8
DEFAULT_255_1_234
10
4.9433975
20
13.0646233
11
4.9433975
21
13.2051788
0
LINE
8
DEFAULT_255_1_234
10
4.9433975
20
13.2051788
11
5.269486
21
13.2051788
0
LINE
8
DEFAULT_255_1_234
10
5.269486
20
13.2051788
11
5.269486
21
13.5465276
0
LINE
8
DEFAULT_255_1_234
10
5.269486
20
13.5465276
11
5.4188764
21
13.5465276
0
LINE
8
DEFAULT_255_1_234
10
4.8486119
20
20.6366792
11
4.8486119
21
20.5154
0
LINE
8
DEFAULT_255_1_234
10
4.8486119
20
20.5154
11
4.082384
21
20.5154
0
LINE
8
DEFAULT_255_1_234
10
4.082384
20
20.5154
11
4.082384
21
20.6222221
0
LINE
8
DEFAULT_255_1_234
10
4.082384
20
20.6222221
11
4.4871836
21
21.0719995
0
LINE
8
DEFAULT_255_1_234
10
4.2084823
20
21.3402595
11
4.0598952
21
21.3402595
0
LINE
8
DEFAULT_255_1_234
10
4.5747296
20
20.9764218
11
4.2614918
21
20.6366792
0
LINE
8
DEFAULT_255_1_234
10
4.2614918
20
20.6366792
11
4.8486119
21
20.6366792
0
ARC
8
DEFAULT_255_1_234
10
3.138167
20
22.2649527
40
1.8008286
50
318.5132453
51
320.7828378
0
ARC
8
DEFAULT_255_1_234
10
3.6668644
20
21.8346426
40
1.1191493
50
320.7372736
51
323.9737074
0
ARC
8
DEFAULT_255_1_234
10
4.0588501
20
21.5506361
40
0.6350923
50
323.8961724
51
328.6421089
0
ARC
8
DEFAULT_255_1_234
10
4.2635096
20
21.4244031
40
0.3946393
50
328.8299013
51
331.789948
0
ARC
8
DEFAULT_255_1_234
10
4.3632274
20
21.3729509
40
0.2824501
50
331.4255242
51
352.9364833
0
ARC
8
DEFAULT_255_1_234
10
4.3768775
20
21.3698976
40
0.2685315
50
353.2248685
51
0.0169286
0
ARC
8
DEFAULT_255_1_234
10
4.3978652
20
21.372195
40
0.2475536
50
359.4866256
51
15.9339782
0
ARC
8
DEFAULT_255_1_234
10
4.4485637
20
21.3858286
40
0.1950618
50
16.1714718
51
43.5284424
0
ARC
8
DEFAULT_255_1_234
10
4.4562946
20
21.3935573
40
0.184134
50
43.4415429
51
83.1661404
0
ARC
8
DEFAULT_255_1_234
10
4.4428864
20
21.3198771
40
0.258926
50
82.160215
51
90.1505798
0
ARC
8
DEFAULT_255_1_234
10
4.4397291
20
21.2661865
40
0.3126255
50
89.5460705
51
102.5418777
0
ARC
8
DEFAULT_255_1_234
10
4.4154377
20
21.3692665
40
0.2067346
50
102.1739365
51
129.2061916
0
ARC
8
DEFAULT_255_1_234
10
4.4075449
20
21.3817094
40
0.1921118
50
129.7279328
51
135.7542026
0
ARC
8
DEFAULT_255_1_234
10
4.4196977
20
21.3720045
40
0.2075944
50
136.175737
51
166.3674722
0
ARC
8
DEFAULT_255_1_234
10
4.5203896
20
21.3450182
40
0.3118201
50
165.9092917
51
178.8683903
0
ARC
8
DEFAULT_255_1_234
10
4.6068757
20
21.3403179
40
0.3983935
50
178.438168
51
180.0083905
0
ARC
8
DEFAULT_255_1_234
10
4.4667359
20
21.3442231
40
0.4068601
50
163.2878735
51
180.5581814
0
ARC
8
DEFAULT_255_1_234
10
4.3865621
20
21.366284
40
0.3237344
50
133.454115
51
162.9470031
0
ARC
8
DEFAULT_255_1_234
10
4.4044162
20
21.3473
40
0.349795
50
100.7869394
51
133.4384016
0
ARC
8
DEFAULT_255_1_234
10
4.4391934
20
21.1924319
40
0.5084616
50
89.6605301
51
101.3704185
0
ARC
8
DEFAULT_255_1_234
10
4.4458273
20
21.1985496
40
0.502348
50
78.2171172
51
90.4130393
0
ARC
8
DEFAULT_255_1_234
10
4.4813351
20
21.3609637
40
0.3361092
50
55.9268222
51
78.4888551
0
ARC
8
DEFAULT_255_1_234
10
4.5009791
20
21.3948324
40
0.2970617
50
47.9292255
51
55.4054003
0
ARC
8
DEFAULT_255_1_234
10
4.5111352
20
21.4051502
40
0.2825983
50
4.3347696
51
48.0560701
0
ARC
8
DEFAULT_255_1_234
10
4.4015745
20
21.3881601
40
0.393225
50
359.925209
51
5.5967654
0
ARC
8
DEFAULT_255_1_234
10
4.4444637
20
21.3937816
40
0.3503892
50
337.8914096
51
358.9967724
0
ARC
8
DEFAULT_255_1_234
10
4.1731049
20
21.4984706
40
0.6412172
50
326.9135351
51
338.3505194
0
ARC
8
DEFAULT_255_1_234
10
3.7745353
20
21.7539284
40
1.1146189
50
319.6472867
51
327.095818
0
ARC
8
DEFAULT_255_1_234
10
3.3912356
20
22.0701
40
1.6114559
50
317.2586784
51
319.9046139
0
LINE
8
DEFAULT_255_1_234
10
5.3305162
20
21.0728026
11
5.3305162
21
20.9515234
0
LINE
8
DEFAULT_255_1_234
10
5.3305162
20
20.9515234
11
4.9385673
21
20.9515234
0
LINE
8
DEFAULT_255_1_234
10
4.9385673
20
20.9515234
11
4.9385673
21
21.0728026
0
LINE
8
DEFAULT_255_1_234
10
4.9385673
20
21.0728026
11
5.3305162
21
21.0728026
0
LINE
8
DEFAULT_255_1_234
10
4.8205119
20
28.5741792
11
4.8205119
21
28.4529
0
LINE
8
DEFAULT_255_1_234
10
4.8205119
20
28.4529
11
4.054284
21
28.4529
0
LINE
8
DEFAULT_255_1_234
10
4.054284
20
28.4529
11
4.054284
21
28.5597221
0
LINE
8
DEFAULT_255_1_234
10
4.054284
20
28.5597221
11
4.4590836
21
29.0094995
0
LINE
8
DEFAULT_255_1_234
10
4.1803823
20
29.2777595
11
4.0317952
21
29.2777595
0
LINE
8
DEFAULT_255_1_234
10
4.5466296
20
28.9139218
11
4.2333918
21
28.5741792
0
LINE
8
DEFAULT_255_1_234
10
4.2333918
20
28.5741792
11
4.8205119
21
28.5741792
0
ARC
8
DEFAULT_255_1_234
10
3.110067
20
30.2024527
40
1.8008286
50
318.5132453
51
320.7828378
0
ARC
8
DEFAULT_255_1_234
10
3.6387644
20
29.7721426
40
1.1191493
50
320.7372736
51
323.9737074
0
ARC
8
DEFAULT_255_1_234
10
4.0307501
20
29.4881361
40
0.6350923
50
323.8961724
51
328.6421089
0
ARC
8
DEFAULT_255_1_234
10
4.2354096
20
29.3619031
40
0.3946393
50
328.8299013
51
331.789948
0
ARC
8
DEFAULT_255_1_234
10
4.3351274
20
29.3104509
40
0.2824501
50
331.4255242
51
352.9364833
0
ARC
8
DEFAULT_255_1_234
10
4.3487775
20
29.3073976
40
0.2685315
50
353.2248685
51
0.0169286
0
ARC
8
DEFAULT_255_1_234
10
4.3697652
20
29.309695
40
0.2475536
50
359.4866256
51
15.9339782
0
ARC
8
DEFAULT_255_1_234
10
4.4204637
20
29.3233286
40
0.1950618
50
16.1714718
51
43.5284424
0
ARC
8
DEFAULT_255_1_234
10
4.4281946
20
29.3310573
40
0.184134
50
43.4415429
51
83.1661404
0
ARC
8
DEFAULT_255_1_234
10
4.4147864
20
29.2573771
40
0.258926
50
82.160215
51
90.1505798
0
ARC
8
DEFAULT_255_1_234
10
4.4116291
20
29.2036865
40
0.3126255
50
89.5460705
51
102.5418777
0
ARC
8
DEFAULT_255_1_234
10
4.3873377
20
29.3067665
40
0.2067346
50
102.1739365
51
129.2061916
0
ARC
8
DEFAULT_255_1_234
10
4.3794449
20
29.3192094
40
0.1921118
50
129.7279328
51
135.7542026
0
ARC
8
DEFAULT_255_1_234
10
4.3915977
20
29.3095045
40
0.2075944
50
136.175737
51
166.3674722
0
ARC
8
DEFAULT_255_1_234
10
4.4922896
20
29.2825182
40
0.3118201
50
165.9092917
51
178.8683903
0
ARC
8
DEFAULT_255_1_234
10
4.5787757
20
29.2778179
40
0.3983935
50
178.438168
51
180.0083905
0
ARC
8
DEFAULT_255_1_234
10
4.4386359
20
29.2817231
40
0.4068601
50
163.2878735
51
180.5581814
0
ARC
8
DEFAULT_255_1_234
10
4.3584621
20
29.303784
40
0.3237344
50
133.454115
51
162.9470031
0
ARC
8
DEFAULT_255_1_234
10
4.3763162
20
29.2848
40
0.349795
50
100.7869394
51
133.4384016
0
ARC
8
DEFAULT_255_1_234
10
4.4110934
20
29.1299319
40
0.5084616
50
89.6605301
51
101.3704185
0
ARC
8
DEFAULT_255_1_234
10
4.4177273
20
29.1360496
40
0.502348
50
78.2171172
51
90.4130393
0
ARC
8
DEFAULT_255_1_234
10
4.4532351
20
29.2984637
40
0.3361092
50
55.9268222
51
78.4888551
0
ARC
8
DEFAULT_255_1_234
10
4.4728791
20
29.3323324
40
0.2970617
50
47.9292255
51
55.4054003
0
ARC
8
DEFAULT_255_1_234
10
4.4830352
20
29.3426502
40
0.2825983
50
4.3347696
51
48.0560701
0
ARC
8
DEFAULT_255_1_234
10
4.3734745
20
29.3256601
40
0.393225
50
359.925209
51
5.5967654
0
ARC
8
DEFAULT_255_1_234
10
4.4163637
20
29.3312816
40
0.3503892
50
337.8914096
51
358.9967724
0
ARC
8
DEFAULT_255_1_234
10
4.1450049
20
29.4359706
40
0.6412172
50
326.9135351
51
338.3505194
0
ARC
8
DEFAULT_255_1_234
10
3.7464353
20
29.6914284
40
1.1146189
50
319.6472867
51
327.095818
0
ARC
8
DEFAULT_255_1_234
10
3.3631356
20
30.0076
40
1.6114559
50
317.2586784
51
319.9046139
0
LINE
8
DEFAULT_255_1_234
10
5.4188764
20
29.4215276
11
5.4188764
21
29.0801788
0
LINE
8
DEFAULT_255_1_234
10
5.4188764
20
29.0801788
11
5.7449649
21
29.0801788
0
LINE
8
DEFAULT_255_1_234
10
5.7449649
20
29.0801788
11
5.7449649
21
28.9396233
0
LINE
8
DEFAULT_255_1_234
10
5.7449649
20
28.9396233
11
5.4188764
21
28.9396233
0
LINE
8
DEFAULT_255_1_234
10
5.4188764
20
28.9396233
11
5.4188764
21
28.5701634
0
LINE
8
DEFAULT_255_1_234
10
5.4188764
20
28.5701634
11
5.269486
21
28.5701634
0
LINE
8
DEFAULT_255_1_234
10
5.269486
20
28.5701634
11
5.269486
21
28.9396233
0
LINE
8
DEFAULT_255_1_234
10
5.269486
20
28.9396233
11
4.9433975
21
28.9396233
0
LINE
8
DEFAULT_255_1_234
10
4.9433975
20
28.9396233
11
4.9433975
21
29.0801788
0
LINE
8
DEFAULT_255_1_234
10
4.9433975
20
29.0801788
11
5.269486
21
29.0801788
0
LINE
8
DEFAULT_255_1_234
10
5.269486
20
29.0801788
11
5.269486
21
29.4215276
0
LINE
8
DEFAULT_255_1_234
10
5.269486
20
29.4215276
11
5.4188764
21
29.4215276
0
LINE
8
DEFAULT_255_1_234
10
4.5707137
20
37.5654433
11
4.5707137
21
36.3904
0
LINE
8
DEFAULT_255_1_234
10
4.5707137
20
36.3904
11
4.4213234
21
36.3904
0
LINE
8
DEFAULT_255_1_234
10
4.4213234
20
36.3904
11
4.4213234
21
37.3807133
0
LINE
8
DEFAULT_255_1_234
10
4.4213234
20
37.3807133
11
4.1217396
21
37.2706785
0
LINE
8
DEFAULT_255_1_234
10
4.1217396
20
37.2706785
11
4.1217396
21
37.4056117
0
LINE
8
DEFAULT_255_1_234
10
4.1217396
20
37.4056117
11
4.5474217
21
37.5654433
0
LINE
8
DEFAULT_255_1_234
10
4.5474217
20
37.5654433
11
4.5707137
21
37.5654433
0
LINE
8
DEFAULT_255_1_234
10
5.3305162
20
36.9478026
11
5.3305162
21
36.8265234
0
LINE
8
DEFAULT_255_1_234
10
5.3305162
20
36.8265234
11
4.9385673
21
36.8265234
0
LINE
8
DEFAULT_255_1_234
10
4.9385673
20
36.8265234
11
4.9385673
21
36.9478026
0
LINE
8
DEFAULT_255_1_234
10
4.9385673
20
36.9478026
11
5.3305162
21
36.9478026
0
LINE
8
DEFAULT_255_1_234
10
4.5426137
20
45.5029433
11
4.5426137
21
44.3279
0
LINE
8
DEFAULT_255_1_234
10
4.5426137
20
44.3279
11
4.3932234
21
44.3279
0
LINE
8
DEFAULT_255_1_234
10
4.3932234
20
44.3279
11
4.3932234
21
45.3182133
0
LINE
8
DEFAULT_255_1_234
10
4.3932234
20
45.3182133
11
4.0936396
21
45.2081785
0
LINE
8
DEFAULT_255_1_234
10
4.0936396
20
45.2081785
11
4.0936396
21
45.3431117
0
LINE
8
DEFAULT_255_1_234
10
4.0936396
20
45.3431117
11
4.5193217
21
45.5029433
0
LINE
8
DEFAULT_255_1_234
10
4.5193217
20
45.5029433
11
4.5426137
21
45.5029433
0
LINE
8
DEFAULT_255_1_234
10
5.4188764
20
45.2965276
11
5.4188764
21
44.9551788
0
LINE
8
DEFAULT_255_1_234
10
5.4188764
20
44.9551788
11
5.7449649
21
44.9551788
0
LINE
8
DEFAULT_255_1_234
10
5.7449649
20
44.9551788
11
5.7449649
21
44.8146233
0
LINE
8
DEFAULT_255_1_234
10
5.7449649
20
44.8146233
11
5.4188764
21
44.8146233
0
LINE
8
DEFAULT_255_1_234
10
5.4188764
20
44.8146233
11
5.4188764
21
44.4451634
0
LINE
8
DEFAULT_255_1_234
10
5.4188764
20
44.4451634
11
5.269486
21
44.4451634
0
LINE
8
DEFAULT_255_1_234
10
5.269486
20
44.4451634
11
5.269486
21
44.8146233
0
LINE
8
DEFAULT_255_1_234
10
5.269486
20
44.8146233
11
4.9433975
21
44.8146233
0
LINE
8
DEFAULT_255_1_234
10
4.9433975
20
44.8146233
11
4.9433975
21
44.9551788
0
LINE
8
DEFAULT_255_1_234
10
4.9433975
20
44.9551788
11
5.269486
21
44.9551788
0
LINE
8
DEFAULT_255_1_234
10
5.269486
20
44.9551788
11
5.269486
21
45.2965276
0
LINE
8
DEFAULT_255_1_234
10
5.269486
20
45.2965276
11
5.4188764
21
45.2965276
0
LINE
8
DEFAULT_255_1_234
10
4.8156817
20
52.9569327
11
4.8156817
21
52.7641709
0
LINE
8
DEFAULT_255_1_234
10
4.077565
20
52.7440916
11
4.077565
21
52.9424755
0
LINE
8
DEFAULT_255_1_234
10
4.6670946
20
52.7240123
11
4.6670946
21
52.9673739
0
LINE
8
DEFAULT_255_1_234
10
4.2261521
20
52.9786184
11
4.2261521
21
52.7408789
0
ARC
8
DEFAULT_255_1_234
10
3.5909707
20
52.7592805
40
1.2247208
50
353.8441951
51
0.2287902
0
ARC
8
DEFAULT_255_1_234
10
4.0549211
20
52.7074806
40
0.7578929
50
344.4934747
51
353.9765454
0
ARC
8
DEFAULT_255_1_234
10
4.3541801
20
52.6223981
40
0.4467846
50
329.2803592
51
344.7472793
0
ARC
8
DEFAULT_255_1_234
10
4.4534626
20
52.5679018
40
0.3336173
50
324.9352394
51
328.6160465
0
ARC
8
DEFAULT_255_1_234
10
4.4911734
20
52.5415427
40
0.2876076
50
280.580143
51
324.9173126
0
ARC
8
DEFAULT_255_1_234
10
4.4510527
20
52.7086099
40
0.4592847
50
269.5977311
51
281.6734359
0
ARC
8
DEFAULT_255_1_234
10
4.4438433
20
52.6966173
40
0.4472986
50
256.6228859
51
270.51044
0
ARC
8
DEFAULT_255_1_234
10
4.403641
20
52.5417877
40
0.2873874
50
215.8618325
51
257.2788573
0
ARC
8
DEFAULT_255_1_234
10
4.5057442
20
52.6102977
40
0.4102928
50
197.9693508
51
215.2623606
0
ARC
8
DEFAULT_255_1_234
10
4.7542558
20
52.6941709
40
0.6725652
50
187.8816417
51
198.2346507
0
ARC
8
DEFAULT_255_1_234
10
5.1500766
20
52.7513079
40
1.0724845
50
180.8976217
51
188.0055519
0
ARC
8
DEFAULT_255_1_234
10
5.4300954
20
52.7616777
40
1.3526448
50
180.7449369
51
181.1510016
0
ARC
8
DEFAULT_255_1_234
10
5.2723683
20
52.9473042
40
1.1948131
50
173.7675579
51
180.231553
0
ARC
8
DEFAULT_255_1_234
10
4.820583
20
52.9983666
40
0.7401564
50
164.3058563
51
173.9002247
0
ARC
8
DEFAULT_255_1_234
10
4.5293899
20
53.0822656
40
0.4371288
50
148.7922025
51
164.568378
0
ARC
8
DEFAULT_255_1_234
10
4.4342351
20
53.1353929
40
0.3282386
50
144.5883898
51
148.1176286
0
ARC
8
DEFAULT_255_1_234
10
4.3999249
20
53.1593315
40
0.2864044
50
101.6440918
51
144.514236
0
ARC
8
DEFAULT_255_1_234
10
4.4424315
20
52.9904069
40
0.4604934
50
89.5284041
51
102.5819763
0
ARC
8
DEFAULT_255_1_234
10
4.4503403
20
52.9865018
40
0.464401
50
77.0437873
51
90.5081339
0
ARC
8
DEFAULT_255_1_234
10
4.4905405
20
53.1507615
40
0.2953195
50
48.2778575
51
77.4994676
0
ARC
8
DEFAULT_255_1_234
10
4.4978036
20
53.1636746
40
0.2808655
50
36.3142134
51
47.6305865
0
ARC
8
DEFAULT_255_1_234
10
4.4109343
20
53.1051515
40
0.3855453
50
18.2931786
51
35.6769206
0
ARC
8
DEFAULT_255_1_234
10
4.1566102
20
53.0178593
40
0.654423
50
8.024666
51
18.5605216
0
ARC
8
DEFAULT_255_1_234
10
3.7403022
20
52.9563792
40
1.0752407
50
1.1274072
51
8.1718305
0
ARC
8
DEFAULT_255_1_234
10
3.4167213
20
52.9436885
40
1.3990231
50
0.5424119
51
1.3863029
0
ARC
8
DEFAULT_255_1_234
10
3.598859
20
52.9709342
40
1.0682415
50
359.8090433
51
4.9407866
0
ARC
8
DEFAULT_255_1_234
10
4.0198604
20
53.0085113
40
0.6455691
50
4.8362157
51
12.2904523
0
ARC
8
DEFAULT_255_1_234
10
4.2953719
20
53.0698965
40
0.3633074
50
12.0805627
51
23.8173984
0
ARC
8
DEFAULT_255_1_234
10
4.4127425
20
53.1195919
40
0.2358723
50
24.2871213
51
31.3935614
0
ARC
8
DEFAULT_255_1_234
10
4.4652122
20
53.1539233
40
0.1732111
50
30.7407893
51
82.4657128
0
ARC
8
DEFAULT_255_1_234
10
4.4472256
20
53.0655691
40
0.263235
50
81.1060089
51
90.2184952
0
ARC
8
DEFAULT_255_1_234
10
4.4436555
20
53.0913924
40
0.2374236
50
89.3806855
51
105.6762551
0
ARC
8
DEFAULT_255_1_234
10
4.4253186
20
53.1580567
40
0.1682847
50
105.7981136
51
149.7388061
0
ARC
8
DEFAULT_255_1_234
10
4.5317264
20
53.094095
40
0.2924306
50
149.4208916
51
163.6286378
0
ARC
8
DEFAULT_255_1_234
10
4.7408152
20
53.030325
40
0.5110213
50
163.3763315
51
172.1410975
0
ARC
8
DEFAULT_255_1_234
10
5.0708871
20
52.9830518
40
0.8444586
50
172.0259487
51
178.0703232
0
ARC
8
DEFAULT_255_1_234
10
5.373896
20
52.9686906
40
1.1477868
50
177.8631668
51
179.5044149
0
ARC
8
DEFAULT_255_1_234
10
5.2666365
20
52.7372389
40
1.0404907
50
179.7995573
51
185.2460446
0
ARC
8
DEFAULT_255_1_234
10
4.8623404
20
52.6989513
40
0.6343885
50
185.1411642
51
193.0079639
0
ARC
8
DEFAULT_255_1_234
10
4.5979877
20
52.6364641
40
0.3627568
50
192.7897626
51
205.2507664
0
ARC
8
DEFAULT_255_1_234
10
4.4933424
20
52.5897415
40
0.2481908
50
205.8005384
51
211.2537509
0
ARC
8
DEFAULT_255_1_234
10
4.4409864
20
52.554658
40
0.1852521
50
210.3789793
51
238.4008143
0
ARC
8
DEFAULT_255_1_234
10
4.4390386
20
52.5593376
40
0.1882621
50
239.6520629
51
265.9793761
0
ARC
8
DEFAULT_255_1_234
10
4.4475586
20
52.6265427
40
0.2559272
50
265.1315437
51
270.060332
0
ARC
8
DEFAULT_255_1_234
10
4.4504365
20
52.5941534
40
0.2235528
50
269.3314664
51
287.2178029
0
ARC
8
DEFAULT_255_1_234
10
4.4642217
20
52.5438279
40
0.1714108
50
287.7958004
51
329.080874
0
ARC
8
DEFAULT_255_1_234
10
4.3684674
20
52.603593
40
0.2842745
50
328.6634704
51
343.3325132
0
ARC
8
DEFAULT_255_1_234
10
4.1511694
20
52.6712863
40
0.5118644
50
343.0499468
51
351.9393422
0
ARC
8
DEFAULT_255_1_234
10
3.8044994
20
52.7223949
40
0.8622784
50
351.8069023
51
357.7959224
0
ARC
8
DEFAULT_255_1_234
10
3.480955
20
52.7391721
40
1.1862365
50
357.5871873
51
359.2677531
0
LINE
8
DEFAULT_255_1_234
10
5.3305162
20
52.8228026
11
5.3305162
21
52.7015234
0
LINE
8
DEFAULT_255_1_234
10
5.3305162
20
52.7015234
11
4.9385673
21
52.7015234
0
LINE
8
DEFAULT_255_1_234
10
4.9385673
20
52.7015234
11
4.9385673
21
52.8228026
0
LINE
8
DEFAULT_255_1_234
10
4.9385673
20
52.8228026
11
5.3305162
21
52.8228026
0
LINE
8
DEFAULT_255_1_234
10
4.7875817
20
60.8944327
11
4.7875817
21
60.7016709
0
LINE
8
DEFAULT_255_1_234
10
4.049465
20
60.6815916
11
4.049465
21
60.8799755
0
LINE
8
DEFAULT_255_1_234
10
4.6389946
20
60.6615123
11
4.6389946
21
60.9048739
0
LINE
8
DEFAULT_255_1_234
10
4.1980521
20
60.9161184
11
4.1980521
21
60.6783789
0
ARC
8
DEFAULT_255_1_234
10
3.5628707
20
60.6967805
40
1.2247208
50
353.8441951
51
0.2287902
0
ARC
8
DEFAULT_255_1_234
10
4.0268211
20
60.6449806
40
0.7578929
50
344.4934747
51
353.9765454
0
ARC
8
DEFAULT_255_1_234
10
4.3260801
20
60.5598981
40
0.4467846
50
329.2803592
51
344.7472793
0
ARC
8
DEFAULT_255_1_234
10
4.4253626
20
60.5054018
40
0.3336173
50
324.9352394
51
328.6160465
0
ARC
8
DEFAULT_255_1_234
10
4.4630734
20
60.4790427
40
0.2876076
50
280.580143
51
324.9173126
0
ARC
8
DEFAULT_255_1_234
10
4.4229527
20
60.6461099
40
0.4592847
50
269.5977311
51
281.6734359
0
ARC
8
DEFAULT_255_1_234
10
4.4157433
20
60.6341173
40
0.4472986
50
256.6228859
51
270.51044
0
ARC
8
DEFAULT_255_1_234
10
4.375541
20
60.4792877
40
0.2873874
50
215.8618325
51
257.2788573
0
ARC
8
DEFAULT_255_1_234
10
4.4776442
20
60.5477977
40
0.4102928
50
197.9693508
51
215.2623606
0
ARC
8
DEFAULT_255_1_234
10
4.7261558
20
60.6316709
40
0.6725652
50
187.8816417
51
198.2346507
0
ARC
8
DEFAULT_255_1_234
10
5.1219766
20
60.6888079
40
1.0724845
50
180.8976217
51
188.0055519
0
ARC
8
DEFAULT_255_1_234
10
5.4019954
20
60.6991777
40
1.3526448
50
180.7449369
51
181.1510016
0
ARC
8
DEFAULT_255_1_234
10
5.2442683
20
60.8848042
40
1.1948131
50
173.7675579
51
180.231553
0
ARC
8
DEFAULT_255_1_234
10
4.792483
20
60.9358666
40
0.7401564
50
164.3058563
51
173.9002247
0
ARC
8
DEFAULT_255_1_234
10
4.5012899
20
61.0197656
40
0.4371288
50
148.7922025
51
164.568378
0
ARC
8
DEFAULT_255_1_234
10
4.4061351
20
61.0728929
40
0.3282386
50
144.5883898
51
148.1176286
0
ARC
8
DEFAULT_255_1_234
10
4.3718249
20
61.0968315
40
0.2864044
50
101.6440918
51
144.514236
0
ARC
8
DEFAULT_255_1_234
10
4.4143315
20
60.9279069
40
0.4604934
50
89.5284041
51
102.5819763
0
ARC
8
DEFAULT_255_1_234
10
4.4222403
20
60.9240018
40
0.464401
50
77.0437873
51
90.5081339
0
ARC
8
DEFAULT_255_1_234
10
4.4624405
20
61.0882615
40
0.2953195
50
48.2778575
51
77.4994676
0
ARC
8
DEFAULT_255_1_234
10
4.4697036
20
61.1011746
40
0.2808655
50
36.3142134
51
47.6305865
0
ARC
8
DEFAULT_255_1_234
10
4.3828343
20
61.0426515
40
0.3855453
50
18.2931786
51
35.6769206
0
ARC
8
DEFAULT_255_1_234
10
4.1285102
20
60.9553593
40
0.654423
50
8.024666
51
18.5605216
0
ARC
8
DEFAULT_255_1_234
10
3.7122022
20
60.8938792
40
1.0752407
50
1.1274072
51
8.1718305
0
ARC
8
DEFAULT_255_1_234
10
3.3886213
20
60.8811885
40
1.3990231
50
0.5424119
51
1.3863029
0
ARC
8
DEFAULT_255_1_234
10
3.570759
20
60.9084342
40
1.0682415
50
359.8090433
51
4.9407866
0
ARC
8
DEFAULT_255_1_234
10
3.9917604
20
60.9460113
40
0.6455691
50
4.8362157
51
12.2904523
0
ARC
8
DEFAULT_255_1_234
10
4.2672719
20
61.0073965
40
0.3633074
50
12.0805627
51
23.8173984
0
ARC
8
DEFAULT_255_1_234
10
4.3846425
20
61.0570919
40
0.2358723
50
24.2871213
51
31.3935614
0
ARC
8
DEFAULT_255_1_234
10
4.4371122
20
61.0914233
40
0.1732111
50
30.7407893
51
82.4657128
0
ARC
8
DEFAULT_255_1_234
10
4.4191256
20
61.0030691
40
0.263235
50
81.1060089
51
90.2184952
0
ARC
8
DEFAULT_255_1_234
10
4.4155555
20
61.0288924
40
0.2374236
50
89.3806855
51
105.6762551
0
ARC
8
DEFAULT_255_1_234
10
4.3972186
20
61.0955567
40
0.1682847
50
105.7981136
51
149.7388061
0
ARC
8
DEFAULT_255_1_234
10
4.5036264
20
61.031595
40
0.2924306
50
149.4208916
51
163.6286378
0
ARC
8
DEFAULT_255_1_234
10
4.7127152
20
60.967825
40
0.5110213
50
163.3763315
51
172.1410975
0
ARC
8
DEFAULT_255_1_234
10
5.0427871
20
60.9205518
40
0.8444586
50
172.0259487
51
178.0703232
0
ARC
8
DEFAULT_255_1_234
10
5.345796
20
60.9061906
40
1.1477868
50
177.8631668
51
179.5044149
0
ARC
8
DEFAULT_255_1_234
10
5.2385365
20
60.6747389
40
1.0404907
50
179.7995573
51
185.2460446
0
ARC
8
DEFAULT_255_1_234
10
4.8342404
20
60.6364513
40
0.6343885
50
185.1411642
51
193.0079639
0
ARC
8
DEFAULT_255_1_234
10
4.5698877
20
60.5739641
40
0.3627568
50
192.7897626
51
205.2507664
0
ARC
8
DEFAULT_255_1_234
10
4.4652424
20
60.5272415
40
0.2481908
50
205.8005384
51
211.2537509
0
ARC
8
DEFAULT_255_1_234
10
4.4128864
20
60.492158
40
0.1852521
50
210.3789793
51
238.4008143
0
ARC
8
DEFAULT_255_1_234
10
4.4109386
20
60.4968376
40
0.1882621
50
239.6520629
51
265.9793761
0
ARC
8
DEFAULT_255_1_234
10
4.4194586
20
60.5640427
40
0.2559272
50
265.1315437
51
270.060332
0
ARC
8
DEFAULT_255_1_234
10
4.4223365
20
60.5316534
40
0.2235528
50
269.3314664
51
287.2178029
0
ARC
8
DEFAULT_255_1_234
10
4.4361217
20
60.4813279
40
0.1714108
50
287.7958004
51
329.080874
0
ARC
8
DEFAULT_255_1_234
10
4.3403674
20
60.541093
40
0.2842745
50
328.6634704
51
343.3325132
0
ARC
8
DEFAULT_255_1_234
10
4.1230694
20
60.6087863
40
0.5118644
50
343.0499468
51
351.9393422
0
ARC
8
DEFAULT_255_1_234
10
3.7763994
20
60.6598949
40
0.8622784
50
351.8069023
51
357.7959224
0
ARC
8
DEFAULT_255_1_234
10
3.452855
20
60.6766721
40
1.1862365
50
357.5871873
51
359.2677531
0
LINE
8
DEFAULT_255_1_234
10
5.4188764
20
61.1715276
11
5.4188764
21
60.8301788
0
LINE
8
DEFAULT_255_1_234
10
5.4188764
20
60.8301788
11
5.7449649
21
60.8301788
0
LINE
8
DEFAULT_255_1_234
10
5.7449649
20
60.8301788
11
5.7449649
21
60.6896233
0
LINE
8
DEFAULT_255_1_234
10
5.7449649
20
60.6896233
11
5.4188764
21
60.6896233
0
LINE
8
DEFAULT_255_1_234
10
5.4188764
20
60.6896233
11
5.4188764
21
60.3201634
0
LINE
8
DEFAULT_255_1_234
10
5.4188764
20
60.3201634
11
5.269486
21
60.3201634
0
LINE
8
DEFAULT_255_1_234
10
5.269486
20
60.3201634
11
5.269486
21
60.6896233
0
LINE
8
DEFAULT_255_1_234
10
5.269486
20
60.6896233
11
4.9433975
21
60.6896233
0
LINE
8
DEFAULT_255_1_234
10
4.9433975
20
60.6896233
11
4.9433975
21
60.8301788
0
LINE
8
DEFAULT_255_1_234
10
4.9433975
20
60.8301788
11
5.269486
21
60.8301788
0
LINE
8
DEFAULT_255_1_234
10
5.269486
20
60.8301788
11
5.269486
21
61.1715276
0
LINE
8
DEFAULT_255_1_234
10
5.269486
20
61.1715276
11
5.4188764
21
61.1715276
0
LINE
8
DEFAULT_255_1_234
10
23.0448364
20
69.3098211
11
23.2440235
21
69.3098211
0
LINE
8
DEFAULT_255_1_234
10
23.2440235
20
69.3098211
11
23.6263342
21
68.3556506
0
LINE
8
DEFAULT_255_1_234
10
23.6263342
20
68.3556506
11
24.008645
21
69.3098211
0
LINE
8
DEFAULT_255_1_234
10
24.008645
20
69.3098211
11
24.2086353
21
69.3098211
0
LINE
8
DEFAULT_255_1_234
10
24.2086353
20
69.3098211
11
24.2086353
21
68.1404
0
LINE
8
DEFAULT_255_1_234
10
24.2086353
20
68.1404
11
24.0544259
21
68.1404
0
LINE
8
DEFAULT_255_1_234
10
24.0544259
20
68.1404
11
24.0544259
21
68.5957996
0
LINE
8
DEFAULT_255_1_234
10
24.0544259
20
68.5957996
11
24.068883
21
69.0873419
0
LINE
8
DEFAULT_255_1_234
10
24.068883
20
69.0873419
11
23.6849659
21
68.1404
0
LINE
8
DEFAULT_255_1_234
10
23.6849659
20
68.1404
11
23.5668994
21
68.1404
0
LINE
8
DEFAULT_255_1_234
10
23.5668994
20
68.1404
11
23.1837854
21
69.0849324
0
LINE
8
DEFAULT_255_1_234
10
23.1837854
20
69.0849324
11
23.1990458
21
68.5957996
0
LINE
8
DEFAULT_255_1_234
10
23.1990458
20
68.5957996
11
23.1990458
21
68.1404
0
LINE
8
DEFAULT_255_1_234
10
23.1990458
20
68.1404
11
23.0448364
21
68.1404
0
LINE
8
DEFAULT_255_1_234
10
23.0448364
20
68.1404
11
23.0448364
21
69.3098211
0
ENDSEC
0
EOF