0
SECTION
2
HEADER
9
$MEASUREMENT
70
1
0
ENDSEC
0
SECTION
2
TABLES
0
TABLE
2
LTYPE
0
LTYPE
72
65
70
64
2
CONTINUOUS
3
______
73
0
40
0
0
ENDTAB
0
TABLE
2
LAYER
0
LAYER
2
DEFAULT_255_2_778
70
0
62
255
6
CONTINUOUS
0
ENDTAB
0
ENDSEC
0
SECTION
2
ENTITIES
0
ARC
8
DEFAULT_255_2_778
10
45.0760754
20
0.2613481
40
0.1781907
50
359.9696534
51
0.0910427
0
ARC
8
DEFAULT_255_2_778
10
44.8549572
20
0.2611306
40
0.3993089
50
314.9705122
51
0.0176661
0
ARC
8
DEFAULT_255_2_778
10
44.8545947
20
0.2610134
40
0.3994824
50
269.992599
51
315.0191757
0
LINE
8
DEFAULT_255_2_778
10
44.8545431
20
-0.138469
11
44.8541659
21
-0.1384688
0
LINE
8
DEFAULT_255_2_778
10
0.6541659
20
-0.1384688
11
0.6537888
21
-0.138469
0
ARC
8
DEFAULT_255_2_778
10
0.6538095
20
0.2611879
40
0.3996569
50
224.991197
51
269.9970351
0
ARC
8
DEFAULT_255_2_778
10
0.6537976
20
0.2611644
40
0.3996319
50
179.9871931
51
224.9900165
0
ARC
8
DEFAULT_255_2_778
10
0.4323565
20
0.2613481
40
0.1781907
50
179.9089573
51
180.0303466
0
ARC
8
DEFAULT_255_2_778
10
0.4320003
20
99.4619141
40
0.1778346
50
179.9696212
51
180.0911393
0
ARC
8
DEFAULT_255_2_778
10
0.654146
20
99.4619538
40
0.3999803
50
135.0306604
51
179.9921839
0
ARC
8
DEFAULT_255_2_778
10
0.6538433
20
99.4616511
40
0.3999803
50
90.0078161
51
134.9693396
0
LINE
8
DEFAULT_255_2_778
10
0.6537888
20
99.8616314
11
0.6541659
21
99.8616312
0
LINE
8
DEFAULT_255_2_778
10
44.8541659
20
99.8616312
11
44.8545431
21
99.8616314
0
ARC
8
DEFAULT_255_2_778
10
44.8545609
20
99.4618259
40
0.3998055
50
45.0202917
51
90.0025458
0
ARC
8
DEFAULT_255_2_778
10
44.8546093
20
99.4619877
40
0.3996569
50
0.0029649
51
45.008803
0
ARC
8
DEFAULT_255_2_778
10
45.0764316
20
99.4619141
40
0.1778346
50
359.9088607
51
0.0303788
0
LINE
8
DEFAULT_255_2_778
10
45.2542659
20
46.6616312
11
45.2542659
21
0.2616312
0
LINE
8
DEFAULT_255_2_778
10
44.8541659
20
-0.1384688
11
0.6541659
21
-0.1384688
0
LINE
8
DEFAULT_255_2_778
10
0.2541659
20
0.2616312
11
0.2541659
21
99.4616312
0
LINE
8
DEFAULT_255_2_778
10
0.6541659
20
99.8616312
11
44.8541659
21
99.8616312
0
LINE
8
DEFAULT_255_2_778
10
45.2542659
20
99.4616312
11
45.2542659
21
53.0616312
0
LINE
8
DEFAULT_255_2_778
10
21.294009
20
95.216596
11
21.294309
21
95.216596
0
LINE
8
DEFAULT_255_2_778
10
44.665209
20
99.709196
11
38.741409
21
99.428696
0
LINE
8
DEFAULT_255_2_778
10
38.741409
20
99.428696
11
32.715809
21
98.563596
0
LINE
8
DEFAULT_255_2_778
10
32.715809
20
98.563596
11
26.792809
21
97.119696
0
LINE
8
DEFAULT_255_2_778
10
26.792809
20
97.119696
11
19.882709
21
94.749896
0
LINE
8
DEFAULT_255_2_778
10
21.261509
20
94.746896
11
22.078009
21
95.050196
0
LINE
8
DEFAULT_255_2_778
10
22.078009
20
95.050196
11
22.878609
21
95.353596
0
LINE
8
DEFAULT_255_2_778
10
22.878609
20
95.353596
11
23.683509
21
95.646296
0
LINE
8
DEFAULT_255_2_778
10
23.683509
20
95.646296
11
24.492309
21
95.927996
0
LINE
8
DEFAULT_255_2_778
10
24.492309
20
95.927996
11
25.304809
21
96.198696
0
LINE
8
DEFAULT_255_2_778
10
25.304809
20
96.198696
11
26.121109
21
96.458296
0
LINE
8
DEFAULT_255_2_778
10
26.121109
20
96.458296
11
26.940709
21
96.706696
0
LINE
8
DEFAULT_255_2_778
10
26.940709
20
96.706696
11
27.762009
21
96.943496
0
LINE
8
DEFAULT_255_2_778
10
27.762009
20
96.943496
11
28.586509
21
97.168896
0
LINE
8
DEFAULT_255_2_778
10
28.586509
20
97.168896
11
29.413809
21
97.383196
0
LINE
8
DEFAULT_255_2_778
10
29.413809
20
97.383196
11
30.244109
21
97.586196
0
LINE
8
DEFAULT_255_2_778
10
30.244109
20
97.586196
11
31.077009
21
97.777696
0
LINE
8
DEFAULT_255_2_778
10
31.077009
20
97.777696
11
31.912309
21
97.957896
0
LINE
8
DEFAULT_255_2_778
10
31.912309
20
97.957896
11
32.749909
21
98.126696
0
LINE
8
DEFAULT_255_2_778
10
32.749909
20
98.126696
11
33.588909
21
98.283896
0
LINE
8
DEFAULT_255_2_778
10
33.588909
20
98.283896
11
34.429809
21
98.429696
0
LINE
8
DEFAULT_255_2_778
10
34.429809
20
98.429696
11
35.272709
21
98.564096
0
LINE
8
DEFAULT_255_2_778
10
35.272709
20
98.564096
11
36.117309
21
98.686896
0
LINE
8
DEFAULT_255_2_778
10
36.117309
20
98.686896
11
36.963409
21
98.798196
0
LINE
8
DEFAULT_255_2_778
10
36.963409
20
98.798196
11
37.811209
21
98.897996
0
LINE
8
DEFAULT_255_2_778
10
37.811209
20
98.897996
11
38.660209
21
98.986096
0
LINE
8
DEFAULT_255_2_778
10
38.660209
20
98.986096
11
39.509009
21
99.062596
0
LINE
8
DEFAULT_255_2_778
10
39.509009
20
99.062596
11
40.358809
21
99.127396
0
LINE
8
DEFAULT_255_2_778
10
40.358809
20
99.127396
11
41.209509
21
99.180796
0
LINE
8
DEFAULT_255_2_778
10
41.209509
20
99.180796
11
42.060609
21
99.222596
0
LINE
8
DEFAULT_255_2_778
10
42.060609
20
99.222596
11
42.912309
21
99.252796
0
LINE
8
DEFAULT_255_2_778
10
42.912309
20
99.252796
11
43.764009
21
99.271296
0
LINE
8
DEFAULT_255_2_778
10
43.764009
20
99.271296
11
44.615709
21
99.278196
0
LINE
8
DEFAULT_255_2_778
10
0.281309
20
95.824296
11
0.280809
21
95.820896
0
LINE
8
DEFAULT_255_2_778
10
0.280809
20
95.820896
11
0.319209
21
95.995196
0
LINE
8
DEFAULT_255_2_778
10
0.319209
20
95.995196
11
0.438009
21
96.142396
0
LINE
8
DEFAULT_255_2_778
10
0.438009
20
96.142396
11
0.608409
21
96.217796
0
LINE
8
DEFAULT_255_2_778
10
0.608409
20
96.217796
11
0.680809
21
96.224396
0
LINE
8
DEFAULT_255_2_778
10
0.960009
20
39.861496
11
0.769509
21
39.814396
0
LINE
8
DEFAULT_255_2_778
10
0.769509
20
39.814396
11
0.643809
21
39.712296
0
LINE
8
DEFAULT_255_2_778
10
0.643809
20
39.712296
11
0.576609
21
39.601996
0
LINE
8
DEFAULT_255_2_778
10
0.576609
20
39.601996
11
0.588009
21
34.836796
0
LINE
8
DEFAULT_255_2_778
10
0.535309
20
94.343496
11
0.621609
21
74.718496
0
LINE
8
DEFAULT_255_2_778
10
0.621609
20
74.718496
11
0.646209
21
64.886596
0
LINE
8
DEFAULT_255_2_778
10
0.646209
20
64.886596
11
0.576109
21
60.122796
0
LINE
8
DEFAULT_255_2_778
10
0.576109
20
60.122796
11
0.644909
21
60.010096
0
LINE
8
DEFAULT_255_2_778
10
0.644909
20
60.010096
11
0.771609
21
59.907896
0
LINE
8
DEFAULT_255_2_778
10
0.771609
20
59.907896
11
0.960209
21
59.861596
0
ARC
8
DEFAULT_255_2_778
10
2.6544815
20
70.4617533
40
0.4003361
50
120.0277775
51
179.9850947
0
ARC
8
DEFAULT_255_2_778
10
2.6541212
20
70.46174
40
0.4001674
50
89.9893852
51
119.9821713
0
ARC
8
DEFAULT_255_2_778
10
2.6542688
20
70.4617373
40
0.4001701
50
60.0179364
51
90.0105168
0
ARC
8
DEFAULT_255_2_778
10
2.6541189
20
70.4618742
40
0.4001265
50
359.9975917
51
59.9895424
0
ARC
8
DEFAULT_255_2_778
10
42.8542698
20
70.461833
40
0.4001244
50
90.0034947
51
179.9965053
0
ARC
8
DEFAULT_255_2_778
10
42.8541422
20
70.4618543
40
0.4001031
50
0.0004399
51
89.9852206
0
ARC
8
DEFAULT_255_2_778
10
2.6541844
20
29.2614965
40
0.400039
50
180.0056061
51
270.0087334
0
ARC
8
DEFAULT_255_2_778
10
2.6542277
20
29.2614753
40
0.4000179
50
270.002537
51
359.9974314
0
ARC
8
DEFAULT_255_2_778
10
42.8541844
20
29.2614965
40
0.400039
50
180.0056061
51
270.0087334
0
ARC
8
DEFAULT_255_2_778
10
42.8542277
20
29.2614752
40
0.4000178
50
270.0025319
51
359.9974437
0
LINE
8
DEFAULT_255_2_778
10
24.2061454
20
96.2243574
11
0.6809454
21
96.2243574
0
LINE
8
DEFAULT_255_2_778
10
0.6809454
20
96.2243574
11
0.6809454
21
96.2097574
0
LINE
8
DEFAULT_255_2_778
10
2.2541454
20
60.2619574
11
2.2541454
21
70.4618574
0
LINE
8
DEFAULT_255_2_778
10
3.0542454
20
70.4618574
11
3.0542454
21
65.5467574
0
LINE
8
DEFAULT_255_2_778
10
3.0542454
20
65.5467574
11
42.4541454
21
65.5467574
0
LINE
8
DEFAULT_255_2_778
10
42.4541454
20
65.5467574
11
42.4541454
21
70.4618574
0
LINE
8
DEFAULT_255_2_778
10
43.2542454
20
70.4618574
11
43.2542454
21
60.2619574
0
LINE
8
DEFAULT_255_2_778
10
2.2541454
20
39.4614574
11
2.2541454
21
29.2614574
0
LINE
8
DEFAULT_255_2_778
10
3.0542454
20
29.2614574
11
3.0542454
21
34.1766574
0
LINE
8
DEFAULT_255_2_778
10
3.0542454
20
34.1766574
11
42.4541454
21
34.1766574
0
LINE
8
DEFAULT_255_2_778
10
42.4541454
20
34.1766574
11
42.4541454
21
29.2614574
0
LINE
8
DEFAULT_255_2_778
10
43.2542454
20
29.2614574
11
43.2542454
21
39.4614574
0
LINE
8
DEFAULT_255_2_778
10
2.4541563
20
28.9249834
11
2.4520563
21
40.0760834
0
LINE
8
DEFAULT_255_2_778
10
2.4520563
20
40.0760834
11
2.4287563
21
40.1456834
0
LINE
8
DEFAULT_255_2_778
10
2.4287563
20
40.1456834
11
2.2734563
21
40.2485834
0
LINE
8
DEFAULT_255_2_778
10
2.2734563
20
40.2485834
11
2.2591563
21
40.2493834
0
LINE
8
DEFAULT_255_2_778
10
2.4541563
20
59.6763834
11
2.4541563
21
70.7981834
0
LINE
8
DEFAULT_255_2_778
10
0.5906563
20
39.6058834
11
0.5710563
21
12.1318834
0
LINE
8
DEFAULT_255_2_778
10
0.5710563
20
12.1318834
11
0.5094563
21
0.8163834
0
LINE
8
DEFAULT_255_2_778
10
0.5094563
20
0.8163834
11
0.5120563
21
0.7806834
0
LINE
8
DEFAULT_255_2_778
10
0.5120563
20
0.7806834
11
0.5202563
21
0.7362834
0
LINE
8
DEFAULT_255_2_778
10
0.5202563
20
0.7362834
11
0.5480563
21
0.6597834
0
LINE
8
DEFAULT_255_2_778
10
0.5480563
20
0.6597834
11
0.6258563
21
0.5525834
0
LINE
8
DEFAULT_255_2_778
10
0.6258563
20
0.5525834
11
0.8076563
21
0.4496834
0
LINE
8
DEFAULT_255_2_778
10
0.8076563
20
0.4496834
11
0.9002563
21
0.4361834
0
LINE
8
DEFAULT_255_2_778
10
2.2541563
20
35.2397834
11
2.2519563
21
35.1870834
0
LINE
8
DEFAULT_255_2_778
10
2.2519563
20
35.1870834
11
2.2490563
21
35.1521834
0
LINE
8
DEFAULT_255_2_778
10
2.2490563
20
35.1521834
11
2.2424563
21
35.1000834
0
LINE
8
DEFAULT_255_2_778
10
2.2424563
20
35.1000834
11
2.2302563
21
35.0365834
0
LINE
8
DEFAULT_255_2_778
10
2.2302563
20
35.0365834
11
2.2054563
21
34.9516834
0
LINE
8
DEFAULT_255_2_778
10
2.2054563
20
34.9516834
11
2.1543563
21
34.8425834
0
LINE
8
DEFAULT_255_2_778
10
2.1543563
20
34.8425834
11
2.0588563
21
34.7275834
0
LINE
8
DEFAULT_255_2_778
10
2.0588563
20
34.7275834
11
1.9096563
21
34.6531834
0
LINE
8
DEFAULT_255_2_778
10
1.9096563
20
34.6531834
11
1.8540563
21
34.6476834
0
LINE
8
DEFAULT_255_2_778
10
1.8540563
20
34.6476834
11
1.0452563
21
34.6476834
0
LINE
8
DEFAULT_255_2_778
10
2.4541555
20
59.6714564
11
2.4520555
21
59.6467564
0
LINE
8
DEFAULT_255_2_778
10
2.4520555
20
59.6467564
11
2.4287555
21
59.5772564
0
LINE
8
DEFAULT_255_2_778
10
2.4287555
20
59.5772564
11
2.2732555
21
59.4742564
0
LINE
8
DEFAULT_255_2_778
10
2.2732555
20
59.4742564
11
0.6357555
21
59.4732564
0
LINE
8
DEFAULT_255_2_778
10
0.5367555
20
94.3461564
11
0.5391555
21
94.3728564
0
LINE
8
DEFAULT_255_2_778
10
0.5391555
20
94.3728564
11
0.5473555
21
94.4170564
0
LINE
8
DEFAULT_255_2_778
10
0.5473555
20
94.4170564
11
0.5748555
21
94.4934564
0
LINE
8
DEFAULT_255_2_778
10
0.5748555
20
94.4934564
11
0.6526555
21
94.6003564
0
LINE
8
DEFAULT_255_2_778
10
0.6526555
20
94.6003564
11
0.8341555
21
94.7032564
0
LINE
8
DEFAULT_255_2_778
10
0.8341555
20
94.7032564
11
0.9360555
21
94.7167564
0
LINE
8
DEFAULT_255_2_778
10
0.9360555
20
94.7167564
11
21.2602555
21
94.7424564
0
LINE
8
DEFAULT_255_2_778
10
2.4541555
20
33.7885564
11
2.4674555
21
33.7946564
0
ARC
8
DEFAULT_255_2_778
10
40.8044217
20
1.0615285
40
0.8003993
50
134.1190605
51
179.985512
0
ARC
8
DEFAULT_255_2_778
10
40.4544676
20
99.6601736
40
0.2014576
50
90.0981407
51
134.7964383
0
ARC
8
DEFAULT_255_2_778
10
40.453533
20
99.6621316
40
0.1994111
50
135.0022745
51
180.1438501
0
LINE
8
DEFAULT_255_2_778
10
0.6467225
20
64.8911309
11
0.6798225
21
64.9557309
0
LINE
8
DEFAULT_255_2_778
10
0.6798225
20
64.9557309
11
0.8917225
21
65.0578309
0
LINE
8
DEFAULT_255_2_778
10
0.8917225
20
65.0578309
11
1.0452225
21
65.0755309
0
LINE
8
DEFAULT_255_2_778
10
1.0452225
20
65.0755309
11
1.8540225
21
65.0755309
0
LINE
8
DEFAULT_255_2_778
10
0.4930225
20
0.7148309
11
0.4435225
21
0.4140309
0
LINE
8
DEFAULT_255_2_778
10
0.4435225
20
0.4140309
11
0.4430225
21
0.4156309
0
LINE
8
DEFAULT_255_2_778
10
44.5480225
20
59.8614309
11
44.7385225
21
59.9087309
0
LINE
8
DEFAULT_255_2_778
10
44.7385225
20
59.9087309
11
44.8642225
21
60.0109309
0
LINE
8
DEFAULT_255_2_778
10
44.8642225
20
60.0109309
11
44.9314225
21
60.1212309
0
LINE
8
DEFAULT_255_2_778
10
44.9314225
20
60.1212309
11
44.8620225
21
64.8863309
0
LINE
8
DEFAULT_255_2_778
10
0.4430225
20
0.4150309
11
0.4655225
21
0.2814309
0
LINE
8
DEFAULT_255_2_778
10
0.4655225
20
0.2814309
11
0.5509225
21
0.1404309
0
LINE
8
DEFAULT_255_2_778
10
0.5509225
20
0.1404309
11
0.6885225
21
0.0446309
0
LINE
8
DEFAULT_255_2_778
10
0.6885225
20
0.0446309
11
0.8412225
21
0.0137309
0
LINE
8
DEFAULT_255_2_778
10
0.5888225
20
34.8320309
11
0.7018225
21
34.7466309
0
LINE
8
DEFAULT_255_2_778
10
0.7018225
20
34.7466309
11
0.9420225
21
34.6561309
0
LINE
8
DEFAULT_255_2_778
10
0.9420225
20
34.6561309
11
1.0521225
21
34.6476309
0
LINE
8
DEFAULT_255_2_778
10
9.2542225
20
0.6516309
11
9.2542225
21
-0.1384691
0
LINE
8
DEFAULT_255_2_778
10
28.1137225
20
97.4415309
11
9.5441225
21
97.4415309
0
LINE
8
DEFAULT_255_2_778
10
9.5441225
20
97.4415309
11
9.5441225
21
96.2241309
0
LINE
8
DEFAULT_255_2_778
10
45.0150225
20
99.0083309
11
45.0644225
21
99.3092309
0
LINE
8
DEFAULT_255_2_778
10
45.0644225
20
99.3092309
11
45.0650225
21
99.3076309
0
LINE
8
DEFAULT_255_2_778
10
0.8430225
20
0.0139309
11
6.7668225
21
0.2944309
0
LINE
8
DEFAULT_255_2_778
10
6.7668225
20
0.2944309
11
12.7924225
21
1.1596309
0
LINE
8
DEFAULT_255_2_778
10
12.7924225
20
1.1596309
11
18.7154225
21
2.6034309
0
LINE
8
DEFAULT_255_2_778
10
18.7154225
20
2.6034309
11
25.4779225
21
4.9786309
0
LINE
8
DEFAULT_255_2_778
10
17.3946225
20
2.2814309
11
37.9641225
21
2.2814309
0
LINE
8
DEFAULT_255_2_778
10
37.9641225
20
2.2814309
11
37.9641225
21
3.4988309
0
LINE
8
DEFAULT_255_2_778
10
38.2541225
20
99.3586309
11
38.2541225
21
99.8616309
0
LINE
8
DEFAULT_255_2_778
10
40.0040225
20
0.6616309
11
40.0040225
21
1.0617309
0
LINE
8
DEFAULT_255_2_778
10
40.2541225
20
99.6616309
11
40.2541225
21
99.5004309
0
LINE
8
DEFAULT_255_2_778
10
43.0541225
20
28.9250309
11
43.0541225
21
40.0467309
0
LINE
8
DEFAULT_255_2_778
10
43.2494225
20
59.4732309
11
43.0846225
21
59.5687309
0
LINE
8
DEFAULT_255_2_778
10
43.0846225
20
59.5687309
11
43.0571225
21
59.6420309
0
LINE
8
DEFAULT_255_2_778
10
43.0571225
20
59.6420309
11
43.0544225
21
59.6666309
0
LINE
8
DEFAULT_255_2_778
10
43.0544225
20
59.6666309
11
43.0541225
21
70.7979309
0
LINE
8
DEFAULT_255_2_778
10
45.2542225
20
53.0460309
11
45.2542225
21
46.6772309
0
LINE
8
DEFAULT_255_2_778
10
44.8914225
20
64.7249309
11
44.9369225
21
81.7416309
0
LINE
8
DEFAULT_255_2_778
10
44.9369225
20
81.7416309
11
44.9986225
21
98.7165309
0
LINE
8
DEFAULT_255_2_778
10
44.9986225
20
98.7165309
11
44.9959225
21
98.7702309
0
LINE
8
DEFAULT_255_2_778
10
44.9959225
20
98.7702309
11
44.9877225
21
98.8366309
0
LINE
8
DEFAULT_255_2_778
10
44.9877225
20
98.8366309
11
44.9599225
21
98.9514309
0
LINE
8
DEFAULT_255_2_778
10
44.9599225
20
98.9514309
11
44.8822225
21
99.1120309
0
LINE
8
DEFAULT_255_2_778
10
44.8822225
20
99.1120309
11
44.7004225
21
99.2666309
0
LINE
8
DEFAULT_255_2_778
10
44.7004225
20
99.2666309
11
44.6078225
21
99.2867309
0
LINE
8
DEFAULT_255_2_778
10
43.2542225
20
64.4834309
11
43.2563225
21
64.5360309
0
LINE
8
DEFAULT_255_2_778
10
43.2563225
20
64.5360309
11
43.2592225
21
64.5709309
0
LINE
8
DEFAULT_255_2_778
10
43.2592225
20
64.5709309
11
43.2658225
21
64.6231309
0
LINE
8
DEFAULT_255_2_778
10
43.2658225
20
64.6231309
11
43.2780225
21
64.6866309
0
LINE
8
DEFAULT_255_2_778
10
43.2780225
20
64.6866309
11
43.3029225
21
64.7715309
0
LINE
8
DEFAULT_255_2_778
10
43.3029225
20
64.7715309
11
43.3539225
21
64.8805309
0
LINE
8
DEFAULT_255_2_778
10
43.3539225
20
64.8805309
11
43.4494225
21
64.9956309
0
LINE
8
DEFAULT_255_2_778
10
43.4494225
20
64.9956309
11
43.5987225
21
65.0700309
0
LINE
8
DEFAULT_255_2_778
10
43.5987225
20
65.0700309
11
43.6542225
21
65.0755309
0
LINE
8
DEFAULT_255_2_778
10
43.6542225
20
65.0755309
11
44.4631225
21
65.0755309
0
LINE
8
DEFAULT_255_2_778
10
45.2526225
20
5.3770309
11
45.2502225
21
5.3503309
0
LINE
8
DEFAULT_255_2_778
10
45.2502225
20
5.3503309
11
45.2420225
21
5.3061309
0
LINE
8
DEFAULT_255_2_778
10
45.2420225
20
5.3061309
11
45.2145225
21
5.2297309
0
LINE
8
DEFAULT_255_2_778
10
45.2145225
20
5.2297309
11
45.1367225
21
5.1228309
0
LINE
8
DEFAULT_255_2_778
10
45.1367225
20
5.1228309
11
44.9552225
21
5.0199309
0
LINE
8
DEFAULT_255_2_778
10
44.9552225
20
5.0199309
11
44.8533225
21
5.0064309
0
LINE
8
DEFAULT_255_2_778
10
44.8533225
20
5.0064309
11
24.2645225
21
4.9807309
0
LINE
8
DEFAULT_255_2_778
10
43.6542819
20
39.8615059
11
43.6539047
21
39.8615061
0
ARC
8
DEFAULT_255_2_778
10
43.6539593
20
39.4615258
40
0.3999803
50
90.0078161
51
134.9693396
0
ARC
8
DEFAULT_255_2_778
10
43.6534242
20
39.4621749
40
0.3991429
50
134.9808444
51
179.9879955
0
ARC
8
DEFAULT_255_2_778
10
43.6084797
20
39.4622587
40
0.3541985
50
180.0000258
51
180.1217696
0
ARC
8
DEFAULT_255_2_778
10
2.0763475
20
39.4617888
40
0.1778346
50
359.9088607
51
0.0303788
0
ARC
8
DEFAULT_255_2_778
10
1.8542018
20
39.4618285
40
0.3999803
50
0.0078161
51
44.9693396
0
ARC
8
DEFAULT_255_2_778
10
1.8544806
20
39.4614681
40
0.400038
50
45.034076
51
90.0030328
0
LINE
8
DEFAULT_255_2_778
10
1.8544594
20
39.8615061
11
1.8540819
21
39.8615059
0
LINE
8
DEFAULT_255_2_778
10
44.9232819
20
4.9992059
11
44.8867819
21
25.0046059
0
LINE
8
DEFAULT_255_2_778
10
44.8867819
20
25.0046059
11
44.8620819
21
34.8365059
0
LINE
8
DEFAULT_255_2_778
10
44.8620819
20
34.8365059
11
44.9322819
21
39.6004059
0
LINE
8
DEFAULT_255_2_778
10
44.9322819
20
39.6004059
11
44.8634819
21
39.7131059
0
LINE
8
DEFAULT_255_2_778
10
44.8634819
20
39.7131059
11
44.7366819
21
39.8152059
0
LINE
8
DEFAULT_255_2_778
10
44.7366819
20
39.8152059
11
44.5480819
21
39.8615059
0
LINE
8
DEFAULT_255_2_778
10
44.8615819
20
34.8320059
11
44.8284819
21
34.7675059
0
LINE
8
DEFAULT_255_2_778
10
44.8284819
20
34.7675059
11
44.6165819
21
34.6654059
0
LINE
8
DEFAULT_255_2_778
10
44.6165819
20
34.6654059
11
44.4631819
21
34.6476059
0
LINE
8
DEFAULT_255_2_778
10
44.4631819
20
34.6476059
11
43.6542819
21
34.6476059
0
LINE
8
DEFAULT_255_2_778
10
45.2269819
20
3.8988059
11
45.2274819
21
3.9023059
0
LINE
8
DEFAULT_255_2_778
10
9.2542819
20
0.2616059
11
6.0723819
21
0.2616059
0
LINE
8
DEFAULT_255_2_778
10
15.1795819
20
1.7417059
11
38.2541819
21
1.7417059
0
LINE
8
DEFAULT_255_2_778
10
45.0652819
20
99.3081059
11
45.0428819
21
99.4417059
0
LINE
8
DEFAULT_255_2_778
10
45.0428819
20
99.4417059
11
44.9573819
21
99.5827059
0
LINE
8
DEFAULT_255_2_778
10
44.9573819
20
99.5827059
11
44.8197819
21
99.6782059
0
LINE
8
DEFAULT_255_2_778
10
44.8197819
20
99.6782059
11
44.6670819
21
99.7092059
0
LINE
8
DEFAULT_255_2_778
10
44.8615819
20
64.8914059
11
44.8065819
21
64.9768059
0
LINE
8
DEFAULT_255_2_778
10
44.8065819
20
64.9768059
11
44.5662819
21
65.0673059
0
LINE
8
DEFAULT_255_2_778
10
44.5662819
20
65.0673059
11
44.4562819
21
65.0758059
0
LINE
8
DEFAULT_255_2_778
10
2.4692819
20
33.7949059
11
2.5062819
21
33.7996059
0
LINE
8
DEFAULT_255_2_778
10
2.6287819
20
33.8052059
11
3.0542819
21
33.8055059
0
LINE
8
DEFAULT_255_2_778
10
42.8541819
20
33.8055059
11
42.4541819
21
33.8055059
0
LINE
8
DEFAULT_255_2_778
10
43.6450819
20
34.6476059
11
43.4912819
21
34.6963059
0
LINE
8
DEFAULT_255_2_778
10
43.4912819
20
34.6963059
11
43.3886819
21
34.7913059
0
LINE
8
DEFAULT_255_2_778
10
43.3886819
20
34.7913059
11
43.3253819
21
34.8966059
0
LINE
8
DEFAULT_255_2_778
10
43.3253819
20
34.8966059
11
43.2936819
21
34.9792059
0
LINE
8
DEFAULT_255_2_778
10
43.2936819
20
34.9792059
11
43.2751819
21
35.0506059
0
LINE
8
DEFAULT_255_2_778
10
43.2751819
20
35.0506059
11
43.2661819
21
35.0995059
0
LINE
8
DEFAULT_255_2_778
10
43.2661819
20
35.0995059
11
43.2595819
21
35.1517059
0
LINE
8
DEFAULT_255_2_778
10
43.2595819
20
35.1517059
11
43.2566819
21
35.1866059
0
LINE
8
DEFAULT_255_2_778
10
43.2566819
20
35.1866059
11
43.2544819
21
35.2567059
0
LINE
8
DEFAULT_255_2_778
10
44.5483819
20
39.8615059
11
43.6542819
21
39.8615059
0
LINE
8
DEFAULT_255_2_778
10
1.8540819
20
39.8615059
11
0.9600819
21
39.8615059
0
LINE
8
DEFAULT_255_2_778
10
2.6491819
20
38.9455059
11
2.4774819
21
39.0479059
0
LINE
8
DEFAULT_255_2_778
10
2.4774819
20
39.0479059
11
2.4552819
21
39.1138059
0
LINE
8
DEFAULT_255_2_778
10
2.4552819
20
39.1138059
11
2.4541819
21
39.1305059
0
LINE
8
DEFAULT_255_2_778
10
43.0391819
20
65.9285059
11
43.0018819
21
65.9238059
0
LINE
8
DEFAULT_255_2_778
10
42.8793819
20
65.9177059
11
42.4541819
21
65.9174059
0
ARC
8
DEFAULT_255_2_778
10
1.8546395
20
60.0979777
40
0.2363544
50
269.8630601
51
270.0456759
0
ARC
8
DEFAULT_255_2_778
10
1.8548197
20
60.2608239
40
0.3992006
50
270.001181
51
315.0157306
0
ARC
8
DEFAULT_255_2_778
10
1.8543693
20
60.2612291
40
0.3998055
50
315.0202917
51
0.0025458
0
ARC
8
DEFAULT_255_2_778
10
2.07634
20
60.2613412
40
0.1778347
50
359.9696212
51
0.0911392
0
ARC
8
DEFAULT_255_2_778
10
43.6084732
20
60.2608713
40
0.3541994
50
179.8782304
51
179.9999742
0
ARC
8
DEFAULT_255_2_778
10
43.6532423
20
60.2608827
40
0.3989684
50
180.0016188
51
225.0295429
0
ARC
8
DEFAULT_255_2_778
10
43.6536056
20
60.2607663
40
0.3991429
50
224.9808444
51
269.9879955
0
ARC
8
DEFAULT_255_2_778
10
43.6537102
20
60.0976302
40
0.2360069
50
269.9542997
51
270.1370126
0
LINE
8
DEFAULT_255_2_778
10
0.9600746
20
59.861624
11
1.8540746
21
59.861624
0
LINE
8
DEFAULT_255_2_778
10
43.6542746
20
59.861624
11
44.5483746
21
59.861624
0
LINE
8
DEFAULT_255_2_778
10
3.0542746
20
65.917624
11
2.6541746
21
65.917624
0
ARC
8
DEFAULT_255_2_778
10
5.0538476
20
99.6615609
40
0.2003082
50
0.0200331
51
44.8911441
0
ARC
8
DEFAULT_255_2_778
10
5.0537786
20
99.6605825
40
0.2010488
50
45.0747902
51
89.89249
0
ARC
8
DEFAULT_255_2_778
10
40.4544043
20
0.0627537
40
0.2012231
50
225.1760212
51
269.9007557
0
ARC
8
DEFAULT_255_2_778
10
40.4531993
20
0.061019
40
0.1991438
50
179.9102566
51
225.0700995
0
LINE
8
DEFAULT_255_2_778
10
1.8632558
20
65.0755309
11
2.0169558
21
65.0268309
0
LINE
8
DEFAULT_255_2_778
10
2.0169558
20
65.0268309
11
2.1196558
21
64.9318309
0
LINE
8
DEFAULT_255_2_778
10
2.1196558
20
64.9318309
11
2.1828558
21
64.8265309
0
LINE
8
DEFAULT_255_2_778
10
2.1828558
20
64.8265309
11
2.2146558
21
64.7440309
0
LINE
8
DEFAULT_255_2_778
10
2.2146558
20
64.7440309
11
2.2331558
21
64.6725309
0
LINE
8
DEFAULT_255_2_778
10
2.2331558
20
64.6725309
11
2.2421558
21
64.6236309
0
LINE
8
DEFAULT_255_2_778
10
2.2421558
20
64.6236309
11
2.2487558
21
64.5715309
0
LINE
8
DEFAULT_255_2_778
10
2.2487558
20
64.5715309
11
2.2516558
21
64.5366309
0
LINE
8
DEFAULT_255_2_778
10
2.2516558
20
64.5366309
11
2.2538558
21
64.4664309
0
LINE
8
DEFAULT_255_2_778
10
2.4649558
20
65.9288309
11
2.4540558
21
65.9351309
0
LINE
8
DEFAULT_255_2_778
10
30.3287558
20
97.9815309
11
9.2541558
21
97.9815309
0
LINE
8
DEFAULT_255_2_778
10
9.2541558
20
96.2244309
11
9.2541558
21
99.8616309
0
LINE
8
DEFAULT_255_2_778
10
5.2541558
20
96.2244309
11
5.2541558
21
99.6616309
0
LINE
8
DEFAULT_255_2_778
10
40.2540558
20
0.0613309
11
40.2540558
21
3.4985309
0
LINE
8
DEFAULT_255_2_778
10
38.2540558
20
3.4988309
11
38.2540558
21
-0.1384691
0
LINE
8
DEFAULT_255_2_778
10
43.0541558
20
39.1262309
11
43.0504558
21
39.0974309
0
LINE
8
DEFAULT_255_2_778
10
43.0504558
20
39.0974309
11
42.9961558
21
39.0037309
0
LINE
8
DEFAULT_255_2_778
10
42.9961558
20
39.0037309
11
42.8541558
21
38.9455309
0
LINE
8
DEFAULT_255_2_778
10
42.8541558
20
38.9455309
11
2.6541558
21
38.9455309
0
LINE
8
DEFAULT_255_2_778
10
0.4358558
20
40.4441309
11
0.4382558
21
40.4190309
0
LINE
8
DEFAULT_255_2_778
10
0.4382558
20
40.4190309
11
0.4652558
21
40.3454309
0
LINE
8
DEFAULT_255_2_778
10
0.4652558
20
40.3454309
11
0.6356558
21
40.2499309
0
LINE
8
DEFAULT_255_2_778
10
0.6356558
20
40.2499309
11
2.2540558
21
40.2499309
0
LINE
8
DEFAULT_255_2_778
10
38.2540558
20
0.6616309
11
40.2540558
21
0.6616309
0
LINE
8
DEFAULT_255_2_778
10
40.2540558
20
0.2616309
11
38.2540558
21
0.2616309
0
LINE
8
DEFAULT_255_2_778
10
40.4491527
20
3.2566308
11
40.2824527
21
3.3508308
0
LINE
8
DEFAULT_255_2_778
10
40.2824527
20
3.3508308
11
40.2562527
21
3.4220308
0
LINE
8
DEFAULT_255_2_778
10
40.2562527
20
3.4220308
11
40.2541527
21
3.4498308
0
LINE
8
DEFAULT_255_2_778
10
45.2539527
20
3.6562308
11
45.2520527
21
3.6247308
0
LINE
8
DEFAULT_255_2_778
10
45.2520527
20
3.6247308
11
45.2475527
21
3.5927308
0
LINE
8
DEFAULT_255_2_778
10
45.2475527
20
3.5927308
11
45.2338527
21
3.5382308
0
LINE
8
DEFAULT_255_2_778
10
45.2338527
20
3.5382308
11
45.1965527
21
3.4551308
0
LINE
8
DEFAULT_255_2_778
10
45.1965527
20
3.4551308
11
45.1023527
21
3.3455308
0
LINE
8
DEFAULT_255_2_778
10
45.1023527
20
3.3455308
11
44.9356527
21
3.2654308
0
LINE
8
DEFAULT_255_2_778
10
44.9356527
20
3.2654308
11
44.8536527
21
3.2566308
0
LINE
8
DEFAULT_255_2_778
10
44.8536527
20
3.2566308
11
40.4536527
21
3.2566308
0
LINE
8
DEFAULT_255_2_778
10
2.5192527
20
33.8012308
11
2.6033527
21
33.8049308
0
LINE
8
DEFAULT_255_2_778
10
2.5094527
20
33.7999308
11
2.5126527
21
33.8004308
0
LINE
8
DEFAULT_255_2_778
10
42.869275
20
33.8054072
11
42.929875
21
33.8041072
0
LINE
8
DEFAULT_255_2_778
10
42.944375
20
33.8039072
11
43.019575
21
33.7970072
0
LINE
8
DEFAULT_255_2_778
10
43.024275
20
33.7965072
11
43.042875
21
33.7943072
0
LINE
8
DEFAULT_255_2_778
10
43.043375
20
33.7943072
11
43.054175
21
33.7880072
0
LINE
8
DEFAULT_255_2_778
10
44.877775
20
40.2499072
11
45.042275
21
40.3441072
0
LINE
8
DEFAULT_255_2_778
10
45.042275
20
40.3441072
11
45.069775
21
40.4163072
0
LINE
8
DEFAULT_255_2_778
10
45.069775
20
40.4163072
11
45.072475
21
40.4399072
0
LINE
8
DEFAULT_255_2_778
10
45.072475
20
40.4399072
11
45.072675
21
40.4494072
0
LINE
8
DEFAULT_255_2_778
10
43.054175
20
40.0517072
11
43.056375
21
40.0763072
0
LINE
8
DEFAULT_255_2_778
10
43.056375
20
40.0763072
11
43.079575
21
40.1459072
0
LINE
8
DEFAULT_255_2_778
10
43.079575
20
40.1459072
11
43.235175
21
40.2488072
0
LINE
8
DEFAULT_255_2_778
10
43.235175
20
40.2488072
11
44.872675
21
40.2499072
0
ARC
8
DEFAULT_255_2_778
10
21.2044292
20
51.7617771
40
0.0999083
50
359.9474027
51
90.0525973
0
ARC
8
DEFAULT_255_2_778
10
21.2044289
20
47.9615938
40
0.0999087
50
269.9475899
51
0.0525365
0
ARC
8
DEFAULT_255_2_778
10
20.4044376
20
47.9616339
40
0.0999487
50
224.8980302
51
269.8852919
0
ARC
8
DEFAULT_255_2_778
10
20.4041861
20
47.9618855
40
0.0999487
50
180.1147081
51
225.1019698
0
ARC
8
DEFAULT_255_2_778
10
20.4041861
20
51.7614853
40
0.0999487
50
134.8980302
51
179.8852919
0
ARC
8
DEFAULT_255_2_778
10
20.4044376
20
51.7617368
40
0.0999487
50
90.1147081
51
135.1019698
0
LINE
8
DEFAULT_255_2_778
10
21.3043375
20
51.7616854
11
21.3043375
21
47.9616854
0
LINE
8
DEFAULT_255_2_778
10
21.2043375
20
47.8616854
11
20.4042375
21
47.8616854
0
LINE
8
DEFAULT_255_2_778
10
20.3042375
20
47.9616854
11
20.3042375
21
51.7616854
0
LINE
8
DEFAULT_255_2_778
10
20.4042375
20
51.8616854
11
21.2043375
21
51.8616854
0
ARC
8
DEFAULT_255_2_778
10
9.4320529
20
52.7118925
40
0.1778346
50
179.9696212
51
180.0911393
0
ARC
8
DEFAULT_255_2_778
10
9.6541987
20
52.7119322
40
0.3999803
50
135.0306604
51
179.9921839
0
ARC
8
DEFAULT_255_2_778
10
9.653896
20
52.7116295
40
0.3999803
50
90.0078161
51
134.9693396
0
LINE
8
DEFAULT_255_2_778
10
9.6538414
20
53.1116098
11
9.6542186
21
53.1116096
0
LINE
8
DEFAULT_255_2_778
10
22.8543186
20
53.1116096
11
22.8546961
21
53.1116098
0
ARC
8
DEFAULT_255_2_778
10
22.8547854
20
52.711978
40
0.3996318
50
45.0099835
51
90.0128069
0
ARC
8
DEFAULT_255_2_778
10
22.8547619
20
52.7119661
40
0.3996569
50
0.0029649
51
45.008803
0
ARC
8
DEFAULT_255_2_778
10
23.0765842
20
52.7118925
40
0.1778345
50
359.9088607
51
0.0303788
0
ARC
8
DEFAULT_255_2_778
10
23.076584
20
47.0113267
40
0.1778348
50
359.9696212
51
0.0911392
0
ARC
8
DEFAULT_255_2_778
10
22.8549364
20
47.0111808
40
0.3994823
50
314.9808243
51
0.007401
0
ARC
8
DEFAULT_255_2_778
10
22.8551318
20
47.0104039
40
0.398795
50
269.9913958
51
315.0398721
0
ARC
8
DEFAULT_255_2_778
10
22.8548837
20
46.8480888
40
0.23648
50
269.8630843
51
270.0456032
0
ARC
8
DEFAULT_255_2_778
10
9.653654
20
46.8477412
40
0.2361323
50
269.9543726
51
270.1369884
0
ARC
8
DEFAULT_255_2_778
10
9.6535496
20
47.0107519
40
0.399143
50
224.9808444
51
269.9879955
0
ARC
8
DEFAULT_255_2_778
10
9.6540239
20
47.0112147
40
0.3998055
50
179.9974542
51
224.9797083
0
ARC
8
DEFAULT_255_2_778
10
9.4320531
20
47.0113267
40
0.1778347
50
179.9088608
51
180.0303788
0
LINE
8
DEFAULT_255_2_778
10
9.6542186
20
53.1116096
11
22.8543186
21
53.1116096
0
LINE
8
DEFAULT_255_2_778
10
23.2544186
20
52.7116096
11
23.2544186
21
47.0116096
0
LINE
8
DEFAULT_255_2_778
10
22.8543186
20
46.6116096
11
9.6542186
21
46.6116096
0
LINE
8
DEFAULT_255_2_778
10
9.2542186
20
47.0116096
11
9.2542186
21
52.7116096
0
ARC
8
DEFAULT_255_2_778
10
22.0034924
20
52.560996
40
0.6008415
50
0.0428656
51
67.56096
0
ARC
8
DEFAULT_255_2_778
10
22.0037315
20
47.161735
40
0.6006024
50
292.4237853
51
359.962837
0
ARC
8
DEFAULT_255_2_778
10
19.7248214
20
47.1604355
40
0.3319898
50
179.7911777
51
179.9900515
0
ARC
8
DEFAULT_255_2_778
10
19.6969332
20
47.1605398
40
0.3041016
50
180.0087919
51
223.9600972
0
ARC
8
DEFAULT_255_2_778
10
19.6841399
20
47.1471316
40
0.2855863
50
223.8054338
51
269.9385895
0
ARC
8
DEFAULT_255_2_778
10
22.008423
20
47.157156
40
0.295645
50
270.87422
51
0.8700846
0
ARC
8
DEFAULT_255_2_778
10
22.0082267
20
52.5657446
40
0.2958383
50
359.1673547
51
89.088335
0
ARC
8
DEFAULT_255_2_778
10
19.68414
20
52.5759589
40
0.2855867
50
90.0614391
51
136.1945279
0
ARC
8
DEFAULT_255_2_778
10
19.6967548
20
52.5626231
40
0.3039232
50
136.0263164
51
180.0044953
0
ARC
8
DEFAULT_255_2_778
10
19.7257679
20
52.5626572
40
0.3329363
50
180.009966
51
180.2085228
0
LINE
8
DEFAULT_255_2_778
10
19.1044338
20
52.5839455
11
19.1060338
21
52.6220455
0
LINE
8
DEFAULT_255_2_778
10
19.1060338
20
52.6220455
11
19.1086338
21
52.6535455
0
LINE
8
DEFAULT_255_2_778
10
19.1086338
20
52.6535455
11
19.1131338
21
52.6869455
0
LINE
8
DEFAULT_255_2_778
10
19.1131338
20
52.6869455
11
19.1242338
21
52.7424455
0
LINE
8
DEFAULT_255_2_778
10
19.1242338
20
52.7424455
11
19.1483338
21
52.8194455
0
LINE
8
DEFAULT_255_2_778
10
19.1483338
20
52.8194455
11
19.2023338
21
52.9252455
0
LINE
8
DEFAULT_255_2_778
10
19.2023338
20
52.9252455
11
19.3105338
21
53.0480455
0
LINE
8
DEFAULT_255_2_778
10
19.3105338
20
53.0480455
11
19.4063338
21
53.1115455
0
LINE
8
DEFAULT_255_2_778
10
22.6043338
20
52.5614455
11
22.6043338
21
47.1613455
0
LINE
8
DEFAULT_255_2_778
10
19.6838338
20
46.8615455
11
22.0129338
21
46.8615455
0
LINE
8
DEFAULT_255_2_778
10
22.3040338
20
47.1616455
11
22.3040338
21
52.5614455
0
LINE
8
DEFAULT_255_2_778
10
22.0129338
20
52.8615455
11
19.6838338
21
52.8615455
0
LINE
8
DEFAULT_255_2_778
10
19.3928338
20
52.5614455
11
19.3928338
21
47.1616455
0
LINE
8
DEFAULT_255_2_778
10
15.8042338
20
46.6115455
11
15.8042338
21
53.1115455
0
LINE
8
DEFAULT_255_2_778
10
14.8041338
20
46.6115455
11
14.8041338
21
53.1115455
0
LINE
8
DEFAULT_255_2_778
10
42.9986338
20
65.9229455
11
42.9955338
21
65.9224455
0
LINE
8
DEFAULT_255_2_778
10
42.8589338
20
60.7775455
11
43.0314338
21
60.6744455
0
LINE
8
DEFAULT_255_2_778
10
43.0314338
20
60.6744455
11
43.0534338
21
60.6093455
0
LINE
8
DEFAULT_255_2_778
10
43.0534338
20
60.6093455
11
43.0545338
21
60.5929455
0
LINE
8
DEFAULT_255_2_778
10
45.0706338
20
40.4922455
11
45.0724338
21
59.2739455
0
LINE
8
DEFAULT_255_2_778
10
45.0724338
20
59.2789455
11
45.0701338
21
59.3041455
0
LINE
8
DEFAULT_255_2_778
10
45.0701338
20
59.3041455
11
45.0428338
21
59.3776455
0
LINE
8
DEFAULT_255_2_778
10
45.0428338
20
59.3776455
11
44.8724338
21
59.4732455
0
LINE
8
DEFAULT_255_2_778
10
44.8724338
20
59.4732455
11
43.2540338
21
59.4732455
0
LINE
8
DEFAULT_255_2_778
10
42.9888235
20
65.9219426
11
42.9047235
21
65.9182426
0
LINE
8
DEFAULT_255_2_778
10
43.0542235
20
65.9346426
11
43.0417235
21
65.9285426
0
LINE
8
DEFAULT_255_2_778
10
0.6306235
20
59.4732426
11
0.4660235
21
59.3790426
0
LINE
8
DEFAULT_255_2_778
10
0.4660235
20
59.3790426
11
0.4385235
21
59.3068426
0
LINE
8
DEFAULT_255_2_778
10
0.4385235
20
59.3068426
11
0.4359235
21
59.2832426
0
LINE
8
DEFAULT_255_2_778
10
0.4359235
20
59.2832426
11
0.4356235
21
59.2737426
0
LINE
8
DEFAULT_255_2_778
10
2.4541235
20
60.5969426
11
2.4570235
21
60.6218426
0
LINE
8
DEFAULT_255_2_778
10
2.4570235
20
60.6218426
11
2.4962235
21
60.7022426
0
LINE
8
DEFAULT_255_2_778
10
2.4962235
20
60.7022426
11
2.6541235
21
60.7776426
0
LINE
8
DEFAULT_255_2_778
10
2.6541235
20
60.7776426
11
42.8541235
21
60.7776426
0
LINE
8
DEFAULT_255_2_778
10
0.4375183
20
59.3009049
11
0.4356183
21
40.4491049
0
LINE
8
DEFAULT_255_2_778
10
2.6390183
20
65.9176049
11
2.5782183
21
65.9189049
0
LINE
8
DEFAULT_255_2_778
10
2.5636183
20
65.9192049
11
2.4888183
21
65.9261049
0
LINE
8
DEFAULT_255_2_778
10
2.4835183
20
65.9266049
11
2.4652183
21
65.9287049
0
LINE
8
DEFAULT_255_2_778
10
5.2542183
20
99.4615049
11
9.2542183
21
99.4615049
0
LINE
8
DEFAULT_255_2_778
10
9.2539183
20
99.0615049
11
5.2539183
21
99.0615049
0
LINE
8
DEFAULT_255_2_778
10
24.2462183
20
4.9785049
11
23.4469183
21
4.6565049
0
LINE
8
DEFAULT_255_2_778
10
23.4469183
20
4.6565049
11
22.6463183
21
4.3531049
0
LINE
8
DEFAULT_255_2_778
10
22.6463183
20
4.3531049
11
21.8414183
21
4.0604049
0
LINE
8
DEFAULT_255_2_778
10
21.8414183
20
4.0604049
11
21.0326183
21
3.7786049
0
LINE
8
DEFAULT_255_2_778
10
21.0326183
20
3.7786049
11
20.2201183
21
3.5080049
0
LINE
8
DEFAULT_255_2_778
10
20.2201183
20
3.5080049
11
19.4038183
21
3.2484049
0
LINE
8
DEFAULT_255_2_778
10
19.4038183
20
3.2484049
11
18.5842183
21
3.0000049
0
LINE
8
DEFAULT_255_2_778
10
18.5842183
20
3.0000049
11
17.7629183
21
2.7632049
0
LINE
8
DEFAULT_255_2_778
10
17.7629183
20
2.7632049
11
16.9385183
21
2.5377049
0
LINE
8
DEFAULT_255_2_778
10
16.9385183
20
2.5377049
11
16.1111183
21
2.3234049
0
LINE
8
DEFAULT_255_2_778
10
16.1111183
20
2.3234049
11
15.2808183
21
2.1205049
0
LINE
8
DEFAULT_255_2_778
10
15.2808183
20
2.1205049
11
14.4479183
21
1.9289049
0
LINE
8
DEFAULT_255_2_778
10
14.4479183
20
1.9289049
11
13.6126183
21
1.7485049
0
LINE
8
DEFAULT_255_2_778
10
13.6126183
20
1.7485049
11
12.7750183
21
1.5797049
0
LINE
8
DEFAULT_255_2_778
10
12.7750183
20
1.5797049
11
11.9360183
21
1.4225049
0
LINE
8
DEFAULT_255_2_778
10
11.9360183
20
1.4225049
11
11.0951183
21
1.2767049
0
LINE
8
DEFAULT_255_2_778
10
11.0951183
20
1.2767049
11
10.2522183
21
1.1423049
0
LINE
8
DEFAULT_255_2_778
10
10.2522183
20
1.1423049
11
9.4076183
21
1.0196049
0
LINE
8
DEFAULT_255_2_778
10
9.4076183
20
1.0196049
11
8.5615183
21
0.9082049
0
LINE
8
DEFAULT_255_2_778
10
8.5615183
20
0.9082049
11
7.7138183
21
0.8084049
0
LINE
8
DEFAULT_255_2_778
10
7.7138183
20
0.8084049
11
6.8647183
21
0.7203049
0
LINE
8
DEFAULT_255_2_778
10
6.8647183
20
0.7203049
11
6.0159183
21
0.6439049
0
LINE
8
DEFAULT_255_2_778
10
6.0159183
20
0.6439049
11
5.1661183
21
0.5790049
0
LINE
8
DEFAULT_255_2_778
10
5.1661183
20
0.5790049
11
4.3154183
21
0.5259049
0
LINE
8
DEFAULT_255_2_778
10
4.3154183
20
0.5259049
11
3.4643183
21
0.4841049
0
LINE
8
DEFAULT_255_2_778
10
3.4643183
20
0.4841049
11
2.6126183
21
0.4539049
0
LINE
8
DEFAULT_255_2_778
10
2.6126183
20
0.4539049
11
1.7609183
21
0.4354049
0
LINE
8
DEFAULT_255_2_778
10
1.7609183
20
0.4354049
11
0.9089183
21
0.4285049
0
LINE
8
DEFAULT_255_2_778
10
21.3022183
20
3.4987049
11
44.8274183
21
3.4987049
0
LINE
8
DEFAULT_255_2_778
10
44.8274183
20
3.4987049
11
44.8999183
21
3.5053049
0
LINE
8
DEFAULT_255_2_778
10
44.8999183
20
3.5053049
11
45.0700183
21
3.5807049
0
LINE
8
DEFAULT_255_2_778
10
45.0700183
20
3.5807049
11
45.1891183
21
3.7276049
0
LINE
8
DEFAULT_255_2_778
10
45.1891183
20
3.7276049
11
45.2542183
21
4.0234049
0
ARC
8
DEFAULT_255_2_778
10
21.2044292
20
51.7617771
40
0.0999083
50
359.9474027
51
90.0525973
0
ARC
8
DEFAULT_255_2_778
10
21.2044289
20
47.9615938
40
0.0999087
50
269.9475899
51
0.0525365
0
ARC
8
DEFAULT_255_2_778
10
20.4044376
20
47.9616339
40
0.0999487
50
224.8980302
51
269.8852919
0
ARC
8
DEFAULT_255_2_778
10
20.4041861
20
47.9618855
40
0.0999487
50
180.1147081
51
225.1019698
0
ARC
8
DEFAULT_255_2_778
10
20.4041861
20
51.7614853
40
0.0999487
50
134.8980302
51
179.8852919
0
ARC
8
DEFAULT_255_2_778
10
20.4044376
20
51.7617368
40
0.0999487
50
90.1147081
51
135.1019698
0
LINE
8
DEFAULT_255_2_778
10
21.3043375
20
51.7616854
11
21.3043375
21
47.9616854
0
LINE
8
DEFAULT_255_2_778
10
21.2043375
20
47.8616854
11
20.4042375
21
47.8616854
0
LINE
8
DEFAULT_255_2_778
10
20.3042375
20
47.9616854
11
20.3042375
21
51.7616854
0
LINE
8
DEFAULT_255_2_778
10
20.4042375
20
51.8616854
11
21.2043375
21
51.8616854
0
LINE
8
DEFAULT_255_2_778
10
19.1040979
20
52.561452
11
19.1059979
21
47.100752
0
LINE
8
DEFAULT_255_2_778
10
19.1059979
20
47.100752
11
19.1085979
21
47.069252
0
LINE
8
DEFAULT_255_2_778
10
19.1085979
20
47.069252
11
19.1127979
21
47.035852
0
LINE
8
DEFAULT_255_2_778
10
19.1127979
20
47.035852
11
19.1238979
21
46.980352
0
LINE
8
DEFAULT_255_2_778
10
19.1238979
20
46.980352
11
19.1479979
21
46.903352
0
LINE
8
DEFAULT_255_2_778
10
19.1479979
20
46.903352
11
19.2019979
21
46.797552
0
LINE
8
DEFAULT_255_2_778
10
19.2019979
20
46.797552
11
19.3101979
21
46.674752
0
LINE
8
DEFAULT_255_2_778
10
19.3101979
20
46.674752
11
19.3998979
21
46.614152
0
LINE
8
DEFAULT_255_2_778
10
7.99555
20
63.6004333
11
7.99685
21
62.1187333
0
LINE
8
DEFAULT_255_2_778
10
7.99685
20
62.1187333
11
6.51095
21
62.1187333
0
LINE
8
DEFAULT_255_2_778
10
6.51255
20
62.1451885
11
6.51125
21
63.6043885
0
LINE
8
DEFAULT_255_2_778
10
6.51125
20
63.6043885
11
7.99715
21
63.6043885
0
ARC
8
DEFAULT_255_2_778
10
26.369191
20
41.3128361
40
0.2228443
50
13.7232481
51
87.7960662
0
ARC
8
DEFAULT_255_2_778
10
26.1153881
20
41.2014517
40
0.4981433
50
12.8473093
51
19.2520881
0
ARC
8
DEFAULT_255_2_778
10
26.2595021
20
41.3077789
40
0.3415874
50
326.8864972
51
0.7441977
0
ARC
8
DEFAULT_255_2_778
10
26.3025666
20
41.303274
40
0.3036991
50
280.4318022
51
323.1573104
0
ARC
8
DEFAULT_255_2_778
10
26.2203806
20
41.608346
40
0.6191386
50
272.3215789
51
282.8005751
0
LINE
8
DEFAULT_255_2_778
10
26.2454608
20
40.9897156
11
26.2454608
21
40.8243156
0
ARC
8
DEFAULT_255_2_778
10
26.3500158
20
40.2542777
40
0.5795472
50
93.2363567
51
100.3935344
0
ARC
8
DEFAULT_255_2_778
10
26.3417486
20
40.3746491
40
0.4589033
50
90.0313298
51
93.0542708
0
ARC
8
DEFAULT_255_2_778
10
26.3537581
20
40.5580819
40
0.2757431
50
52.5488578
51
92.5483829
0
ARC
8
DEFAULT_255_2_778
10
26.3279903
20
40.5544511
40
0.2948596
50
14.1969511
51
49.0006253
0
ARC
8
DEFAULT_255_2_778
10
26.1139184
20
40.4804041
40
0.5209109
50
10.5876071
51
16.3184152
0
ARC
8
DEFAULT_255_2_778
10
26.017395
20
40.5582354
40
0.6088284
50
0.0111813
51
1.6829152
0
ARC
8
DEFAULT_255_2_778
10
26.2599192
20
40.5458714
40
0.3665168
50
334.2258827
51
1.9517517
0
ARC
8
DEFAULT_255_2_778
10
26.3638573
20
40.5118239
40
0.2585231
50
276.9951503
51
331.0029423
0
ARC
8
DEFAULT_255_2_778
10
26.3135223
20
40.6904646
40
0.4428632
50
279.4534237
51
280.6466064
0
ARC
8
DEFAULT_255_2_778
10
26.3835773
20
40.6187586
40
0.3651529
50
237.3557786
51
270.4210558
0
ARC
8
DEFAULT_255_2_778
10
26.3776884
20
40.5733278
40
0.3243115
50
191.9645107
51
233.9002137
0
ARC
8
DEFAULT_255_2_778
10
26.573677
20
40.639632
40
0.5303417
50
192.32626
51
194.5835878
0
LINE
8
DEFAULT_255_2_778
10
26.0555608
20
40.5264156
11
25.9068608
21
40.5264156
0
LINE
8
DEFAULT_255_2_778
10
25.9068608
20
40.5264156
11
25.9068608
21
40.4851156
0
ARC
8
DEFAULT_255_2_778
10
26.5005217
20
40.5571346
40
0.5980135
50
186.9169449
51
206.7078344
0
ARC
8
DEFAULT_255_2_778
10
26.3059035
20
40.466161
40
0.383322
50
207.6348644
51
264.9837575
0
ARC
8
DEFAULT_255_2_778
10
26.3642047
20
40.7593793
40
0.6812878
50
262.2545935
51
270.200805
0
ARC
8
DEFAULT_255_2_778
10
26.3647897
20
40.9832164
40
0.9051227
50
270.1141194
51
275.3580248
0
ARC
8
DEFAULT_255_2_778
10
26.3469481
20
41.188884
40
1.1115585
50
275.2837276
51
278.026738
0
ARC
8
DEFAULT_255_2_778
10
26.4663816
20
40.3870345
40
0.3009533
50
276.8278134
51
343.4440547
0
ARC
8
DEFAULT_255_2_778
10
26.0360738
20
40.5614267
40
0.7644137
50
340.1033125
51
354.9926831
0
ARC
8
DEFAULT_255_2_778
10
25.6342474
20
40.614972
40
1.1695226
50
354.0976657
51
355.2544083
0
ARC
8
DEFAULT_255_2_778
10
25.918241
20
40.4502499
40
0.884136
50
4.4088182
51
16.7514277
0
ARC
8
DEFAULT_255_2_778
10
26.4195629
20
40.608549
40
0.3585332
50
15.6182515
51
43.2502283
0
ARC
8
DEFAULT_255_2_778
10
26.5278259
20
40.701315
40
0.2162171
50
45.0027518
51
81.4260566
0
ARC
8
DEFAULT_255_2_778
10
26.4960929
20
41.1841158
40
0.2765013
50
283.3764175
51
359.6044802
0
ARC
8
DEFAULT_255_2_778
10
26.20217
20
41.2364637
40
0.5729921
50
354.5665219
51
0.115183
0
ARC
8
DEFAULT_255_2_778
10
26.0087398
20
41.2499812
40
0.7665207
50
359.0756547
51
14.643876
0
ARC
8
DEFAULT_255_2_778
10
26.4269034
20
41.3739041
40
0.3309158
50
12.1877384
51
83.9478928
0
ARC
8
DEFAULT_255_2_778
10
26.3805723
20
41.1415215
40
0.5672983
50
81.7686357
51
90.2233635
0
ARC
8
DEFAULT_255_2_778
10
26.3660097
20
41.0523403
40
0.6565914
50
88.9221565
51
107.0001871
0
ARC
8
DEFAULT_255_2_778
10
26.275844
20
41.3476638
40
0.3478104
50
107.0198479
51
177.3128371
0
ARC
8
DEFAULT_255_2_778
10
26.6190462
20
41.2810629
40
0.6955887
50
173.1546468
51
180.1768746
0
ARC
8
DEFAULT_255_2_778
10
26.444092
20
41.2693926
40
0.3553589
50
153.3735662
51
178.4643967
0
ARC
8
DEFAULT_255_2_778
10
26.3122953
20
41.323928
40
0.2133478
50
87.3762299
51
150.6021066
0
ARC
8
DEFAULT_255_2_778
10
26.3360069
20
41.1383691
40
0.3989268
50
89.9865115
51
92.0032809
0
ARC
8
DEFAULT_255_2_778
10
26.3352117
20
41.0663924
40
0.4709043
50
84.7426053
51
89.8918182
0
ARC
8
DEFAULT_255_2_778
10
22.7169859
20
41.3799225
40
1.0499436
50
334.7177858
51
345.9719566
0
ARC
8
DEFAULT_255_2_778
10
23.0397342
20
41.2986723
40
0.7171261
50
346.0194169
51
359.653188
0
ARC
8
DEFAULT_255_2_778
10
23.1990212
20
41.2977581
40
0.5578365
50
359.6480531
51
24.2436429
0
ARC
8
DEFAULT_255_2_778
10
23.4049406
20
41.3828916
40
0.3351919
50
25.428084
51
62.0797606
0
ARC
8
DEFAULT_255_2_778
10
23.4083042
20
41.3628353
40
0.351556
50
64.0951168
51
91.1674325
0
ARC
8
DEFAULT_255_2_778
10
23.4053104
20
41.1330113
40
0.581322
50
90.4108876
51
101.4750317
0
ARC
8
DEFAULT_255_2_778
10
23.4615361
20
40.8431775
40
0.8765517
50
101.307833
51
108.2755414
0
ARC
8
DEFAULT_255_2_778
10
23.3459489
20
41.310435
40
0.3983172
50
113.5720982
51
180.2507893
0
ARC
8
DEFAULT_255_2_778
10
23.609946
20
41.2734397
40
0.6632479
50
176.953281
51
180.0284984
0
ARC
8
DEFAULT_255_2_778
10
23.6697976
20
41.2732018
40
0.7230994
50
180.0072862
51
181.5442033
0
LINE
8
DEFAULT_255_2_778
10
22.9469608
20
41.2537156
11
23.1205608
21
41.2537156
0
ARC
8
DEFAULT_255_2_778
10
23.533083
20
41.2659674
40
0.4127042
50
159.6719915
51
181.701171
0
ARC
8
DEFAULT_255_2_778
10
23.3324123
20
41.3351093
40
0.2005711
50
84.3781359
51
158.2789255
0
ARC
8
DEFAULT_255_2_778
10
23.3697998
20
41.3254285
40
0.2100375
50
11.2119716
51
94.8447634
0
ARC
8
DEFAULT_255_2_778
10
23.065678
20
41.2374928
40
0.5261527
50
359.0659321
51
14.1669823
0
ARC
8
DEFAULT_255_2_778
10
23.1475305
20
41.2687374
40
0.4460116
50
327.6539377
51
354.8775687
0
ARC
8
DEFAULT_255_2_778
10
22.839234
20
41.4400795
40
0.7983991
50
321.9161286
51
329.1032167
0
LINE
8
DEFAULT_255_2_778
10
15.7190608
20
40.1126156
11
15.7190608
21
42.3036156
0
LINE
8
DEFAULT_255_2_778
10
15.7190608
20
42.3036156
11
39.7797608
21
42.3036156
0
LINE
8
DEFAULT_255_2_778
10
39.7797608
20
42.3036156
11
39.7797608
21
40.1126156
0
LINE
8
DEFAULT_255_2_778
10
15.8291608
20
40.1129156
11
15.8291608
21
42.1938156
0
LINE
8
DEFAULT_255_2_778
10
15.8291608
20
42.1938156
11
39.6696608
21
42.1938156
0
LINE
8
DEFAULT_255_2_778
10
39.6696608
20
42.1938156
11
39.6696608
21
40.1129156
0
LINE
8
DEFAULT_255_2_778
10
20.2100608
20
41.6091156
11
20.3500608
21
41.6091156
0
LINE
8
DEFAULT_255_2_778
10
20.3500608
20
41.6091156
11
20.3500608
21
40.0216156
0
LINE
8
DEFAULT_255_2_778
10
20.3500608
20
40.0216156
11
20.1748608
21
40.0216156
0
LINE
8
DEFAULT_255_2_778
10
20.1748608
20
40.0216156
11
20.1748608
21
41.3776156
0
LINE
8
DEFAULT_255_2_778
10
20.1748608
20
41.3776156
11
19.8947608
21
41.1460156
0
LINE
8
DEFAULT_255_2_778
10
19.8947608
20
41.1460156
11
19.8947608
21
41.3776156
0
LINE
8
DEFAULT_255_2_778
10
19.8947608
20
41.3776156
11
20.2100608
21
41.6091156
0
LINE
8
DEFAULT_255_2_778
10
25.9234608
20
41.2789156
11
26.0888608
21
41.2789156
0
LINE
8
DEFAULT_255_2_778
10
26.3783608
20
41.5353156
11
26.3777608
21
41.5355156
0
LINE
8
DEFAULT_255_2_778
10
22.9051608
20
40.2867156
11
22.9051608
21
40.0882156
0
LINE
8
DEFAULT_255_2_778
10
22.9051608
20
40.0882156
11
23.7898608
21
40.0882156
0
LINE
8
DEFAULT_255_2_778
10
23.7898608
20
40.0882156
11
23.7898608
21
40.2618156
0
LINE
8
DEFAULT_255_2_778
10
23.7898608
20
40.2618156
11
23.1202608
21
40.2618156
0
LINE
8
DEFAULT_255_2_778
10
23.1202608
20
40.2618156
11
23.4014608
21
40.5595156
0
LINE
8
DEFAULT_255_2_778
10
23.4014608
20
40.5595156
11
23.5504608
21
40.7412156
0
LINE
8
DEFAULT_255_2_778
10
23.5504608
20
40.7412156
11
23.6663608
21
40.9315156
0
LINE
8
DEFAULT_255_2_778
10
23.4676608
20
40.9476156
11
22.9051608
21
40.2867156
0
ARC
8
DEFAULT_255_2_778
10
15.8348705
20
40.8308891
40
1.8307419
50
359.6111933
51
7.2959508
0
ARC
8
DEFAULT_255_2_778
10
16.7542251
20
40.9535489
40
0.9032673
50
6.9842637
51
19.9006774
0
ARC
8
DEFAULT_255_2_778
10
17.22789
20
41.132597
40
0.3970055
50
18.8723467
51
47.4392076
0
ARC
8
DEFAULT_255_2_778
10
17.3123638
20
41.2077485
40
0.2847441
50
49.7316468
51
91.7093196
0
ARC
8
DEFAULT_255_2_778
10
17.272362
20
41.2195883
40
0.2745913
50
83.4110255
51
89.913273
0
ARC
8
DEFAULT_255_2_778
10
17.2749593
20
41.2651911
40
0.2289986
50
90.5458518
51
153.8910002
0
ARC
8
DEFAULT_255_2_778
10
17.6113936
20
41.0609681
40
0.621981
50
150.6351105
51
166.4609174
0
ARC
8
DEFAULT_255_2_778
10
18.3535652
20
40.8699056
40
1.3883093
50
165.9654957
51
174.5779161
0
ARC
8
DEFAULT_255_2_778
10
19.5083283
20
40.7476264
40
2.5494912
50
174.2943861
51
178.8281661
0
ARC
8
DEFAULT_255_2_778
10
18.9811762
20
40.8395942
40
2.0221982
50
181.1285476
51
187.7396325
0
ARC
8
DEFAULT_255_2_778
10
17.9564221
20
40.6953238
40
0.9873625
50
187.4523342
51
198.6071301
0
ARC
8
DEFAULT_255_2_778
10
17.4167983
20
40.5071364
40
0.4159451
50
197.7573403
51
220.7652585
0
ARC
8
DEFAULT_255_2_778
10
17.2662853
20
40.3808713
40
0.2195176
50
221.4562051
51
271.0286075
0
ARC
8
DEFAULT_255_2_778
10
17.269742
20
40.4569212
40
0.2955325
50
270.093834
51
276.631343
0
ARC
8
DEFAULT_255_2_778
10
17.3094977
20
40.465302
40
0.3019886
50
268.9322446
51
341.5889807
0
ARC
8
DEFAULT_255_2_778
10
16.8584753
20
40.6729101
40
0.7973619
50
337.6672448
51
352.0557795
0
ARC
8
DEFAULT_255_2_778
10
16.018727
20
40.8008991
40
1.6467752
50
351.6834962
51
359.9908454
0
ARC
8
DEFAULT_255_2_778
10
15.3440048
20
40.8184048
40
2.3215656
50
359.5614637
51
0.0015058
0
ARC
8
DEFAULT_255_2_778
10
16.0735039
20
40.8498278
40
1.764311
50
359.5920482
51
8.4644868
0
ARC
8
DEFAULT_255_2_778
10
16.8795836
20
40.9746741
40
0.9486473
50
8.1725022
51
22.8175178
0
ARC
8
DEFAULT_255_2_778
10
17.301073
20
41.160967
40
0.4879677
50
21.8473754
51
57.359773
0
ARC
8
DEFAULT_255_2_778
10
17.3044749
20
41.126616
40
0.515503
50
59.7381078
51
90.7127844
0
ARC
8
DEFAULT_255_2_778
10
17.2866867
20
40.8984592
40
0.7437067
50
89.1236048
51
90.001266
0
ARC
8
DEFAULT_255_2_778
10
17.3092563
20
41.1769792
40
0.4657347
50
92.7796784
51
156.6952159
0
ARC
8
DEFAULT_255_2_778
10
17.7343863
20
40.9610012
40
0.9421085
50
154.8602989
51
169.7651309
0
ARC
8
DEFAULT_255_2_778
10
18.530559
20
40.8078305
40
1.7528526
50
169.4622341
51
178.4231241
0
ARC
8
DEFAULT_255_2_778
10
19.0812131
20
40.9128949
40
2.303544
50
181.4136461
51
188.0352678
0
ARC
8
DEFAULT_255_2_778
10
18.0695362
20
40.7651006
40
1.28115
50
187.8148569
51
198.5106172
0
ARC
8
DEFAULT_255_2_778
10
17.4740359
20
40.5599571
40
0.651352
50
198.0293861
51
217.5453873
0
ARC
8
DEFAULT_255_2_778
10
17.2667284
20
40.4036967
40
0.3917679
50
217.9017619
51
271.9190199
0
ARC
8
DEFAULT_255_2_778
10
17.2794112
20
40.5847048
40
0.5725563
50
270.0436606
51
274.1725165
0
ARC
8
DEFAULT_255_2_778
10
17.3425523
20
40.4422706
40
0.4291427
50
267.1306838
51
332.7996009
0
ARC
8
DEFAULT_255_2_778
10
17.0128644
20
40.6250958
40
0.8060297
50
331.9532806
51
348.1955424
0
ARC
8
DEFAULT_255_2_778
10
16.3138374
20
40.7811281
40
1.5222243
50
347.8292713
51
357.2137402
0
ARC
8
DEFAULT_255_2_778
10
15.5215379
20
40.8345904
40
2.3162339
50
356.8455282
51
0.066181
0
ARC
8
DEFAULT_255_2_778
10
35.711384
20
52.023908
40
1.3149497
50
333.3628877
51
343.159825
0
ARC
8
DEFAULT_255_2_778
10
36.1232806
20
51.901864
40
0.8853637
50
342.9969163
51
358.3822225
0
ARC
8
DEFAULT_255_2_778
10
36.2669087
20
51.8918029
40
0.7415332
50
358.8460023
51
359.9983126
0
ARC
8
DEFAULT_255_2_778
10
36.3421657
20
51.8954633
40
0.6662863
50
359.6833497
51
25.7535983
0
ARC
8
DEFAULT_255_2_778
10
36.5606531
20
51.9915356
40
0.4278398
50
26.879075
51
84.9652985
0
ARC
8
DEFAULT_255_2_778
10
36.5307757
20
51.8093794
40
0.6120703
50
83.6755981
51
90.1027439
0
ARC
8
DEFAULT_255_2_778
10
36.5336523
20
51.6135819
40
0.8078765
50
90.2818519
51
99.3575879
0
ARC
8
DEFAULT_255_2_778
10
36.5890348
20
51.2682707
40
1.1575985
50
99.2833149
51
105.8569078
0
ARC
8
DEFAULT_255_2_778
10
36.6599679
20
51.0023439
40
1.4327943
50
105.6798836
51
106.9953618
0
ARC
8
DEFAULT_255_2_778
10
36.4419351
20
51.8776088
40
0.5341245
50
112.0784905
51
144.3553765
0
ARC
8
DEFAULT_255_2_778
10
36.4551213
20
51.8930641
40
0.5362158
50
146.5190171
51
178.5047136
0
ARC
8
DEFAULT_255_2_778
10
36.7030492
20
51.865982
40
0.7850363
50
177.0008085
51
180.0261257
0
ARC
8
DEFAULT_255_2_778
10
36.7711163
20
51.8657439
40
0.8531032
50
180.0080519
51
181.6576486
0
LINE
8
DEFAULT_255_2_778
10
35.9183703
20
51.8410658
11
36.1519703
21
51.8410658
0
ARC
8
DEFAULT_255_2_778
10
36.6690035
20
51.8535674
40
0.5171844
50
161.2205122
51
181.385109
0
ARC
8
DEFAULT_255_2_778
10
36.427061
20
51.9322488
40
0.2628142
50
87.8635619
51
160.4803549
0
ARC
8
DEFAULT_255_2_778
10
36.4633803
20
51.6822999
40
0.5132661
50
89.9676275
51
92.9619356
0
ARC
8
DEFAULT_255_2_778
10
36.4770037
20
51.8564964
40
0.3393315
50
59.5245977
51
92.2519187
0
ARC
8
DEFAULT_255_2_778
10
36.4870071
20
51.9108575
40
0.2880312
50
10.675436
51
55.7525376
0
ARC
8
DEFAULT_255_2_778
10
36.1316519
20
51.8182642
40
0.6548723
50
359.2651986
51
12.8775125
0
ARC
8
DEFAULT_255_2_778
10
36.2771071
20
51.8556879
40
0.5114201
50
329.1205014
51
354.8595343
0
ARC
8
DEFAULT_255_2_778
10
35.8949443
20
52.0652126
40
0.9470867
50
319.9074426
51
330.107545
0
ARC
8
DEFAULT_255_2_778
10
38.0566281
20
51.918751
40
0.3033898
50
15.1184819
51
88.7266175
0
ARC
8
DEFAULT_255_2_778
10
37.76171
20
51.7858443
40
0.624881
50
13.5609194
51
19.8355485
0
ARC
8
DEFAULT_255_2_778
10
37.9214525
20
51.9315376
40
0.4477185
50
330.660697
51
0.1059872
0
ARC
8
DEFAULT_255_2_778
10
37.9906099
20
51.9135597
40
0.3790608
50
285.5678806
51
327.9065838
0
ARC
8
DEFAULT_255_2_778
10
37.8579612
20
52.3156392
40
0.8022358
50
271.7221327
51
286.9873039
0
LINE
8
DEFAULT_255_2_778
10
37.8820703
20
51.5137658
11
37.8820703
21
51.2991658
0
ARC
8
DEFAULT_255_2_778
10
38.0280016
20
50.4536363
40
0.8580304
50
94.116177
51
99.7923019
0
ARC
8
DEFAULT_255_2_778
10
38.0142535
20
50.6306407
40
0.6804964
50
90.0572255
51
94.031359
0
ARC
8
DEFAULT_255_2_778
10
38.0249159
20
50.8813645
40
0.4299219
50
64.6764336
51
91.5117303
0
ARC
8
DEFAULT_255_2_778
10
38.0478265
20
50.9630837
40
0.3465487
50
18.1488544
51
62.3206626
0
ARC
8
DEFAULT_255_2_778
10
37.804469
20
50.8603657
40
0.6101843
50
11.0355342
51
20.1967732
0
ARC
8
DEFAULT_255_2_778
10
37.6563122
20
50.953861
40
0.7474215
50
0.0121358
51
1.7867937
0
ARC
8
DEFAULT_255_2_778
10
37.9245557
20
50.9415756
40
0.4793396
50
337.2483321
51
1.4875701
0
ARC
8
DEFAULT_255_2_778
10
38.0654143
20
50.8959256
40
0.3320173
50
281.790922
51
335.1118856
0
ARC
8
DEFAULT_255_2_778
10
37.9848661
20
51.1344931
40
0.5827881
50
278.8642547
51
284.7514152
0
ARC
8
DEFAULT_255_2_778
10
38.0775175
20
51.1250327
40
0.566374
50
246.3530525
51
269.7119607
0
ARC
8
DEFAULT_255_2_778
10
38.0251071
20
50.9724258
40
0.4057739
50
193.4415524
51
244.4887479
0
ARC
8
DEFAULT_255_2_778
10
38.2546308
20
51.058688
40
0.6497805
50
192.9867299
51
196.1359795
0
LINE
8
DEFAULT_255_2_778
10
37.6214703
20
50.9126658
11
37.4174703
21
50.9126658
0
LINE
8
DEFAULT_255_2_778
10
37.4174703
20
50.9126658
11
37.4174703
21
50.8589658
0
ARC
8
DEFAULT_255_2_778
10
38.1857109
20
50.9616117
40
0.7750676
50
187.6103058
51
205.3840643
0
ARC
8
DEFAULT_255_2_778
10
37.9456427
20
50.852386
40
0.511371
50
205.8583387
51
261.2220449
0
ARC
8
DEFAULT_255_2_778
10
38.0408514
20
51.2519856
40
0.9214149
50
259.1625939
51
270.3985927
0
ARC
8
DEFAULT_255_2_778
10
38.0457064
20
51.6048049
40
1.2742128
50
270.0699231
51
274.1206804
0
ARC
8
DEFAULT_255_2_778
10
38.0251604
20
51.8925626
40
1.5627028
50
274.1139097
51
277.6492892
0
ARC
8
DEFAULT_255_2_778
10
38.192366
20
50.7506012
40
0.4088765
50
275.7274248
51
342.2488585
0
ARC
8
DEFAULT_255_2_778
10
37.7183536
20
50.9516457
40
0.9228114
50
339.3322893
51
353.2401759
0
ARC
8
DEFAULT_255_2_778
10
37.258796
20
51.0231298
40
1.3876913
50
352.5426401
51
354.9826453
0
ARC
8
DEFAULT_255_2_778
10
37.5037524
20
50.80542
40
1.141491
50
4.8417255
51
16.1029295
0
ARC
8
DEFAULT_255_2_778
10
38.090933
20
50.9813674
40
0.5285832
50
15.4328749
51
37.4370674
0
ARC
8
DEFAULT_255_2_778
10
38.2702124
20
51.1147625
40
0.3051575
50
38.012268
51
82.0212011
0
ARC
8
DEFAULT_255_2_778
10
38.2440133
20
51.7663699
40
0.3560664
50
281.1010462
51
351.1451633
0
ARC
8
DEFAULT_255_2_778
10
37.9674851
20
51.8309941
40
0.6396009
50
349.2378616
51
0.4005836
0
ARC
8
DEFAULT_255_2_778
10
37.6168707
20
51.8479535
40
0.9902783
50
359.2774658
51
13.1862328
0
ARC
8
DEFAULT_255_2_778
10
38.090951
20
51.966326
40
0.5017452
50
12.3747856
51
42.7358582
0
ARC
8
DEFAULT_255_2_778
10
38.1342075
20
51.9795164
40
0.4614416
50
45.1785323
51
82.2700865
0
ARC
8
DEFAULT_255_2_778
10
38.0672194
20
51.6498062
40
0.7974704
50
80.6869364
51
90.2981034
0
ARC
8
DEFAULT_255_2_778
10
38.050392
20
51.4454177
40
1.0019283
50
89.2749657
51
103.2636032
0
ARC
8
DEFAULT_255_2_778
10
37.9311283
20
51.9213828
40
0.5113432
50
102.4925741
51
132.6127424
0
ARC
8
DEFAULT_255_2_778
10
37.9186157
20
51.9640967
40
0.4718483
50
135.0068404
51
171.9327734
0
ARC
8
DEFAULT_255_2_778
10
38.2584554
20
51.8937142
40
0.8184978
50
170.3929367
51
180.3183904
0
ARC
8
DEFAULT_255_2_778
10
38.135128
20
51.8715485
40
0.4689887
50
155.9972409
51
177.8472014
0
ARC
8
DEFAULT_255_2_778
10
37.9600868
20
51.941082
40
0.2809042
50
91.7164264
51
154.4300135
0
ARC
8
DEFAULT_255_2_778
10
38.0035384
20
51.6921786
40
0.5322148
50
89.8876279
51
95.5924728
0
ARC
8
DEFAULT_255_2_778
10
38.0034914
20
51.5494452
40
0.6749481
50
85.2588561
51
89.907404
0
ARC
8
DEFAULT_255_2_778
10
37.9983402
20
51.4727348
40
0.7518228
50
85.0608586
51
85.3508272
0
ARC
8
DEFAULT_255_2_778
10
30.3865696
20
51.8647174
40
0.5715566
50
358.6614512
51
23.4448619
0
ARC
8
DEFAULT_255_2_778
10
30.5101752
20
51.901453
40
0.4438095
50
25.443175
51
71.1027613
0
ARC
8
DEFAULT_255_2_778
10
30.3439019
20
51.4829912
40
0.8938333
50
69.7062861
51
85.0775085
0
ARC
8
DEFAULT_255_2_778
10
30.2756232
20
50.8850893
40
1.4954824
50
84.4368264
51
90.1629397
0
ARC
8
DEFAULT_255_2_778
10
30.3026834
20
51.4571323
40
0.9239643
50
91.9421227
51
107.4112032
0
ARC
8
DEFAULT_255_2_778
10
30.158609
20
51.8788213
40
0.4786186
50
106.0592746
51
169.4159791
0
ARC
8
DEFAULT_255_2_778
10
30.3746923
20
51.8137193
40
0.7034033
50
167.435836
51
170.8341964
0
ARC
8
DEFAULT_255_2_778
10
30.4277176
20
51.7767688
40
0.7621533
50
168.7263697
51
175.3528504
0
ARC
8
DEFAULT_255_2_778
10
30.2967107
20
51.7883722
40
0.6306376
50
175.4392648
51
179.9491509
0
ARC
8
DEFAULT_255_2_778
10
30.1107204
20
51.7771938
40
0.4448017
50
178.4878205
51
240.0956589
0
ARC
8
DEFAULT_255_2_778
10
30.3370423
20
52.1219114
40
0.8568025
50
238.4685175
51
253.0654557
0
ARC
8
DEFAULT_255_2_778
10
30.5072308
20
52.6385925
40
1.4007058
50
252.5618891
51
258.8627336
0
ARC
8
DEFAULT_255_2_778
10
30.0219246
20
50.0942243
40
1.1895852
50
69.206049
51
79.5998647
0
ARC
8
DEFAULT_255_2_778
10
30.2387957
20
50.6501218
40
0.5929306
50
50.3859508
51
69.7275328
0
ARC
8
DEFAULT_255_2_778
10
30.4034924
20
50.8488364
40
0.3348365
50
358.8330551
51
50.4154316
0
ARC
8
DEFAULT_255_2_778
10
30.2661166
20
50.8433098
40
0.4721448
50
351.7206762
51
359.8431549
0
ARC
8
DEFAULT_255_2_778
10
30.2009329
20
50.8513059
40
0.5378026
50
351.1068535
51
351.8776648
0
ARC
8
DEFAULT_255_2_778
10
30.4087537
20
50.8941232
40
0.3471717
50
278.2522442
51
338.7271408
0
ARC
8
DEFAULT_255_2_778
10
30.3186568
20
51.2420277
40
0.7054971
50
271.1219053
51
281.439787
0
ARC
8
DEFAULT_255_2_778
10
30.3202072
20
51.237418
40
0.7008595
50
254.534196
51
271.0025654
0
ARC
8
DEFAULT_255_2_778
10
30.208388
20
50.8689891
40
0.316097
50
183.5179034
51
256.2607439
0
ARC
8
DEFAULT_255_2_778
10
30.4574211
20
50.9153624
40
0.5683527
50
179.8484357
51
186.6450883
0
LINE
8
DEFAULT_255_2_778
10
29.8890703
20
50.9168658
11
29.6456703
21
50.9168658
0
ARC
8
DEFAULT_255_2_778
10
30.3903336
20
50.9494034
40
0.7453738
50
182.5019106
51
203.5970202
0
ARC
8
DEFAULT_255_2_778
10
30.2056347
20
50.8818725
40
0.5492183
50
204.8543119
51
252.4648015
0
ARC
8
DEFAULT_255_2_778
10
30.3741807
20
51.3358864
40
1.0331935
50
251.1380104
51
265.971146
0
ARC
8
DEFAULT_255_2_778
10
30.4236309
20
51.778681
40
1.4784805
50
265.2651301
51
265.4471135
0
ARC
8
DEFAULT_255_2_778
10
30.3189735
20
51.3537706
40
1.0489817
50
269.3061266
51
283.585014
0
ARC
8
DEFAULT_255_2_778
10
30.4398335
20
50.8853571
40
0.565334
50
282.8295457
51
314.8726333
0
ARC
8
DEFAULT_255_2_778
10
30.423345
20
50.872346
40
0.5681297
50
316.9773179
51
348.662645
0
ARC
8
DEFAULT_255_2_778
10
30.0608028
20
50.9649892
40
0.9420129
50
347.4725687
51
357.0534634
0
ARC
8
DEFAULT_255_2_778
10
30.4549795
20
50.9311404
40
0.5467851
50
358.472605
51
29.7380397
0
ARC
8
DEFAULT_255_2_778
10
30.4785642
20
50.9209381
40
0.5317645
50
31.9535884
51
65.5098673
0
ARC
8
DEFAULT_255_2_778
10
30.2776756
20
50.5192809
40
0.9806971
50
64.5567241
51
78.0898012
0
ARC
8
DEFAULT_255_2_778
10
30.7826369
20
53.2223785
40
1.7695714
50
253.0317104
51
260.1550214
0
ARC
8
DEFAULT_255_2_778
10
30.525324
20
52.3936436
40
0.9018297
50
241.5451647
51
253.301799
0
ARC
8
DEFAULT_255_2_778
10
30.2849351
20
51.9624094
40
0.4081967
50
218.0048145
51
242.3705081
0
ARC
8
DEFAULT_255_2_778
10
30.1625915
20
51.8607533
40
0.2492483
50
179.5919127
51
216.9081296
0
ARC
8
DEFAULT_255_2_778
10
30.2317354
20
51.8610158
40
0.3183896
50
167.6641012
51
179.7277802
0
ARC
8
DEFAULT_255_2_778
10
30.2935386
20
51.8493837
40
0.3812553
50
165.961568
51
167.9406652
0
ARC
8
DEFAULT_255_2_778
10
30.2595427
20
51.7514402
40
0.3860987
50
94.0870419
51
150.4485837
0
ARC
8
DEFAULT_255_2_778
10
30.3130833
20
51.4650591
40
0.6763726
50
89.8437368
51
96.8830394
0
ARC
8
DEFAULT_255_2_778
10
30.3144266
20
51.3108976
40
0.8305317
50
86.9670484
51
89.9654141
0
ARC
8
DEFAULT_255_2_778
10
30.317132
20
51.6547147
40
0.4872992
50
60.9548457
51
85.1454769
0
ARC
8
DEFAULT_255_2_778
10
30.3901557
20
51.8051209
40
0.3204871
50
9.6902581
51
59.3130924
0
ARC
8
DEFAULT_255_2_778
10
38.8513184
20
52.0497897
40
1.315358
50
333.3629517
51
343.1594422
0
ARC
8
DEFAULT_255_2_778
10
39.2634079
20
51.927685
40
0.8855698
50
342.9965287
51
358.3820026
0
ARC
8
DEFAULT_255_2_778
10
39.4068835
20
51.9176182
40
0.7418914
50
358.846284
51
359.9983016
0
ARC
8
DEFAULT_255_2_778
10
39.4824062
20
51.9212802
40
0.666379
50
359.6832533
51
25.73859
0
ARC
8
DEFAULT_255_2_778
10
39.7009709
20
52.0171282
40
0.4279617
50
26.8869251
51
84.9826604
0
ARC
8
DEFAULT_255_2_778
10
39.6712205
20
51.8353677
40
0.6117819
50
83.6957355
51
90.1021562
0
ARC
8
DEFAULT_255_2_778
10
39.6740995
20
51.6400649
40
0.8070935
50
90.2818152
51
99.3621275
0
ARC
8
DEFAULT_255_2_778
10
39.7294315
20
51.2952529
40
1.1563145
50
99.2879592
51
105.8654538
0
ARC
8
DEFAULT_255_2_778
10
39.8004169
20
51.0293285
40
1.4315216
50
105.6886682
51
107.0046133
0
ARC
8
DEFAULT_255_2_778
10
39.5822139
20
51.903887
40
0.533468
50
112.0698641
51
144.5172518
0
ARC
8
DEFAULT_255_2_778
10
39.5968155
20
51.9184016
40
0.5373164
50
146.6818586
51
178.5118066
0
ARC
8
DEFAULT_255_2_778
10
39.8450287
20
51.8913988
40
0.7864157
50
177.0146193
51
180.0259193
0
ARC
8
DEFAULT_255_2_778
10
39.9130363
20
51.8911629
40
0.8544232
50
180.0080415
51
181.6563632
0
LINE
8
DEFAULT_255_2_778
10
39.0589703
20
51.8664658
11
39.2925703
21
51.8664658
0
ARC
8
DEFAULT_255_2_778
10
39.8096035
20
51.8789674
40
0.5171844
50
161.2205122
51
181.385109
0
ARC
8
DEFAULT_255_2_778
10
39.567661
20
51.9576488
40
0.2628142
50
87.8635619
51
160.4803549
0
ARC
8
DEFAULT_255_2_778
10
39.6039803
20
51.7076999
40
0.5132661
50
89.9676275
51
92.9619356
0
ARC
8
DEFAULT_255_2_778
10
39.6176037
20
51.8818964
40
0.3393315
50
59.5245977
51
92.2519187
0
ARC
8
DEFAULT_255_2_778
10
39.6276071
20
51.9362575
40
0.2880312
50
10.675436
51
55.7525376
0
ARC
8
DEFAULT_255_2_778
10
39.2722519
20
51.8436642
40
0.6548723
50
359.2651986
51
12.8775125
0
ARC
8
DEFAULT_255_2_778
10
39.4177071
20
51.8810879
40
0.5114201
50
329.1205014
51
354.8595343
0
ARC
8
DEFAULT_255_2_778
10
39.0355443
20
52.0906126
40
0.9470867
50
319.9074426
51
330.107545
0
ARC
8
DEFAULT_255_2_778
10
36.9821138
20
48.431145
40
2.2056918
50
359.6758347
51
6.7392638
0
ARC
8
DEFAULT_255_2_778
10
38.0053291
20
48.5566037
40
1.1748323
50
6.519015
51
17.7307049
0
ARC
8
DEFAULT_255_2_778
10
38.5796364
20
48.7468389
40
0.5699054
50
17.097605
51
38.9264636
0
ARC
8
DEFAULT_255_2_778
10
38.7496984
20
48.8759902
40
0.3565137
50
39.9518773
51
92.0942298
0
ARC
8
DEFAULT_255_2_778
10
38.697252
20
48.88103
40
0.3534408
50
83.5966416
51
89.9159647
0
ARC
8
DEFAULT_255_2_778
10
38.6985813
20
48.9480035
40
0.2864681
50
90.1621878
51
152.5612831
0
ARC
8
DEFAULT_255_2_778
10
39.0572267
20
48.7203954
40
0.7105995
50
149.5976513
51
164.817487
0
ARC
8
DEFAULT_255_2_778
10
39.7930454
20
48.5098148
40
1.4759231
50
164.4089538
51
173.0426527
0
ARC
8
DEFAULT_255_2_778
10
41.0164233
20
48.3515136
40
2.7094824
50
172.8534487
51
178.2138531
0
ARC
8
DEFAULT_255_2_778
10
41.9719984
20
48.307245
40
3.6660017
50
177.9878154
51
178.6132501
0
ARC
8
DEFAULT_255_2_778
10
40.7452157
20
48.4483313
40
2.4387077
50
181.2303858
51
187.2910439
0
ARC
8
DEFAULT_255_2_778
10
39.606907
20
48.298081
40
1.2905429
50
187.088007
51
196.7492672
0
ARC
8
DEFAULT_255_2_778
10
38.9541843
20
48.0958141
40
0.6072474
50
196.2226355
51
214.1371766
0
ARC
8
DEFAULT_255_2_778
10
38.691002
20
47.9102024
40
0.2853134
50
212.9445335
51
270.8089552
0
ARC
8
DEFAULT_255_2_778
10
38.6944417
20
48.0057242
40
0.3808071
50
270.0885341
51
276.3667488
0
ARC
8
DEFAULT_255_2_778
10
38.748434
20
47.9981607
40
0.3710813
50
268.1833539
51
337.111169
0
ARC
8
DEFAULT_255_2_778
10
38.3372353
20
48.2119932
40
0.8338955
50
334.5638391
51
349.410519
0
ARC
8
DEFAULT_255_2_778
10
37.5559359
20
48.3678368
40
1.6305567
50
349.0728557
51
357.836794
0
ARC
8
DEFAULT_255_2_778
10
36.7068054
20
48.4163007
40
2.4809655
50
357.4585548
51
0.0476927
0
ARC
8
DEFAULT_255_2_778
10
38.9590088
20
48.7154139
40
0.8281307
50
114.6687779
51
159.4331436
0
ARC
8
DEFAULT_255_2_778
10
39.4656948
20
48.4984206
40
1.3789814
50
158.387544
51
171.8253474
0
ARC
8
DEFAULT_255_2_778
10
40.2805645
20
48.3743258
40
2.2032274
50
171.6441728
51
180.3136249
0
ARC
8
DEFAULT_255_2_778
10
40.0451555
20
48.3501184
40
1.9678228
50
179.6463093
51
188.3910537
0
ARC
8
DEFAULT_255_2_778
10
39.2377991
20
48.2262337
40
1.1510404
50
188.1549991
51
202.207015
0
ARC
8
DEFAULT_255_2_778
10
38.7855786
20
48.0330385
40
0.6593926
50
201.5165403
51
233.7354669
0
ARC
8
DEFAULT_255_2_778
10
38.7423333
20
47.9893992
40
0.5986946
50
234.6020879
51
241.8814673
0
ARC
8
DEFAULT_255_2_778
10
38.0164807
20
48.4056606
40
1.4044471
50
328.711571
51
350.8880773
0
ARC
8
DEFAULT_255_2_778
10
37.5731372
20
48.4868184
40
1.8550749
50
350.5815576
51
0.2066722
0
ARC
8
DEFAULT_255_2_778
10
37.1398047
20
48.4912474
40
2.2883964
50
0.0566449
51
4.4461147
0
ARC
8
DEFAULT_255_2_778
10
36.9101604
20
48.4757359
40
2.5185533
50
4.3929377
51
5.3431763
0
ARC
8
DEFAULT_255_2_778
10
37.5073362
20
48.3476341
40
1.9445462
50
10.7478133
51
18.7541384
0
ARC
8
DEFAULT_255_2_778
10
38.2720259
20
48.611364
40
1.1356717
50
18.5586966
51
30.9809946
0
ARC
8
DEFAULT_255_2_778
10
38.6928224
20
48.8703192
40
0.6416315
50
30.498282
51
54.3092168
0
ARC
8
DEFAULT_255_2_778
10
38.7716643
20
48.9600526
40
0.5228854
50
55.5894211
51
91.0976568
0
ARC
8
DEFAULT_255_2_778
10
38.7631726
20
48.7553172
40
0.7275264
50
90.1201008
51
97.2960325
0
ARC
8
DEFAULT_255_2_778
10
38.7792115
20
48.6208251
40
0.8629672
50
97.2182887
51
101.0594791
0
ARC
8
DEFAULT_255_2_778
10
6.8449003
20
59.2468912
40
0.4839539
50
88.4405983
51
114.2601755
0
ARC
8
DEFAULT_255_2_778
10
6.8072453
20
59.3668291
40
0.3594473
50
116.6439734
51
165.7809847
0
ARC
8
DEFAULT_255_2_778
10
7.2147361
20
59.238651
40
0.7863097
50
164.0202802
51
179.6675411
0
ARC
8
DEFAULT_255_2_778
10
7.6067813
20
59.2180147
40
1.1786111
50
178.7749147
51
180.0072362
0
ARC
8
DEFAULT_255_2_778
10
7.0065006
20
59.204281
40
0.5784899
50
178.6543828
51
205.2135211
0
ARC
8
DEFAULT_255_2_778
10
6.9206323
20
59.1834148
40
0.4922321
50
207.2743643
51
247.4054828
0
ARC
8
DEFAULT_255_2_778
10
7.1109949
20
59.59413
40
0.9447329
50
246.3166715
51
261.3751073
0
ARC
8
DEFAULT_255_2_778
10
7.2381372
20
60.3672764
40
1.7282304
50
261.051546
51
269.9075969
0
ARC
8
DEFAULT_255_2_778
10
7.2549117
20
60.9609363
40
2.3219704
50
269.5172998
51
270.0014455
0
ARC
8
DEFAULT_255_2_778
10
7.2675523
20
60.5843651
40
1.9454399
50
269.6294406
51
277.7736469
0
ARC
8
DEFAULT_255_2_778
10
7.3938584
20
59.6950211
40
1.047196
50
277.5081317
51
290.7749705
0
ARC
8
DEFAULT_255_2_778
10
7.5831532
20
59.2150403
40
0.5313234
50
290.0482987
51
317.6631842
0
ARC
8
DEFAULT_255_2_778
10
7.63001
20
59.1477182
40
0.4517134
50
319.9731835
51
1.0081187
0
ARC
8
DEFAULT_255_2_778
10
7.4167573
20
59.168129
40
0.665013
50
358.9261309
51
0.0031718
0
ARC
8
DEFAULT_255_2_778
10
4.2252699
20
59.1804114
40
3.8565198
50
359.8180698
51
3.0677103
0
ARC
8
DEFAULT_255_2_778
10
6.4047286
20
59.3027694
40
1.6736454
50
2.8778248
51
8.5944314
0
ARC
8
DEFAULT_255_2_778
10
7.5291309
20
59.4795635
40
0.535492
50
7.8690857
51
20.5325962
0
ARC
8
DEFAULT_255_2_778
10
7.9382298
20
59.6420684
40
0.0957803
50
15.3246782
51
63.9949979
0
ARC
8
DEFAULT_255_2_778
10
7.9662658
20
59.6852646
40
0.0451015
50
71.9709573
51
90.1213618
0
LINE
8
DEFAULT_255_2_778
10
7.9661703
20
59.7303658
11
7.1890703
21
59.7303658
0
LINE
8
DEFAULT_255_2_778
10
7.1890703
20
59.7303658
11
7.1890703
21
59.2673658
0
LINE
8
DEFAULT_255_2_778
10
7.1890703
20
59.2673658
11
7.3711703
21
59.2673658
0
LINE
8
DEFAULT_255_2_778
10
7.3711703
20
59.2673658
11
7.3711703
21
59.5483658
0
LINE
8
DEFAULT_255_2_778
10
7.3711703
20
59.5483658
11
7.8508703
21
59.5483658
0
ARC
8
DEFAULT_255_2_778
10
6.6059926
20
59.1750284
40
1.2996543
50
11.5670368
51
16.6939288
0
ARC
8
DEFAULT_255_2_778
10
6.9705114
20
59.2486337
40
0.9277801
50
4.6058421
51
11.6276052
0
ARC
8
DEFAULT_255_2_778
10
7.1868828
20
59.2678974
40
0.7105628
50
0.0662935
51
4.4585461
0
ARC
8
DEFAULT_255_2_778
10
7.4308464
20
59.2586252
40
0.4667079
50
336.5446563
51
1.2393452
0
ARC
8
DEFAULT_255_2_778
10
7.5174042
20
59.2342264
40
0.3777836
50
292.3877428
51
334.7137355
0
ARC
8
DEFAULT_255_2_778
10
7.3833726
20
59.5182706
40
0.6916468
50
280.0163598
51
293.6921393
0
ARC
8
DEFAULT_255_2_778
10
7.2162805
20
60.363834
40
1.5534827
50
274.1038541
51
280.6609632
0
ARC
8
DEFAULT_255_2_778
10
7.2396893
20
60.0715055
40
1.2602308
50
270.0458123
51
273.9934431
0
ARC
8
DEFAULT_255_2_778
10
7.2314969
20
59.7618012
40
0.9505705
50
253.8623205
51
270.5545479
0
ARC
8
DEFAULT_255_2_778
10
7.1773224
20
59.5590965
40
0.7408081
50
237.2045768
51
253.5296503
0
ARC
8
DEFAULT_255_2_778
10
6.9744599
20
59.2413173
40
0.3638047
50
178.5590432
51
236.953527
0
ARC
8
DEFAULT_255_2_778
10
6.9547946
20
59.2409652
40
0.3441555
50
144.8051421
51
178.4181144
0
ARC
8
DEFAULT_255_2_778
10
6.908751
20
59.2507807
40
0.3014407
50
99.5248
51
141.2834433
0
ARC
8
DEFAULT_255_2_778
10
16.334977
20
43.7296327
40
1.748637
50
359.5947847
51
7.5781413
0
ARC
8
DEFAULT_255_2_778
10
17.2184421
20
43.8525692
40
0.8566922
50
7.2201295
51
21.016583
0
ARC
8
DEFAULT_255_2_778
10
17.6638098
20
44.0314139
40
0.3768805
50
19.9186591
51
51.2702204
0
ARC
8
DEFAULT_255_2_778
10
17.722943
20
44.0836474
40
0.2994385
50
53.8447318
51
91.621421
0
ARC
8
DEFAULT_255_2_778
10
17.6821322
20
44.0958384
40
0.2889428
50
83.5740733
51
89.9153715
0
ARC
8
DEFAULT_255_2_778
10
17.6843828
20
44.1471618
40
0.2376259
50
90.439772
51
154.6525676
0
ARC
8
DEFAULT_255_2_778
10
18.0356112
20
43.9391711
40
0.6451798
50
151.3112059
51
167.0017739
0
ARC
8
DEFAULT_255_2_778
10
18.7694671
20
43.7562034
40
1.4014476
50
166.46129
51
174.655643
0
ARC
8
DEFAULT_255_2_778
10
19.8406372
20
43.6449066
40
2.4783522
50
174.4003521
51
178.7547571
0
ARC
8
DEFAULT_255_2_778
10
19.2952784
20
43.7379007
40
1.9328043
50
181.1601884
51
188.0086274
0
ARC
8
DEFAULT_255_2_778
10
18.3201849
20
43.595907
40
0.9474499
50
187.7209727
51
199.2109357
0
ARC
8
DEFAULT_255_2_778
10
17.8077182
20
43.4105918
40
0.4025937
50
198.3043225
51
222.5074166
0
ARC
8
DEFAULT_255_2_778
10
17.6753499
20
43.2953449
40
0.2271868
50
223.6374655
51
271.1927685
0
ARC
8
DEFAULT_255_2_778
10
17.6795862
20
43.3798111
40
0.3116041
50
270.0906164
51
276.4277313
0
ARC
8
DEFAULT_255_2_778
10
17.7219436
20
43.3802544
40
0.3101786
50
268.6194075
51
341.8306264
0
ARC
8
DEFAULT_255_2_778
10
17.2675226
20
43.5850799
40
0.807547
50
338.073813
51
352.6164271
0
ARC
8
DEFAULT_255_2_778
10
16.430056
20
43.7052865
40
1.6535577
50
352.2149709
51
0.4150893
0
ARC
8
DEFAULT_255_2_778
10
17.9000014
20
43.9554052
40
0.6833425
50
114.7724525
51
161.2173075
0
ARC
8
DEFAULT_255_2_778
10
18.3916251
20
43.761162
40
1.2115983
50
160.0063154
51
174.1149232
0
ARC
8
DEFAULT_255_2_778
10
19.0709966
20
43.6773165
40
1.896036
50
173.6995545
51
180.1828447
0
ARC
8
DEFAULT_255_2_778
10
18.7313055
20
43.6586781
40
1.5563861
50
179.5365971
51
189.6793062
0
ARC
8
DEFAULT_255_2_778
10
18.0333539
20
43.5343311
40
0.8474797
50
189.3258615
51
206.7624104
0
ARC
8
DEFAULT_255_2_778
10
17.7294813
20
43.3794459
40
0.506416
50
206.5969118
51
241.5553127
0
ARC
8
DEFAULT_255_2_778
10
17.1143731
20
43.7111473
40
1.1607351
50
328.7948437
51
352.4095419
0
ARC
8
DEFAULT_255_2_778
10
16.7339252
20
43.7744857
40
1.5462665
50
351.9452659
51
0.1547559
0
ARC
8
DEFAULT_255_2_778
10
16.3935913
20
43.7765043
40
1.8865959
50
0.0655326
51
4.7652038
0
ARC
8
DEFAULT_255_2_778
10
16.2054468
20
43.7631415
40
2.0752014
50
4.7013401
51
5.3315208
0
ARC
8
DEFAULT_255_2_778
10
16.7414119
20
43.6671269
40
1.5572792
50
10.6889227
51
19.4905017
0
ARC
8
DEFAULT_255_2_778
10
17.3985249
20
43.9046464
40
0.8585851
50
19.1793425
51
34.0402511
0
ARC
8
DEFAULT_255_2_778
10
17.7412073
20
44.1517
40
0.4365194
50
32.347521
51
90.864159
0
ARC
8
DEFAULT_255_2_778
10
17.7361478
20
43.9864451
40
0.6017265
50
90.1451122
51
97.9735216
0
ARC
8
DEFAULT_255_2_778
10
17.7503017
20
43.8749321
40
0.7141262
50
97.8570701
51
101.0302242
0
LINE
8
DEFAULT_255_2_778
10
17.6655703
20
40.8184658
11
17.6655703
21
40.8184658
0
LINE
8
DEFAULT_255_2_778
10
17.8377703
20
40.8372658
11
17.8377703
21
40.8372658
0
LINE
8
DEFAULT_255_2_778
10
32.7388703
20
52.3614658
11
33.1158703
21
52.3614658
0
LINE
8
DEFAULT_255_2_778
10
33.1158703
20
52.3614658
11
33.1158703
21
50.3614658
0
LINE
8
DEFAULT_255_2_778
10
33.1158703
20
50.3614658
11
32.8833703
21
50.3614658
0
LINE
8
DEFAULT_255_2_778
10
32.8833703
20
50.3614658
11
32.8833703
21
52.1545658
0
LINE
8
DEFAULT_255_2_778
10
32.8833703
20
52.1545658
11
32.3374703
21
50.3614658
0
LINE
8
DEFAULT_255_2_778
10
32.3374703
20
50.3614658
11
32.1038703
21
50.3614658
0
LINE
8
DEFAULT_255_2_778
10
32.1038703
20
50.3614658
11
31.5437703
21
52.1516658
0
LINE
8
DEFAULT_255_2_778
10
31.5437703
20
52.1516658
11
31.5437703
21
50.3614658
0
LINE
8
DEFAULT_255_2_778
10
31.5437703
20
50.3614658
11
31.3111703
21
50.3614658
0
LINE
8
DEFAULT_255_2_778
10
31.3111703
20
50.3614658
11
31.3111703
21
52.3614658
0
LINE
8
DEFAULT_255_2_778
10
31.3111703
20
52.3614658
11
31.6881703
21
52.3614658
0
LINE
8
DEFAULT_255_2_778
10
31.6881703
20
52.3614658
11
32.2218703
21
50.6874658
0
LINE
8
DEFAULT_255_2_778
10
32.2218703
20
50.6874658
11
32.7388703
21
52.3614658
0
LINE
8
DEFAULT_255_2_778
10
34.9293703
20
52.4218658
11
35.1023703
21
52.4218658
0
LINE
8
DEFAULT_255_2_778
10
35.1023703
20
52.4218658
11
35.1023703
21
50.3712658
0
LINE
8
DEFAULT_255_2_778
10
35.1023703
20
50.3712658
11
34.8862703
21
50.3712658
0
LINE
8
DEFAULT_255_2_778
10
34.8862703
20
50.3712658
11
34.8862703
21
52.1228658
0
LINE
8
DEFAULT_255_2_778
10
34.8862703
20
52.1228658
11
34.5401703
21
51.8238658
0
LINE
8
DEFAULT_255_2_778
10
34.5401703
20
51.8238658
11
34.5401703
21
52.1228658
0
LINE
8
DEFAULT_255_2_778
10
34.5401703
20
52.1228658
11
34.9293703
21
52.4218658
0
LINE
8
DEFAULT_255_2_778
10
35.8630703
20
50.6215658
11
35.8630703
21
50.3712658
0
LINE
8
DEFAULT_255_2_778
10
35.8630703
20
50.3712658
11
37.0536703
21
50.3712658
0
LINE
8
DEFAULT_255_2_778
10
37.0536703
20
50.3712658
11
37.0536703
21
50.5900658
0
LINE
8
DEFAULT_255_2_778
10
37.0536703
20
50.5900658
11
36.1522703
21
50.5900658
0
LINE
8
DEFAULT_255_2_778
10
36.1522703
20
50.5900658
11
36.5305703
21
50.9652658
0
LINE
8
DEFAULT_255_2_778
10
36.5305703
20
50.9652658
11
36.7308703
21
51.1946658
0
LINE
8
DEFAULT_255_2_778
10
36.7308703
20
51.1946658
11
36.8867703
21
51.4343658
0
LINE
8
DEFAULT_255_2_778
10
36.6194703
20
51.4552658
11
35.8630703
21
50.6215658
0
LINE
8
DEFAULT_255_2_778
10
37.4399703
20
51.8891658
11
37.6664703
21
51.8891658
0
LINE
8
DEFAULT_255_2_778
10
38.0630703
20
52.2217658
11
38.0633703
21
52.2220658
0
LINE
8
DEFAULT_255_2_778
10
30.7057703
20
51.8513658
11
30.9579703
21
51.8513658
0
LINE
8
DEFAULT_255_2_778
10
39.0033703
20
50.6472658
11
39.0033703
21
50.3969658
0
LINE
8
DEFAULT_255_2_778
10
39.0033703
20
50.3969658
11
40.1940703
21
50.3969658
0
LINE
8
DEFAULT_255_2_778
10
40.1940703
20
50.3969658
11
40.1940703
21
50.6157658
0
LINE
8
DEFAULT_255_2_778
10
40.1940703
20
50.6157658
11
39.2925703
21
50.6157658
0
LINE
8
DEFAULT_255_2_778
10
39.2925703
20
50.6157658
11
39.6709703
21
50.9909658
0
LINE
8
DEFAULT_255_2_778
10
39.6709703
20
50.9909658
11
39.8712703
21
51.2203658
0
LINE
8
DEFAULT_255_2_778
10
39.8712703
20
51.2203658
11
40.0270703
21
51.4600658
0
LINE
8
DEFAULT_255_2_778
10
39.7600703
20
51.4806658
11
39.0033703
21
50.6472658
0
LINE
8
DEFAULT_255_2_778
10
37.0724703
20
49.4047658
11
37.3277703
21
49.4047658
0
LINE
8
DEFAULT_255_2_778
10
37.3277703
20
49.4047658
11
38.0254703
21
47.3616658
0
LINE
8
DEFAULT_255_2_778
10
38.0254703
20
47.3616658
11
37.7725703
21
47.3616658
0
LINE
8
DEFAULT_255_2_778
10
37.7725703
20
47.3616658
11
37.6013703
21
47.8945658
0
LINE
8
DEFAULT_255_2_778
10
37.6013703
20
47.8945658
11
36.8012703
21
47.8945658
0
LINE
8
DEFAULT_255_2_778
10
36.8012703
20
47.8945658
11
36.6327703
21
47.3616658
0
LINE
8
DEFAULT_255_2_778
10
36.6327703
20
47.3616658
11
36.3747703
21
47.3616658
0
LINE
8
DEFAULT_255_2_778
10
36.3747703
20
47.3616658
11
37.0724703
21
49.4047658
0
LINE
8
DEFAULT_255_2_778
10
36.8761703
20
48.1260658
11
37.5280703
21
48.1260658
0
LINE
8
DEFAULT_255_2_778
10
37.5280703
20
48.1260658
11
37.2015703
21
49.1412658
0
LINE
8
DEFAULT_255_2_778
10
37.2015703
20
49.1412658
11
36.8761703
21
48.1260658
0
LINE
8
DEFAULT_255_2_778
10
39.1877703
20
48.4183658
11
39.1877703
21
48.4186658
0
LINE
8
DEFAULT_255_2_778
10
38.4601703
20
47.4613658
11
38.6133703
21
47.4203658
0
LINE
8
DEFAULT_255_2_778
10
38.6133703
20
47.4203658
11
39.5325703
21
47.4407658
0
LINE
8
DEFAULT_255_2_778
10
39.5325703
20
47.4407658
11
39.5325703
21
47.6762658
0
LINE
8
DEFAULT_255_2_778
10
39.5325703
20
47.6762658
11
39.2166703
21
47.6762658
0
LINE
8
DEFAULT_255_2_778
10
38.6136703
20
49.4677658
11
38.6133703
21
49.4679658
0
LINE
8
DEFAULT_255_2_778
10
6.4540703
20
57.0363658
11
8.0540703
21
57.0363658
0
LINE
8
DEFAULT_255_2_778
10
8.0540703
20
57.0363658
11
8.0540703
21
56.8612658
0
LINE
8
DEFAULT_255_2_778
10
8.0540703
20
56.8612658
11
6.4540703
21
56.8612658
0
LINE
8
DEFAULT_255_2_778
10
6.4540703
20
56.8612658
11
6.4540703
21
57.0363658
0
LINE
8
DEFAULT_255_2_778
10
8.0540703
20
57.2652658
11
6.4540703
21
57.7904658
0
LINE
8
DEFAULT_255_2_778
10
6.4540703
20
57.7904658
11
6.4540703
21
57.9828658
0
LINE
8
DEFAULT_255_2_778
10
6.4540703
20
57.9828658
11
8.0540703
21
58.5080658
0
LINE
8
DEFAULT_255_2_778
10
8.0540703
20
58.5080658
11
8.0540703
21
58.3175658
0
LINE
8
DEFAULT_255_2_778
10
8.0540703
20
58.3175658
11
7.6367703
21
58.1886658
0
LINE
8
DEFAULT_255_2_778
10
7.6367703
20
58.1886658
11
7.6367703
21
57.5862658
0
LINE
8
DEFAULT_255_2_778
10
7.6367703
20
57.5862658
11
8.0540703
21
57.4592658
0
LINE
8
DEFAULT_255_2_778
10
8.0540703
20
57.4592658
11
8.0540703
21
57.2652658
0
LINE
8
DEFAULT_255_2_778
10
6.6604703
20
57.8875658
11
7.4552703
21
57.6425658
0
LINE
8
DEFAULT_255_2_778
10
7.4552703
20
57.6425658
11
7.4552703
21
58.1333658
0
LINE
8
DEFAULT_255_2_778
10
7.4552703
20
58.1333658
11
6.6604703
21
57.8875658
0
LINE
8
DEFAULT_255_2_778
10
8.0540703
20
55.9635658
11
8.0540703
21
55.5235658
0
LINE
8
DEFAULT_255_2_778
10
8.0540703
20
55.5235658
11
6.4540703
21
55.5235658
0
LINE
8
DEFAULT_255_2_778
10
6.4540703
20
55.5235658
11
6.4561703
21
55.9910658
0
LINE
8
DEFAULT_255_2_778
10
6.4561703
20
55.9910658
11
6.4577703
21
56.0119658
0
LINE
8
DEFAULT_255_2_778
10
6.4577703
20
56.0119658
11
6.4628703
21
56.0534658
0
LINE
8
DEFAULT_255_2_778
10
6.4628703
20
56.0534658
11
6.4699703
21
56.0947658
0
LINE
8
DEFAULT_255_2_778
10
6.4699703
20
56.0947658
11
6.4794703
21
56.1354658
0
LINE
8
DEFAULT_255_2_778
10
6.4794703
20
56.1354658
11
6.4987703
21
56.1947658
0
LINE
8
DEFAULT_255_2_778
10
6.4987703
20
56.1947658
11
6.5244703
21
56.2511658
0
LINE
8
DEFAULT_255_2_778
10
6.5244703
20
56.2511658
11
6.5694703
21
56.3199658
0
LINE
8
DEFAULT_255_2_778
10
6.5694703
20
56.3199658
11
6.6414703
21
56.3939658
0
LINE
8
DEFAULT_255_2_778
10
6.6414703
20
56.3939658
11
6.7631703
21
56.4749658
0
LINE
8
DEFAULT_255_2_778
10
6.7631703
20
56.4749658
11
6.9022703
21
56.5302658
0
LINE
8
DEFAULT_255_2_778
10
6.9022703
20
56.5302658
11
7.1308703
21
56.5686658
0
LINE
8
DEFAULT_255_2_778
10
7.1308703
20
56.5686658
11
7.4536703
21
56.5654658
0
LINE
8
DEFAULT_255_2_778
10
7.4536703
20
56.5654658
11
7.6256703
21
56.5342658
0
LINE
8
DEFAULT_255_2_778
10
7.6256703
20
56.5342658
11
7.7968703
21
56.4611658
0
LINE
8
DEFAULT_255_2_778
10
7.7968703
20
56.4611658
11
7.9061703
21
56.3773658
0
LINE
8
DEFAULT_255_2_778
10
7.9061703
20
56.3773658
11
7.9566703
21
56.3183658
0
LINE
8
DEFAULT_255_2_778
10
7.9566703
20
56.3183658
11
7.9883703
21
56.2667658
0
LINE
8
DEFAULT_255_2_778
10
7.9883703
20
56.2667658
11
8.0135703
21
56.2101658
0
LINE
8
DEFAULT_255_2_778
10
8.0135703
20
56.2101658
11
8.0320703
21
56.1503658
0
LINE
8
DEFAULT_255_2_778
10
8.0320703
20
56.1503658
11
8.0410703
21
56.1092658
0
LINE
8
DEFAULT_255_2_778
10
8.0410703
20
56.1092658
11
8.0473703
21
56.0677658
0
LINE
8
DEFAULT_255_2_778
10
8.0473703
20
56.0677658
11
8.0497703
21
56.0468658
0
LINE
8
DEFAULT_255_2_778
10
8.0497703
20
56.0468658
11
8.0516703
21
56.0259658
0
LINE
8
DEFAULT_255_2_778
10
8.0516703
20
56.0259658
11
8.0534703
21
55.9844658
0
LINE
8
DEFAULT_255_2_778
10
6.6350703
20
55.9293658
11
6.6350703
21
55.6989658
0
LINE
8
DEFAULT_255_2_778
10
6.6350703
20
55.6989658
11
7.8722703
21
55.6989658
0
LINE
8
DEFAULT_255_2_778
10
7.8722703
20
55.6989658
11
7.8698703
21
56.0190658
0
LINE
8
DEFAULT_255_2_778
10
7.8698703
20
56.0190658
11
7.8653703
21
56.0550658
0
LINE
8
DEFAULT_255_2_778
10
7.8653703
20
56.0550658
11
7.8582703
21
56.0907658
0
LINE
8
DEFAULT_255_2_778
10
7.8582703
20
56.0907658
11
7.8444703
21
56.1352658
0
LINE
8
DEFAULT_255_2_778
10
7.8444703
20
56.1352658
11
7.8129703
21
56.1989658
0
LINE
8
DEFAULT_255_2_778
10
7.8129703
20
56.1989658
11
7.7587703
21
56.2640658
0
LINE
8
DEFAULT_255_2_778
10
7.7587703
20
56.2640658
11
7.6703703
21
56.3244658
0
LINE
8
DEFAULT_255_2_778
10
7.6703703
20
56.3244658
11
7.4989703
21
56.3781658
0
LINE
8
DEFAULT_255_2_778
10
7.4989703
20
56.3781658
11
7.1311703
21
56.3945658
0
LINE
8
DEFAULT_255_2_778
10
7.1311703
20
56.3945658
11
6.9504703
21
56.3617658
0
LINE
8
DEFAULT_255_2_778
10
6.9504703
20
56.3617658
11
6.7985703
21
56.2868658
0
LINE
8
DEFAULT_255_2_778
10
6.7985703
20
56.2868658
11
6.7207703
21
56.2140658
0
LINE
8
DEFAULT_255_2_778
10
6.7207703
20
56.2140658
11
6.6866703
21
56.1624658
0
LINE
8
DEFAULT_255_2_778
10
6.6866703
20
56.1624658
11
6.6615703
21
56.1037658
0
LINE
8
DEFAULT_255_2_778
10
6.6615703
20
56.1037658
11
6.6485703
21
56.0571658
0
LINE
8
DEFAULT_255_2_778
10
6.6485703
20
56.0571658
11
6.6424703
21
56.0254658
0
LINE
8
DEFAULT_255_2_778
10
6.6424703
20
56.0254658
11
6.6382703
21
55.9934658
0
LINE
8
DEFAULT_255_2_778
10
6.6382703
20
55.9934658
11
6.6358703
21
55.9613658
0
LINE
8
DEFAULT_255_2_778
10
6.6358703
20
55.9613658
11
6.6353703
21
55.9455658
0
LINE
8
DEFAULT_255_2_778
10
6.8580703
20
59.5488658
11
6.8580703
21
59.7306658
0
LINE
8
DEFAULT_255_2_778
10
6.8588703
20
59.5480658
11
6.8580703
21
59.5488658
0
LINE
8
DEFAULT_255_2_778
10
16.2441703
20
44.5036658
11
16.4365703
21
44.5036658
0
LINE
8
DEFAULT_255_2_778
10
16.4365703
20
44.5036658
11
16.9617703
21
42.9036658
0
LINE
8
DEFAULT_255_2_778
10
16.9617703
20
42.9036658
11
16.7712703
21
42.9036658
0
LINE
8
DEFAULT_255_2_778
10
16.7712703
20
42.9036658
11
16.6423703
21
43.3209658
0
LINE
8
DEFAULT_255_2_778
10
16.6423703
20
43.3209658
11
16.0399703
21
43.3209658
0
LINE
8
DEFAULT_255_2_778
10
16.0399703
20
43.3209658
11
15.9129703
21
42.9036658
0
LINE
8
DEFAULT_255_2_778
10
15.9129703
20
42.9036658
11
15.7187703
21
42.9036658
0
LINE
8
DEFAULT_255_2_778
10
15.7187703
20
42.9036658
11
16.2439703
21
44.5036658
0
LINE
8
DEFAULT_255_2_778
10
16.0960703
20
43.5024658
11
16.5868703
21
43.5024658
0
LINE
8
DEFAULT_255_2_778
10
16.5868703
20
43.5024658
11
16.3410703
21
44.2972658
0
LINE
8
DEFAULT_255_2_778
10
16.3410703
20
44.2972658
11
16.0960703
21
43.5024658
0
LINE
8
DEFAULT_255_2_778
10
18.0835703
20
43.7172658
11
18.0835703
21
43.7172658
0
LINE
8
DEFAULT_255_2_778
10
17.4882703
20
42.9341658
11
17.6136703
21
42.9005658
0
LINE
8
DEFAULT_255_2_778
10
17.6136703
20
42.9005658
11
18.3656703
21
42.9171658
0
LINE
8
DEFAULT_255_2_778
10
18.3656703
20
42.9171658
11
18.3656703
21
43.1097658
0
LINE
8
DEFAULT_255_2_778
10
18.3656703
20
43.1097658
11
18.1071703
21
43.1097658
0
LINE
8
DEFAULT_255_2_778
10
17.6136703
20
44.5758658
11
17.6136703
21
44.5758658
0
LINE
8
DEFAULT_255_2_778
10
23.99545
20
37.6051146
11
23.99675
21
36.1187146
0
LINE
8
DEFAULT_255_2_778
10
23.99675
20
36.1187146
11
22.51085
21
36.1187146
0
LINE
8
DEFAULT_255_2_778
10
22.51275
20
36.1499073
11
22.51145
21
37.6043073
0
LINE
8
DEFAULT_255_2_778
10
22.51145
20
37.6043073
11
23.99735
21
37.6043073
0
LINE
8
DEFAULT_255_2_778
10
20.99565
20
37.6051146
11
20.99695
21
36.1187146
0
LINE
8
DEFAULT_255_2_778
10
20.99695
20
36.1187146
11
19.51105
21
36.1187146
0
LINE
8
DEFAULT_255_2_778
10
19.51285
20
36.1499073
11
19.51155
21
37.6043073
0
LINE
8
DEFAULT_255_2_778
10
19.51155
20
37.6043073
11
20.99745
21
37.6043073
0
LINE
8
DEFAULT_255_2_778
10
17.99555
20
37.6051146
11
17.99685
21
36.1187146
0
LINE
8
DEFAULT_255_2_778
10
17.99685
20
36.1187146
11
16.51095
21
36.1187146
0
LINE
8
DEFAULT_255_2_778
10
16.51275
20
36.1499073
11
16.51145
21
37.6043073
0
LINE
8
DEFAULT_255_2_778
10
16.51145
20
37.6043073
11
17.99735
21
37.6043073
0
LINE
8
DEFAULT_255_2_778
10
32.99555
20
37.6051146
11
32.99685
21
36.1187146
0
LINE
8
DEFAULT_255_2_778
10
32.99685
20
36.1187146
11
31.51095
21
36.1187146
0
LINE
8
DEFAULT_255_2_778
10
31.51275
20
36.1499073
11
31.51145
21
37.6043073
0
LINE
8
DEFAULT_255_2_778
10
31.51145
20
37.6043073
11
32.99735
21
37.6043073
0
LINE
8
DEFAULT_255_2_778
10
29.99545
20
37.6051146
11
29.99675
21
36.1187146
0
LINE
8
DEFAULT_255_2_778
10
29.99675
20
36.1187146
11
28.51085
21
36.1187146
0
LINE
8
DEFAULT_255_2_778
10
28.51265
20
36.1499073
11
28.51135
21
37.6043073
0
LINE
8
DEFAULT_255_2_778
10
28.51135
20
37.6043073
11
29.99725
21
37.6043073
0
LINE
8
DEFAULT_255_2_778
10
26.9955823
20
37.6051146
11
26.9968823
21
36.1187146
0
LINE
8
DEFAULT_255_2_778
10
26.9968823
20
36.1187146
11
25.5112823
21
36.1187146
0
LINE
8
DEFAULT_255_2_778
10
25.51285
20
36.1499073
11
25.51155
21
37.6043073
0
LINE
8
DEFAULT_255_2_778
10
25.51155
20
37.6043073
11
26.99745
21
37.6043073
0
LINE
8
DEFAULT_255_2_778
10
38.99555
20
37.6051146
11
38.99685
21
36.1187146
0
LINE
8
DEFAULT_255_2_778
10
38.99685
20
36.1187146
11
37.51095
21
36.1187146
0
LINE
8
DEFAULT_255_2_778
10
37.51275
20
36.1499073
11
37.51145
21
37.6043073
0
LINE
8
DEFAULT_255_2_778
10
37.51145
20
37.6043073
11
38.99735
21
37.6043073
0
LINE
8
DEFAULT_255_2_778
10
35.99565
20
37.6051146
11
35.99695
21
36.1187146
0
LINE
8
DEFAULT_255_2_778
10
35.99695
20
36.1187146
11
34.51105
21
36.1187146
0
LINE
8
DEFAULT_255_2_778
10
34.51285
20
36.1499073
11
34.51155
21
37.6043073
0
LINE
8
DEFAULT_255_2_778
10
34.51155
20
37.6043073
11
35.99745
21
37.6043073
0
LINE
8
DEFAULT_255_2_778
10
23.99545
20
63.6004333
11
23.99675
21
62.1187333
0
LINE
8
DEFAULT_255_2_778
10
23.99675
20
62.1187333
11
22.51085
21
62.1187333
0
LINE
8
DEFAULT_255_2_778
10
22.51245
20
62.1451885
11
22.51115
21
63.6043885
0
LINE
8
DEFAULT_255_2_778
10
22.51115
20
63.6043885
11
23.99705
21
63.6043885
0
LINE
8
DEFAULT_255_2_778
10
20.99565
20
63.6004333
11
20.99695
21
62.1187333
0
LINE
8
DEFAULT_255_2_778
10
20.99695
20
62.1187333
11
19.51105
21
62.1187333
0
LINE
8
DEFAULT_255_2_778
10
19.51265
20
62.1451885
11
19.51135
21
63.6043885
0
LINE
8
DEFAULT_255_2_778
10
19.51135
20
63.6043885
11
20.99725
21
63.6043885
0
LINE
8
DEFAULT_255_2_778
10
17.99555
20
63.6004333
11
17.99685
21
62.1187333
0
LINE
8
DEFAULT_255_2_778
10
17.99685
20
62.1187333
11
16.51095
21
62.1187333
0
LINE
8
DEFAULT_255_2_778
10
16.51245
20
62.1451885
11
16.51115
21
63.6043885
0
LINE
8
DEFAULT_255_2_778
10
16.51115
20
63.6043885
11
17.99705
21
63.6043885
0
LINE
8
DEFAULT_255_2_778
10
32.99555
20
63.6004333
11
32.99685
21
62.1187333
0
LINE
8
DEFAULT_255_2_778
10
32.99685
20
62.1187333
11
31.51095
21
62.1187333
0
LINE
8
DEFAULT_255_2_778
10
31.51255
20
62.1451885
11
31.51125
21
63.6043885
0
LINE
8
DEFAULT_255_2_778
10
31.51125
20
63.6043885
11
32.99715
21
63.6043885
0
LINE
8
DEFAULT_255_2_778
10
29.99545
20
63.6004333
11
29.99675
21
62.1187333
0
LINE
8
DEFAULT_255_2_778
10
29.99675
20
62.1187333
11
28.51085
21
62.1187333
0
LINE
8
DEFAULT_255_2_778
10
28.51245
20
62.1451885
11
28.51115
21
63.6043885
0
LINE
8
DEFAULT_255_2_778
10
28.51115
20
63.6043885
11
29.99705
21
63.6043885
0
LINE
8
DEFAULT_255_2_778
10
26.9955823
20
63.6004333
11
26.9968823
21
62.1187333
0
LINE
8
DEFAULT_255_2_778
10
26.9968823
20
62.1187333
11
25.5112823
21
62.1187333
0
LINE
8
DEFAULT_255_2_778
10
25.51255
20
62.1451885
11
25.51125
21
63.6043885
0
LINE
8
DEFAULT_255_2_778
10
25.51125
20
63.6043885
11
26.99715
21
63.6043885
0
LINE
8
DEFAULT_255_2_778
10
38.99555
20
63.6004333
11
38.99685
21
62.1187333
0
LINE
8
DEFAULT_255_2_778
10
38.99685
20
62.1187333
11
37.51095
21
62.1187333
0
LINE
8
DEFAULT_255_2_778
10
37.51245
20
62.1451885
11
37.51115
21
63.6043885
0
LINE
8
DEFAULT_255_2_778
10
37.51115
20
63.6043885
11
38.99705
21
63.6043885
0
LINE
8
DEFAULT_255_2_778
10
35.99565
20
63.6004333
11
35.99695
21
62.1187333
0
LINE
8
DEFAULT_255_2_778
10
35.99695
20
62.1187333
11
34.51105
21
62.1187333
0
LINE
8
DEFAULT_255_2_778
10
34.51265
20
62.1451885
11
34.51135
21
63.6043885
0
LINE
8
DEFAULT_255_2_778
10
34.51135
20
63.6043885
11
35.99725
21
63.6043885
0
ENDSEC
0
EOF