0
SECTION
2
HEADER
9
$MEASUREMENT
70
1
0
ENDSEC
0
SECTION
2
TABLES
0
TABLE
2
LTYPE
0
LTYPE
72
65
70
64
2
CONTINUOUS
3
______
73
0
40
0
0
ENDTAB
0
TABLE
2
LAYER
0
LAYER
2
DEFAULT_255_2_778
70
0
62
255
6
CONTINUOUS
0
ENDTAB
0
ENDSEC
0
SECTION
2
ENTITIES
0
ARC
8
DEFAULT_255_2_778
10
39.7362883
20
99.8572966
40
99.9949718
50
269.9996432
51
285.0463186
0
LINE
8
DEFAULT_255_2_778
10
66.2241656
20
6.4168247
11
66.2024656
21
6.4110247
0
LINE
8
DEFAULT_255_2_778
10
66.2024656
20
6.4110247
11
65.6949656
21
3.2905247
0
LINE
8
DEFAULT_255_2_778
10
39.7356656
20
-0.1376753
11
0.2354656
21
-0.1376753
0
LINE
8
DEFAULT_255_2_778
10
0.2354656
20
-0.1376753
11
0.2354656
21
30.9807247
0
LINE
8
DEFAULT_255_2_778
10
0.2354656
20
30.9807247
11
5.2355656
21
31.8623247
0
LINE
8
DEFAULT_255_2_778
10
5.2355656
20
31.8623247
11
5.2355656
21
67.4622247
0
LINE
8
DEFAULT_255_2_778
10
5.2355656
20
67.4622247
11
0.2394656
21
67.4622247
0
LINE
8
DEFAULT_255_2_778
10
0.2394656
20
67.4622247
11
0.2338656
21
64.3600247
0
LINE
8
DEFAULT_255_2_778
10
0.2338656
20
64.3600247
11
3.0450656
21
64.3600247
0
LINE
8
DEFAULT_255_2_778
10
3.0450656
20
64.3600247
11
4.1943656
21
67.4606247
0
LINE
8
DEFAULT_255_2_778
10
4.1943656
20
67.4606247
11
0.2420656
21
67.4606247
0
LINE
8
DEFAULT_255_2_778
10
0.2420656
20
67.4606247
11
0.2338656
21
99.8639247
0
LINE
8
DEFAULT_255_2_778
10
0.2338656
20
99.8639247
11
3.1773656
21
99.8639247
0
LINE
8
DEFAULT_255_2_778
10
5.2360656
20
31.8567247
11
5.2360656
21
33.4622247
0
LINE
8
DEFAULT_255_2_778
10
5.2360656
20
33.4622247
11
3.2633656
21
33.4622247
0
LINE
8
DEFAULT_255_2_778
10
3.2633656
20
33.4622247
11
0.8648656
21
31.0971247
0
LINE
8
DEFAULT_255_2_778
10
74.6555656
20
37.6051247
11
74.8077656
21
37.6051247
0
LINE
8
DEFAULT_255_2_778
10
74.8077656
20
37.6051247
11
74.8077656
21
36.1192247
0
LINE
8
DEFAULT_255_2_778
10
74.8077656
20
36.1192247
11
74.6566656
21
36.1192247
0
LINE
8
DEFAULT_255_2_778
10
74.6566656
20
63.6051247
11
74.8077656
21
63.6051247
0
LINE
8
DEFAULT_255_2_778
10
74.8077656
20
63.6051247
11
74.8077656
21
62.1192247
0
LINE
8
DEFAULT_255_2_778
10
74.8077656
20
62.1192247
11
74.6555656
21
62.1192247
0
ARC
8
DEFAULT_255_2_778
10
71.7525602
20
36.8597374
40
2.9976951
50
312.5765402
51
329.1060064
0
ARC
8
DEFAULT_255_2_778
10
71.7455369
20
36.8615562
40
3.0046565
50
329.1450097
51
0.0066668
0
ARC
8
DEFAULT_255_2_778
10
71.7484931
20
36.861913
40
3.0017003
50
359.9998626
51
2.6147524
0
ARC
8
DEFAULT_255_2_778
10
71.7590871
20
36.8627253
40
2.9910803
50
2.6084669
51
18.1969319
0
ARC
8
DEFAULT_255_2_778
10
71.74432
20
36.8572165
40
3.0068291
50
18.2087799
51
28.4059557
0
ARC
8
DEFAULT_255_2_778
10
71.753667
20
36.865136
40
2.9948412
50
28.3577538
51
47.8455746
0
ARC
8
DEFAULT_255_2_778
10
71.7483723
20
36.8572751
40
3.0042226
50
47.8713325
51
89.9637266
0
ARC
8
DEFAULT_255_2_778
10
71.7503488
20
36.8706327
40
2.9908642
50
90.001429
51
97.2772865
0
ARC
8
DEFAULT_255_2_778
10
71.7515235
20
36.8604974
40
3.0010666
50
97.2750219
51
98.4729664
0
ARC
8
DEFAULT_255_2_778
10
71.7535582
20
36.8480261
40
3.0137016
50
98.4762907
51
103.4748309
0
ARC
8
DEFAULT_255_2_778
10
71.7573466
20
36.831324
40
3.0308267
50
103.470904
51
104.187094
0
ARC
8
DEFAULT_255_2_778
10
71.7462681
20
36.866666
40
2.993848
50
104.1473127
51
126.3294208
0
ARC
8
DEFAULT_255_2_778
10
71.7514048
20
36.8598653
40
3.00237
50
126.331508
51
171.7585421
0
ARC
8
DEFAULT_255_2_778
10
71.7593526
20
36.8613184
40
3.0100285
50
171.8076005
51
179.9848898
0
ARC
8
DEFAULT_255_2_778
10
71.7213991
20
36.8656589
40
3.195076
50
161.0703815
51
180.0492554
0
ARC
8
DEFAULT_255_2_778
10
71.7286603
20
36.8599991
40
3.2037818
50
105.2562015
51
161.0167646
0
ARC
8
DEFAULT_255_2_778
10
71.7260063
20
36.8495973
40
3.213123
50
94.9756539
51
105.1617361
0
ARC
8
DEFAULT_255_2_778
10
71.7234809
20
62.8573457
40
3.1958872
50
246.0686286
51
265.0428903
0
ARC
8
DEFAULT_255_2_778
10
71.7294172
20
62.8634521
40
3.2038779
50
190.2585484
51
246.0158907
0
ARC
8
DEFAULT_255_2_778
10
71.7398227
20
62.8599552
40
3.2134985
50
179.9793721
51
190.1641571
0
ARC
8
DEFAULT_255_2_778
10
71.7438873
20
62.8617273
40
2.9942631
50
179.9849813
51
202.1657457
0
ARC
8
DEFAULT_255_2_778
10
71.751326
20
62.8648554
40
3.0023324
50
202.16747
51
247.5958886
0
ARC
8
DEFAULT_255_2_778
10
71.7518011
20
62.8728171
40
3.0098754
50
247.6452927
51
255.822931
0
ARC
8
DEFAULT_255_2_778
10
71.7544278
20
62.8801682
40
3.017646
50
255.8087624
51
260.8191196
0
ARC
8
DEFAULT_255_2_778
10
71.7523986
20
62.8689666
40
3.0062641
50
260.8232344
51
261.5358817
0
ARC
8
DEFAULT_255_2_778
10
71.7506238
20
62.8560162
40
2.9931937
50
261.5329983
51
268.4199022
0
ARC
8
DEFAULT_255_2_778
10
71.7503896
20
62.8515356
40
2.9887082
50
268.422021
51
269.9998884
0
ARC
8
DEFAULT_255_2_778
10
71.7488592
20
62.8655524
40
3.0027254
50
270.02909
51
322.6751922
0
ARC
8
DEFAULT_255_2_778
10
71.7426286
20
62.8667756
40
3.008423
50
322.7286171
51
331.6176525
0
ARC
8
DEFAULT_255_2_778
10
71.747097
20
62.8660416
40
3.0041432
50
331.589458
51
343.0068144
0
ARC
8
DEFAULT_255_2_778
10
71.7593211
20
62.8615587
40
2.9911428
50
343.0205015
51
357.4001688
0
ARC
8
DEFAULT_255_2_778
10
71.7492393
20
62.8623257
40
3.0012489
50
357.3942727
51
0.000319
0
ARC
8
DEFAULT_255_2_778
10
71.7475558
20
62.8630043
40
3.0029325
50
359.9873713
51
34.4943107
0
ARC
8
DEFAULT_255_2_778
10
71.7497306
20
62.8616472
40
3.0019095
50
34.5391653
51
47.4188404
0
LINE
8
DEFAULT_255_2_778
10
68.7493243
20
36.8621122
11
65.9691243
21
3.3476122
0
LINE
8
DEFAULT_255_2_778
10
65.9691243
20
3.3476122
11
69.6465243
21
4.4776122
0
LINE
8
DEFAULT_255_2_778
10
69.6465243
20
4.4776122
11
69.3693243
21
0.5491122
0
LINE
8
DEFAULT_255_2_778
10
69.3693243
20
0.5491122
11
69.3690243
21
0.5467122
0
LINE
8
DEFAULT_255_2_778
10
69.3690243
20
0.5467122
11
71.3639243
21
0.4060122
0
LINE
8
DEFAULT_255_2_778
10
71.3639243
20
0.4060122
11
73.7801243
21
34.6523122
0
LINE
8
DEFAULT_255_2_778
10
5.2361243
20
67.4607122
11
4.1860243
21
67.4607122
0
LINE
8
DEFAULT_255_2_778
10
4.1860243
20
67.4607122
11
3.6031243
21
65.8623122
0
LINE
8
DEFAULT_255_2_778
10
3.6031243
20
65.8623122
11
4.1854243
21
65.8623122
0
LINE
8
DEFAULT_255_2_778
10
4.1854243
20
65.8623122
11
5.2350243
21
66.8624122
0
LINE
8
DEFAULT_255_2_778
10
5.2350243
20
66.8624122
11
5.2350243
21
67.4625122
0
LINE
8
DEFAULT_255_2_778
10
66.2025243
20
6.4110122
11
68.5263243
21
36.8629122
0
LINE
8
DEFAULT_255_2_778
10
71.4473243
20
40.0506122
11
73.9077243
21
40.2660122
0
LINE
8
DEFAULT_255_2_778
10
73.9077243
20
40.2660122
11
73.9077243
21
38.9439122
0
LINE
8
DEFAULT_255_2_778
10
73.9077243
20
40.2660122
11
73.9077243
21
59.4583122
0
LINE
8
DEFAULT_255_2_778
10
73.9077243
20
59.4583122
11
73.7381243
21
59.4731122
0
LINE
8
DEFAULT_255_2_778
10
73.7381243
20
59.4731122
11
71.4473243
21
59.6734122
0
LINE
8
DEFAULT_255_2_778
10
68.5263243
20
62.8611122
11
66.2025243
21
93.3134122
0
LINE
8
DEFAULT_255_2_778
10
66.2025243
20
93.3134122
11
66.2242243
21
93.3075122
0
LINE
8
DEFAULT_255_2_778
10
71.6963243
20
94.6172122
11
65.9694243
21
96.3770122
0
LINE
8
DEFAULT_255_2_778
10
65.9694243
20
96.3770122
11
68.7496243
21
62.8625122
0
LINE
8
DEFAULT_255_2_778
10
73.7809243
20
65.0720122
11
71.3645243
21
99.3186122
0
LINE
8
DEFAULT_255_2_778
10
71.3645243
20
99.3186122
11
69.3695243
21
99.1778122
0
LINE
8
DEFAULT_255_2_778
10
69.3695243
20
99.1778122
11
69.6468243
21
95.2469122
0
LINE
8
DEFAULT_255_2_778
10
69.3697708
20
0.5488132
11
71.3647708
21
0.4081132
0
LINE
8
DEFAULT_255_2_778
10
2.9355708
20
33.1622132
11
2.9355708
21
31.4567132
0
LINE
8
DEFAULT_255_2_778
10
3.0463708
20
99.8623132
11
2.9355708
21
99.8623132
0
LINE
8
DEFAULT_255_2_778
10
0.2394708
20
68.8584132
11
0.2354708
21
68.8624132
0
LINE
8
DEFAULT_255_2_778
10
0.2354708
20
68.8624132
11
0.2354708
21
99.8623132
0
LINE
8
DEFAULT_255_2_778
10
0.2354708
20
99.8623132
11
2.9355708
21
99.8623132
0
LINE
8
DEFAULT_255_2_778
10
2.9355708
20
99.8623132
11
2.9355708
21
99.0738132
0
ARC
8
DEFAULT_255_2_778
10
-1181.3623006
20
98.0503596
40
1256.5114541
50
355.5429866
51
355.5967098
0
ARC
8
DEFAULT_255_2_778
10
-1330.3479314
20
109.520958
40
1405.9380005
50
355.5967841
51
355.6522068
0
ARC
8
DEFAULT_255_2_778
10
-1493.914784
20
121.9595103
40
1569.9771204
50
355.6521093
51
355.7007896
0
ARC
8
DEFAULT_255_2_778
10
-1671.3651716
20
135.2986715
40
1747.928162
50
355.7008204
51
355.7490085
0
ARC
8
DEFAULT_255_2_778
10
-1862.7445643
20
149.5258013
40
1939.835648
50
355.7489539
51
355.7918103
0
ARC
8
DEFAULT_255_2_778
10
-2055.7591888
20
163.7294165
40
2133.3721768
50
355.7917629
51
355.829473
0
ARC
8
DEFAULT_255_2_778
10
-2246.9436586
20
177.6718328
40
2325.0643584
50
355.8294342
51
355.8628219
0
ARC
8
DEFAULT_255_2_778
10
-2435.8994596
20
191.342018
40
2514.5140054
50
355.8627669
51
355.892481
0
ARC
8
DEFAULT_255_2_778
10
-2625.0563121
20
204.9281381
40
2704.1581393
50
355.8924337
51
355.9189676
0
ARC
8
DEFAULT_255_2_778
10
-2812.398366
20
218.295493
40
2891.9764858
50
355.9189508
51
355.9427289
0
ARC
8
DEFAULT_255_2_778
10
-3033.691307
20
233.9858688
40
3113.8249783
50
355.9428433
51
355.9746868
0
ARC
8
DEFAULT_255_2_778
10
-3296.7034789
20
252.4979674
40
3377.4878317
50
355.9746238
51
356.0019626
0
ARC
8
DEFAULT_255_2_778
10
-3579.9696752
20
272.2946131
40
3661.4449502
50
356.0019861
51
356.0313312
0
ARC
8
DEFAULT_255_2_778
10
-3891.9287126
20
293.9397287
40
3974.1540037
50
356.0312991
51
356.0574533
0
ARC
8
DEFAULT_255_2_778
10
-4182.8938362
20
313.9958927
40
4265.8095417
50
356.0574121
51
356.0792478
0
ARC
8
DEFAULT_255_2_778
10
-4455.2656238
20
332.6654277
40
4538.8204246
50
356.0792229
51
356.0975507
0
ARC
8
DEFAULT_255_2_778
10
-4752.4714718
20
352.9353053
40
4836.7166885
50
356.0976021
51
356.1206688
0
ARC
8
DEFAULT_255_2_778
10
-5125.5732564
20
378.2359697
40
5210.6753296
50
356.1206649
51
356.1436941
0
ARC
8
DEFAULT_255_2_778
10
-5478.2637739
20
402.0150641
40
5564.1665549
50
356.14364
51
356.1608838
0
ARC
8
DEFAULT_255_2_778
10
-5826.1445484
20
425.3573495
40
5912.8295664
50
356.1609078
51
356.1795319
0
ARC
8
DEFAULT_255_2_778
10
-6171.7533874
20
448.4382629
40
6259.2082581
50
356.1795174
51
356.1944603
0
ARC
8
DEFAULT_255_2_778
10
-6486.0070794
20
469.3424415
40
6574.1564565
50
356.194452
51
356.208923
0
ARC
8
DEFAULT_255_2_778
10
72.299447
20
36.5811955
40
2.4083752
50
307.4426396
51
343.2032777
0
ARC
8
DEFAULT_255_2_778
10
71.5373029
20
36.8390803
40
3.2126366
50
342.7281558
51
353.164824
0
ARC
8
DEFAULT_255_2_778
10
70.9593842
20
36.9232874
40
3.7964985
50
352.9410365
51
354.6686786
0
ARC
8
DEFAULT_255_2_778
10
70.8009413
20
36.8034588
40
3.9453995
50
356.6154887
51
359.1269013
0
ARC
8
DEFAULT_255_2_778
10
70.9595534
20
36.8002849
40
3.7867577
50
359.1383496
51
359.9987886
0
ARC
8
DEFAULT_255_2_778
10
71.3933554
20
36.81286
40
3.3529796
50
359.7837466
51
12.0777846
0
ARC
8
DEFAULT_255_2_778
10
71.764537
20
36.8823225
40
2.9754957
50
12.2653552
51
41.4605767
0
ARC
8
DEFAULT_255_2_778
10
71.4015529
20
36.5970788
40
3.4364841
50
41.0176008
51
43.2531335
0
ARC
8
DEFAULT_255_2_778
10
72.3612902
20
64.3081355
40
4.7539621
50
246.4564714
51
254.013023
0
ARC
8
DEFAULT_255_2_778
10
71.9429763
20
63.3552542
40
3.7133091
50
236.2658311
51
246.5007219
0
ARC
8
DEFAULT_255_2_778
10
71.4876605
20
62.7022417
40
2.9174375
50
202.0134341
51
236.5801926
0
ARC
8
DEFAULT_255_2_778
10
72.0487081
20
62.9317696
40
3.5236159
50
190.9282815
51
202.0540901
0
ARC
8
DEFAULT_255_2_778
10
72.9993047
20
63.1191329
40
4.4924955
50
182.9359408
51
190.9761236
0
ARC
8
DEFAULT_255_2_778
10
73.8489434
20
63.1766227
40
5.3439815
50
180.6989183
51
183.0849315
0
ARC
8
DEFAULT_255_2_778
10
39.7356411
20
-0.1374834
40
99.9998195
50
74.9540478
51
89.9999895
0
ARC
8
DEFAULT_255_2_778
10
54.1353522
20
39.0624274
40
1.0001912
50
224.9958871
51
269.9946851
0
ARC
8
DEFAULT_255_2_778
10
54.1353265
20
39.0624192
40
1.0001674
50
179.9990294
51
224.9965927
0
ARC
8
DEFAULT_255_2_778
10
54.1353272
20
60.6624529
40
1.0001678
50
135.0034282
51
180.0009633
0
ARC
8
DEFAULT_255_2_778
10
54.1353522
20
60.6624449
40
1.0001912
50
90.0053149
51
135.0041129
0
ARC
8
DEFAULT_255_2_778
10
65.3354109
20
60.6627932
40
0.999843
50
44.9876198
51
90.0029524
0
ARC
8
DEFAULT_255_2_778
10
65.3357126
20
60.6626274
40
0.9997468
50
359.9890368
51
45.0065606
0
ARC
8
DEFAULT_255_2_778
10
65.3357126
20
39.0622448
40
0.9997468
50
314.9934394
51
0.0109632
0
ARC
8
DEFAULT_255_2_778
10
65.3354109
20
39.0620791
40
0.999843
50
269.9970476
51
315.0123802
0
LINE
8
DEFAULT_255_2_778
10
66.7352594
20
60.6622361
11
66.7352594
21
60.6626135
0
ARC
8
DEFAULT_255_2_778
10
65.3358091
20
60.6625648
40
1.3994504
50
0.0019931
51
45.0006077
0
ARC
8
DEFAULT_255_2_778
10
65.3356537
20
60.6626031
40
1.3995331
50
44.9950044
51
89.9966014
0
LINE
8
DEFAULT_255_2_778
10
65.3357368
20
62.0621362
11
65.3353594
21
62.0621361
0
LINE
8
DEFAULT_255_2_778
10
54.1352594
20
62.0621361
11
54.1348821
21
62.0621362
0
ARC
8
DEFAULT_255_2_778
10
54.1349689
20
60.6628351
40
1.399301
50
90.0035539
51
135.008933
0
ARC
8
DEFAULT_255_2_778
10
54.1349063
20
60.6624248
40
1.3995469
50
134.9952405
51
180.0077243
0
ARC
8
DEFAULT_255_2_778
10
54.1353129
20
39.0620158
40
1.3999535
50
179.9950751
51
224.9978622
0
ARC
8
DEFAULT_255_2_778
10
54.1350028
20
39.0618603
40
1.3996242
50
225.0023383
51
269.9950602
0
LINE
8
DEFAULT_255_2_778
10
54.1348821
20
37.6622361
11
54.1352594
21
37.6622361
0
LINE
8
DEFAULT_255_2_778
10
65.3353594
20
37.6622361
11
65.3357368
21
37.6622361
0
ARC
8
DEFAULT_255_2_778
10
65.3356199
20
39.0620924
40
1.3998564
50
270.0047847
51
314.9937249
0
ARC
8
DEFAULT_255_2_778
10
65.335403
20
39.0618756
40
1.3998564
50
315.0062751
51
359.9952153
0
LINE
8
DEFAULT_255_2_778
10
66.7352594
20
39.0617587
11
66.7352594
21
39.0621361
0
LINE
8
DEFAULT_255_2_778
10
66.1730594
20
6.0776361
11
65.9912594
21
3.3489361
0
LINE
8
DEFAULT_255_2_778
10
65.9912594
20
3.3489361
11
69.6459594
21
4.4734361
0
LINE
8
DEFAULT_255_2_778
10
69.6459594
20
4.4734361
11
69.3731594
21
0.5459361
0
LINE
8
DEFAULT_255_2_778
10
69.3731594
20
0.5459361
11
71.3493594
21
0.4054361
0
LINE
8
DEFAULT_255_2_778
10
73.9044594
20
38.9518361
11
73.8880594
21
40.2665361
0
LINE
8
DEFAULT_255_2_778
10
73.8880594
20
40.2665361
11
73.8962594
21
59.4570361
0
LINE
8
DEFAULT_255_2_778
10
73.8962594
20
59.4570361
11
71.0519594
21
59.7380361
0
LINE
8
DEFAULT_255_2_778
10
68.5053594
20
63.1114361
11
66.2024594
21
93.3136361
0
LINE
8
DEFAULT_255_2_778
10
66.2024594
20
93.3136361
11
65.6949594
21
96.4341361
0
LINE
8
DEFAULT_255_2_778
10
39.7356594
20
99.8623361
11
3.0463594
21
99.8623361
0
LINE
8
DEFAULT_255_2_778
10
3.0463594
20
99.8623361
11
0.2394594
21
79.8900361
0
LINE
8
DEFAULT_255_2_778
10
0.2394594
20
79.8900361
11
0.2394594
21
67.4622361
0
LINE
8
DEFAULT_255_2_778
10
0.2394594
20
67.4622361
11
0.2354594
21
67.4622361
0
LINE
8
DEFAULT_255_2_778
10
0.2354594
20
67.4622361
11
0.2354594
21
64.3621361
0
LINE
8
DEFAULT_255_2_778
10
0.2354594
20
64.3621361
11
3.0572594
21
64.3621361
0
LINE
8
DEFAULT_255_2_778
10
3.0572594
20
64.3621361
11
4.1856594
21
67.4622361
0
LINE
8
DEFAULT_255_2_778
10
4.1856594
20
67.4622361
11
0.2338594
21
67.4606361
0
LINE
8
DEFAULT_255_2_778
10
0.2338594
20
67.4606361
11
0.2338594
21
64.3600361
0
LINE
8
DEFAULT_255_2_778
10
0.2338594
20
64.3600361
11
3.0617594
21
64.3600361
0
LINE
8
DEFAULT_255_2_778
10
3.0617594
20
64.3600361
11
4.1861594
21
67.4606361
0
LINE
8
DEFAULT_255_2_778
10
4.1861594
20
67.4606361
11
5.2196594
21
67.4606361
0
LINE
8
DEFAULT_255_2_778
10
53.1351594
20
39.0624361
11
53.1351594
21
60.6624361
0
LINE
8
DEFAULT_255_2_778
10
54.1352594
20
61.6626361
11
65.3353594
21
61.6626361
0
LINE
8
DEFAULT_255_2_778
10
66.3354594
20
60.6624361
11
66.3354594
21
39.0624361
0
LINE
8
DEFAULT_255_2_778
10
65.3353594
20
38.0622361
11
54.1352594
21
38.0622361
0
LINE
8
DEFAULT_255_2_778
10
65.3353594
20
62.0621361
11
54.1352594
21
62.0621361
0
LINE
8
DEFAULT_255_2_778
10
52.7353594
20
60.6622361
11
52.7353594
21
39.0621361
0
LINE
8
DEFAULT_255_2_778
10
54.1352594
20
37.6622361
11
65.3353594
21
37.6622361
0
LINE
8
DEFAULT_255_2_778
10
66.7352594
20
39.0621361
11
66.7352594
21
46.8620361
0
LINE
8
DEFAULT_255_2_778
10
66.7352594
20
46.8620361
11
70.5058594
21
46.8620361
0
LINE
8
DEFAULT_255_2_778
10
70.5058594
20
46.8620361
11
70.5058594
21
46.8983361
0
LINE
8
DEFAULT_255_2_778
10
70.5058594
20
46.8983361
11
70.5058594
21
52.8257361
0
LINE
8
DEFAULT_255_2_778
10
70.5058594
20
52.8257361
11
70.5058594
21
52.8620361
0
LINE
8
DEFAULT_255_2_778
10
70.5058594
20
52.8620361
11
66.7352594
21
52.8620361
0
LINE
8
DEFAULT_255_2_778
10
66.7352594
20
52.8620361
11
66.7352594
21
60.6619361
0
LINE
8
DEFAULT_255_2_778
10
73.9076594
20
46.7123361
11
74.9077594
21
46.7123361
0
LINE
8
DEFAULT_255_2_778
10
74.9077594
20
46.7123361
11
74.9077594
21
53.0123361
0
LINE
8
DEFAULT_255_2_778
10
74.9077594
20
53.0123361
11
73.9076594
21
53.0123361
0
ENDSEC
0
EOF