0
SECTION
2
HEADER
9
$MEASUREMENT
70
1
0
ENDSEC
0
SECTION
2
TABLES
0
TABLE
2
LTYPE
0
LTYPE
72
65
70
64
2
CONTINUOUS
3
______
73
0
40
0
0
ENDTAB
0
TABLE
2
LAYER
0
LAYER
2
DEFAULT_255_2_778
70
0
62
255
6
CONTINUOUS
0
ENDTAB
0
ENDSEC
0
SECTION
2
ENTITIES
0
ARC
8
DEFAULT_255_2_778
10
45.0760754
20
0.2613481
40
0.1781907
50
359.9696534
51
0.0910427
0
ARC
8
DEFAULT_255_2_778
10
44.8549572
20
0.2611306
40
0.3993089
50
314.9705122
51
0.0176661
0
ARC
8
DEFAULT_255_2_778
10
44.8545947
20
0.2610134
40
0.3994824
50
269.992599
51
315.0191757
0
LINE
8
DEFAULT_255_2_778
10
44.8545431
20
-0.138469
11
44.8541659
21
-0.1384688
0
LINE
8
DEFAULT_255_2_778
10
0.6541659
20
-0.1384688
11
0.6537888
21
-0.138469
0
ARC
8
DEFAULT_255_2_778
10
0.6538095
20
0.2611879
40
0.3996569
50
224.991197
51
269.9970351
0
ARC
8
DEFAULT_255_2_778
10
0.6537976
20
0.2611644
40
0.3996319
50
179.9871931
51
224.9900165
0
ARC
8
DEFAULT_255_2_778
10
0.4323565
20
0.2613481
40
0.1781907
50
179.9089573
51
180.0303466
0
ARC
8
DEFAULT_255_2_778
10
0.4320003
20
99.4619141
40
0.1778346
50
179.9696212
51
180.0911393
0
ARC
8
DEFAULT_255_2_778
10
0.654146
20
99.4619538
40
0.3999803
50
135.0306604
51
179.9921839
0
ARC
8
DEFAULT_255_2_778
10
0.6538433
20
99.4616511
40
0.3999803
50
90.0078161
51
134.9693396
0
LINE
8
DEFAULT_255_2_778
10
0.6537888
20
99.8616314
11
0.6541659
21
99.8616312
0
LINE
8
DEFAULT_255_2_778
10
44.8541659
20
99.8616312
11
44.8545431
21
99.8616314
0
ARC
8
DEFAULT_255_2_778
10
44.8545609
20
99.4618259
40
0.3998055
50
45.0202917
51
90.0025458
0
ARC
8
DEFAULT_255_2_778
10
44.8546093
20
99.4619877
40
0.3996569
50
0.0029649
51
45.008803
0
ARC
8
DEFAULT_255_2_778
10
45.0764316
20
99.4619141
40
0.1778346
50
359.9088607
51
0.0303788
0
LINE
8
DEFAULT_255_2_778
10
45.2542659
20
46.6616312
11
45.2542659
21
0.2616312
0
LINE
8
DEFAULT_255_2_778
10
44.8541659
20
-0.1384688
11
0.6541659
21
-0.1384688
0
LINE
8
DEFAULT_255_2_778
10
0.2541659
20
0.2616312
11
0.2541659
21
99.4616312
0
LINE
8
DEFAULT_255_2_778
10
0.6541659
20
99.8616312
11
44.8541659
21
99.8616312
0
LINE
8
DEFAULT_255_2_778
10
45.2542659
20
99.4616312
11
45.2542659
21
53.0616312
0
LINE
8
DEFAULT_255_2_778
10
15.715009
20
59.772496
11
15.715009
21
57.581396
0
LINE
8
DEFAULT_255_2_778
10
15.715009
20
57.581396
11
39.775709
21
57.581396
0
LINE
8
DEFAULT_255_2_778
10
39.775709
20
57.581396
11
39.775709
21
59.772496
0
LINE
8
DEFAULT_255_2_778
10
21.294009
20
95.216596
11
21.294309
21
95.216596
0
LINE
8
DEFAULT_255_2_778
10
44.665209
20
99.709196
11
38.741409
21
99.428696
0
LINE
8
DEFAULT_255_2_778
10
38.741409
20
99.428696
11
32.715809
21
98.563596
0
LINE
8
DEFAULT_255_2_778
10
32.715809
20
98.563596
11
26.792809
21
97.119696
0
LINE
8
DEFAULT_255_2_778
10
26.792809
20
97.119696
11
19.882709
21
94.749896
0
LINE
8
DEFAULT_255_2_778
10
21.261509
20
94.746896
11
22.078009
21
95.050196
0
LINE
8
DEFAULT_255_2_778
10
22.078009
20
95.050196
11
22.878609
21
95.353596
0
LINE
8
DEFAULT_255_2_778
10
22.878609
20
95.353596
11
23.683509
21
95.646296
0
LINE
8
DEFAULT_255_2_778
10
23.683509
20
95.646296
11
24.492309
21
95.927996
0
LINE
8
DEFAULT_255_2_778
10
24.492309
20
95.927996
11
25.304809
21
96.198696
0
LINE
8
DEFAULT_255_2_778
10
25.304809
20
96.198696
11
26.121109
21
96.458296
0
LINE
8
DEFAULT_255_2_778
10
26.121109
20
96.458296
11
26.940709
21
96.706696
0
LINE
8
DEFAULT_255_2_778
10
26.940709
20
96.706696
11
27.762009
21
96.943496
0
LINE
8
DEFAULT_255_2_778
10
27.762009
20
96.943496
11
28.586509
21
97.168896
0
LINE
8
DEFAULT_255_2_778
10
28.586509
20
97.168896
11
29.413809
21
97.383196
0
LINE
8
DEFAULT_255_2_778
10
29.413809
20
97.383196
11
30.244109
21
97.586196
0
LINE
8
DEFAULT_255_2_778
10
30.244109
20
97.586196
11
31.077009
21
97.777696
0
LINE
8
DEFAULT_255_2_778
10
31.077009
20
97.777696
11
31.912309
21
97.957896
0
LINE
8
DEFAULT_255_2_778
10
31.912309
20
97.957896
11
32.749909
21
98.126696
0
LINE
8
DEFAULT_255_2_778
10
32.749909
20
98.126696
11
33.588909
21
98.283896
0
LINE
8
DEFAULT_255_2_778
10
33.588909
20
98.283896
11
34.429809
21
98.429696
0
LINE
8
DEFAULT_255_2_778
10
34.429809
20
98.429696
11
35.272709
21
98.564096
0
LINE
8
DEFAULT_255_2_778
10
35.272709
20
98.564096
11
36.117309
21
98.686896
0
LINE
8
DEFAULT_255_2_778
10
36.117309
20
98.686896
11
36.963409
21
98.798196
0
LINE
8
DEFAULT_255_2_778
10
36.963409
20
98.798196
11
37.811209
21
98.897996
0
LINE
8
DEFAULT_255_2_778
10
37.811209
20
98.897996
11
38.660209
21
98.986096
0
LINE
8
DEFAULT_255_2_778
10
38.660209
20
98.986096
11
39.509009
21
99.062596
0
LINE
8
DEFAULT_255_2_778
10
39.509009
20
99.062596
11
40.358809
21
99.127396
0
LINE
8
DEFAULT_255_2_778
10
40.358809
20
99.127396
11
41.209509
21
99.180796
0
LINE
8
DEFAULT_255_2_778
10
41.209509
20
99.180796
11
42.060609
21
99.222596
0
LINE
8
DEFAULT_255_2_778
10
42.060609
20
99.222596
11
42.912309
21
99.252796
0
LINE
8
DEFAULT_255_2_778
10
42.912309
20
99.252796
11
43.764009
21
99.271296
0
LINE
8
DEFAULT_255_2_778
10
43.764009
20
99.271296
11
44.615709
21
99.278196
0
LINE
8
DEFAULT_255_2_778
10
0.281309
20
95.824296
11
0.280809
21
95.820896
0
LINE
8
DEFAULT_255_2_778
10
0.280809
20
95.820896
11
0.319209
21
95.995196
0
LINE
8
DEFAULT_255_2_778
10
0.319209
20
95.995196
11
0.438009
21
96.142096
0
LINE
8
DEFAULT_255_2_778
10
0.438009
20
96.142096
11
0.608109
21
96.217496
0
LINE
8
DEFAULT_255_2_778
10
0.608109
20
96.217496
11
0.680609
21
96.224096
0
LINE
8
DEFAULT_255_2_778
10
0.960009
20
39.861496
11
0.769509
21
39.814396
0
LINE
8
DEFAULT_255_2_778
10
0.769509
20
39.814396
11
0.643809
21
39.712296
0
LINE
8
DEFAULT_255_2_778
10
0.643809
20
39.712296
11
0.576609
21
39.601996
0
LINE
8
DEFAULT_255_2_778
10
0.576609
20
39.601996
11
0.588009
21
34.836796
0
ARC
8
DEFAULT_255_2_778
10
2.6543048
20
70.4617626
40
0.4002198
50
120.0016378
51
179.9864247
0
ARC
8
DEFAULT_255_2_778
10
2.6540481
20
70.4621608
40
0.3997466
50
89.9857573
51
119.9983154
0
LINE
8
DEFAULT_255_2_778
10
2.6541475
20
70.8619074
11
2.6545078
21
70.8619072
0
ARC
8
DEFAULT_255_2_778
10
2.6542121
20
70.4617501
40
0.4001573
50
60.0174763
51
89.9576569
0
ARC
8
DEFAULT_255_2_778
10
2.6540585
20
70.4618742
40
0.4001265
50
359.9975917
51
59.9895424
0
ARC
8
DEFAULT_255_2_778
10
42.8542733
20
70.461769
40
0.4001884
50
90.0126507
51
179.9873493
0
ARC
8
DEFAULT_255_2_778
10
42.8540817
20
70.4618543
40
0.4001031
50
0.000442
51
89.9852156
0
ARC
8
DEFAULT_255_2_778
10
2.654124
20
29.2614965
40
0.400039
50
180.0056061
51
270.0087334
0
ARC
8
DEFAULT_255_2_778
10
2.6541672
20
29.2614754
40
0.400018
50
270.0025441
51
359.9974285
0
ARC
8
DEFAULT_255_2_778
10
42.854188
20
29.2615606
40
0.400103
50
180.0147794
51
269.9995702
0
ARC
8
DEFAULT_255_2_778
10
42.8541672
20
29.2614753
40
0.4000179
50
270.0025441
51
359.9974386
0
LINE
8
DEFAULT_255_2_778
10
15.825085
20
59.7727574
11
15.825085
21
57.6917574
0
LINE
8
DEFAULT_255_2_778
10
15.825085
20
57.6917574
11
39.665685
21
57.6917574
0
LINE
8
DEFAULT_255_2_778
10
39.665685
20
57.6917574
11
39.665685
21
59.7727574
0
LINE
8
DEFAULT_255_2_778
10
0.535385
20
94.3434574
11
0.621685
21
74.7184574
0
LINE
8
DEFAULT_255_2_778
10
0.621685
20
74.7184574
11
0.646285
21
64.8865574
0
LINE
8
DEFAULT_255_2_778
10
0.646285
20
64.8865574
11
0.576085
21
60.1227574
0
LINE
8
DEFAULT_255_2_778
10
0.576085
20
60.1227574
11
0.644885
21
60.0100574
0
LINE
8
DEFAULT_255_2_778
10
0.644885
20
60.0100574
11
0.771685
21
59.9079574
0
LINE
8
DEFAULT_255_2_778
10
0.771685
20
59.9079574
11
0.960285
21
59.8616574
0
LINE
8
DEFAULT_255_2_778
10
24.206085
20
96.2243574
11
0.680885
21
96.2243574
0
LINE
8
DEFAULT_255_2_778
10
0.680885
20
96.2243574
11
0.680885
21
96.2097574
0
LINE
8
DEFAULT_255_2_778
10
2.254085
20
60.2619574
11
2.254085
21
70.4618574
0
LINE
8
DEFAULT_255_2_778
10
3.054185
20
70.4618574
11
3.054185
21
65.5467574
0
LINE
8
DEFAULT_255_2_778
10
3.054185
20
65.5467574
11
42.454085
21
65.5467574
0
LINE
8
DEFAULT_255_2_778
10
42.454085
20
65.5467574
11
42.454085
21
70.4618574
0
LINE
8
DEFAULT_255_2_778
10
43.254185
20
70.4618574
11
43.254185
21
60.2619574
0
LINE
8
DEFAULT_255_2_778
10
2.254085
20
39.4614574
11
2.254085
21
29.2614574
0
LINE
8
DEFAULT_255_2_778
10
3.054185
20
29.2614574
11
3.054185
21
34.1766574
0
LINE
8
DEFAULT_255_2_778
10
3.054185
20
34.1766574
11
42.454085
21
34.1766574
0
LINE
8
DEFAULT_255_2_778
10
42.454085
20
34.1766574
11
42.454085
21
29.2614574
0
LINE
8
DEFAULT_255_2_778
10
43.254185
20
29.2614574
11
43.254185
21
39.4614574
0
LINE
8
DEFAULT_255_2_778
10
2.4541563
20
28.9249511
11
2.4520563
21
40.0760511
0
LINE
8
DEFAULT_255_2_778
10
2.4520563
20
40.0760511
11
2.4287563
21
40.1456511
0
LINE
8
DEFAULT_255_2_778
10
2.4287563
20
40.1456511
11
2.2734563
21
40.2485511
0
LINE
8
DEFAULT_255_2_778
10
2.2734563
20
40.2485511
11
2.2591563
21
40.2493511
0
LINE
8
DEFAULT_255_2_778
10
2.4541563
20
59.6763511
11
2.4541563
21
70.7981511
0
LINE
8
DEFAULT_255_2_778
10
0.5906563
20
39.6061511
11
0.5710563
21
12.1320511
0
LINE
8
DEFAULT_255_2_778
10
0.5710563
20
12.1320511
11
0.5094563
21
0.8166511
0
LINE
8
DEFAULT_255_2_778
10
0.5094563
20
0.8166511
11
0.5120563
21
0.7809511
0
LINE
8
DEFAULT_255_2_778
10
0.5120563
20
0.7809511
11
0.5202563
21
0.7364511
0
LINE
8
DEFAULT_255_2_778
10
0.5202563
20
0.7364511
11
0.5478563
21
0.6600511
0
LINE
8
DEFAULT_255_2_778
10
0.5478563
20
0.6600511
11
0.6256563
21
0.5528511
0
LINE
8
DEFAULT_255_2_778
10
0.6256563
20
0.5528511
11
0.8073563
21
0.4499511
0
LINE
8
DEFAULT_255_2_778
10
0.8073563
20
0.4499511
11
0.8999563
21
0.4364511
0
LINE
8
DEFAULT_255_2_778
10
2.2538563
20
35.2397511
11
2.2517563
21
35.1870511
0
LINE
8
DEFAULT_255_2_778
10
2.2517563
20
35.1870511
11
2.2488563
21
35.1521511
0
LINE
8
DEFAULT_255_2_778
10
2.2488563
20
35.1521511
11
2.2422563
21
35.1000511
0
LINE
8
DEFAULT_255_2_778
10
2.2422563
20
35.1000511
11
2.2300563
21
35.0365511
0
LINE
8
DEFAULT_255_2_778
10
2.2300563
20
35.0365511
11
2.2051563
21
34.9516511
0
LINE
8
DEFAULT_255_2_778
10
2.2051563
20
34.9516511
11
2.1540563
21
34.8425511
0
LINE
8
DEFAULT_255_2_778
10
2.1540563
20
34.8425511
11
2.0585563
21
34.7275511
0
LINE
8
DEFAULT_255_2_778
10
2.0585563
20
34.7275511
11
1.9093563
21
34.6531511
0
LINE
8
DEFAULT_255_2_778
10
1.9093563
20
34.6531511
11
1.8537563
21
34.6476511
0
LINE
8
DEFAULT_255_2_778
10
1.8537563
20
34.6476511
11
1.0452563
21
34.6476511
0
LINE
8
DEFAULT_255_2_778
10
2.4541555
20
59.6714564
11
2.4520555
21
59.6467564
0
LINE
8
DEFAULT_255_2_778
10
2.4520555
20
59.6467564
11
2.4287555
21
59.5772564
0
LINE
8
DEFAULT_255_2_778
10
2.4287555
20
59.5772564
11
2.2732555
21
59.4742564
0
LINE
8
DEFAULT_255_2_778
10
2.2732555
20
59.4742564
11
0.6357555
21
59.4732564
0
LINE
8
DEFAULT_255_2_778
10
0.5367555
20
94.3461564
11
0.5391555
21
94.3728564
0
LINE
8
DEFAULT_255_2_778
10
0.5391555
20
94.3728564
11
0.5473555
21
94.4170564
0
LINE
8
DEFAULT_255_2_778
10
0.5473555
20
94.4170564
11
0.5748555
21
94.4934564
0
LINE
8
DEFAULT_255_2_778
10
0.5748555
20
94.4934564
11
0.6526555
21
94.6003564
0
LINE
8
DEFAULT_255_2_778
10
0.6526555
20
94.6003564
11
0.8341555
21
94.7032564
0
LINE
8
DEFAULT_255_2_778
10
0.8341555
20
94.7032564
11
0.9360555
21
94.7167564
0
LINE
8
DEFAULT_255_2_778
10
0.9360555
20
94.7167564
11
21.2602555
21
94.7424564
0
LINE
8
DEFAULT_255_2_778
10
2.4541555
20
33.7885564
11
2.4674555
21
33.7946564
0
ARC
8
DEFAULT_255_2_778
10
40.8044217
20
1.0615285
40
0.8003993
50
134.1190605
51
179.985512
0
ARC
8
DEFAULT_255_2_778
10
40.4544676
20
99.6601736
40
0.2014576
50
90.0981407
51
134.7964383
0
ARC
8
DEFAULT_255_2_778
10
40.453533
20
99.6621316
40
0.1994111
50
135.0022745
51
180.1438501
0
LINE
8
DEFAULT_255_2_778
10
0.6467225
20
64.8911309
11
0.6798225
21
64.9557309
0
LINE
8
DEFAULT_255_2_778
10
0.6798225
20
64.9557309
11
0.8917225
21
65.0578309
0
LINE
8
DEFAULT_255_2_778
10
0.8917225
20
65.0578309
11
1.0452225
21
65.0755309
0
LINE
8
DEFAULT_255_2_778
10
1.0452225
20
65.0755309
11
1.8540225
21
65.0755309
0
LINE
8
DEFAULT_255_2_778
10
0.4930225
20
0.7148309
11
0.4435225
21
0.4140309
0
LINE
8
DEFAULT_255_2_778
10
0.4435225
20
0.4140309
11
0.4430225
21
0.4156309
0
LINE
8
DEFAULT_255_2_778
10
44.5480225
20
59.8619309
11
44.7385225
21
59.9090309
0
LINE
8
DEFAULT_255_2_778
10
44.7385225
20
59.9090309
11
44.8642225
21
60.0111309
0
LINE
8
DEFAULT_255_2_778
10
44.8642225
20
60.0111309
11
44.9314225
21
60.1214309
0
LINE
8
DEFAULT_255_2_778
10
44.9314225
20
60.1214309
11
44.8620225
21
64.8866309
0
LINE
8
DEFAULT_255_2_778
10
0.4430225
20
0.4150309
11
0.4655225
21
0.2814309
0
LINE
8
DEFAULT_255_2_778
10
0.4655225
20
0.2814309
11
0.5509225
21
0.1404309
0
LINE
8
DEFAULT_255_2_778
10
0.5509225
20
0.1404309
11
0.6885225
21
0.0446309
0
LINE
8
DEFAULT_255_2_778
10
0.6885225
20
0.0446309
11
0.8412225
21
0.0137309
0
LINE
8
DEFAULT_255_2_778
10
0.5888225
20
34.8320309
11
0.7018225
21
34.7466309
0
LINE
8
DEFAULT_255_2_778
10
0.7018225
20
34.7466309
11
0.9420225
21
34.6561309
0
LINE
8
DEFAULT_255_2_778
10
0.9420225
20
34.6561309
11
1.0521225
21
34.6476309
0
LINE
8
DEFAULT_255_2_778
10
9.2542225
20
0.6516309
11
9.2542225
21
-0.1384691
0
LINE
8
DEFAULT_255_2_778
10
28.1137225
20
97.4415309
11
9.5441225
21
97.4415309
0
LINE
8
DEFAULT_255_2_778
10
9.5441225
20
97.4415309
11
9.5441225
21
96.2241309
0
LINE
8
DEFAULT_255_2_778
10
45.0150225
20
99.0083309
11
45.0644225
21
99.3092309
0
LINE
8
DEFAULT_255_2_778
10
45.0644225
20
99.3092309
11
45.0650225
21
99.3076309
0
LINE
8
DEFAULT_255_2_778
10
0.8430225
20
0.0142309
11
6.7668225
21
0.2947309
0
LINE
8
DEFAULT_255_2_778
10
6.7668225
20
0.2947309
11
12.7924225
21
1.1598309
0
LINE
8
DEFAULT_255_2_778
10
12.7924225
20
1.1598309
11
18.7154225
21
2.6037309
0
LINE
8
DEFAULT_255_2_778
10
18.7154225
20
2.6037309
11
25.4779225
21
4.9788309
0
LINE
8
DEFAULT_255_2_778
10
17.3946225
20
2.2814309
11
37.9641225
21
2.2814309
0
LINE
8
DEFAULT_255_2_778
10
37.9641225
20
2.2814309
11
37.9641225
21
3.4988309
0
LINE
8
DEFAULT_255_2_778
10
38.2541225
20
99.3589309
11
38.2541225
21
99.8616309
0
LINE
8
DEFAULT_255_2_778
10
40.0040225
20
0.6616309
11
40.0040225
21
1.0617309
0
LINE
8
DEFAULT_255_2_778
10
40.2541225
20
99.6616309
11
40.2541225
21
99.5002309
0
LINE
8
DEFAULT_255_2_778
10
43.0541225
20
28.9250309
11
43.0541225
21
40.0467309
0
LINE
8
DEFAULT_255_2_778
10
43.2494225
20
59.4732309
11
43.0846225
21
59.5687309
0
LINE
8
DEFAULT_255_2_778
10
43.0846225
20
59.5687309
11
43.0571225
21
59.6420309
0
LINE
8
DEFAULT_255_2_778
10
43.0571225
20
59.6420309
11
43.0544225
21
59.6666309
0
LINE
8
DEFAULT_255_2_778
10
43.0544225
20
59.6666309
11
43.0541225
21
70.7982309
0
LINE
8
DEFAULT_255_2_778
10
45.2542225
20
53.0460309
11
45.2542225
21
46.6772309
0
LINE
8
DEFAULT_255_2_778
10
44.8914225
20
64.7249309
11
44.9369225
21
81.7416309
0
LINE
8
DEFAULT_255_2_778
10
44.9369225
20
81.7416309
11
44.9986225
21
98.7165309
0
LINE
8
DEFAULT_255_2_778
10
44.9986225
20
98.7165309
11
44.9959225
21
98.7702309
0
LINE
8
DEFAULT_255_2_778
10
44.9959225
20
98.7702309
11
44.9877225
21
98.8366309
0
LINE
8
DEFAULT_255_2_778
10
44.9877225
20
98.8366309
11
44.9602225
21
98.9514309
0
LINE
8
DEFAULT_255_2_778
10
44.9602225
20
98.9514309
11
44.8824225
21
99.1120309
0
LINE
8
DEFAULT_255_2_778
10
44.8824225
20
99.1120309
11
44.7006225
21
99.2666309
0
LINE
8
DEFAULT_255_2_778
10
44.7006225
20
99.2666309
11
44.6080225
21
99.2867309
0
LINE
8
DEFAULT_255_2_778
10
43.2542225
20
64.4834309
11
43.2563225
21
64.5360309
0
LINE
8
DEFAULT_255_2_778
10
43.2563225
20
64.5360309
11
43.2592225
21
64.5709309
0
LINE
8
DEFAULT_255_2_778
10
43.2592225
20
64.5709309
11
43.2658225
21
64.6231309
0
LINE
8
DEFAULT_255_2_778
10
43.2658225
20
64.6231309
11
43.2780225
21
64.6866309
0
LINE
8
DEFAULT_255_2_778
10
43.2780225
20
64.6866309
11
43.3029225
21
64.7715309
0
LINE
8
DEFAULT_255_2_778
10
43.3029225
20
64.7715309
11
43.3539225
21
64.8805309
0
LINE
8
DEFAULT_255_2_778
10
43.3539225
20
64.8805309
11
43.4494225
21
64.9956309
0
LINE
8
DEFAULT_255_2_778
10
43.4494225
20
64.9956309
11
43.5987225
21
65.0700309
0
LINE
8
DEFAULT_255_2_778
10
43.5987225
20
65.0700309
11
43.6542225
21
65.0755309
0
LINE
8
DEFAULT_255_2_778
10
43.6542225
20
65.0755309
11
44.4631225
21
65.0755309
0
LINE
8
DEFAULT_255_2_778
10
45.2526225
20
5.3770309
11
45.2502225
21
5.3503309
0
LINE
8
DEFAULT_255_2_778
10
45.2502225
20
5.3503309
11
45.2420225
21
5.3061309
0
LINE
8
DEFAULT_255_2_778
10
45.2420225
20
5.3061309
11
45.2145225
21
5.2297309
0
LINE
8
DEFAULT_255_2_778
10
45.2145225
20
5.2297309
11
45.1367225
21
5.1228309
0
LINE
8
DEFAULT_255_2_778
10
45.1367225
20
5.1228309
11
44.9552225
21
5.0199309
0
LINE
8
DEFAULT_255_2_778
10
44.9552225
20
5.0199309
11
44.8533225
21
5.0064309
0
LINE
8
DEFAULT_255_2_778
10
44.8533225
20
5.0064309
11
24.2645225
21
4.9807309
0
ARC
8
DEFAULT_255_2_778
10
43.6537175
20
39.625432
40
0.2360068
50
89.8629874
51
90.0457003
0
ARC
8
DEFAULT_255_2_778
10
43.6536129
20
39.4622959
40
0.399143
50
90.0120045
51
135.0191556
0
ARC
8
DEFAULT_255_2_778
10
43.6532496
20
39.4621795
40
0.3989684
50
134.9704571
51
179.9983812
0
ARC
8
DEFAULT_255_2_778
10
43.6084805
20
39.462191
40
0.3541993
50
180.0000258
51
180.1217696
0
ARC
8
DEFAULT_255_2_778
10
2.0763473
20
39.4617211
40
0.1778348
50
359.9088608
51
0.0303788
0
ARC
8
DEFAULT_255_2_778
10
1.8543766
20
39.4618331
40
0.3998055
50
359.9974542
51
44.9797083
0
ARC
8
DEFAULT_255_2_778
10
1.854827
20
39.4622383
40
0.3992006
50
44.9842694
51
89.998819
0
ARC
8
DEFAULT_255_2_778
10
1.8546468
20
39.6250845
40
0.2363545
50
89.9543241
51
90.1369399
0
LINE
8
DEFAULT_255_2_778
10
44.9232819
20
4.9992382
11
44.8867819
21
25.0046382
0
LINE
8
DEFAULT_255_2_778
10
44.8867819
20
25.0046382
11
44.8620819
21
34.8365382
0
LINE
8
DEFAULT_255_2_778
10
44.8620819
20
34.8365382
11
44.9322819
21
39.6003382
0
LINE
8
DEFAULT_255_2_778
10
44.9322819
20
39.6003382
11
44.8634819
21
39.7130382
0
LINE
8
DEFAULT_255_2_778
10
44.8634819
20
39.7130382
11
44.7366819
21
39.8151382
0
LINE
8
DEFAULT_255_2_778
10
44.7366819
20
39.8151382
11
44.5480819
21
39.8614382
0
LINE
8
DEFAULT_255_2_778
10
44.8615819
20
34.8320382
11
44.8284819
21
34.7674382
0
LINE
8
DEFAULT_255_2_778
10
44.8284819
20
34.7674382
11
44.6165819
21
34.6653382
0
LINE
8
DEFAULT_255_2_778
10
44.6165819
20
34.6653382
11
44.4631819
21
34.6476382
0
LINE
8
DEFAULT_255_2_778
10
44.4631819
20
34.6476382
11
43.6542819
21
34.6476382
0
LINE
8
DEFAULT_255_2_778
10
45.2269819
20
3.8988382
11
45.2274819
21
3.9022382
0
LINE
8
DEFAULT_255_2_778
10
9.2542819
20
0.2615382
11
6.0723819
21
0.2615382
0
LINE
8
DEFAULT_255_2_778
10
15.1795819
20
1.7416382
11
38.2541819
21
1.7416382
0
LINE
8
DEFAULT_255_2_778
10
45.0652819
20
99.3080382
11
45.0428819
21
99.4416382
0
LINE
8
DEFAULT_255_2_778
10
45.0428819
20
99.4416382
11
44.9573819
21
99.5827382
0
LINE
8
DEFAULT_255_2_778
10
44.9573819
20
99.5827382
11
44.8197819
21
99.6784382
0
LINE
8
DEFAULT_255_2_778
10
44.8197819
20
99.6784382
11
44.6670819
21
99.7094382
0
LINE
8
DEFAULT_255_2_778
10
44.8615819
20
64.8910382
11
44.8065819
21
64.9765382
0
LINE
8
DEFAULT_255_2_778
10
44.8065819
20
64.9765382
11
44.5662819
21
65.0670382
0
LINE
8
DEFAULT_255_2_778
10
44.5662819
20
65.0670382
11
44.4562819
21
65.0754382
0
LINE
8
DEFAULT_255_2_778
10
2.4692819
20
33.7948382
11
2.5062819
21
33.7996382
0
LINE
8
DEFAULT_255_2_778
10
2.6287819
20
33.8054382
11
3.0542819
21
33.8057382
0
LINE
8
DEFAULT_255_2_778
10
42.8541819
20
33.8057382
11
42.4541819
21
33.8057382
0
LINE
8
DEFAULT_255_2_778
10
43.6450819
20
34.6476382
11
43.4912819
21
34.6962382
0
LINE
8
DEFAULT_255_2_778
10
43.4912819
20
34.6962382
11
43.3886819
21
34.7912382
0
LINE
8
DEFAULT_255_2_778
10
43.3886819
20
34.7912382
11
43.3253819
21
34.8965382
0
LINE
8
DEFAULT_255_2_778
10
43.3253819
20
34.8965382
11
43.2936819
21
34.9791382
0
LINE
8
DEFAULT_255_2_778
10
43.2936819
20
34.9791382
11
43.2751819
21
35.0505382
0
LINE
8
DEFAULT_255_2_778
10
43.2751819
20
35.0505382
11
43.2661819
21
35.0995382
0
LINE
8
DEFAULT_255_2_778
10
43.2661819
20
35.0995382
11
43.2595819
21
35.1516382
0
LINE
8
DEFAULT_255_2_778
10
43.2595819
20
35.1516382
11
43.2566819
21
35.1865382
0
LINE
8
DEFAULT_255_2_778
10
43.2566819
20
35.1865382
11
43.2544819
21
35.2566382
0
LINE
8
DEFAULT_255_2_778
10
44.5483819
20
39.8614382
11
43.6542819
21
39.8614382
0
LINE
8
DEFAULT_255_2_778
10
1.8540819
20
39.8614382
11
0.9600819
21
39.8614382
0
LINE
8
DEFAULT_255_2_778
10
2.6491819
20
38.9455382
11
2.4774819
21
39.0479382
0
LINE
8
DEFAULT_255_2_778
10
2.4774819
20
39.0479382
11
2.4552819
21
39.1137382
0
LINE
8
DEFAULT_255_2_778
10
2.4552819
20
39.1137382
11
2.4541819
21
39.1304382
0
LINE
8
DEFAULT_255_2_778
10
43.0391819
20
65.9285382
11
43.0018819
21
65.9237382
0
LINE
8
DEFAULT_255_2_778
10
42.8793819
20
65.9176382
11
42.4541819
21
65.9173382
0
ARC
8
DEFAULT_255_2_778
10
1.8546395
20
60.0979777
40
0.2363544
50
269.8630601
51
270.0456759
0
ARC
8
DEFAULT_255_2_778
10
1.8548197
20
60.2608239
40
0.3992006
50
270.001181
51
315.0157306
0
ARC
8
DEFAULT_255_2_778
10
1.8543693
20
60.2612291
40
0.3998055
50
315.0202917
51
0.0025458
0
ARC
8
DEFAULT_255_2_778
10
2.07634
20
60.2613412
40
0.1778347
50
359.9696212
51
0.0911392
0
ARC
8
DEFAULT_255_2_778
10
43.6084732
20
60.2608713
40
0.3541994
50
179.8782304
51
179.9999742
0
ARC
8
DEFAULT_255_2_778
10
43.6532423
20
60.2608827
40
0.3989684
50
180.0016188
51
225.0295429
0
ARC
8
DEFAULT_255_2_778
10
43.6536056
20
60.2607663
40
0.3991429
50
224.9808444
51
269.9879955
0
ARC
8
DEFAULT_255_2_778
10
43.6537102
20
60.0976302
40
0.2360069
50
269.9542997
51
270.1370126
0
LINE
8
DEFAULT_255_2_778
10
0.9600746
20
59.861624
11
1.8540746
21
59.861624
0
LINE
8
DEFAULT_255_2_778
10
43.6542746
20
59.861624
11
44.5483746
21
59.861624
0
LINE
8
DEFAULT_255_2_778
10
3.0542746
20
65.917624
11
2.6541746
21
65.917624
0
ARC
8
DEFAULT_255_2_778
10
5.0530468
20
99.6612335
40
0.2012227
50
0.0991619
51
44.8240077
0
ARC
8
DEFAULT_255_2_778
10
5.054589
20
99.6619751
40
0.199607
50
44.9850935
51
90.0918066
0
LINE
8
DEFAULT_255_2_778
10
1.8633691
20
65.0754818
11
2.0170691
21
65.0267818
0
LINE
8
DEFAULT_255_2_778
10
2.0170691
20
65.0267818
11
2.1197691
21
64.9317818
0
LINE
8
DEFAULT_255_2_778
10
2.1197691
20
64.9317818
11
2.1829691
21
64.8264818
0
LINE
8
DEFAULT_255_2_778
10
2.1829691
20
64.8264818
11
2.2147691
21
64.7439818
0
LINE
8
DEFAULT_255_2_778
10
2.2147691
20
64.7439818
11
2.2332691
21
64.6724818
0
LINE
8
DEFAULT_255_2_778
10
2.2332691
20
64.6724818
11
2.2422691
21
64.6235818
0
LINE
8
DEFAULT_255_2_778
10
2.2422691
20
64.6235818
11
2.2488691
21
64.5714818
0
LINE
8
DEFAULT_255_2_778
10
2.2488691
20
64.5714818
11
2.2517691
21
64.5365818
0
LINE
8
DEFAULT_255_2_778
10
2.2517691
20
64.5365818
11
2.2538691
21
64.4663818
0
LINE
8
DEFAULT_255_2_778
10
2.4650691
20
65.9287818
11
2.4541691
21
65.9350818
0
LINE
8
DEFAULT_255_2_778
10
30.3288691
20
97.9814818
11
9.2542691
21
97.9814818
0
LINE
8
DEFAULT_255_2_778
10
9.2542691
20
96.2243818
11
9.2542691
21
99.8615818
0
LINE
8
DEFAULT_255_2_778
10
5.2542691
20
96.2243818
11
5.2542691
21
99.6615818
0
LINE
8
DEFAULT_255_2_778
10
23.99545
20
37.6051146
11
23.99675
21
36.1187146
0
LINE
8
DEFAULT_255_2_778
10
23.99675
20
36.1187146
11
22.51085
21
36.1187146
0
LINE
8
DEFAULT_255_2_778
10
22.51245
20
36.1499396
11
22.51115
21
37.6046396
0
LINE
8
DEFAULT_255_2_778
10
22.51115
20
37.6046396
11
23.99705
21
37.6046396
0
LINE
8
DEFAULT_255_2_778
10
20.99565
20
37.6051146
11
20.99695
21
36.1187146
0
LINE
8
DEFAULT_255_2_778
10
20.99695
20
36.1187146
11
19.51105
21
36.1187146
0
LINE
8
DEFAULT_255_2_778
10
19.51265
20
36.1499396
11
19.51135
21
37.6046396
0
LINE
8
DEFAULT_255_2_778
10
19.51135
20
37.6046396
11
20.99725
21
37.6046396
0
LINE
8
DEFAULT_255_2_778
10
17.99555
20
37.6051146
11
17.99685
21
36.1187146
0
LINE
8
DEFAULT_255_2_778
10
17.99685
20
36.1187146
11
16.51095
21
36.1187146
0
LINE
8
DEFAULT_255_2_778
10
16.51245
20
36.1499396
11
16.51115
21
37.6046396
0
LINE
8
DEFAULT_255_2_778
10
16.51115
20
37.6046396
11
17.99705
21
37.6046396
0
ARC
8
DEFAULT_255_2_778
10
40.4541271
20
0.062215
40
0.2007015
50
225.1552818
51
269.9907976
0
ARC
8
DEFAULT_255_2_778
10
40.4535873
20
0.0610467
40
0.199493
50
179.8659404
51
225.0285833
0
LINE
8
DEFAULT_255_2_778
10
40.2540948
20
0.0615135
11
40.2540948
21
3.4987135
0
LINE
8
DEFAULT_255_2_778
10
38.2540948
20
3.4987135
11
38.2540948
21
-0.1384865
0
LINE
8
DEFAULT_255_2_778
10
32.99555
20
37.6051146
11
32.99685
21
36.1187146
0
LINE
8
DEFAULT_255_2_778
10
32.99685
20
36.1187146
11
31.51095
21
36.1187146
0
LINE
8
DEFAULT_255_2_778
10
31.51255
20
36.1499396
11
31.51125
21
37.6046396
0
LINE
8
DEFAULT_255_2_778
10
31.51125
20
37.6046396
11
32.99715
21
37.6046396
0
LINE
8
DEFAULT_255_2_778
10
29.99545
20
37.6051146
11
29.99675
21
36.1187146
0
LINE
8
DEFAULT_255_2_778
10
29.99675
20
36.1187146
11
28.51085
21
36.1187146
0
LINE
8
DEFAULT_255_2_778
10
28.51245
20
36.1499396
11
28.51115
21
37.6046396
0
LINE
8
DEFAULT_255_2_778
10
28.51115
20
37.6046396
11
29.99705
21
37.6046396
0
LINE
8
DEFAULT_255_2_778
10
26.9955823
20
37.6051146
11
26.9968823
21
36.1187146
0
LINE
8
DEFAULT_255_2_778
10
26.9968823
20
36.1187146
11
25.5112823
21
36.1187146
0
LINE
8
DEFAULT_255_2_778
10
25.51255
20
36.1499396
11
25.51125
21
37.6046396
0
LINE
8
DEFAULT_255_2_778
10
25.51125
20
37.6046396
11
26.99715
21
37.6046396
0
LINE
8
DEFAULT_255_2_778
10
38.99555
20
37.6051146
11
38.99685
21
36.1187146
0
LINE
8
DEFAULT_255_2_778
10
38.99685
20
36.1187146
11
37.51095
21
36.1187146
0
LINE
8
DEFAULT_255_2_778
10
37.51245
20
36.1499396
11
37.51115
21
37.6046396
0
LINE
8
DEFAULT_255_2_778
10
37.51115
20
37.6046396
11
38.99705
21
37.6046396
0
LINE
8
DEFAULT_255_2_778
10
35.99565
20
37.6051146
11
35.99695
21
36.1187146
0
LINE
8
DEFAULT_255_2_778
10
35.99695
20
36.1187146
11
34.51105
21
36.1187146
0
LINE
8
DEFAULT_255_2_778
10
34.51265
20
36.1499396
11
34.51135
21
37.6046396
0
LINE
8
DEFAULT_255_2_778
10
34.51135
20
37.6046396
11
35.99725
21
37.6046396
0
LINE
8
DEFAULT_255_2_778
10
43.0541829
20
39.1261671
11
43.0504829
21
39.0973671
0
LINE
8
DEFAULT_255_2_778
10
43.0504829
20
39.0973671
11
42.9961829
21
39.0036671
0
LINE
8
DEFAULT_255_2_778
10
42.9961829
20
39.0036671
11
42.8541829
21
38.9454671
0
LINE
8
DEFAULT_255_2_778
10
42.8541829
20
38.9454671
11
2.6541829
21
38.9454671
0
LINE
8
DEFAULT_255_2_778
10
0.4358829
20
40.4440671
11
0.4382829
21
40.4189671
0
LINE
8
DEFAULT_255_2_778
10
0.4382829
20
40.4189671
11
0.4652829
21
40.3453671
0
LINE
8
DEFAULT_255_2_778
10
0.4652829
20
40.3453671
11
0.6356829
21
40.2498671
0
LINE
8
DEFAULT_255_2_778
10
0.6356829
20
40.2498671
11
2.2540829
21
40.2498671
0
LINE
8
DEFAULT_255_2_778
10
38.2540829
20
0.6615671
11
40.2540829
21
0.6615671
0
LINE
8
DEFAULT_255_2_778
10
40.2540829
20
0.2615671
11
38.2540829
21
0.2615671
0
LINE
8
DEFAULT_255_2_778
10
40.4490829
20
3.2565671
11
40.2823829
21
3.3507671
0
LINE
8
DEFAULT_255_2_778
10
40.2823829
20
3.3507671
11
40.2561829
21
3.4219671
0
LINE
8
DEFAULT_255_2_778
10
40.2561829
20
3.4219671
11
40.2540829
21
3.4497671
0
LINE
8
DEFAULT_255_2_778
10
45.2538829
20
3.6561671
11
45.2520829
21
3.6246671
0
LINE
8
DEFAULT_255_2_778
10
45.2520829
20
3.6246671
11
45.2475829
21
3.5926671
0
LINE
8
DEFAULT_255_2_778
10
45.2475829
20
3.5926671
11
45.2337829
21
3.5381671
0
LINE
8
DEFAULT_255_2_778
10
45.2337829
20
3.5381671
11
45.1964829
21
3.4550671
0
LINE
8
DEFAULT_255_2_778
10
45.1964829
20
3.4550671
11
45.1025829
21
3.3454671
0
LINE
8
DEFAULT_255_2_778
10
45.1025829
20
3.3454671
11
44.9358829
21
3.2653671
0
LINE
8
DEFAULT_255_2_778
10
44.9358829
20
3.2653671
11
44.8540829
21
3.2565671
0
LINE
8
DEFAULT_255_2_778
10
44.8540829
20
3.2565671
11
40.4540829
21
3.2565671
0
LINE
8
DEFAULT_255_2_778
10
2.5191829
20
33.8011671
11
2.6033829
21
33.8048671
0
LINE
8
DEFAULT_255_2_778
10
2.5093829
20
33.7998671
11
2.5125829
21
33.8003671
0
LINE
8
DEFAULT_255_2_778
10
42.869275
20
33.8054072
11
42.929875
21
33.8041072
0
LINE
8
DEFAULT_255_2_778
10
42.944375
20
33.8039072
11
43.019575
21
33.7970072
0
LINE
8
DEFAULT_255_2_778
10
43.024275
20
33.7965072
11
43.042875
21
33.7943072
0
LINE
8
DEFAULT_255_2_778
10
43.043375
20
33.7943072
11
43.054175
21
33.7880072
0
LINE
8
DEFAULT_255_2_778
10
44.877775
20
40.2499072
11
45.042275
21
40.3441072
0
LINE
8
DEFAULT_255_2_778
10
45.042275
20
40.3441072
11
45.069775
21
40.4163072
0
LINE
8
DEFAULT_255_2_778
10
45.069775
20
40.4163072
11
45.072475
21
40.4399072
0
LINE
8
DEFAULT_255_2_778
10
45.072475
20
40.4399072
11
45.072675
21
40.4494072
0
LINE
8
DEFAULT_255_2_778
10
43.054175
20
40.0517072
11
43.056375
21
40.0763072
0
LINE
8
DEFAULT_255_2_778
10
43.056375
20
40.0763072
11
43.079575
21
40.1459072
0
LINE
8
DEFAULT_255_2_778
10
43.079575
20
40.1459072
11
43.235175
21
40.2488072
0
LINE
8
DEFAULT_255_2_778
10
43.235175
20
40.2488072
11
44.872675
21
40.2499072
0
ARC
8
DEFAULT_255_2_778
10
21.2044292
20
51.7617771
40
0.0999083
50
359.9474027
51
90.0525973
0
ARC
8
DEFAULT_255_2_778
10
21.2044289
20
47.9615938
40
0.0999087
50
269.9475899
51
0.0525365
0
ARC
8
DEFAULT_255_2_778
10
20.4044376
20
47.9616339
40
0.0999487
50
224.8980302
51
269.8852919
0
ARC
8
DEFAULT_255_2_778
10
20.4041861
20
47.9618855
40
0.0999487
50
180.1147081
51
225.1019698
0
ARC
8
DEFAULT_255_2_778
10
20.4041861
20
51.7614853
40
0.0999487
50
134.8980302
51
179.8852919
0
ARC
8
DEFAULT_255_2_778
10
20.4044376
20
51.7617368
40
0.0999487
50
90.1147081
51
135.1019698
0
LINE
8
DEFAULT_255_2_778
10
21.3043375
20
51.7616854
11
21.3043375
21
47.9616854
0
LINE
8
DEFAULT_255_2_778
10
21.2043375
20
47.8616854
11
20.4042375
21
47.8616854
0
LINE
8
DEFAULT_255_2_778
10
20.3042375
20
47.9616854
11
20.3042375
21
51.7616854
0
LINE
8
DEFAULT_255_2_778
10
20.4042375
20
51.8616854
11
21.2043375
21
51.8616854
0
ARC
8
DEFAULT_255_2_778
10
9.4320529
20
52.7118925
40
0.1778346
50
179.9696212
51
180.0911393
0
ARC
8
DEFAULT_255_2_778
10
9.6541987
20
52.7119322
40
0.3999803
50
135.0306604
51
179.9921839
0
ARC
8
DEFAULT_255_2_778
10
9.653896
20
52.7116295
40
0.3999803
50
90.0078161
51
134.9693396
0
LINE
8
DEFAULT_255_2_778
10
9.6538414
20
53.1116098
11
9.6542186
21
53.1116096
0
LINE
8
DEFAULT_255_2_778
10
22.8543186
20
53.1116096
11
22.8546961
21
53.1116098
0
ARC
8
DEFAULT_255_2_778
10
22.8547854
20
52.711978
40
0.3996318
50
45.0099835
51
90.0128069
0
ARC
8
DEFAULT_255_2_778
10
22.8547619
20
52.7119661
40
0.3996569
50
0.0029649
51
45.008803
0
ARC
8
DEFAULT_255_2_778
10
23.0765842
20
52.7118925
40
0.1778345
50
359.9088607
51
0.0303788
0
ARC
8
DEFAULT_255_2_778
10
23.076584
20
47.0113267
40
0.1778348
50
359.9696212
51
0.0911392
0
ARC
8
DEFAULT_255_2_778
10
22.8549364
20
47.0111808
40
0.3994823
50
314.9808243
51
0.007401
0
ARC
8
DEFAULT_255_2_778
10
22.8551318
20
47.0104039
40
0.398795
50
269.9913958
51
315.0398721
0
ARC
8
DEFAULT_255_2_778
10
22.8548837
20
46.8480888
40
0.23648
50
269.8630843
51
270.0456032
0
ARC
8
DEFAULT_255_2_778
10
9.653654
20
46.8477412
40
0.2361323
50
269.9543726
51
270.1369884
0
ARC
8
DEFAULT_255_2_778
10
9.6535496
20
47.0107519
40
0.399143
50
224.9808444
51
269.9879955
0
ARC
8
DEFAULT_255_2_778
10
9.6540239
20
47.0112147
40
0.3998055
50
179.9974542
51
224.9797083
0
ARC
8
DEFAULT_255_2_778
10
9.4320531
20
47.0113267
40
0.1778347
50
179.9088608
51
180.0303788
0
LINE
8
DEFAULT_255_2_778
10
9.6542186
20
53.1116096
11
22.8543186
21
53.1116096
0
LINE
8
DEFAULT_255_2_778
10
23.2544186
20
52.7116096
11
23.2544186
21
47.0116096
0
LINE
8
DEFAULT_255_2_778
10
22.8543186
20
46.6116096
11
9.6542186
21
46.6116096
0
LINE
8
DEFAULT_255_2_778
10
9.2542186
20
47.0116096
11
9.2542186
21
52.7116096
0
ARC
8
DEFAULT_255_2_778
10
22.0037318
20
52.5610885
40
0.600602
50
0.0371322
51
67.5762346
0
ARC
8
DEFAULT_255_2_778
10
22.0037315
20
47.1619673
40
0.6006024
50
292.4237853
51
359.962837
0
ARC
8
DEFAULT_255_2_778
10
19.7248194
20
47.1603678
40
0.3319878
50
179.7911775
51
179.9900514
0
ARC
8
DEFAULT_255_2_778
10
19.6971132
20
47.1605448
40
0.3042816
50
180.0224837
51
223.9464354
0
ARC
8
DEFAULT_255_2_778
10
19.6840028
20
47.1470679
40
0.2854901
50
223.8250436
51
269.9660784
0
ARC
8
DEFAULT_255_2_778
10
22.0084454
20
47.157165
40
0.2956213
50
270.8699411
51
0.8552867
0
ARC
8
DEFAULT_255_2_778
10
22.0082491
20
52.5657001
40
0.2958147
50
359.1821527
51
89.0926099
0
ARC
8
DEFAULT_255_2_778
10
19.6841728
20
52.5755894
40
0.2858885
50
90.0679432
51
136.1409626
0
ARC
8
DEFAULT_255_2_778
10
19.6971132
20
52.5625107
40
0.3042817
50
136.0535646
51
179.9775163
0
ARC
8
DEFAULT_255_2_778
10
19.7248194
20
52.5626877
40
0.3319878
50
180.0099486
51
180.2088225
0
LINE
8
DEFAULT_255_2_778
10
19.1044338
20
52.5839778
11
19.1060338
21
52.6220778
0
LINE
8
DEFAULT_255_2_778
10
19.1060338
20
52.6220778
11
19.1086338
21
52.6535778
0
LINE
8
DEFAULT_255_2_778
10
19.1086338
20
52.6535778
11
19.1131338
21
52.6868778
0
LINE
8
DEFAULT_255_2_778
10
19.1131338
20
52.6868778
11
19.1242338
21
52.7424778
0
LINE
8
DEFAULT_255_2_778
10
19.1242338
20
52.7424778
11
19.1483338
21
52.8193778
0
LINE
8
DEFAULT_255_2_778
10
19.1483338
20
52.8193778
11
19.2023338
21
52.9252778
0
LINE
8
DEFAULT_255_2_778
10
19.2023338
20
52.9252778
11
19.3105338
21
53.0479778
0
LINE
8
DEFAULT_255_2_778
10
19.3105338
20
53.0479778
11
19.4063338
21
53.1114778
0
LINE
8
DEFAULT_255_2_778
10
22.6043338
20
52.5614778
11
22.6043338
21
47.1615778
0
LINE
8
DEFAULT_255_2_778
10
19.6838338
20
46.8615778
11
22.0129338
21
46.8615778
0
LINE
8
DEFAULT_255_2_778
10
22.3040338
20
47.1615778
11
22.3040338
21
52.5614778
0
LINE
8
DEFAULT_255_2_778
10
22.0129338
20
52.8614778
11
19.6838338
21
52.8614778
0
LINE
8
DEFAULT_255_2_778
10
19.3928338
20
52.5614778
11
19.3928338
21
47.1615778
0
LINE
8
DEFAULT_255_2_778
10
15.8042338
20
46.6114778
11
15.8042338
21
53.1114778
0
LINE
8
DEFAULT_255_2_778
10
14.8041338
20
46.6114778
11
14.8041338
21
53.1114778
0
LINE
8
DEFAULT_255_2_778
10
42.9984338
20
65.9231778
11
42.9952338
21
65.9226778
0
LINE
8
DEFAULT_255_2_778
10
42.8589338
20
60.7775778
11
43.0314338
21
60.6743778
0
LINE
8
DEFAULT_255_2_778
10
43.0314338
20
60.6743778
11
43.0531338
21
60.6092778
0
LINE
8
DEFAULT_255_2_778
10
43.0531338
20
60.6092778
11
43.0542338
21
60.5928778
0
LINE
8
DEFAULT_255_2_778
10
45.0706338
20
40.4921778
11
45.0724338
21
59.2739778
0
LINE
8
DEFAULT_255_2_778
10
45.0724338
20
59.2791778
11
45.0701338
21
59.3043778
0
LINE
8
DEFAULT_255_2_778
10
45.0701338
20
59.3043778
11
45.0431338
21
59.3778778
0
LINE
8
DEFAULT_255_2_778
10
45.0431338
20
59.3778778
11
44.8727338
21
59.4734778
0
LINE
8
DEFAULT_255_2_778
10
44.8727338
20
59.4734778
11
43.2542338
21
59.4734778
0
LINE
8
DEFAULT_255_2_778
10
42.9888235
20
65.9219426
11
42.9047235
21
65.9182426
0
LINE
8
DEFAULT_255_2_778
10
43.0542235
20
65.9346426
11
43.0417235
21
65.9285426
0
LINE
8
DEFAULT_255_2_778
10
0.6306235
20
59.4732426
11
0.4660235
21
59.3790426
0
LINE
8
DEFAULT_255_2_778
10
0.4660235
20
59.3790426
11
0.4385235
21
59.3068426
0
LINE
8
DEFAULT_255_2_778
10
0.4385235
20
59.3068426
11
0.4359235
21
59.2832426
0
LINE
8
DEFAULT_255_2_778
10
0.4359235
20
59.2832426
11
0.4356235
21
59.2737426
0
LINE
8
DEFAULT_255_2_778
10
2.4541235
20
60.5969426
11
2.4570235
21
60.6218426
0
LINE
8
DEFAULT_255_2_778
10
2.4570235
20
60.6218426
11
2.4962235
21
60.7022426
0
LINE
8
DEFAULT_255_2_778
10
2.4962235
20
60.7022426
11
2.6541235
21
60.7776426
0
LINE
8
DEFAULT_255_2_778
10
2.6541235
20
60.7776426
11
42.8541235
21
60.7776426
0
LINE
8
DEFAULT_255_2_778
10
0.4375506
20
59.3009049
11
0.4356506
21
40.4491049
0
LINE
8
DEFAULT_255_2_778
10
2.6390506
20
65.9176049
11
2.5782506
21
65.9189049
0
LINE
8
DEFAULT_255_2_778
10
2.5634506
20
65.9192049
11
2.4885506
21
65.9261049
0
LINE
8
DEFAULT_255_2_778
10
2.4835506
20
65.9266049
11
2.4652506
21
65.9287049
0
LINE
8
DEFAULT_255_2_778
10
5.2542506
20
99.4615049
11
9.2542506
21
99.4615049
0
LINE
8
DEFAULT_255_2_778
10
9.2542506
20
99.0615049
11
5.2542506
21
99.0615049
0
LINE
8
DEFAULT_255_2_778
10
24.2462506
20
4.9785049
11
23.4469506
21
4.6565049
0
LINE
8
DEFAULT_255_2_778
10
23.4469506
20
4.6565049
11
22.6463506
21
4.3531049
0
LINE
8
DEFAULT_255_2_778
10
22.6463506
20
4.3531049
11
21.8414506
21
4.0604049
0
LINE
8
DEFAULT_255_2_778
10
21.8414506
20
4.0604049
11
21.0326506
21
3.7786049
0
LINE
8
DEFAULT_255_2_778
10
21.0326506
20
3.7786049
11
20.2201506
21
3.5080049
0
LINE
8
DEFAULT_255_2_778
10
20.2201506
20
3.5080049
11
19.4038506
21
3.2484049
0
LINE
8
DEFAULT_255_2_778
10
19.4038506
20
3.2484049
11
18.5842506
21
3.0000049
0
LINE
8
DEFAULT_255_2_778
10
18.5842506
20
3.0000049
11
17.7629506
21
2.7632049
0
LINE
8
DEFAULT_255_2_778
10
17.7629506
20
2.7632049
11
16.9385506
21
2.5377049
0
LINE
8
DEFAULT_255_2_778
10
16.9385506
20
2.5377049
11
16.1111506
21
2.3234049
0
LINE
8
DEFAULT_255_2_778
10
16.1111506
20
2.3234049
11
15.2808506
21
2.1205049
0
LINE
8
DEFAULT_255_2_778
10
15.2808506
20
2.1205049
11
14.4479506
21
1.9289049
0
LINE
8
DEFAULT_255_2_778
10
14.4479506
20
1.9289049
11
13.6126506
21
1.7485049
0
LINE
8
DEFAULT_255_2_778
10
13.6126506
20
1.7485049
11
12.7750506
21
1.5797049
0
LINE
8
DEFAULT_255_2_778
10
12.7750506
20
1.5797049
11
11.9360506
21
1.4225049
0
LINE
8
DEFAULT_255_2_778
10
11.9360506
20
1.4225049
11
11.0951506
21
1.2767049
0
LINE
8
DEFAULT_255_2_778
10
11.0951506
20
1.2767049
11
10.2522506
21
1.1423049
0
LINE
8
DEFAULT_255_2_778
10
10.2522506
20
1.1423049
11
9.4076506
21
1.0196049
0
LINE
8
DEFAULT_255_2_778
10
9.4076506
20
1.0196049
11
8.5615506
21
0.9082049
0
LINE
8
DEFAULT_255_2_778
10
8.5615506
20
0.9082049
11
7.7138506
21
0.8084049
0
LINE
8
DEFAULT_255_2_778
10
7.7138506
20
0.8084049
11
6.8647506
21
0.7203049
0
LINE
8
DEFAULT_255_2_778
10
6.8647506
20
0.7203049
11
6.0159506
21
0.6439049
0
LINE
8
DEFAULT_255_2_778
10
6.0159506
20
0.6439049
11
5.1661506
21
0.5790049
0
LINE
8
DEFAULT_255_2_778
10
5.1661506
20
0.5790049
11
4.3154506
21
0.5259049
0
LINE
8
DEFAULT_255_2_778
10
4.3154506
20
0.5259049
11
3.4643506
21
0.4841049
0
LINE
8
DEFAULT_255_2_778
10
3.4643506
20
0.4841049
11
2.6126506
21
0.4539049
0
LINE
8
DEFAULT_255_2_778
10
2.6126506
20
0.4539049
11
1.7609506
21
0.4354049
0
LINE
8
DEFAULT_255_2_778
10
1.7609506
20
0.4354049
11
0.9089506
21
0.4285049
0
LINE
8
DEFAULT_255_2_778
10
21.3022506
20
3.4987049
11
44.8274506
21
3.4987049
0
LINE
8
DEFAULT_255_2_778
10
44.8274506
20
3.4987049
11
44.8999506
21
3.5053049
0
LINE
8
DEFAULT_255_2_778
10
44.8999506
20
3.5053049
11
45.0700506
21
3.5807049
0
LINE
8
DEFAULT_255_2_778
10
45.0700506
20
3.5807049
11
45.1888506
21
3.7276049
0
LINE
8
DEFAULT_255_2_778
10
45.1888506
20
3.7276049
11
45.2539506
21
4.0234049
0
ARC
8
DEFAULT_255_2_778
10
21.2044292
20
51.7617771
40
0.0999083
50
359.9474027
51
90.0525973
0
ARC
8
DEFAULT_255_2_778
10
21.2044289
20
47.9615938
40
0.0999087
50
269.9475899
51
0.0525365
0
ARC
8
DEFAULT_255_2_778
10
20.4044376
20
47.9616339
40
0.0999487
50
224.8980302
51
269.8852919
0
ARC
8
DEFAULT_255_2_778
10
20.4041861
20
47.9618855
40
0.0999487
50
180.1147081
51
225.1019698
0
ARC
8
DEFAULT_255_2_778
10
20.4041861
20
51.7614853
40
0.0999487
50
134.8980302
51
179.8852919
0
ARC
8
DEFAULT_255_2_778
10
20.4044376
20
51.7617368
40
0.0999487
50
90.1147081
51
135.1019698
0
LINE
8
DEFAULT_255_2_778
10
21.3043375
20
51.7616854
11
21.3043375
21
47.9616854
0
LINE
8
DEFAULT_255_2_778
10
21.2043375
20
47.8616854
11
20.4042375
21
47.8616854
0
LINE
8
DEFAULT_255_2_778
10
20.3042375
20
47.9616854
11
20.3042375
21
51.7616854
0
LINE
8
DEFAULT_255_2_778
10
20.4042375
20
51.8616854
11
21.2043375
21
51.8616854
0
LINE
8
DEFAULT_255_2_778
10
19.1040656
20
52.561452
11
19.1059656
21
47.100752
0
LINE
8
DEFAULT_255_2_778
10
19.1059656
20
47.100752
11
19.1085656
21
47.069252
0
LINE
8
DEFAULT_255_2_778
10
19.1085656
20
47.069252
11
19.1130656
21
47.035852
0
LINE
8
DEFAULT_255_2_778
10
19.1130656
20
47.035852
11
19.1241656
21
46.980352
0
LINE
8
DEFAULT_255_2_778
10
19.1241656
20
46.980352
11
19.1482656
21
46.903352
0
LINE
8
DEFAULT_255_2_778
10
19.1482656
20
46.903352
11
19.2022656
21
46.797552
0
LINE
8
DEFAULT_255_2_778
10
19.2022656
20
46.797552
11
19.3104656
21
46.674752
0
LINE
8
DEFAULT_255_2_778
10
19.3104656
20
46.674752
11
19.4001656
21
46.614152
0
LINE
8
DEFAULT_255_2_778
10
23.99545
20
63.6004333
11
23.99675
21
62.1187333
0
LINE
8
DEFAULT_255_2_778
10
23.99675
20
62.1187333
11
22.51085
21
62.1187333
0
LINE
8
DEFAULT_255_2_778
10
22.51275
20
62.1451885
11
22.51145
21
63.6043885
0
LINE
8
DEFAULT_255_2_778
10
22.51145
20
63.6043885
11
23.99735
21
63.6043885
0
LINE
8
DEFAULT_255_2_778
10
20.99565
20
63.6004333
11
20.99695
21
62.1187333
0
LINE
8
DEFAULT_255_2_778
10
20.99695
20
62.1187333
11
19.51105
21
62.1187333
0
LINE
8
DEFAULT_255_2_778
10
19.51265
20
62.1451885
11
19.51135
21
63.6043885
0
LINE
8
DEFAULT_255_2_778
10
19.51135
20
63.6043885
11
20.99725
21
63.6043885
0
LINE
8
DEFAULT_255_2_778
10
17.99555
20
63.6004333
11
17.99685
21
62.1187333
0
LINE
8
DEFAULT_255_2_778
10
17.99685
20
62.1187333
11
16.51095
21
62.1187333
0
LINE
8
DEFAULT_255_2_778
10
16.51245
20
62.1451885
11
16.51115
21
63.6043885
0
LINE
8
DEFAULT_255_2_778
10
16.51115
20
63.6043885
11
17.99705
21
63.6043885
0
LINE
8
DEFAULT_255_2_778
10
32.99555
20
63.6004333
11
32.99685
21
62.1187333
0
LINE
8
DEFAULT_255_2_778
10
32.99685
20
62.1187333
11
31.51095
21
62.1187333
0
LINE
8
DEFAULT_255_2_778
10
31.51255
20
62.1451885
11
31.51125
21
63.6043885
0
LINE
8
DEFAULT_255_2_778
10
31.51125
20
63.6043885
11
32.99715
21
63.6043885
0
LINE
8
DEFAULT_255_2_778
10
29.99575
20
63.6004333
11
29.99705
21
62.1187333
0
LINE
8
DEFAULT_255_2_778
10
29.99705
20
62.1187333
11
28.51115
21
62.1187333
0
LINE
8
DEFAULT_255_2_778
10
28.51265
20
62.1451885
11
28.51135
21
63.6043885
0
LINE
8
DEFAULT_255_2_778
10
28.51135
20
63.6043885
11
29.99725
21
63.6043885
0
LINE
8
DEFAULT_255_2_778
10
26.9955823
20
63.6004333
11
26.9968823
21
62.1187333
0
LINE
8
DEFAULT_255_2_778
10
26.9968823
20
62.1187333
11
25.5112823
21
62.1187333
0
LINE
8
DEFAULT_255_2_778
10
25.51255
20
62.1451885
11
25.51125
21
63.6043885
0
LINE
8
DEFAULT_255_2_778
10
25.51125
20
63.6043885
11
26.99715
21
63.6043885
0
LINE
8
DEFAULT_255_2_778
10
38.99555
20
63.6004333
11
38.99685
21
62.1187333
0
LINE
8
DEFAULT_255_2_778
10
38.99685
20
62.1187333
11
37.51095
21
62.1187333
0
LINE
8
DEFAULT_255_2_778
10
37.51245
20
62.1451885
11
37.51115
21
63.6043885
0
LINE
8
DEFAULT_255_2_778
10
37.51115
20
63.6043885
11
38.99705
21
63.6043885
0
LINE
8
DEFAULT_255_2_778
10
35.99565
20
63.6004333
11
35.99695
21
62.1187333
0
LINE
8
DEFAULT_255_2_778
10
35.99695
20
62.1187333
11
34.51105
21
62.1187333
0
LINE
8
DEFAULT_255_2_778
10
34.51265
20
62.1451885
11
34.51135
21
63.6043885
0
LINE
8
DEFAULT_255_2_778
10
34.51135
20
63.6043885
11
35.99725
21
63.6043885
0
LINE
8
DEFAULT_255_2_778
10
7.99555
20
63.6004333
11
7.99685
21
62.1187333
0
LINE
8
DEFAULT_255_2_778
10
7.99685
20
62.1187333
11
6.51095
21
62.1187333
0
LINE
8
DEFAULT_255_2_778
10
6.51255
20
62.1451885
11
6.51125
21
63.6043885
0
LINE
8
DEFAULT_255_2_778
10
6.51125
20
63.6043885
11
7.99715
21
63.6043885
0
ARC
8
DEFAULT_255_2_778
10
6.844949
20
59.2468986
40
0.4839539
50
88.4405983
51
114.2601755
0
ARC
8
DEFAULT_255_2_778
10
6.8072941
20
59.3668365
40
0.3594473
50
116.6439734
51
165.7809847
0
ARC
8
DEFAULT_255_2_778
10
7.2147849
20
59.2386584
40
0.7863097
50
164.0202802
51
179.6675411
0
ARC
8
DEFAULT_255_2_778
10
7.6068301
20
59.2180221
40
1.1786111
50
178.7749147
51
180.0072362
0
ARC
8
DEFAULT_255_2_778
10
7.0065494
20
59.2042884
40
0.5784899
50
178.6543828
51
205.2135211
0
ARC
8
DEFAULT_255_2_778
10
6.9206811
20
59.1834222
40
0.4922321
50
207.2743643
51
247.4054828
0
ARC
8
DEFAULT_255_2_778
10
7.1110437
20
59.5941374
40
0.9447329
50
246.3166715
51
261.3751073
0
ARC
8
DEFAULT_255_2_778
10
7.2381859
20
60.3672838
40
1.7282304
50
261.051546
51
269.9075969
0
ARC
8
DEFAULT_255_2_778
10
7.2549605
20
60.9609437
40
2.3219704
50
269.5172998
51
270.0014455
0
ARC
8
DEFAULT_255_2_778
10
7.267601
20
60.5843725
40
1.9454399
50
269.6294406
51
277.7736469
0
ARC
8
DEFAULT_255_2_778
10
7.3939071
20
59.6950285
40
1.047196
50
277.5081317
51
290.7749705
0
ARC
8
DEFAULT_255_2_778
10
7.5832019
20
59.2150477
40
0.5313234
50
290.0482987
51
317.6631842
0
ARC
8
DEFAULT_255_2_778
10
7.6300588
20
59.1477256
40
0.4517134
50
319.9731835
51
1.0081187
0
ARC
8
DEFAULT_255_2_778
10
7.4168061
20
59.1681364
40
0.665013
50
358.9261309
51
0.0031718
0
ARC
8
DEFAULT_255_2_778
10
4.2253187
20
59.1804188
40
3.8565198
50
359.8180698
51
3.0677103
0
ARC
8
DEFAULT_255_2_778
10
6.4047774
20
59.3027768
40
1.6736454
50
2.8778248
51
8.5944314
0
ARC
8
DEFAULT_255_2_778
10
7.5291796
20
59.4795709
40
0.535492
50
7.8690857
51
20.5325962
0
ARC
8
DEFAULT_255_2_778
10
7.9382785
20
59.6420758
40
0.0957803
50
15.3246782
51
63.9949979
0
ARC
8
DEFAULT_255_2_778
10
7.9663146
20
59.685272
40
0.0451015
50
71.9709573
51
90.1213618
0
LINE
8
DEFAULT_255_2_778
10
7.966219
20
59.7303732
11
7.189119
21
59.7303732
0
LINE
8
DEFAULT_255_2_778
10
7.189119
20
59.7303732
11
7.189119
21
59.2673732
0
LINE
8
DEFAULT_255_2_778
10
7.189119
20
59.2673732
11
7.371219
21
59.2673732
0
LINE
8
DEFAULT_255_2_778
10
7.371219
20
59.2673732
11
7.371219
21
59.5483732
0
LINE
8
DEFAULT_255_2_778
10
7.371219
20
59.5483732
11
7.850919
21
59.5483732
0
ARC
8
DEFAULT_255_2_778
10
6.6060414
20
59.1750358
40
1.2996543
50
11.5670368
51
16.6939288
0
ARC
8
DEFAULT_255_2_778
10
6.9705601
20
59.2486411
40
0.9277801
50
4.6058421
51
11.6276052
0
ARC
8
DEFAULT_255_2_778
10
7.1869316
20
59.2679048
40
0.7105628
50
0.0662935
51
4.4585461
0
ARC
8
DEFAULT_255_2_778
10
7.4308951
20
59.2586325
40
0.4667079
50
336.5446563
51
1.2393452
0
ARC
8
DEFAULT_255_2_778
10
7.517453
20
59.2342337
40
0.3777836
50
292.3877428
51
334.7137355
0
ARC
8
DEFAULT_255_2_778
10
7.3834214
20
59.518278
40
0.6916468
50
280.0163598
51
293.6921393
0
ARC
8
DEFAULT_255_2_778
10
7.2163292
20
60.3638414
40
1.5534827
50
274.1038541
51
280.6609632
0
ARC
8
DEFAULT_255_2_778
10
7.2397381
20
60.0715129
40
1.2602308
50
270.0458123
51
273.9934431
0
ARC
8
DEFAULT_255_2_778
10
7.2315456
20
59.7618086
40
0.9505705
50
253.8623205
51
270.5545479
0
ARC
8
DEFAULT_255_2_778
10
7.1773712
20
59.5591039
40
0.7408081
50
237.2045768
51
253.5296503
0
ARC
8
DEFAULT_255_2_778
10
6.9745087
20
59.2413247
40
0.3638047
50
178.5590432
51
236.953527
0
ARC
8
DEFAULT_255_2_778
10
6.9548434
20
59.2409726
40
0.3441555
50
144.8051421
51
178.4181144
0
ARC
8
DEFAULT_255_2_778
10
6.9087998
20
59.2507881
40
0.3014407
50
99.5248
51
141.2834433
0
ARC
8
DEFAULT_255_2_778
10
22.6193441
20
59.4678802
40
1.0499436
50
334.7177858
51
345.9719566
0
ARC
8
DEFAULT_255_2_778
10
22.9420925
20
59.3866299
40
0.7171261
50
346.0194169
51
359.653188
0
ARC
8
DEFAULT_255_2_778
10
23.1013795
20
59.3857157
40
0.5578365
50
359.6480531
51
24.2436429
0
ARC
8
DEFAULT_255_2_778
10
23.3072989
20
59.4708493
40
0.3351919
50
25.428084
51
62.0797606
0
ARC
8
DEFAULT_255_2_778
10
23.3106625
20
59.4507929
40
0.351556
50
64.0951168
51
91.1674325
0
ARC
8
DEFAULT_255_2_778
10
23.3076687
20
59.220969
40
0.581322
50
90.4108876
51
101.4750317
0
ARC
8
DEFAULT_255_2_778
10
23.3638944
20
58.9311352
40
0.8765517
50
101.307833
51
108.2755414
0
ARC
8
DEFAULT_255_2_778
10
23.2482483
20
59.3984313
40
0.3982582
50
113.5665669
51
180.2445476
0
ARC
8
DEFAULT_255_2_778
10
23.5118806
20
59.361491
40
0.6628242
50
176.9523093
51
180.0285123
0
ARC
8
DEFAULT_255_2_778
10
23.5716774
20
59.361253
40
0.7226209
50
180.0072781
51
181.5447134
0
LINE
8
DEFAULT_255_2_778
10
22.849319
20
59.3417732
11
23.022919
21
59.3417732
0
ARC
8
DEFAULT_255_2_778
10
23.4354413
20
59.354025
40
0.4127042
50
159.6719915
51
181.701171
0
ARC
8
DEFAULT_255_2_778
10
23.2347706
20
59.423167
40
0.2005711
50
84.3781359
51
158.2789255
0
ARC
8
DEFAULT_255_2_778
10
23.2721385
20
59.4134736
40
0.2100484
50
11.1995595
51
94.8391512
0
ARC
8
DEFAULT_255_2_778
10
22.9677009
20
59.3254537
40
0.526488
50
359.0661743
51
14.1624483
0
ARC
8
DEFAULT_255_2_778
10
23.0498888
20
59.356695
40
0.4460116
50
327.6539377
51
354.8775687
0
ARC
8
DEFAULT_255_2_778
10
22.7415923
20
59.5280371
40
0.7983991
50
321.9161286
51
329.1032167
0
ARC
8
DEFAULT_255_2_778
10
26.2715741
20
59.400731
40
0.2229099
50
13.735741
51
87.7773754
0
ARC
8
DEFAULT_255_2_778
10
26.0174245
20
59.2890855
40
0.4986266
50
12.8728028
51
19.2720998
0
ARC
8
DEFAULT_255_2_778
10
26.1623796
20
59.3956892
40
0.3411689
50
326.7829667
51
0.7530722
0
ARC
8
DEFAULT_255_2_778
10
26.2048003
20
59.3916119
40
0.3040932
50
280.4304679
51
323.044503
0
ARC
8
DEFAULT_255_2_778
10
26.1226215
20
59.6968126
40
0.619656
50
272.3397611
51
282.7951365
0
LINE
8
DEFAULT_255_2_778
10
26.147919
20
59.0776732
11
26.147919
21
58.9122732
0
ARC
8
DEFAULT_255_2_778
10
26.2524684
20
58.3424562
40
0.5793289
50
93.2373412
51
100.3969209
0
ARC
8
DEFAULT_255_2_778
10
26.2441983
20
58.4629513
40
0.4585613
50
90.030872
51
93.0558812
0
ARC
8
DEFAULT_255_2_778
10
26.2563404
20
58.6467835
40
0.2750082
50
52.1793601
51
92.5820791
0
ARC
8
DEFAULT_255_2_778
10
26.2290074
20
58.6416074
40
0.2964301
50
14.0360838
51
48.6172519
0
ARC
8
DEFAULT_255_2_778
10
26.0146455
20
58.5680647
40
0.522587
50
10.59754
51
16.1588592
0
ARC
8
DEFAULT_255_2_778
10
25.919321
20
58.6462867
40
0.6092606
50
0.0111742
51
1.6823146
0
ARC
8
DEFAULT_255_2_778
10
26.1620524
20
58.6339158
40
0.3667419
50
334.2338968
51
1.9516438
0
ARC
8
DEFAULT_255_2_778
10
26.2662076
20
58.5997601
40
0.2585028
50
276.997496
51
331.0147483
0
ARC
8
DEFAULT_255_2_778
10
26.2158805
20
58.7784225
40
0.4428635
50
279.4534238
51
280.6466065
0
ARC
8
DEFAULT_255_2_778
10
26.2859356
20
58.7067163
40
0.3651529
50
237.3557786
51
270.4210558
0
ARC
8
DEFAULT_255_2_778
10
26.2800467
20
58.6612854
40
0.3243115
50
191.9645107
51
233.9002137
0
ARC
8
DEFAULT_255_2_778
10
26.4760353
20
58.7275896
40
0.5303417
50
192.32626
51
194.5835878
0
LINE
8
DEFAULT_255_2_778
10
25.957919
20
58.6143732
11
25.809219
21
58.6143732
0
LINE
8
DEFAULT_255_2_778
10
25.809219
20
58.6143732
11
25.809219
21
58.5731732
0
ARC
8
DEFAULT_255_2_778
10
26.4030741
20
58.6451989
40
0.5982069
50
186.9153421
51
206.7004507
0
ARC
8
DEFAULT_255_2_778
10
26.2081935
20
58.554089
40
0.3832185
50
207.6230086
51
264.9780338
0
ARC
8
DEFAULT_255_2_778
10
26.2664423
20
58.847027
40
0.6809015
50
262.2521533
51
270.2006191
0
ARC
8
DEFAULT_255_2_778
10
26.2670177
20
59.0708123
40
0.9046845
50
270.1145508
51
275.3656933
0
ARC
8
DEFAULT_255_2_778
10
26.2491263
20
59.2767383
40
1.1113822
50
275.2912753
51
278.0373954
0
ARC
8
DEFAULT_255_2_778
10
26.3688579
20
58.4750509
40
0.3008983
50
276.8064433
51
343.4313112
0
ARC
8
DEFAULT_255_2_778
10
25.9385394
20
58.6495728
40
0.7644169
50
340.0891923
51
354.9785298
0
ARC
8
DEFAULT_255_2_778
10
25.5370596
20
58.7031935
40
1.1691918
50
354.0829947
51
355.2400871
0
ARC
8
DEFAULT_255_2_778
10
25.8205661
20
58.5379534
40
0.8842883
50
4.4245734
51
16.7656539
0
ARC
8
DEFAULT_255_2_778
10
26.3218717
20
58.6963842
40
0.3586615
50
15.6328294
51
43.2577838
0
ARC
8
DEFAULT_255_2_778
10
26.4301703
20
58.7892159
40
0.2162751
50
45.0085983
51
81.4246647
0
ARC
8
DEFAULT_255_2_778
10
26.3985211
20
59.2721201
40
0.2765305
50
283.3600837
51
359.5948602
0
ARC
8
DEFAULT_255_2_778
10
26.1048915
20
59.3244194
40
0.5727286
50
354.5642103
51
0.1154301
0
ARC
8
DEFAULT_255_2_778
10
25.911373
20
59.3379377
40
0.7663458
50
359.0755324
51
14.6473862
0
ARC
8
DEFAULT_255_2_778
10
26.329313
20
59.4618048
40
0.3309693
50
12.1958179
51
83.9541395
0
ARC
8
DEFAULT_255_2_778
10
26.2829312
20
59.2291957
40
0.5675819
50
81.7706944
51
90.2233143
0
ARC
8
DEFAULT_255_2_778
10
26.2683713
20
59.140576
40
0.6563134
50
88.9219906
51
107.0038124
0
ARC
8
DEFAULT_255_2_778
10
26.1782882
20
59.4356489
40
0.3477962
50
107.027631
51
177.3172566
0
ARC
8
DEFAULT_255_2_778
10
26.5216697
20
59.369019
40
0.6957539
50
173.1561557
51
180.1767087
0
ARC
8
DEFAULT_255_2_778
10
26.3464503
20
59.3573503
40
0.3553589
50
153.3735662
51
178.4643967
0
ARC
8
DEFAULT_255_2_778
10
26.2146535
20
59.4118856
40
0.2133478
50
87.3762299
51
150.6021066
0
ARC
8
DEFAULT_255_2_778
10
26.2383652
20
59.2263268
40
0.3989268
50
89.9865115
51
92.0032809
0
ARC
8
DEFAULT_255_2_778
10
26.23757
20
59.15435
40
0.4709043
50
84.7426053
51
89.8918182
0
ARC
8
DEFAULT_255_2_778
10
16.243248
20
59.0047594
40
1.8679128
50
359.6169996
51
7.9535242
0
ARC
8
DEFAULT_255_2_778
10
17.1062989
20
59.1305396
40
0.995773
50
7.6571935
51
21.5314115
0
ARC
8
DEFAULT_255_2_778
10
17.5638849
20
59.3185939
40
0.5011497
50
20.7320002
51
50.6968299
0
ARC
8
DEFAULT_255_2_778
10
17.6091882
20
59.343313
40
0.4537406
50
53.1470872
51
90.9978873
0
ARC
8
DEFAULT_255_2_778
10
17.5904351
20
59.1325619
40
0.6645114
50
89.0643584
51
90.0013852
0
ARC
8
DEFAULT_255_2_778
10
17.6194432
20
59.3566274
40
0.4414011
50
93.7701784
51
158.7743519
0
ARC
8
DEFAULT_255_2_778
10
18.0996639
20
59.1208507
40
0.9754871
50
156.0761015
51
170.1647734
0
ARC
8
DEFAULT_255_2_778
10
18.9338614
20
58.9665079
40
1.8238139
50
169.8637892
51
178.3031054
0
ARC
8
DEFAULT_255_2_778
10
19.5620875
20
58.9313723
40
2.4528605
50
177.917284
51
178.1402949
0
ARC
8
DEFAULT_255_2_778
10
19.5447963
20
59.0669359
40
2.4349205
50
181.3169659
51
187.5764641
0
ARC
8
DEFAULT_255_2_778
10
18.4789014
20
58.9208664
40
1.3590784
50
187.3970036
51
197.1346096
0
ARC
8
DEFAULT_255_2_778
10
17.8392712
20
58.7177525
40
0.6880203
50
196.6638935
51
214.445034
0
ARC
8
DEFAULT_255_2_778
10
17.5741246
20
58.5309062
40
0.3637022
50
213.7966981
51
271.5205915
0
ARC
8
DEFAULT_255_2_778
10
17.5833544
20
58.6783863
40
0.5110544
50
270.047258
51
274.4513906
0
ARC
8
DEFAULT_255_2_778
10
17.6391443
20
58.570604
40
0.4020542
50
267.7014132
51
334.9642642
0
ARC
8
DEFAULT_255_2_778
10
17.2582495
20
58.7762641
40
0.8345726
50
333.2374703
51
348.8409073
0
ARC
8
DEFAULT_255_2_778
10
16.504741
20
58.9357879
40
1.6047438
50
348.4596452
51
357.3674216
0
ARC
8
DEFAULT_255_2_778
10
15.6601376
20
58.9897867
40
2.450983
50
357.0133011
51
0.0628016
0
LINE
8
DEFAULT_255_2_778
10
6.454119
20
57.0364732
11
8.054119
21
57.0364732
0
LINE
8
DEFAULT_255_2_778
10
8.054119
20
57.0364732
11
8.054119
21
56.8612732
0
LINE
8
DEFAULT_255_2_778
10
8.054119
20
56.8612732
11
6.454119
21
56.8612732
0
LINE
8
DEFAULT_255_2_778
10
6.454119
20
56.8612732
11
6.454119
21
57.0364732
0
LINE
8
DEFAULT_255_2_778
10
8.054119
20
57.2652732
11
6.454119
21
57.7904732
0
LINE
8
DEFAULT_255_2_778
10
6.454119
20
57.7904732
11
6.454119
21
57.9828732
0
LINE
8
DEFAULT_255_2_778
10
6.454119
20
57.9828732
11
8.054119
21
58.5080732
0
LINE
8
DEFAULT_255_2_778
10
8.054119
20
58.5080732
11
8.054119
21
58.3175732
0
LINE
8
DEFAULT_255_2_778
10
8.054119
20
58.3175732
11
7.636819
21
58.1886732
0
LINE
8
DEFAULT_255_2_778
10
7.636819
20
58.1886732
11
7.636819
21
57.5862732
0
LINE
8
DEFAULT_255_2_778
10
7.636819
20
57.5862732
11
8.054119
21
57.4592732
0
LINE
8
DEFAULT_255_2_778
10
8.054119
20
57.4592732
11
8.054119
21
57.2652732
0
LINE
8
DEFAULT_255_2_778
10
6.660519
20
57.8875732
11
7.455319
21
57.6425732
0
LINE
8
DEFAULT_255_2_778
10
7.455319
20
57.6425732
11
7.455319
21
58.1333732
0
LINE
8
DEFAULT_255_2_778
10
7.455319
20
58.1333732
11
6.660519
21
57.8875732
0
LINE
8
DEFAULT_255_2_778
10
8.054119
20
55.9635732
11
8.054119
21
55.5235732
0
LINE
8
DEFAULT_255_2_778
10
8.054119
20
55.5235732
11
6.454119
21
55.5235732
0
LINE
8
DEFAULT_255_2_778
10
6.454119
20
55.5235732
11
6.456219
21
55.9910732
0
LINE
8
DEFAULT_255_2_778
10
6.456219
20
55.9910732
11
6.457819
21
56.0119732
0
LINE
8
DEFAULT_255_2_778
10
6.457819
20
56.0119732
11
6.462919
21
56.0534732
0
LINE
8
DEFAULT_255_2_778
10
6.462919
20
56.0534732
11
6.470019
21
56.0947732
0
LINE
8
DEFAULT_255_2_778
10
6.470019
20
56.0947732
11
6.479519
21
56.1354732
0
LINE
8
DEFAULT_255_2_778
10
6.479519
20
56.1354732
11
6.498819
21
56.1947732
0
LINE
8
DEFAULT_255_2_778
10
6.498819
20
56.1947732
11
6.524519
21
56.2511732
0
LINE
8
DEFAULT_255_2_778
10
6.524519
20
56.2511732
11
6.569519
21
56.3198732
0
LINE
8
DEFAULT_255_2_778
10
6.569519
20
56.3198732
11
6.641519
21
56.3939732
0
LINE
8
DEFAULT_255_2_778
10
6.641519
20
56.3939732
11
6.763219
21
56.4749732
0
LINE
8
DEFAULT_255_2_778
10
6.763219
20
56.4749732
11
6.902319
21
56.5302732
0
LINE
8
DEFAULT_255_2_778
10
6.902319
20
56.5302732
11
7.130919
21
56.5686732
0
LINE
8
DEFAULT_255_2_778
10
7.130919
20
56.5686732
11
7.453719
21
56.5654732
0
LINE
8
DEFAULT_255_2_778
10
7.453719
20
56.5654732
11
7.625719
21
56.5341732
0
LINE
8
DEFAULT_255_2_778
10
7.625719
20
56.5341732
11
7.796919
21
56.4611732
0
LINE
8
DEFAULT_255_2_778
10
7.796919
20
56.4611732
11
7.906219
21
56.3773732
0
LINE
8
DEFAULT_255_2_778
10
7.906219
20
56.3773732
11
7.956719
21
56.3183732
0
LINE
8
DEFAULT_255_2_778
10
7.956719
20
56.3183732
11
7.988419
21
56.2667732
0
LINE
8
DEFAULT_255_2_778
10
7.988419
20
56.2667732
11
8.013619
21
56.2101732
0
LINE
8
DEFAULT_255_2_778
10
8.013619
20
56.2101732
11
8.032119
21
56.1503732
0
LINE
8
DEFAULT_255_2_778
10
8.032119
20
56.1503732
11
8.041119
21
56.1093732
0
LINE
8
DEFAULT_255_2_778
10
8.041119
20
56.1093732
11
8.047419
21
56.0677732
0
LINE
8
DEFAULT_255_2_778
10
8.047419
20
56.0677732
11
8.049819
21
56.0468732
0
LINE
8
DEFAULT_255_2_778
10
8.049819
20
56.0468732
11
8.051719
21
56.0259732
0
LINE
8
DEFAULT_255_2_778
10
8.051719
20
56.0259732
11
8.053519
21
55.9843732
0
LINE
8
DEFAULT_255_2_778
10
6.635119
20
55.9293732
11
6.635119
21
55.6989732
0
LINE
8
DEFAULT_255_2_778
10
6.635119
20
55.6989732
11
7.872319
21
55.6989732
0
LINE
8
DEFAULT_255_2_778
10
7.872319
20
55.6989732
11
7.869919
21
56.0190732
0
LINE
8
DEFAULT_255_2_778
10
7.869919
20
56.0190732
11
7.865419
21
56.0550732
0
LINE
8
DEFAULT_255_2_778
10
7.865419
20
56.0550732
11
7.858319
21
56.0907732
0
LINE
8
DEFAULT_255_2_778
10
7.858319
20
56.0907732
11
7.844519
21
56.1352732
0
LINE
8
DEFAULT_255_2_778
10
7.844519
20
56.1352732
11
7.813019
21
56.1989732
0
LINE
8
DEFAULT_255_2_778
10
7.813019
20
56.1989732
11
7.758819
21
56.2640732
0
LINE
8
DEFAULT_255_2_778
10
7.758819
20
56.2640732
11
7.670419
21
56.3244732
0
LINE
8
DEFAULT_255_2_778
10
7.670419
20
56.3244732
11
7.499019
21
56.3781732
0
LINE
8
DEFAULT_255_2_778
10
7.499019
20
56.3781732
11
7.131219
21
56.3945732
0
LINE
8
DEFAULT_255_2_778
10
7.131219
20
56.3945732
11
6.950519
21
56.3617732
0
LINE
8
DEFAULT_255_2_778
10
6.950519
20
56.3617732
11
6.798619
21
56.2868732
0
LINE
8
DEFAULT_255_2_778
10
6.798619
20
56.2868732
11
6.720819
21
56.2140732
0
LINE
8
DEFAULT_255_2_778
10
6.720819
20
56.2140732
11
6.686719
21
56.1624732
0
LINE
8
DEFAULT_255_2_778
10
6.686719
20
56.1624732
11
6.661619
21
56.1037732
0
LINE
8
DEFAULT_255_2_778
10
6.661619
20
56.1037732
11
6.648619
21
56.0571732
0
LINE
8
DEFAULT_255_2_778
10
6.648619
20
56.0571732
11
6.642519
21
56.0254732
0
LINE
8
DEFAULT_255_2_778
10
6.642519
20
56.0254732
11
6.638319
21
55.9934732
0
LINE
8
DEFAULT_255_2_778
10
6.638319
20
55.9934732
11
6.635919
21
55.9613732
0
LINE
8
DEFAULT_255_2_778
10
6.635919
20
55.9613732
11
6.635419
21
55.9455732
0
LINE
8
DEFAULT_255_2_778
10
6.858119
20
59.5488732
11
6.858119
21
59.7306732
0
LINE
8
DEFAULT_255_2_778
10
6.858919
20
59.5480732
11
6.858119
21
59.5488732
0
LINE
8
DEFAULT_255_2_778
10
20.351919
20
59.7639732
11
20.484219
21
59.7639732
0
LINE
8
DEFAULT_255_2_778
10
20.484219
20
59.7639732
11
20.484219
21
58.1764732
0
LINE
8
DEFAULT_255_2_778
10
20.484219
20
58.1764732
11
20.318819
21
58.1764732
0
LINE
8
DEFAULT_255_2_778
10
20.318819
20
58.1764732
11
20.318819
21
59.5324732
0
LINE
8
DEFAULT_255_2_778
10
20.318819
20
59.5324732
11
20.054219
21
59.3009732
0
LINE
8
DEFAULT_255_2_778
10
20.054219
20
59.3009732
11
20.054219
21
59.5324732
0
LINE
8
DEFAULT_255_2_778
10
20.054219
20
59.5324732
11
20.351919
21
59.7639732
0
LINE
8
DEFAULT_255_2_778
10
22.807519
20
58.3746732
11
22.807519
21
58.1762732
0
LINE
8
DEFAULT_255_2_778
10
22.807519
20
58.1762732
11
23.692319
21
58.1762732
0
LINE
8
DEFAULT_255_2_778
10
23.692319
20
58.1762732
11
23.692319
21
58.3497732
0
LINE
8
DEFAULT_255_2_778
10
23.692319
20
58.3497732
11
23.022619
21
58.3497732
0
LINE
8
DEFAULT_255_2_778
10
23.022619
20
58.3497732
11
23.303919
21
58.6474732
0
LINE
8
DEFAULT_255_2_778
10
23.303919
20
58.6474732
11
23.452819
21
58.8292732
0
LINE
8
DEFAULT_255_2_778
10
23.452819
20
58.8292732
11
23.568719
21
59.0194732
0
LINE
8
DEFAULT_255_2_778
10
23.370019
20
59.0355732
11
22.807519
21
58.3746732
0
LINE
8
DEFAULT_255_2_778
10
25.825919
20
59.3668732
11
25.991219
21
59.3668732
0
LINE
8
DEFAULT_255_2_778
10
26.280719
20
59.6232732
11
26.280219
21
59.6234732
0
LINE
8
DEFAULT_255_2_778
10
18.111119
20
58.9924732
11
18.111119
21
58.9922732
0
ARC
8
DEFAULT_255_2_778
10
16.0085532
20
58.9855482
40
1.9401507
50
359.6355208
51
6.853631
0
ARC
8
DEFAULT_255_2_778
10
16.9904917
20
59.1088113
40
0.9505337
50
6.5399348
51
18.8032351
0
ARC
8
DEFAULT_255_2_778
10
17.5012636
20
59.2898332
40
0.4087298
50
17.8598596
51
43.9931101
0
ARC
8
DEFAULT_255_2_778
10
17.6144047
20
59.3877823
40
0.2594278
50
45.7862576
51
91.6213107
0
ARC
8
DEFAULT_255_2_778
10
17.5771744
20
59.4042018
40
0.2447367
50
82.9848379
51
89.9061758
0
ARC
8
DEFAULT_255_2_778
10
17.5809601
20
59.437844
40
0.2111213
50
90.9186734
51
153.821873
0
ARC
8
DEFAULT_255_2_778
10
17.909018
20
59.2367764
40
0.5953052
50
150.3822509
51
166.1739939
0
ARC
8
DEFAULT_255_2_778
10
18.6209501
20
59.048185
40
1.3317415
50
165.6149538
51
173.8286214
0
ARC
8
DEFAULT_255_2_778
10
19.8502834
20
58.9079254
40
2.5690393
50
173.6660332
51
178.9633057
0
ARC
8
DEFAULT_255_2_778
10
19.4204911
20
58.9937442
40
2.1391882
50
181.0536796
51
187.2873043
0
ARC
8
DEFAULT_255_2_778
10
18.3313041
20
58.8494534
40
1.0405082
50
187.0137668
51
197.5122314
0
ARC
8
DEFAULT_255_2_778
10
17.7522149
20
58.6603211
40
0.4313899
50
196.7002695
51
218.1303081
0
ARC
8
DEFAULT_255_2_778
10
17.5729088
20
58.5192696
40
0.2032538
50
218.0628106
51
270.6659109
0
ARC
8
DEFAULT_255_2_778
10
17.5748085
20
58.5801307
40
0.2641015
50
270.1003522
51
277.0153523
0
ARC
8
DEFAULT_255_2_778
10
17.6103368
20
58.5978471
40
0.2798599
50
269.3300766
51
340.1724169
0
ARC
8
DEFAULT_255_2_778
10
17.1879973
20
58.8031786
40
0.7484743
50
336.3493337
51
351.1104551
0
ARC
8
DEFAULT_255_2_778
10
16.3767422
20
58.9416937
40
1.5714315
50
350.691588
51
358.9701419
0
ARC
8
DEFAULT_255_2_778
10
15.6071283
20
58.972508
40
2.3415365
50
358.55473
51
0.0170869
0
LINE
8
DEFAULT_255_2_778
10
17.9486646
20
58.9732063
11
17.9486646
21
58.9732063
0
LINE
8
DEFAULT_255_2_778
10
16.2394646
20
56.9817063
11
16.4317646
21
56.9817063
0
LINE
8
DEFAULT_255_2_778
10
16.4317646
20
56.9817063
11
16.9569646
21
55.3817063
0
LINE
8
DEFAULT_255_2_778
10
16.9569646
20
55.3817063
11
16.7664646
21
55.3817063
0
LINE
8
DEFAULT_255_2_778
10
16.7664646
20
55.3817063
11
16.6376646
21
55.7989063
0
LINE
8
DEFAULT_255_2_778
10
16.6376646
20
55.7989063
11
16.0351646
21
55.7989063
0
LINE
8
DEFAULT_255_2_778
10
16.0351646
20
55.7989063
11
15.9081646
21
55.3817063
0
LINE
8
DEFAULT_255_2_778
10
15.9081646
20
55.3817063
11
15.7139646
21
55.3817063
0
LINE
8
DEFAULT_255_2_778
10
15.7139646
20
55.3817063
11
16.2391646
21
56.9817063
0
LINE
8
DEFAULT_255_2_778
10
16.0915252
20
55.9804697
11
16.5823252
21
55.9804697
0
LINE
8
DEFAULT_255_2_778
10
16.5823252
20
55.9804697
11
16.3365252
21
56.7752697
0
LINE
8
DEFAULT_255_2_778
10
16.3365252
20
56.7752697
11
16.0915252
21
55.9804697
0
LINE
8
DEFAULT_255_2_778
10
17.1948252
20
56.9816697
11
17.3700252
21
56.9816697
0
LINE
8
DEFAULT_255_2_778
10
17.3700252
20
56.9816697
11
17.3700252
21
55.3817697
0
LINE
8
DEFAULT_255_2_778
10
17.3700252
20
55.3817697
11
17.1948252
21
55.3817697
0
LINE
8
DEFAULT_255_2_778
10
17.1948252
20
55.3817697
11
17.1948252
21
56.9816697
0
LINE
8
DEFAULT_255_2_778
10
32.7388252
20
52.3614697
11
33.1158252
21
52.3614697
0
LINE
8
DEFAULT_255_2_778
10
33.1158252
20
52.3614697
11
33.1158252
21
50.3615697
0
LINE
8
DEFAULT_255_2_778
10
33.1158252
20
50.3615697
11
32.8833252
21
50.3615697
0
LINE
8
DEFAULT_255_2_778
10
32.8833252
20
50.3615697
11
32.8833252
21
52.1545697
0
LINE
8
DEFAULT_255_2_778
10
32.8833252
20
52.1545697
11
32.3374252
21
50.3615697
0
LINE
8
DEFAULT_255_2_778
10
32.3374252
20
50.3615697
11
32.1038252
21
50.3615697
0
LINE
8
DEFAULT_255_2_778
10
32.1038252
20
50.3615697
11
31.5437252
21
52.1516697
0
LINE
8
DEFAULT_255_2_778
10
31.5437252
20
52.1516697
11
31.5437252
21
50.3615697
0
LINE
8
DEFAULT_255_2_778
10
31.5437252
20
50.3615697
11
31.3111252
21
50.3615697
0
LINE
8
DEFAULT_255_2_778
10
31.3111252
20
50.3615697
11
31.3111252
21
52.3614697
0
LINE
8
DEFAULT_255_2_778
10
31.3111252
20
52.3614697
11
31.6882252
21
52.3614697
0
LINE
8
DEFAULT_255_2_778
10
31.6882252
20
52.3614697
11
32.2218252
21
50.6874697
0
LINE
8
DEFAULT_255_2_778
10
32.2218252
20
50.6874697
11
32.7388252
21
52.3614697
0
LINE
8
DEFAULT_255_2_778
10
34.9293802
20
52.4217604
11
35.1023802
21
52.4217604
0
LINE
8
DEFAULT_255_2_778
10
35.1023802
20
52.4217604
11
35.1023802
21
50.3712604
0
LINE
8
DEFAULT_255_2_778
10
35.1023802
20
50.3712604
11
34.8862802
21
50.3712604
0
LINE
8
DEFAULT_255_2_778
10
34.8862802
20
50.3712604
11
34.8862802
21
52.1227604
0
LINE
8
DEFAULT_255_2_778
10
34.8862802
20
52.1227604
11
34.5401802
21
51.8237604
0
LINE
8
DEFAULT_255_2_778
10
34.5401802
20
51.8237604
11
34.5401802
21
52.1227604
0
LINE
8
DEFAULT_255_2_778
10
34.5401802
20
52.1227604
11
34.9293802
21
52.4217604
0
ARC
8
DEFAULT_255_2_778
10
35.7113513
20
52.0238444
40
1.3149497
50
333.3628877
51
343.159825
0
ARC
8
DEFAULT_255_2_778
10
36.1232479
20
51.9018004
40
0.8853637
50
342.9969163
51
358.3822225
0
ARC
8
DEFAULT_255_2_778
10
36.2668759
20
51.8917393
40
0.7415332
50
358.8460023
51
359.9983126
0
ARC
8
DEFAULT_255_2_778
10
36.3421329
20
51.8953997
40
0.6662863
50
359.6833497
51
25.7535983
0
ARC
8
DEFAULT_255_2_778
10
36.5606204
20
51.991472
40
0.4278398
50
26.879075
51
84.9652985
0
ARC
8
DEFAULT_255_2_778
10
36.530743
20
51.8093158
40
0.6120703
50
83.6755981
51
90.1027439
0
ARC
8
DEFAULT_255_2_778
10
36.5336196
20
51.6135183
40
0.8078765
50
90.2818519
51
99.3575879
0
ARC
8
DEFAULT_255_2_778
10
36.589002
20
51.2682071
40
1.1575985
50
99.2833149
51
105.8569078
0
ARC
8
DEFAULT_255_2_778
10
36.6599351
20
51.0022803
40
1.4327943
50
105.6798836
51
106.9953618
0
ARC
8
DEFAULT_255_2_778
10
36.4419023
20
51.8775452
40
0.5341245
50
112.0784905
51
144.3553765
0
ARC
8
DEFAULT_255_2_778
10
36.4550886
20
51.8930005
40
0.5362158
50
146.5190171
51
178.5047136
0
ARC
8
DEFAULT_255_2_778
10
36.7030165
20
51.8659184
40
0.7850363
50
177.0008085
51
180.0261257
0
ARC
8
DEFAULT_255_2_778
10
36.7710836
20
51.8656803
40
0.8531032
50
180.0080519
51
181.6576486
0
LINE
8
DEFAULT_255_2_778
10
35.9183375
20
51.8410022
11
36.1519375
21
51.8410022
0
ARC
8
DEFAULT_255_2_778
10
36.6689708
20
51.8535038
40
0.5171844
50
161.2205122
51
181.385109
0
ARC
8
DEFAULT_255_2_778
10
36.4270283
20
51.9321852
40
0.2628142
50
87.8635619
51
160.4803549
0
ARC
8
DEFAULT_255_2_778
10
36.4633475
20
51.6822363
40
0.5132661
50
89.9676275
51
92.9619356
0
ARC
8
DEFAULT_255_2_778
10
36.476971
20
51.8564328
40
0.3393315
50
59.5245977
51
92.2519187
0
ARC
8
DEFAULT_255_2_778
10
36.4869744
20
51.9107939
40
0.2880312
50
10.675436
51
55.7525376
0
ARC
8
DEFAULT_255_2_778
10
36.1316191
20
51.8182006
40
0.6548723
50
359.2651986
51
12.8775125
0
ARC
8
DEFAULT_255_2_778
10
36.2770744
20
51.8556243
40
0.5114201
50
329.1205014
51
354.8595343
0
ARC
8
DEFAULT_255_2_778
10
35.8949115
20
52.065149
40
0.9470867
50
319.9074426
51
330.107545
0
ARC
8
DEFAULT_255_2_778
10
38.0620805
20
51.8415773
40
0.3026276
50
15.7074508
51
89.7620049
0
ARC
8
DEFAULT_255_2_778
10
37.8140651
20
51.7292359
40
0.5732631
50
14.4724082
51
19.8089756
0
ARC
8
DEFAULT_255_2_778
10
37.9820452
20
51.8699312
40
0.3871009
50
324.7613509
51
0.3805527
0
ARC
8
DEFAULT_255_2_778
10
37.9970578
20
51.8850379
40
0.38413
50
285.4653906
51
321.627402
0
ARC
8
DEFAULT_255_2_778
10
37.861644
20
52.3092637
40
0.8292868
50
271.9455695
51
286.6668422
0
ARC
8
DEFAULT_255_2_778
10
37.8311145
20
52.6865125
40
1.2074844
50
272.4170396
51
272.7856743
0
LINE
8
DEFAULT_255_2_778
10
37.8820375
20
51.4801022
11
37.8820375
21
51.2787022
0
ARC
8
DEFAULT_255_2_778
10
38.0276592
20
50.3772314
40
0.9131568
50
93.8518726
51
99.176167
0
ARC
8
DEFAULT_255_2_778
10
38.0141191
20
50.5636304
40
0.7262699
50
90.0532936
51
93.7739516
0
ARC
8
DEFAULT_255_2_778
10
38.0245187
20
50.8306418
40
0.4593918
50
67.0756004
51
91.3814382
0
ARC
8
DEFAULT_255_2_778
10
38.0602465
20
50.946169
40
0.3392882
50
15.7443876
51
65.0328852
0
ARC
8
DEFAULT_255_2_778
10
37.8409304
20
50.8581945
40
0.5747986
50
11.9185272
51
18.253457
0
ARC
8
DEFAULT_255_2_778
10
37.7459822
20
50.9550409
40
0.6577188
50
0.0129744
51
1.9047572
0
ARC
8
DEFAULT_255_2_778
10
37.988326
20
50.9424738
40
0.4155696
50
333.8009606
51
1.7534732
0
ARC
8
DEFAULT_255_2_778
10
38.0788552
20
50.915616
40
0.3228735
50
283.5870589
51
330.9837314
0
ARC
8
DEFAULT_255_2_778
10
37.9908323
20
51.1670905
40
0.5885851
50
278.1858402
51
286.1658716
0
ARC
8
DEFAULT_255_2_778
10
38.0778859
20
51.1879572
40
0.6034637
50
248.2810537
51
269.6915853
0
ARC
8
DEFAULT_255_2_778
10
38.0095886
20
50.9908745
40
0.395212
50
190.8467791
51
246.9062202
0
LINE
8
DEFAULT_255_2_778
10
37.6214375
20
50.9165022
11
37.4174375
21
50.9165022
0
LINE
8
DEFAULT_255_2_778
10
37.4174375
20
50.9165022
11
37.4174375
21
50.8663022
0
ARC
8
DEFAULT_255_2_778
10
38.0918294
20
50.9615299
40
0.681082
50
188.0373265
51
208.3496452
0
ARC
8
DEFAULT_255_2_778
10
37.9250234
20
50.882402
40
0.4967999
50
209.4534389
51
257.6592246
0
ARC
8
DEFAULT_255_2_778
10
38.0363526
20
51.2887144
40
0.9177798
50
256.2908182
51
270.6566377
0
ARC
8
DEFAULT_255_2_778
10
38.0453147
20
51.7285137
40
1.3575196
50
270.0656695
51
273.8745073
0
ARC
8
DEFAULT_255_2_778
10
38.0248778
20
52.0332094
40
1.6628999
50
273.8676657
51
277.1945515
0
ARC
8
DEFAULT_255_2_778
10
38.201142
20
50.7884119
40
0.4062715
50
274.5169526
51
341.3955044
0
ARC
8
DEFAULT_255_2_778
10
37.7722681
20
50.967548
40
0.8705082
50
339.2262731
51
354.2256276
0
ARC
8
DEFAULT_255_2_778
10
37.37542
20
51.0256067
40
1.2713092
50
353.421729
51
354.6242773
0
ARC
8
DEFAULT_255_2_778
10
37.6463435
20
50.8171501
40
0.9987988
50
5.1325209
51
17.5582226
0
ARC
8
DEFAULT_255_2_778
10
38.1582411
20
50.9861552
40
0.4598142
50
16.7227435
51
42.6625198
0
ARC
8
DEFAULT_255_2_778
10
38.2740897
20
51.0817365
40
0.3099596
50
44.1824659
51
82.8746017
0
ARC
8
DEFAULT_255_2_778
10
38.2362742
20
51.7686931
40
0.38698
50
281.365851
51
315.8321954
0
ARC
8
DEFAULT_255_2_778
10
38.2336253
20
51.7425561
40
0.3712405
50
319.0121964
51
356.7937133
0
ARC
8
DEFAULT_255_2_778
10
37.9776167
20
51.7806052
40
0.6294219
50
354.6384762
51
0.0998595
0
ARC
8
DEFAULT_255_2_778
10
37.7438771
20
51.7940474
40
0.8632488
50
359.1805943
51
14.6360486
0
ARC
8
DEFAULT_255_2_778
10
38.1616375
20
51.9154981
40
0.4285232
50
13.0379723
51
78.7723442
0
ARC
8
DEFAULT_255_2_778
10
38.0709269
20
51.5688238
40
0.786518
50
77.2078002
51
90.5747255
0
ARC
8
DEFAULT_255_2_778
10
38.0504243
20
51.2863312
40
1.0690454
50
89.3239755
51
102.3292743
0
ARC
8
DEFAULT_255_2_778
10
37.9310119
20
51.8031874
40
0.5386483
50
101.6597398
51
127.8300419
0
ARC
8
DEFAULT_255_2_778
10
37.8811999
20
51.894686
40
0.4361515
50
130.0342378
51
173.765417
0
ARC
8
DEFAULT_255_2_778
10
38.18552
20
51.8352031
40
0.7455881
50
171.7606912
51
180.2229183
0
ARC
8
DEFAULT_255_2_778
10
38.0722043
20
51.8171552
40
0.4060493
50
152.5166776
51
177.8621759
0
ARC
8
DEFAULT_255_2_778
10
37.9508572
20
51.8665071
40
0.2758923
50
94.7650864
51
149.9784266
0
ARC
8
DEFAULT_255_2_778
10
38.0024846
20
51.6108425
40
0.5358142
50
89.7627022
51
97.9973061
0
ARC
8
DEFAULT_255_2_778
10
38.003629
20
51.4272174
40
0.7194354
50
85.5654148
51
89.9144053
0
ARC
8
DEFAULT_255_2_778
10
37.9977766
20
51.3370198
40
0.8098162
50
85.3776748
51
85.6460222
0
LINE
8
DEFAULT_255_2_778
10
35.8630375
20
50.6215022
11
35.8630375
21
50.3712022
0
LINE
8
DEFAULT_255_2_778
10
35.8630375
20
50.3712022
11
37.0536375
21
50.3712022
0
LINE
8
DEFAULT_255_2_778
10
37.0536375
20
50.3712022
11
37.0536375
21
50.5900022
0
LINE
8
DEFAULT_255_2_778
10
37.0536375
20
50.5900022
11
36.1522375
21
50.5900022
0
LINE
8
DEFAULT_255_2_778
10
36.1522375
20
50.5900022
11
36.5305375
21
50.9652022
0
LINE
8
DEFAULT_255_2_778
10
36.5305375
20
50.9652022
11
36.7308375
21
51.1946022
0
LINE
8
DEFAULT_255_2_778
10
36.7308375
20
51.1946022
11
36.8867375
21
51.4343022
0
LINE
8
DEFAULT_255_2_778
10
36.6194375
20
51.4552022
11
35.8630375
21
50.6215022
0
LINE
8
DEFAULT_255_2_778
10
37.4399375
20
51.8323022
11
37.6664375
21
51.8323022
0
LINE
8
DEFAULT_255_2_778
10
38.0630375
20
52.1442022
11
38.0633375
21
52.1442022
0
LINE
8
DEFAULT_255_2_778
10
39.5595802
20
52.4217604
11
39.7325802
21
52.4217604
0
LINE
8
DEFAULT_255_2_778
10
39.7325802
20
52.4217604
11
39.7325802
21
50.3712604
0
LINE
8
DEFAULT_255_2_778
10
39.7325802
20
50.3712604
11
39.5164802
21
50.3712604
0
LINE
8
DEFAULT_255_2_778
10
39.5164802
20
50.3712604
11
39.5164802
21
52.1227604
0
LINE
8
DEFAULT_255_2_778
10
39.5164802
20
52.1227604
11
39.1703802
21
51.8237604
0
LINE
8
DEFAULT_255_2_778
10
39.1703802
20
51.8237604
11
39.1703802
21
52.1227604
0
LINE
8
DEFAULT_255_2_778
10
39.1703802
20
52.1227604
11
39.5595802
21
52.4217604
0
ARC
8
DEFAULT_255_2_778
10
30.386537
20
51.8646921
40
0.5715566
50
358.6614512
51
23.4448619
0
ARC
8
DEFAULT_255_2_778
10
30.5101426
20
51.9014277
40
0.4438095
50
25.443175
51
71.1027613
0
ARC
8
DEFAULT_255_2_778
10
30.3438693
20
51.4829659
40
0.8938333
50
69.7062861
51
85.0775085
0
ARC
8
DEFAULT_255_2_778
10
30.2755905
20
50.885064
40
1.4954824
50
84.4368264
51
90.1629397
0
ARC
8
DEFAULT_255_2_778
10
30.3026438
20
51.4571941
40
0.923877
50
91.9418739
51
107.4119902
0
ARC
8
DEFAULT_255_2_778
10
30.1585423
20
51.8789388
40
0.47847
50
106.0592713
51
169.4300514
0
ARC
8
DEFAULT_255_2_778
10
30.3745978
20
51.8138826
40
0.7032136
50
167.4481308
51
170.8472627
0
ARC
8
DEFAULT_255_2_778
10
30.4276203
20
51.7766326
40
0.7620135
50
168.7157712
51
175.3480727
0
ARC
8
DEFAULT_255_2_778
10
30.2965621
20
51.7882556
40
0.630445
50
175.4349187
51
179.9490554
0
ARC
8
DEFAULT_255_2_778
10
30.1106666
20
51.777098
40
0.4447037
50
178.4900515
51
240.1042543
0
ARC
8
DEFAULT_255_2_778
10
30.3371039
20
52.1220361
40
0.8569507
50
238.4739241
51
253.0684459
0
ARC
8
DEFAULT_255_2_778
10
30.507333
20
52.6389388
40
1.4010772
50
252.5649073
51
258.8642754
0
ARC
8
DEFAULT_255_2_778
10
30.0219983
20
50.0942488
40
1.189535
50
69.2071889
51
79.5997295
0
ARC
8
DEFAULT_255_2_778
10
30.2388642
20
50.6501664
40
0.5928637
50
50.3884728
51
69.7287253
0
ARC
8
DEFAULT_255_2_778
10
30.4035798
20
50.8489101
40
0.3347353
50
358.8338051
51
50.4192247
0
ARC
8
DEFAULT_255_2_778
10
30.2662148
20
50.8433926
40
0.4720328
50
351.7067288
51
359.8427845
0
ARC
8
DEFAULT_255_2_778
10
30.1992452
20
50.8516562
40
0.539496
50
351.0946218
51
351.8641766
0
ARC
8
DEFAULT_255_2_778
10
30.4088637
20
50.8938969
40
0.346966
50
278.2492701
51
338.7495305
0
ARC
8
DEFAULT_255_2_778
10
30.3187287
20
51.2419138
40
0.7054084
50
271.121686
51
281.4404809
0
ARC
8
DEFAULT_255_2_778
10
30.3202714
20
51.2376998
40
0.7011665
50
254.537599
51
271.0023855
0
ARC
8
DEFAULT_255_2_778
10
30.2083738
20
50.8689927
40
0.3161164
50
183.5229361
51
256.2684269
0
ARC
8
DEFAULT_255_2_778
10
30.4572708
20
50.9153371
40
0.568235
50
179.8484077
51
186.6464749
0
LINE
8
DEFAULT_255_2_778
10
29.8890376
20
50.9168406
11
29.6456376
21
50.9168406
0
ARC
8
DEFAULT_255_2_778
10
30.3903906
20
50.9495192
40
0.7454695
50
182.5124403
51
203.6056329
0
ARC
8
DEFAULT_255_2_778
10
30.2057367
20
50.881974
40
0.5493514
50
204.862446
51
252.464769
0
ARC
8
DEFAULT_255_2_778
10
30.3742575
20
51.3359443
40
1.0332771
50
251.1387067
51
265.97095
0
ARC
8
DEFAULT_255_2_778
10
30.4236984
20
51.7786561
40
1.4784809
50
265.2651301
51
265.4471135
0
ARC
8
DEFAULT_255_2_778
10
30.3190375
20
51.3533354
40
1.0485717
50
269.3060424
51
283.5887036
0
ARC
8
DEFAULT_255_2_778
10
30.4398203
20
50.8853139
40
0.5653222
50
282.8346393
51
314.8782367
0
ARC
8
DEFAULT_255_2_778
10
30.4231328
20
50.8725023
40
0.5684016
50
316.9819104
51
348.6571301
0
ARC
8
DEFAULT_255_2_778
10
30.0603636
20
50.9652386
40
0.9425278
50
347.467054
51
357.044437
0
ARC
8
DEFAULT_255_2_778
10
30.455246
20
50.9312077
40
0.5465858
50
358.4728202
51
29.7435625
0
ARC
8
DEFAULT_255_2_778
10
30.4786624
20
50.9209066
40
0.5317626
50
31.959529
51
65.5134193
0
ARC
8
DEFAULT_255_2_778
10
30.2777023
20
50.5190682
40
0.9808889
50
64.5594228
51
78.0897338
0
ARC
8
DEFAULT_255_2_778
10
30.7827043
20
53.2223532
40
1.7695714
50
253.0317104
51
260.1550214
0
ARC
8
DEFAULT_255_2_778
10
30.5253914
20
52.3936183
40
0.9018297
50
241.5451647
51
253.301799
0
ARC
8
DEFAULT_255_2_778
10
30.2850025
20
51.9623841
40
0.4081967
50
218.0048145
51
242.3705081
0
ARC
8
DEFAULT_255_2_778
10
30.1626589
20
51.860728
40
0.2492483
50
179.5919127
51
216.9081296
0
ARC
8
DEFAULT_255_2_778
10
30.2318028
20
51.8609905
40
0.3183896
50
167.6641012
51
179.7277802
0
ARC
8
DEFAULT_255_2_778
10
30.293606
20
51.8493585
40
0.3812553
50
165.961568
51
167.9406652
0
ARC
8
DEFAULT_255_2_778
10
30.2596675
20
51.7515138
40
0.3860999
50
94.093468
51
150.4655471
0
ARC
8
DEFAULT_255_2_778
10
30.313169
20
51.4653947
40
0.6761112
50
89.8436698
51
96.8860753
0
ARC
8
DEFAULT_255_2_778
10
30.3145089
20
51.3113936
40
0.8301099
50
86.9665363
51
89.9651555
0
ARC
8
DEFAULT_255_2_778
10
30.3170178
20
51.654899
40
0.4872054
50
60.9328113
51
85.1231022
0
ARC
8
DEFAULT_255_2_778
10
30.3899736
20
51.8050654
40
0.3206397
50
9.6910811
51
59.2905857
0
LINE
8
DEFAULT_255_2_778
10
30.7058376
20
51.8513406
11
30.9579376
21
51.8513406
0
LINE
8
DEFAULT_255_2_778
10
39.5318376
20
49.3616406
11
39.7643376
21
49.3616406
0
LINE
8
DEFAULT_255_2_778
10
39.7643376
20
49.3616406
11
39.7643376
21
47.3616406
0
LINE
8
DEFAULT_255_2_778
10
39.7643376
20
47.3616406
11
39.5318376
21
47.3616406
0
LINE
8
DEFAULT_255_2_778
10
39.5318376
20
47.3616406
11
39.5318376
21
49.3616406
0
LINE
8
DEFAULT_255_2_778
10
38.2631376
20
49.3616406
11
38.5184376
21
49.3616406
0
LINE
8
DEFAULT_255_2_778
10
38.5184376
20
49.3616406
11
39.2161376
21
47.3616406
0
LINE
8
DEFAULT_255_2_778
10
39.2161376
20
47.3616406
11
38.9632376
21
47.3616406
0
LINE
8
DEFAULT_255_2_778
10
38.9632376
20
47.3616406
11
38.7920376
21
47.8831406
0
LINE
8
DEFAULT_255_2_778
10
38.7920376
20
47.8831406
11
37.9919376
21
47.8831406
0
LINE
8
DEFAULT_255_2_778
10
37.9919376
20
47.8831406
11
37.8231376
21
47.3616406
0
LINE
8
DEFAULT_255_2_778
10
37.8231376
20
47.3616406
11
37.5654376
21
47.3616406
0
LINE
8
DEFAULT_255_2_778
10
37.5654376
20
47.3616406
11
38.2631376
21
49.3616406
0
LINE
8
DEFAULT_255_2_778
10
38.0668376
20
48.1101406
11
38.7187376
21
48.1101406
0
LINE
8
DEFAULT_255_2_778
10
38.7187376
20
48.1101406
11
38.3922376
21
49.1036406
0
LINE
8
DEFAULT_255_2_778
10
38.3922376
20
49.1036406
11
38.0668376
21
48.1101406
0
ENDSEC
0
EOF