0
SECTION
2
HEADER
9
$MEASUREMENT
70
1
0
ENDSEC
0
SECTION
2
TABLES
0
TABLE
2
LTYPE
0
LTYPE
72
65
70
64
2
CONTINUOUS
3
______
73
0
40
0
0
ENDTAB
0
TABLE
2
LAYER
0
LAYER
2
DEFAULT_255_2_778
70
0
62
255
6
CONTINUOUS
0
LAYER
2
DEFAULT_255_1_388
70
0
62
255
6
CONTINUOUS
0
ENDTAB
0
ENDSEC
0
SECTION
2
ENTITIES
0
ARC
8
DEFAULT_255_2_778
10
3.5695693
20
51.9926534
40
0.7914215
50
129.1312896
51
180.1450914
0
ARC
8
DEFAULT_255_2_778
10
3.5698345
20
51.9931405
40
0.7912112
50
89.854026
51
129.1684493
0
ARC
8
DEFAULT_255_2_778
10
25.7988937
20
51.992827
40
0.7915249
50
39.4792447
51
90.147911
0
ARC
8
DEFAULT_255_2_778
10
25.7994935
20
51.9926737
40
0.7911595
50
359.8533901
51
39.5154338
0
ARC
8
DEFAULT_255_2_778
10
25.7991693
20
-1.9863989
40
0.7914836
50
309.4761667
51
0.1482649
0
ARC
8
DEFAULT_255_2_778
10
25.798898
20
-1.98683
40
0.7913235
50
269.8517415
51
309.511178
0
ARC
8
DEFAULT_255_2_778
10
3.569842
20
-1.9867718
40
0.7913815
50
219.1282118
51
270.1454017
0
ARC
8
DEFAULT_255_2_778
10
3.5695247
20
-1.9863893
40
0.7913769
50
179.8524075
51
219.1641908
0
LINE
8
DEFAULT_255_2_778
10
3.5718503
20
52.7843492
11
25.7968503
21
52.7843492
0
LINE
8
DEFAULT_255_2_778
10
26.5906503
20
51.9906492
11
26.5906503
21
-1.9843508
0
LINE
8
DEFAULT_255_2_778
10
25.7968503
20
-2.7781508
11
3.5718503
21
-2.7781508
0
LINE
8
DEFAULT_255_2_778
10
2.7781503
20
-1.9843508
11
2.7781503
21
51.9906492
0
LINE
8
DEFAULT_255_1_388
10
5.2884901
20
-0.0371225
11
5.2884901
21
0.0993157
0
LINE
8
DEFAULT_255_1_388
10
5.2884901
20
0.0993157
11
5.4140856
21
0.0993157
0
LINE
8
DEFAULT_255_1_388
10
5.1999408
20
0.3306282
11
5.0327814
21
0.3306282
0
LINE
8
DEFAULT_255_1_388
10
5.0210351
20
-0.2928313
11
5.189098
21
-0.2928313
0
LINE
8
DEFAULT_255_1_388
10
5.4140856
20
-0.0371225
11
5.2884901
21
-0.0371225
0
ARC
8
DEFAULT_255_1_388
10
5.4108082
20
0.4809922
40
0.3816905
50
270.491971
51
281.8953028
0
ARC
8
DEFAULT_255_1_388
10
5.4379509
20
0.3570199
40
0.2547877
50
281.6690378
51
301.2943765
0
ARC
8
DEFAULT_255_1_388
10
5.4570961
20
0.3219926
40
0.2149197
50
301.7834992
51
311.754567
0
ARC
8
DEFAULT_255_1_388
10
5.4674002
20
0.310565
40
0.1995326
50
311.7325027
51
354.2803031
0
ARC
8
DEFAULT_255_1_388
10
5.3856418
20
0.324628
40
0.2823461
50
353.0941646
51
0.1174696
0
ARC
8
DEFAULT_255_1_388
10
5.3337976
20
0.3299874
40
0.3342238
50
359.1804452
51
15.0452323
0
ARC
8
DEFAULT_255_1_388
10
5.4852034
20
0.3741546
40
0.1765747
50
13.957816
51
77.6713812
0
ARC
8
DEFAULT_255_1_388
10
5.441727
20
0.2183464
40
0.3381982
50
76.111571
51
90.7028736
0
ARC
8
DEFAULT_255_1_388
10
5.4350682
20
0.249125
40
0.3074046
50
89.5321574
51
103.5319393
0
ARC
8
DEFAULT_255_1_388
10
5.4125066
20
0.3390443
40
0.2147041
50
103.2930114
51
133.5619756
0
ARC
8
DEFAULT_255_1_388
10
5.4075007
20
0.3457351
40
0.2064084
50
133.8349761
51
173.5343225
0
ARC
8
DEFAULT_255_1_388
10
5.4888665
20
0.3313144
40
0.2889266
50
172.5097183
51
180.1360699
0
ARC
8
DEFAULT_255_1_388
10
5.3818429
20
0.335188
40
0.3490913
50
155.3483706
51
180.7484035
0
ARC
8
DEFAULT_255_1_388
10
5.3763404
20
0.3319519
40
0.3454798
50
131.5745177
51
154.4799474
0
ARC
8
DEFAULT_255_1_388
10
5.4115687
20
0.2963422
40
0.3955058
50
96.9874487
51
131.9690874
0
ARC
8
DEFAULT_255_1_388
10
5.436258
20
0.1562407
40
0.537622
50
89.8592909
51
97.7827481
0
ARC
8
DEFAULT_255_1_388
10
5.4416689
20
0.126736
40
0.5671399
50
78.3654493
51
90.4132586
0
ARC
8
DEFAULT_255_1_388
10
5.481933
20
0.3133918
40
0.3762034
50
56.6229818
51
78.6387103
0
ARC
8
DEFAULT_255_1_388
10
5.5061159
20
0.3556846
40
0.3275964
50
47.0254604
51
56.085558
0
ARC
8
DEFAULT_255_1_388
10
5.508341
20
0.3601189
40
0.3228382
50
10.9207523
51
46.777927
0
ARC
8
DEFAULT_255_1_388
10
5.3549004
20
0.3246401
40
0.4802559
50
359.6364235
51
11.6087615
0
ARC
8
DEFAULT_255_1_388
10
5.561317
20
0.3229404
40
0.273833
50
332.3549969
51
359.7179765
0
ARC
8
DEFAULT_255_1_388
10
5.488157
20
0.3576285
40
0.3547505
50
325.2332381
51
332.8746682
0
ARC
8
DEFAULT_255_1_388
10
5.5053153
20
0.3456763
40
0.3338396
50
292.9803892
51
325.2391113
0
ARC
8
DEFAULT_255_1_388
10
5.4742349
20
0.4061679
40
0.4016959
50
292.542178
51
293.6931461
0
ARC
8
DEFAULT_255_1_388
10
5.5185921
20
-0.3203964
40
0.372079
50
57.643292
51
72.8626085
0
ARC
8
DEFAULT_255_1_388
10
5.5584755
20
-0.2557727
40
0.2961455
50
36.7246661
51
57.4701329
0
ARC
8
DEFAULT_255_1_388
10
5.5571912
20
-0.254353
40
0.2963321
50
8.054535
51
36.3561529
0
ARC
8
DEFAULT_255_1_388
10
5.4601585
20
-0.2717927
40
0.3948682
50
359.8316595
51
8.5873361
0
ARC
8
DEFAULT_255_1_388
10
5.4179059
20
-0.277203
40
0.4371398
50
343.9831631
51
0.557075
0
ARC
8
DEFAULT_255_1_388
10
5.5176108
20
-0.3045037
40
0.3337749
50
311.6358204
51
343.7652116
0
ARC
8
DEFAULT_255_1_388
10
5.4750362
20
-0.2565045
40
0.3979351
50
279.7829743
51
311.625622
0
ARC
8
DEFAULT_255_1_388
10
5.4411497
20
-0.0948358
40
0.5630417
50
269.7285092
51
280.3857694
0
ARC
8
DEFAULT_255_1_388
10
5.434181
20
-0.0994759
40
0.5584119
50
256.6827433
51
270.4412869
0
ARC
8
DEFAULT_255_1_388
10
5.3960797
20
-0.2552302
40
0.3980715
50
229.4223821
51
256.8554507
0
ARC
8
DEFAULT_255_1_388
10
5.349435
20
-0.3077317
40
0.3278564
50
181.8183354
51
229.6455015
0
ARC
8
DEFAULT_255_1_388
10
5.466396
20
-0.2930175
40
0.4453611
50
179.9760419
51
183.2330638
0
ARC
8
DEFAULT_255_1_388
10
5.4470512
20
-0.2953219
40
0.2579652
50
179.4467996
51
196.2871626
0
ARC
8
DEFAULT_255_1_388
10
5.3921966
20
-0.3103291
40
0.2011057
50
196.5661293
51
227.7059371
0
ARC
8
DEFAULT_255_1_388
10
5.4106573
20
-0.2896845
40
0.2287994
50
227.7653015
51
257.8763321
0
ARC
8
DEFAULT_255_1_388
10
5.4359656
20
-0.1836039
40
0.3378385
50
257.4583525
51
270.4267406
0
ARC
8
DEFAULT_255_1_388
10
5.4410906
20
-0.150977
40
0.3704652
50
269.5965319
51
280.8788143
0
ARC
8
DEFAULT_255_1_388
10
5.4669134
20
-0.2799471
40
0.2389415
50
280.6347277
51
299.8594068
0
ARC
8
DEFAULT_255_1_388
10
5.4883903
20
-0.3207264
40
0.19289
50
300.3575552
51
314.5515667
0
ARC
8
DEFAULT_255_1_388
10
5.4790579
20
-0.3138975
40
0.204312
50
315.0730962
51
345.0429362
0
ARC
8
DEFAULT_255_1_388
10
5.3752087
20
-0.2836461
40
0.31246
50
344.598526
51
357.9270698
0
ARC
8
DEFAULT_255_1_388
10
5.2742391
20
-0.2767295
40
0.4136265
50
357.4755098
51
0.0224936
0
ARC
8
DEFAULT_255_1_388
10
5.3895269
20
-0.2739901
40
0.2983498
50
359.5051035
51
13.4236939
0
ARC
8
DEFAULT_255_1_388
10
5.4870359
20
-0.2490363
40
0.1977186
50
12.9497905
51
48.7550905
0
ARC
8
DEFAULT_255_1_388
10
5.4665281
20
-0.2770627
40
0.2323321
50
49.509109
51
72.1832965
0
ARC
8
DEFAULT_255_1_388
10
5.4262749
20
-0.3965368
40
0.358397
50
71.9008458
51
84.3555134
0
ARC
8
DEFAULT_255_1_388
10
5.4081144
20
-0.5497288
40
0.512641
50
84.019632
51
89.3326067
0
LINE
8
DEFAULT_255_1_388
10
6.8959313
20
-0.6398
11
6.6104049
21
-0.1076005
0
LINE
8
DEFAULT_255_1_388
10
6.6104049
20
-0.1076005
11
6.3013859
21
-0.1076005
0
LINE
8
DEFAULT_255_1_388
10
6.3013859
20
-0.1076005
11
6.3013859
21
-0.6398
0
LINE
8
DEFAULT_255_1_388
10
6.3013859
20
-0.6398
11
6.1269979
21
-0.6398
0
LINE
8
DEFAULT_255_1_388
10
6.1269979
20
-0.6398
11
6.1269979
21
0.6757898
0
LINE
8
DEFAULT_255_1_388
10
6.1269979
20
0.6757898
11
6.562516
21
0.6757898
0
LINE
8
DEFAULT_255_1_388
10
6.7730465
20
-0.0705544
11
7.0820656
21
-0.6289572
0
LINE
8
DEFAULT_255_1_388
10
7.0820656
20
-0.6289572
11
7.0820656
21
-0.6398
0
LINE
8
DEFAULT_255_1_388
10
7.0820656
20
-0.6398
11
6.8959313
21
-0.6398
0
LINE
8
DEFAULT_255_1_388
10
6.3013859
20
0.5330267
11
6.3013859
21
0.0342591
0
LINE
8
DEFAULT_255_1_388
10
6.3013859
20
0.0342591
11
6.5679374
21
0.0342591
0
LINE
8
DEFAULT_255_1_388
10
6.5670338
20
0.5330267
11
6.3013859
21
0.5330267
0
ARC
8
DEFAULT_255_1_388
10
6.5672006
20
-0.1073654
40
0.7831693
50
80.6535681
51
90.3427203
0
ARC
8
DEFAULT_255_1_388
10
6.6143917
20
0.1696722
40
0.5021479
50
65.6987674
51
80.8330164
0
ARC
8
DEFAULT_255_1_388
10
6.668121
20
0.2928479
40
0.3677787
50
50.0019152
51
65.4304412
0
ARC
8
DEFAULT_255_1_388
10
6.6927027
20
0.3260603
40
0.3265454
50
11.6284215
51
49.5603681
0
ARC
8
DEFAULT_255_1_388
10
6.5199513
20
0.2838524
40
0.5043009
50
359.5655533
51
12.3693319
0
ARC
8
DEFAULT_255_1_388
10
6.6410849
20
0.2768038
40
0.3831661
50
341.998418
51
0.4822212
0
ARC
8
DEFAULT_255_1_388
10
6.6855035
20
0.2647479
40
0.3372036
50
323.8610842
51
341.6141514
0
ARC
8
DEFAULT_255_1_388
10
6.6515581
20
0.2909615
40
0.3800784
50
296.7019299
51
323.6876213
0
ARC
8
DEFAULT_255_1_388
10
6.6019539
20
0.3796532
40
0.4816219
50
290.808313
51
297.2325929
0
ARC
8
DEFAULT_255_1_388
10
6.5708333
20
0.4385377
40
0.404289
50
269.5895908
51
281.8058892
0
ARC
8
DEFAULT_255_1_388
10
6.5990599
20
0.309436
40
0.2721459
50
281.5499321
51
303.9358954
0
ARC
8
DEFAULT_255_1_388
10
6.6145134
20
0.2826588
40
0.2413121
50
304.4410786
51
311.211123
0
ARC
8
DEFAULT_255_1_388
10
6.6293539
20
0.2670152
40
0.2197678
50
310.9874923
51
356.2715203
0
ARC
8
DEFAULT_255_1_388
10
6.5443285
20
0.2796992
40
0.3055212
50
354.9346315
51
0.0617816
0
ARC
8
DEFAULT_255_1_388
10
6.5232126
20
0.2827427
40
0.3266482
50
359.5239293
51
12.8808621
0
ARC
8
DEFAULT_255_1_388
10
6.6331889
20
0.3096638
40
0.2134449
50
12.417206
51
43.1023141
0
ARC
8
DEFAULT_255_1_388
10
6.6401219
20
0.3138253
40
0.2055463
50
43.575886
51
48.2047245
0
ARC
8
DEFAULT_255_1_388
10
6.621048
20
0.2889151
40
0.2368418
50
48.7809155
51
72.6968768
0
ARC
8
DEFAULT_255_1_388
10
6.5811844
20
0.1679385
40
0.364206
50
72.3699892
51
84.8793749
0
ARC
8
DEFAULT_255_1_388
10
6.564585
20
0.0169651
40
0.5160674
50
84.5398226
51
89.7281165
0
LINE
8
DEFAULT_255_1_388
10
8.0678544
20
-0.6398
11
7.6016151
21
-0.0280869
0
LINE
8
DEFAULT_255_1_388
10
7.6016151
20
-0.0280869
11
7.4407807
21
-0.1952463
0
LINE
8
DEFAULT_255_1_388
10
7.4407807
20
-0.1952463
11
7.4407807
21
-0.6398
0
LINE
8
DEFAULT_255_1_388
10
7.4407807
20
-0.6398
11
7.2672963
21
-0.6398
0
LINE
8
DEFAULT_255_1_388
10
7.2672963
20
-0.6398
11
7.2672963
21
0.6757898
0
LINE
8
DEFAULT_255_1_388
10
7.2672963
20
0.6757898
11
7.4407807
21
0.6757898
0
LINE
8
DEFAULT_255_1_388
10
7.4407807
20
0.6757898
11
7.4407807
21
0.0252234
0
LINE
8
DEFAULT_255_1_388
10
7.4407807
20
0.0252234
11
8.0253869
21
0.6757898
0
LINE
8
DEFAULT_255_1_388
10
8.0253869
20
0.6757898
11
8.2350138
21
0.6757898
0
LINE
8
DEFAULT_255_1_388
10
8.2350138
20
0.6757898
11
7.7172714
21
0.0947979
0
LINE
8
DEFAULT_255_1_388
10
7.7172714
20
0.0947979
11
8.2756742
21
-0.6398
0
LINE
8
DEFAULT_255_1_388
10
8.2756742
20
-0.6398
11
8.0678544
21
-0.6398
0
LINE
8
DEFAULT_255_1_388
10
9.2334525
20
0.6757898
11
9.2334525
21
0.5818191
0
LINE
8
DEFAULT_255_1_388
10
9.2334525
20
0.5818191
11
8.6886032
21
-0.6398
0
LINE
8
DEFAULT_255_1_388
10
8.6886032
20
-0.6398
11
8.5133117
21
-0.6398
0
LINE
8
DEFAULT_255_1_388
10
8.5133117
20
-0.6398
11
9.0563539
21
0.538448
0
LINE
8
DEFAULT_255_1_388
10
9.0563539
20
0.538448
11
8.3443451
21
0.538448
0
LINE
8
DEFAULT_255_1_388
10
8.3443451
20
0.538448
11
8.3443451
21
0.6757898
0
LINE
8
DEFAULT_255_1_388
10
8.3443451
20
0.6757898
11
9.2334525
21
0.6757898
0
LINE
8
DEFAULT_255_1_388
10
10.2852016
20
-0.5033618
11
10.2852016
21
-0.6398
0
LINE
8
DEFAULT_255_1_388
10
10.2852016
20
-0.6398
11
9.4232011
21
-0.6398
0
LINE
8
DEFAULT_255_1_388
10
9.4232011
20
-0.6398
11
9.4232011
21
-0.5196259
0
LINE
8
DEFAULT_255_1_388
10
9.4232011
20
-0.5196259
11
9.8785976
21
-0.0136298
0
LINE
8
DEFAULT_255_1_388
10
9.5650607
20
0.2881607
11
9.3979013
21
0.2881607
0
LINE
8
DEFAULT_255_1_388
10
9.9770861
20
-0.121154
11
9.6246959
21
-0.5033618
0
LINE
8
DEFAULT_255_1_388
10
9.6246959
20
-0.5033618
11
10.2852016
21
-0.5033618
0
ARC
8
DEFAULT_255_1_388
10
8.3610035
20
1.3283983
40
2.0258655
50
318.5132526
51
320.7829045
0
ARC
8
DEFAULT_255_1_388
10
8.9557992
20
0.8442929
40
1.2589638
50
320.7372878
51
323.9739031
0
ARC
8
DEFAULT_255_1_388
10
9.3966924
20
0.5248554
40
0.7145141
50
323.8962701
51
328.64194
0
ARC
8
DEFAULT_255_1_388
10
9.6269181
20
0.3828545
40
0.4440242
50
328.8294576
51
331.7891185
0
ARC
8
DEFAULT_255_1_388
10
9.7391501
20
0.3249374
40
0.3177517
50
331.4254512
51
352.9365785
0
ARC
8
DEFAULT_255_1_388
10
9.7544501
20
0.321505
40
0.3021496
50
353.2257659
51
0.0166158
0
ARC
8
DEFAULT_255_1_388
10
9.7781262
20
0.3240894
40
0.2784847
50
359.486299
51
15.9343185
0
ARC
8
DEFAULT_255_1_388
10
9.8351529
20
0.3394269
40
0.2194403
50
16.1712913
51
43.5286088
0
ARC
8
DEFAULT_255_1_388
10
9.8438473
20
0.3481191
40
0.2071504
50
43.4417391
51
83.1661095
0
ARC
8
DEFAULT_255_1_388
10
9.8287634
20
0.2652316
40
0.2912888
50
82.160179
51
90.1505708
0
ARC
8
DEFAULT_255_1_388
10
9.8252116
20
0.2048279
40
0.3517025
50
89.5460741
51
102.5418361
0
ARC
8
DEFAULT_255_1_388
10
9.7978836
20
0.3207933
40
0.2325748
50
102.1738499
51
129.206123
0
ARC
8
DEFAULT_255_1_388
10
9.7890289
20
0.3347664
40
0.2161591
50
129.72865
51
135.753947
0
ARC
8
DEFAULT_255_1_388
10
9.8026772
20
0.3238728
40
0.2335433
50
136.1757367
51
166.3673339
0
ARC
8
DEFAULT_255_1_388
10
9.915946
20
0.2935148
40
0.3507873
50
165.9090694
51
178.8684636
0
ARC
8
DEFAULT_255_1_388
10
10.0135231
20
0.2882263
40
0.4484624
50
178.4391136
51
180.0083808
0
ARC
8
DEFAULT_255_1_388
10
9.8555933
20
0.2926197
40
0.4577138
50
163.2878482
51
180.5581842
0
ARC
8
DEFAULT_255_1_388
10
9.7653974
20
0.3174393
40
0.3641968
50
133.4540601
51
162.947111
0
ARC
8
DEFAULT_255_1_388
10
9.7854856
20
0.2960789
40
0.3935189
50
100.7869829
51
133.4382499
0
ARC
8
DEFAULT_255_1_388
10
9.8246101
20
0.1218399
40
0.5720313
50
89.660664
51
101.3702276
0
ARC
8
DEFAULT_255_1_388
10
9.832071
20
0.1287263
40
0.5651495
50
78.2172678
51
90.412935
0
ARC
8
DEFAULT_255_1_388
10
9.8720176
20
0.3114511
40
0.378122
50
55.9269121
51
78.4888449
0
ARC
8
DEFAULT_255_1_388
10
9.8940891
20
0.3495187
40
0.3342379
50
47.929771
51
55.4049217
0
ARC
8
DEFAULT_255_1_388
10
9.9055421
20
0.3611618
40
0.3179217
50
4.334829
51
48.0560205
0
ARC
8
DEFAULT_255_1_388
10
9.7823223
20
0.3420487
40
0.442341
50
359.9251713
51
5.5971671
0
ARC
8
DEFAULT_255_1_388
10
9.8305377
20
0.3483728
40
0.3941854
50
337.8914027
51
358.9967534
0
ARC
8
DEFAULT_255_1_388
10
9.5252948
20
0.4661295
40
0.7213271
50
326.9132501
51
338.3508308
0
ARC
8
DEFAULT_255_1_388
10
9.0769059
20
0.7535105
40
1.2538973
50
319.6471833
51
327.0959558
0
ARC
8
DEFAULT_255_1_388
10
8.6455718
20
1.109305
40
1.8129975
50
317.2588228
51
319.9045804
0
LINE
8
DEFAULT_255_1_388
10
11.167984
20
0.6757898
11
11.167984
21
-0.197957
0
LINE
8
DEFAULT_255_1_388
10
11.167984
20
-0.197957
11
11.3505041
21
-0.197957
0
LINE
8
DEFAULT_255_1_388
10
11.3505041
20
-0.197957
11
11.3505041
21
-0.3343952
0
LINE
8
DEFAULT_255_1_388
10
11.3505041
20
-0.3343952
11
11.167984
21
-0.3343952
0
LINE
8
DEFAULT_255_1_388
10
11.167984
20
-0.3343952
11
11.167984
21
-0.6398
0
LINE
8
DEFAULT_255_1_388
10
11.167984
20
-0.6398
11
10.999921
21
-0.6398
0
LINE
8
DEFAULT_255_1_388
10
10.999921
20
-0.6398
11
10.999921
21
-0.3343952
0
LINE
8
DEFAULT_255_1_388
10
10.999921
20
-0.3343952
11
10.4008578
21
-0.3343952
0
LINE
8
DEFAULT_255_1_388
10
10.4008578
20
-0.3343952
11
10.4008578
21
-0.2359067
0
LINE
8
DEFAULT_255_1_388
10
10.4008578
20
-0.2359067
11
10.9899818
21
0.6757898
0
LINE
8
DEFAULT_255_1_388
10
10.9899818
20
0.6757898
11
11.167984
21
0.6757898
0
LINE
8
DEFAULT_255_1_388
10
10.9800426
20
0.4110455
11
10.5906063
21
-0.197957
0
LINE
8
DEFAULT_255_1_388
10
10.5906063
20
-0.197957
11
10.999921
21
-0.197957
0
LINE
8
DEFAULT_255_1_388
10
10.999921
20
-0.197957
11
10.999921
21
0.447188
0
LINE
8
DEFAULT_255_1_388
10
10.999921
20
0.447188
11
10.9800426
21
0.4110455
0
LINE
8
DEFAULT_255_1_388
10
11.7444582
20
-0.0371225
11
11.7444582
21
0.0993157
0
LINE
8
DEFAULT_255_1_388
10
11.7444582
20
0.0993157
11
11.8700536
21
0.0993157
0
LINE
8
DEFAULT_255_1_388
10
11.6559088
20
0.3306282
11
11.4887494
21
0.3306282
0
LINE
8
DEFAULT_255_1_388
10
11.4770031
20
-0.2928313
11
11.6450661
21
-0.2928313
0
LINE
8
DEFAULT_255_1_388
10
11.8700536
20
-0.0371225
11
11.7444582
21
-0.0371225
0
ARC
8
DEFAULT_255_1_388
10
11.8667763
20
0.4809922
40
0.3816905
50
270.491971
51
281.8953028
0
ARC
8
DEFAULT_255_1_388
10
11.893919
20
0.3570199
40
0.2547877
50
281.6690378
51
301.2943765
0
ARC
8
DEFAULT_255_1_388
10
11.9130641
20
0.3219926
40
0.2149197
50
301.7834992
51
311.754567
0
ARC
8
DEFAULT_255_1_388
10
11.9233682
20
0.310565
40
0.1995326
50
311.7325027
51
354.2803031
0
ARC
8
DEFAULT_255_1_388
10
11.8416098
20
0.324628
40
0.2823461
50
353.0941646
51
0.1174696
0
ARC
8
DEFAULT_255_1_388
10
11.7897656
20
0.3299874
40
0.3342238
50
359.1804452
51
15.0452323
0
ARC
8
DEFAULT_255_1_388
10
11.9411714
20
0.3741546
40
0.1765747
50
13.957816
51
77.6713812
0
ARC
8
DEFAULT_255_1_388
10
11.897695
20
0.2183464
40
0.3381982
50
76.111571
51
90.7028736
0
ARC
8
DEFAULT_255_1_388
10
11.8910362
20
0.249125
40
0.3074046
50
89.5321574
51
103.5319393
0
ARC
8
DEFAULT_255_1_388
10
11.8684746
20
0.3390443
40
0.2147041
50
103.2930114
51
133.5619756
0
ARC
8
DEFAULT_255_1_388
10
11.8634688
20
0.3457351
40
0.2064084
50
133.8349761
51
173.5343225
0
ARC
8
DEFAULT_255_1_388
10
11.9448345
20
0.3313144
40
0.2889266
50
172.5097183
51
180.1360699
0
ARC
8
DEFAULT_255_1_388
10
11.8378109
20
0.335188
40
0.3490913
50
155.3483706
51
180.7484035
0
ARC
8
DEFAULT_255_1_388
10
11.8323085
20
0.3319519
40
0.3454798
50
131.5745177
51
154.4799474
0
ARC
8
DEFAULT_255_1_388
10
11.8675367
20
0.2963422
40
0.3955058
50
96.9874487
51
131.9690874
0
ARC
8
DEFAULT_255_1_388
10
11.892226
20
0.1562407
40
0.537622
50
89.8592909
51
97.7827481
0
ARC
8
DEFAULT_255_1_388
10
11.8976369
20
0.126736
40
0.5671399
50
78.3654493
51
90.4132586
0
ARC
8
DEFAULT_255_1_388
10
11.937901
20
0.3133918
40
0.3762034
50
56.6229818
51
78.6387103
0
ARC
8
DEFAULT_255_1_388
10
11.9620839
20
0.3556846
40
0.3275964
50
47.0254604
51
56.085558
0
ARC
8
DEFAULT_255_1_388
10
11.964309
20
0.3601189
40
0.3228382
50
10.9207523
51
46.777927
0
ARC
8
DEFAULT_255_1_388
10
11.8108684
20
0.3246401
40
0.4802559
50
359.6364235
51
11.6087615
0
ARC
8
DEFAULT_255_1_388
10
12.017285
20
0.3229404
40
0.273833
50
332.3549969
51
359.7179765
0
ARC
8
DEFAULT_255_1_388
10
11.944125
20
0.3576285
40
0.3547505
50
325.2332381
51
332.8746682
0
ARC
8
DEFAULT_255_1_388
10
11.9612833
20
0.3456763
40
0.3338396
50
292.9803892
51
325.2391113
0
ARC
8
DEFAULT_255_1_388
10
11.9302029
20
0.4061679
40
0.4016959
50
292.542178
51
293.6931461
0
ARC
8
DEFAULT_255_1_388
10
11.9745601
20
-0.3203964
40
0.372079
50
57.643292
51
72.8626085
0
ARC
8
DEFAULT_255_1_388
10
12.0144436
20
-0.2557727
40
0.2961455
50
36.7246661
51
57.4701329
0
ARC
8
DEFAULT_255_1_388
10
12.0131592
20
-0.254353
40
0.2963321
50
8.054535
51
36.3561529
0
ARC
8
DEFAULT_255_1_388
10
11.9161265
20
-0.2717927
40
0.3948682
50
359.8316595
51
8.5873361
0
ARC
8
DEFAULT_255_1_388
10
11.8738739
20
-0.277203
40
0.4371398
50
343.9831631
51
0.557075
0
ARC
8
DEFAULT_255_1_388
10
11.9735789
20
-0.3045037
40
0.3337749
50
311.6358204
51
343.7652116
0
ARC
8
DEFAULT_255_1_388
10
11.9310042
20
-0.2565045
40
0.3979351
50
279.7829743
51
311.625622
0
ARC
8
DEFAULT_255_1_388
10
11.8971178
20
-0.0948358
40
0.5630417
50
269.7285092
51
280.3857694
0
ARC
8
DEFAULT_255_1_388
10
11.8901491
20
-0.0994759
40
0.5584119
50
256.6827433
51
270.4412869
0
ARC
8
DEFAULT_255_1_388
10
11.8520477
20
-0.2552302
40
0.3980715
50
229.4223821
51
256.8554507
0
ARC
8
DEFAULT_255_1_388
10
11.805403
20
-0.3077317
40
0.3278564
50
181.8183354
51
229.6455015
0
ARC
8
DEFAULT_255_1_388
10
11.922364
20
-0.2930175
40
0.4453611
50
179.9760419
51
183.2330638
0
ARC
8
DEFAULT_255_1_388
10
11.9030192
20
-0.2953219
40
0.2579652
50
179.4467996
51
196.2871626
0
ARC
8
DEFAULT_255_1_388
10
11.8481646
20
-0.3103291
40
0.2011057
50
196.5661293
51
227.7059371
0
ARC
8
DEFAULT_255_1_388
10
11.8666253
20
-0.2896845
40
0.2287994
50
227.7653015
51
257.8763321
0
ARC
8
DEFAULT_255_1_388
10
11.8919336
20
-0.1836039
40
0.3378385
50
257.4583525
51
270.4267406
0
ARC
8
DEFAULT_255_1_388
10
11.8970586
20
-0.150977
40
0.3704652
50
269.5965319
51
280.8788143
0
ARC
8
DEFAULT_255_1_388
10
11.9228814
20
-0.2799471
40
0.2389415
50
280.6347277
51
299.8594068
0
ARC
8
DEFAULT_255_1_388
10
11.9443584
20
-0.3207264
40
0.19289
50
300.3575552
51
314.5515667
0
ARC
8
DEFAULT_255_1_388
10
11.9350259
20
-0.3138975
40
0.204312
50
315.0730962
51
345.0429362
0
ARC
8
DEFAULT_255_1_388
10
11.8311767
20
-0.2836461
40
0.31246
50
344.598526
51
357.9270698
0
ARC
8
DEFAULT_255_1_388
10
11.7302072
20
-0.2767295
40
0.4136265
50
357.4755098
51
0.0224936
0
ARC
8
DEFAULT_255_1_388
10
11.8454949
20
-0.2739901
40
0.2983498
50
359.5051035
51
13.4236939
0
ARC
8
DEFAULT_255_1_388
10
11.9430039
20
-0.2490363
40
0.1977186
50
12.9497905
51
48.7550905
0
ARC
8
DEFAULT_255_1_388
10
11.9224961
20
-0.2770627
40
0.2323321
50
49.509109
51
72.1832965
0
ARC
8
DEFAULT_255_1_388
10
11.8822429
20
-0.3965368
40
0.358397
50
71.9008458
51
84.3555134
0
ARC
8
DEFAULT_255_1_388
10
11.8640824
20
-0.5497288
40
0.512641
50
84.019632
51
89.3326067
0
LINE
8
DEFAULT_255_1_388
10
12.9055385
20
-0.0127263
11
12.9055385
21
-0.1491645
0
LINE
8
DEFAULT_255_1_388
10
12.9055385
20
-0.1491645
11
12.464599
21
-0.1491645
0
LINE
8
DEFAULT_255_1_388
10
12.464599
20
-0.1491645
11
12.464599
21
-0.0127263
0
LINE
8
DEFAULT_255_1_388
10
12.464599
20
-0.0127263
11
12.9055385
21
-0.0127263
0
LINE
8
DEFAULT_255_1_388
10
13.9130128
20
-0.5033618
11
13.9130128
21
-0.6398
0
LINE
8
DEFAULT_255_1_388
10
13.9130128
20
-0.6398
11
13.0510124
21
-0.6398
0
LINE
8
DEFAULT_255_1_388
10
13.0510124
20
-0.6398
11
13.0510124
21
-0.5196259
0
LINE
8
DEFAULT_255_1_388
10
13.0510124
20
-0.5196259
11
13.5064088
21
-0.0136298
0
LINE
8
DEFAULT_255_1_388
10
13.192872
20
0.2881607
11
13.0257125
21
0.2881607
0
LINE
8
DEFAULT_255_1_388
10
13.6048974
20
-0.121154
11
13.2525072
21
-0.5033618
0
LINE
8
DEFAULT_255_1_388
10
13.2525072
20
-0.5033618
11
13.9130128
21
-0.5033618
0
ARC
8
DEFAULT_255_1_388
10
11.9888148
20
1.3283983
40
2.0258655
50
318.5132526
51
320.7829045
0
ARC
8
DEFAULT_255_1_388
10
12.5836105
20
0.8442929
40
1.2589638
50
320.7372878
51
323.9739031
0
ARC
8
DEFAULT_255_1_388
10
13.0245036
20
0.5248554
40
0.7145141
50
323.8962701
51
328.64194
0
ARC
8
DEFAULT_255_1_388
10
13.2547294
20
0.3828545
40
0.4440242
50
328.8294576
51
331.7891185
0
ARC
8
DEFAULT_255_1_388
10
13.3669614
20
0.3249374
40
0.3177517
50
331.4254512
51
352.9365785
0
ARC
8
DEFAULT_255_1_388
10
13.3822614
20
0.321505
40
0.3021496
50
353.2257659
51
0.0166158
0
ARC
8
DEFAULT_255_1_388
10
13.4059375
20
0.3240894
40
0.2784847
50
359.486299
51
15.9343185
0
ARC
8
DEFAULT_255_1_388
10
13.4629642
20
0.3394269
40
0.2194403
50
16.1712913
51
43.5286088
0
ARC
8
DEFAULT_255_1_388
10
13.4716586
20
0.3481191
40
0.2071504
50
43.4417391
51
83.1661095
0
ARC
8
DEFAULT_255_1_388
10
13.4565747
20
0.2652316
40
0.2912888
50
82.160179
51
90.1505708
0
ARC
8
DEFAULT_255_1_388
10
13.4530229
20
0.2048279
40
0.3517025
50
89.5460741
51
102.5418361
0
ARC
8
DEFAULT_255_1_388
10
13.4256949
20
0.3207933
40
0.2325748
50
102.1738499
51
129.206123
0
ARC
8
DEFAULT_255_1_388
10
13.4168402
20
0.3347664
40
0.2161591
50
129.72865
51
135.753947
0
ARC
8
DEFAULT_255_1_388
10
13.4304884
20
0.3238728
40
0.2335433
50
136.1757367
51
166.3673339
0
ARC
8
DEFAULT_255_1_388
10
13.5437573
20
0.2935148
40
0.3507873
50
165.9090694
51
178.8684636
0
ARC
8
DEFAULT_255_1_388
10
13.6413344
20
0.2882263
40
0.4484624
50
178.4391136
51
180.0083808
0
ARC
8
DEFAULT_255_1_388
10
13.4834046
20
0.2926197
40
0.4577138
50
163.2878482
51
180.5581842
0
ARC
8
DEFAULT_255_1_388
10
13.3932087
20
0.3174393
40
0.3641968
50
133.4540601
51
162.947111
0
ARC
8
DEFAULT_255_1_388
10
13.4132969
20
0.2960789
40
0.3935189
50
100.7869829
51
133.4382499
0
ARC
8
DEFAULT_255_1_388
10
13.4524214
20
0.1218399
40
0.5720313
50
89.660664
51
101.3702276
0
ARC
8
DEFAULT_255_1_388
10
13.4598823
20
0.1287263
40
0.5651495
50
78.2172678
51
90.412935
0
ARC
8
DEFAULT_255_1_388
10
13.4998288
20
0.3114511
40
0.378122
50
55.9269121
51
78.4888449
0
ARC
8
DEFAULT_255_1_388
10
13.5219004
20
0.3495187
40
0.3342379
50
47.929771
51
55.4049217
0
ARC
8
DEFAULT_255_1_388
10
13.5333534
20
0.3611618
40
0.3179217
50
4.334829
51
48.0560205
0
ARC
8
DEFAULT_255_1_388
10
13.4101336
20
0.3420487
40
0.442341
50
359.9251713
51
5.5971671
0
ARC
8
DEFAULT_255_1_388
10
13.458349
20
0.3483728
40
0.3941854
50
337.8914027
51
358.9967534
0
ARC
8
DEFAULT_255_1_388
10
13.153106
20
0.4661295
40
0.7213271
50
326.9132501
51
338.3508308
0
ARC
8
DEFAULT_255_1_388
10
12.7047172
20
0.7535105
40
1.2538973
50
319.6471833
51
327.0959558
0
ARC
8
DEFAULT_255_1_388
10
12.273383
20
1.109305
40
1.8129975
50
317.2588228
51
319.9045804
0
LINE
8
DEFAULT_255_1_388
10
14.9855438
20
-0.6398
11
14.8599484
21
-0.2964455
0
LINE
8
DEFAULT_255_1_388
10
14.8599484
20
-0.2964455
11
14.3087741
21
-0.2964455
0
LINE
8
DEFAULT_255_1_388
10
14.3087741
20
-0.2964455
11
14.1849857
21
-0.6398
0
LINE
8
DEFAULT_255_1_388
10
14.1849857
20
-0.6398
11
14.00608
21
-0.6398
0
LINE
8
DEFAULT_255_1_388
10
14.00608
20
-0.6398
11
14.5084618
21
0.6757898
0
LINE
8
DEFAULT_255_1_388
10
14.5084618
20
0.6757898
11
14.6602606
21
0.6757898
0
LINE
8
DEFAULT_255_1_388
10
14.6602606
20
0.6757898
11
15.163546
21
-0.6398
0
LINE
8
DEFAULT_255_1_388
10
15.163546
20
-0.6398
11
14.9855438
21
-0.6398
0
LINE
8
DEFAULT_255_1_388
10
14.5843612
20
0.4616451
11
14.3611808
21
-0.1536823
0
LINE
8
DEFAULT_255_1_388
10
14.3611808
20
-0.1536823
11
14.8084452
21
-0.1536823
0
LINE
8
DEFAULT_255_1_388
10
14.8084452
20
-0.1536823
11
14.5843612
21
0.4616451
0
LINE
8
DEFAULT_255_1_388
10
16.192706
20
-0.6398
11
16.0671105
21
-0.2964455
0
LINE
8
DEFAULT_255_1_388
10
16.0671105
20
-0.2964455
11
15.5159362
21
-0.2964455
0
LINE
8
DEFAULT_255_1_388
10
15.5159362
20
-0.2964455
11
15.3921479
21
-0.6398
0
LINE
8
DEFAULT_255_1_388
10
15.3921479
20
-0.6398
11
15.2132421
21
-0.6398
0
LINE
8
DEFAULT_255_1_388
10
15.2132421
20
-0.6398
11
15.7156239
21
0.6757898
0
LINE
8
DEFAULT_255_1_388
10
15.7156239
20
0.6757898
11
15.8674228
21
0.6757898
0
LINE
8
DEFAULT_255_1_388
10
15.8674228
20
0.6757898
11
16.3707082
21
-0.6398
0
LINE
8
DEFAULT_255_1_388
10
16.3707082
20
-0.6398
11
16.192706
21
-0.6398
0
LINE
8
DEFAULT_255_1_388
10
15.7915233
20
0.4616451
11
15.5683429
21
-0.1536823
0
LINE
8
DEFAULT_255_1_388
10
15.5683429
20
-0.1536823
11
16.0156073
21
-0.1536823
0
LINE
8
DEFAULT_255_1_388
10
16.0156073
20
-0.1536823
11
15.7915233
21
0.4616451
0
LINE
8
DEFAULT_255_1_388
10
16.7474945
20
-0.0371225
11
16.7474945
21
0.0993157
0
LINE
8
DEFAULT_255_1_388
10
16.7474945
20
0.0993157
11
16.87309
21
0.0993157
0
LINE
8
DEFAULT_255_1_388
10
16.6589452
20
0.3306282
11
16.4917858
21
0.3306282
0
LINE
8
DEFAULT_255_1_388
10
16.4800395
20
-0.2928313
11
16.6481024
21
-0.2928313
0
LINE
8
DEFAULT_255_1_388
10
16.87309
20
-0.0371225
11
16.7474945
21
-0.0371225
0
ARC
8
DEFAULT_255_1_388
10
16.8698126
20
0.4809922
40
0.3816905
50
270.491971
51
281.8953028
0
ARC
8
DEFAULT_255_1_388
10
16.8969553
20
0.3570199
40
0.2547877
50
281.6690378
51
301.2943765
0
ARC
8
DEFAULT_255_1_388
10
16.9161005
20
0.3219926
40
0.2149197
50
301.7834992
51
311.754567
0
ARC
8
DEFAULT_255_1_388
10
16.9264046
20
0.310565
40
0.1995326
50
311.7325027
51
354.2803031
0
ARC
8
DEFAULT_255_1_388
10
16.8446462
20
0.324628
40
0.2823461
50
353.0941646
51
0.1174696
0
ARC
8
DEFAULT_255_1_388
10
16.792802
20
0.3299874
40
0.3342238
50
359.1804452
51
15.0452323
0
ARC
8
DEFAULT_255_1_388
10
16.9442078
20
0.3741546
40
0.1765747
50
13.957816
51
77.6713812
0
ARC
8
DEFAULT_255_1_388
10
16.9007314
20
0.2183464
40
0.3381982
50
76.111571
51
90.7028736
0
ARC
8
DEFAULT_255_1_388
10
16.8940726
20
0.249125
40
0.3074046
50
89.5321574
51
103.5319393
0
ARC
8
DEFAULT_255_1_388
10
16.871511
20
0.3390443
40
0.2147041
50
103.2930114
51
133.5619756
0
ARC
8
DEFAULT_255_1_388
10
16.8665051
20
0.3457351
40
0.2064084
50
133.8349761
51
173.5343225
0
ARC
8
DEFAULT_255_1_388
10
16.9478709
20
0.3313144
40
0.2889266
50
172.5097183
51
180.1360699
0
ARC
8
DEFAULT_255_1_388
10
16.8408473
20
0.335188
40
0.3490913
50
155.3483706
51
180.7484035
0
ARC
8
DEFAULT_255_1_388
10
16.8353448
20
0.3319519
40
0.3454798
50
131.5745177
51
154.4799474
0
ARC
8
DEFAULT_255_1_388
10
16.8705731
20
0.2963422
40
0.3955058
50
96.9874487
51
131.9690874
0
ARC
8
DEFAULT_255_1_388
10
16.8952624
20
0.1562407
40
0.537622
50
89.8592909
51
97.7827481
0
ARC
8
DEFAULT_255_1_388
10
16.9006733
20
0.126736
40
0.5671399
50
78.3654493
51
90.4132586
0
ARC
8
DEFAULT_255_1_388
10
16.9409374
20
0.3133918
40
0.3762034
50
56.6229818
51
78.6387103
0
ARC
8
DEFAULT_255_1_388
10
16.9651203
20
0.3556846
40
0.3275964
50
47.0254604
51
56.085558
0
ARC
8
DEFAULT_255_1_388
10
16.9673454
20
0.3601189
40
0.3228382
50
10.9207523
51
46.777927
0
ARC
8
DEFAULT_255_1_388
10
16.8139048
20
0.3246401
40
0.4802559
50
359.6364235
51
11.6087615
0
ARC
8
DEFAULT_255_1_388
10
17.0203214
20
0.3229404
40
0.273833
50
332.3549969
51
359.7179765
0
ARC
8
DEFAULT_255_1_388
10
16.9471614
20
0.3576285
40
0.3547505
50
325.2332381
51
332.8746682
0
ARC
8
DEFAULT_255_1_388
10
16.9643197
20
0.3456763
40
0.3338396
50
292.9803892
51
325.2391113
0
ARC
8
DEFAULT_255_1_388
10
16.9332393
20
0.4061679
40
0.4016959
50
292.542178
51
293.6931461
0
ARC
8
DEFAULT_255_1_388
10
16.9775965
20
-0.3203964
40
0.372079
50
57.643292
51
72.8626085
0
ARC
8
DEFAULT_255_1_388
10
17.0174799
20
-0.2557727
40
0.2961455
50
36.7246661
51
57.4701329
0
ARC
8
DEFAULT_255_1_388
10
17.0161956
20
-0.254353
40
0.2963321
50
8.054535
51
36.3561529
0
ARC
8
DEFAULT_255_1_388
10
16.9191629
20
-0.2717927
40
0.3948682
50
359.8316595
51
8.5873361
0
ARC
8
DEFAULT_255_1_388
10
16.8769103
20
-0.277203
40
0.4371398
50
343.9831631
51
0.557075
0
ARC
8
DEFAULT_255_1_388
10
16.9766152
20
-0.3045037
40
0.3337749
50
311.6358204
51
343.7652116
0
ARC
8
DEFAULT_255_1_388
10
16.9340406
20
-0.2565045
40
0.3979351
50
279.7829743
51
311.625622
0
ARC
8
DEFAULT_255_1_388
10
16.9001541
20
-0.0948358
40
0.5630417
50
269.7285092
51
280.3857694
0
ARC
8
DEFAULT_255_1_388
10
16.8931854
20
-0.0994759
40
0.5584119
50
256.6827433
51
270.4412869
0
ARC
8
DEFAULT_255_1_388
10
16.8550841
20
-0.2552302
40
0.3980715
50
229.4223821
51
256.8554507
0
ARC
8
DEFAULT_255_1_388
10
16.8084394
20
-0.3077317
40
0.3278564
50
181.8183354
51
229.6455015
0
ARC
8
DEFAULT_255_1_388
10
16.9254004
20
-0.2930175
40
0.4453611
50
179.9760419
51
183.2330638
0
ARC
8
DEFAULT_255_1_388
10
16.9060556
20
-0.2953219
40
0.2579652
50
179.4467996
51
196.2871626
0
ARC
8
DEFAULT_255_1_388
10
16.851201
20
-0.3103291
40
0.2011057
50
196.5661293
51
227.7059371
0
ARC
8
DEFAULT_255_1_388
10
16.8696617
20
-0.2896845
40
0.2287994
50
227.7653015
51
257.8763321
0
ARC
8
DEFAULT_255_1_388
10
16.89497
20
-0.1836039
40
0.3378385
50
257.4583525
51
270.4267406
0
ARC
8
DEFAULT_255_1_388
10
16.900095
20
-0.150977
40
0.3704652
50
269.5965319
51
280.8788143
0
ARC
8
DEFAULT_255_1_388
10
16.9259178
20
-0.2799471
40
0.2389415
50
280.6347277
51
299.8594068
0
ARC
8
DEFAULT_255_1_388
10
16.9473947
20
-0.3207264
40
0.19289
50
300.3575552
51
314.5515667
0
ARC
8
DEFAULT_255_1_388
10
16.9380623
20
-0.3138975
40
0.204312
50
315.0730962
51
345.0429362
0
ARC
8
DEFAULT_255_1_388
10
16.834213
20
-0.2836461
40
0.31246
50
344.598526
51
357.9270698
0
ARC
8
DEFAULT_255_1_388
10
16.7332435
20
-0.2767295
40
0.4136265
50
357.4755098
51
0.0224936
0
ARC
8
DEFAULT_255_1_388
10
16.8485313
20
-0.2739901
40
0.2983498
50
359.5051035
51
13.4236939
0
ARC
8
DEFAULT_255_1_388
10
16.9460403
20
-0.2490363
40
0.1977186
50
12.9497905
51
48.7550905
0
ARC
8
DEFAULT_255_1_388
10
16.9255325
20
-0.2770627
40
0.2323321
50
49.509109
51
72.1832965
0
ARC
8
DEFAULT_255_1_388
10
16.8852793
20
-0.3965368
40
0.358397
50
71.9008458
51
84.3555134
0
ARC
8
DEFAULT_255_1_388
10
16.8671188
20
-0.5497288
40
0.512641
50
84.019632
51
89.3326067
0
LINE
8
DEFAULT_255_1_388
10
18.3684892
20
0.138169
11
18.3684892
21
-0.0786865
0
LINE
8
DEFAULT_255_1_388
10
17.5381134
20
-0.1012756
11
17.5381134
21
0.1219048
0
LINE
8
DEFAULT_255_1_388
10
18.2013297
20
-0.1238647
11
18.2013297
21
0.1499153
0
LINE
8
DEFAULT_255_1_388
10
17.7052729
20
0.1625652
11
17.7052729
21
-0.1048898
0
ARC
8
DEFAULT_255_1_388
10
16.9907226
20
-0.0841882
40
1.3777776
50
353.8440855
51
0.2287917
0
ARC
8
DEFAULT_255_1_388
10
17.5126243
20
-0.1424586
40
0.852639
50
344.4934746
51
353.9763743
0
ARC
8
DEFAULT_255_1_388
10
17.849305
20
-0.2381809
40
0.5026273
50
329.2803599
51
344.7473406
0
ARC
8
DEFAULT_255_1_388
10
17.9608546
20
-0.2993962
40
0.3754848
50
324.9361395
51
328.6153007
0
ARC
8
DEFAULT_255_1_388
10
18.0034196
20
-0.3291414
40
0.3235566
50
280.5801797
51
324.9173226
0
ARC
8
DEFAULT_255_1_388
10
17.9582824
20
-0.1411764
40
0.5167077
50
269.5979457
51
281.6732777
0
ARC
8
DEFAULT_255_1_388
10
17.9501728
20
-0.1546887
40
0.5032026
50
256.6228565
51
270.5105488
0
ARC
8
DEFAULT_255_1_388
10
17.9049471
20
-0.3288655
40
0.3233092
50
215.8618351
51
257.2787793
0
ARC
8
DEFAULT_255_1_388
10
18.0198178
20
-0.2517894
40
0.4615831
50
197.9695203
51
215.2622745
0
ARC
8
DEFAULT_255_1_388
10
18.2993853
20
-0.1574359
40
0.7566307
50
187.8816486
51
198.2346584
0
ARC
8
DEFAULT_255_1_388
10
18.7447091
20
-0.0931547
40
1.2065653
50
180.8977266
51
188.0054894
0
ARC
8
DEFAULT_255_1_388
10
19.0497305
20
-0.08166
40
1.5117443
50
180.7434591
51
181.152202
0
ARC
8
DEFAULT_255_1_388
10
18.8822301
20
0.1273371
40
1.3441277
50
173.7674302
51
180.2315596
0
ARC
8
DEFAULT_255_1_388
10
18.374017
20
0.1847779
40
0.8326847
50
164.3058537
51
173.9000553
0
ARC
8
DEFAULT_255_1_388
10
18.046417
20
0.2791652
40
0.4917711
50
148.7922028
51
164.5682288
0
ARC
8
DEFAULT_255_1_388
10
17.9394907
20
0.3388457
40
0.3694204
50
144.5883979
51
148.1161588
0
ARC
8
DEFAULT_255_1_388
10
17.9007653
20
0.3658667
40
0.322202
50
101.6440149
51
144.5142619
0
ARC
8
DEFAULT_255_1_388
10
17.9485845
20
0.1758337
40
0.5180451
50
89.528284
51
102.5820197
0
ARC
8
DEFAULT_255_1_388
10
17.9574837
20
0.1714376
40
0.5224441
50
77.0437914
51
90.508231
0
ARC
8
DEFAULT_255_1_388
10
18.0027091
20
0.3562272
40
0.3322297
50
48.2777708
51
77.4996087
0
ARC
8
DEFAULT_255_1_388
10
18.0108831
20
0.3707557
40
0.315966
50
36.3141586
51
47.6307332
0
ARC
8
DEFAULT_255_1_388
10
17.9131553
20
0.3049159
40
0.4337313
50
18.2931065
51
35.6770203
0
ARC
8
DEFAULT_255_1_388
10
17.6270394
20
0.2067107
40
0.7362203
50
8.0246996
51
18.5605636
0
ARC
8
DEFAULT_255_1_388
10
17.1586749
20
0.1375432
40
1.2096583
50
1.127539
51
8.1718423
0
ARC
8
DEFAULT_255_1_388
10
16.7937883
20
0.1232374
40
1.5747719
50
0.5432713
51
1.38669
0
ARC
8
DEFAULT_255_1_388
10
16.9995261
20
0.1539163
40
1.2018103
50
359.8092569
51
4.9408001
0
ARC
8
DEFAULT_255_1_388
10
17.4731843
20
0.19619
40
0.7262727
50
4.8364937
51
12.2906017
0
ARC
8
DEFAULT_255_1_388
10
17.7831307
20
0.2652485
40
0.4087324
50
12.0806994
51
23.8171225
0
ARC
8
DEFAULT_255_1_388
10
17.9151703
20
0.3211508
40
0.2653719
50
24.2874621
51
31.3934353
0
ARC
8
DEFAULT_255_1_388
10
17.9742139
20
0.3597822
40
0.1948607
50
30.7407708
51
82.4658033
0
ARC
8
DEFAULT_255_1_388
10
17.95398
20
0.2604017
40
0.2961198
50
81.1057101
51
90.2187368
0
ARC
8
DEFAULT_255_1_388
10
17.9499612
20
0.2894421
40
0.2670929
50
89.380395
51
105.6763916
0
ARC
8
DEFAULT_255_1_388
10
17.9293334
20
0.364432
40
0.1893189
50
105.7980655
51
149.7387869
0
ARC
8
DEFAULT_255_1_388
10
18.0490474
20
0.2924719
40
0.3289892
50
149.4208441
51
163.628295
0
ARC
8
DEFAULT_255_1_388
10
18.2842704
20
0.2207345
40
0.5749004
50
163.3764549
51
172.141138
0
ARC
8
DEFAULT_255_1_388
10
18.6555425
20
0.1675582
40
0.9499585
50
172.0258462
51
178.0705453
0
ARC
8
DEFAULT_255_1_388
10
18.9976978
20
0.1513682
40
1.2924734
50
177.8639301
51
179.5036263
0
ARC
8
DEFAULT_255_1_388
10
18.8757996
20
-0.1089849
40
1.170534
50
179.7995545
51
185.246089
0
ARC
8
DEFAULT_255_1_388
10
18.420959
20
-0.1520596
40
0.7136613
50
185.1411911
51
193.0082205
0
ARC
8
DEFAULT_255_1_388
10
18.123585
20
-0.2223559
40
0.4080987
50
192.7897338
51
205.2507384
0
ARC
8
DEFAULT_255_1_388
10
18.005806
20
-0.2749462
40
0.2791522
50
205.8001921
51
211.2545876
0
ARC
8
DEFAULT_255_1_388
10
17.9469599
20
-0.3143868
40
0.2084074
50
210.3789935
51
238.4007996
0
ARC
8
DEFAULT_255_1_388
10
17.9447685
20
-0.3091214
40
0.2117943
50
239.6521916
51
265.9793852
0
ARC
8
DEFAULT_255_1_388
10
17.9543534
20
-0.2334642
40
0.2879689
50
265.1324455
51
270.0603288
0
ARC
8
DEFAULT_255_1_388
10
17.9575911
20
-0.2699582
40
0.2514919
50
269.3314378
51
287.2180039
0
ARC
8
DEFAULT_255_1_388
10
17.9730994
20
-0.3265709
40
0.1928357
50
287.7957942
51
329.0808983
0
ARC
8
DEFAULT_255_1_388
10
17.8653751
20
-0.2593349
40
0.319808
50
328.6635261
51
343.3325043
0
ARC
8
DEFAULT_255_1_388
10
17.6209209
20
-0.1831805
40
0.5758408
50
343.0498092
51
351.9392499
0
ARC
8
DEFAULT_255_1_388
10
17.2308531
20
-0.1256795
40
0.9701202
50
351.8071632
51
357.7957897
0
ARC
8
DEFAULT_255_1_388
10
16.8674008
20
-0.1068276
40
1.3340376
50
357.5870923
51
359.2682493
0
LINE
8
DEFAULT_255_1_388
10
18.947674
20
-0.0127263
11
18.947674
21
-0.1491645
0
LINE
8
DEFAULT_255_1_388
10
18.947674
20
-0.1491645
11
18.5067345
21
-0.1491645
0
LINE
8
DEFAULT_255_1_388
10
18.5067345
20
-0.1491645
11
18.5067345
21
-0.0127263
0
LINE
8
DEFAULT_255_1_388
10
18.5067345
20
-0.0127263
11
18.947674
21
-0.0127263
0
LINE
8
DEFAULT_255_1_388
10
19.9181022
20
0.138169
11
19.9181022
21
-0.0786865
0
LINE
8
DEFAULT_255_1_388
10
19.0877265
20
-0.1012756
11
19.0877265
21
0.1219048
0
LINE
8
DEFAULT_255_1_388
10
19.7509428
20
-0.1238647
11
19.7509428
21
0.1499153
0
LINE
8
DEFAULT_255_1_388
10
19.2548859
20
0.1625652
11
19.2548859
21
-0.1048898
0
ARC
8
DEFAULT_255_1_388
10
18.5403356
20
-0.0841882
40
1.3777776
50
353.8440855
51
0.2287917
0
ARC
8
DEFAULT_255_1_388
10
19.0622373
20
-0.1424586
40
0.852639
50
344.4934746
51
353.9763743
0
ARC
8
DEFAULT_255_1_388
10
19.3989181
20
-0.2381809
40
0.5026273
50
329.2803599
51
344.7473406
0
ARC
8
DEFAULT_255_1_388
10
19.5104676
20
-0.2993962
40
0.3754848
50
324.9361395
51
328.6153007
0
ARC
8
DEFAULT_255_1_388
10
19.5530326
20
-0.3291414
40
0.3235566
50
280.5801797
51
324.9173226
0
ARC
8
DEFAULT_255_1_388
10
19.5078955
20
-0.1411764
40
0.5167077
50
269.5979457
51
281.6732777
0
ARC
8
DEFAULT_255_1_388
10
19.4997858
20
-0.1546887
40
0.5032026
50
256.6228565
51
270.5105488
0
ARC
8
DEFAULT_255_1_388
10
19.4545601
20
-0.3288655
40
0.3233092
50
215.8618351
51
257.2787793
0
ARC
8
DEFAULT_255_1_388
10
19.5694308
20
-0.2517894
40
0.4615831
50
197.9695203
51
215.2622745
0
ARC
8
DEFAULT_255_1_388
10
19.8489984
20
-0.1574359
40
0.7566307
50
187.8816486
51
198.2346584
0
ARC
8
DEFAULT_255_1_388
10
20.2943222
20
-0.0931547
40
1.2065653
50
180.8977266
51
188.0054894
0
ARC
8
DEFAULT_255_1_388
10
20.5993436
20
-0.08166
40
1.5117443
50
180.7434591
51
181.152202
0
ARC
8
DEFAULT_255_1_388
10
20.4318431
20
0.1273371
40
1.3441277
50
173.7674302
51
180.2315596
0
ARC
8
DEFAULT_255_1_388
10
19.92363
20
0.1847779
40
0.8326847
50
164.3058537
51
173.9000553
0
ARC
8
DEFAULT_255_1_388
10
19.59603
20
0.2791652
40
0.4917711
50
148.7922028
51
164.5682288
0
ARC
8
DEFAULT_255_1_388
10
19.4891038
20
0.3388457
40
0.3694204
50
144.5883979
51
148.1161588
0
ARC
8
DEFAULT_255_1_388
10
19.4503783
20
0.3658667
40
0.322202
50
101.6440149
51
144.5142619
0
ARC
8
DEFAULT_255_1_388
10
19.4981975
20
0.1758337
40
0.5180451
50
89.528284
51
102.5820197
0
ARC
8
DEFAULT_255_1_388
10
19.5070967
20
0.1714376
40
0.5224441
50
77.0437914
51
90.508231
0
ARC
8
DEFAULT_255_1_388
10
19.5523221
20
0.3562272
40
0.3322297
50
48.2777708
51
77.4996087
0
ARC
8
DEFAULT_255_1_388
10
19.5604961
20
0.3707557
40
0.315966
50
36.3141586
51
47.6307332
0
ARC
8
DEFAULT_255_1_388
10
19.4627683
20
0.3049159
40
0.4337313
50
18.2931065
51
35.6770203
0
ARC
8
DEFAULT_255_1_388
10
19.1766524
20
0.2067107
40
0.7362203
50
8.0246996
51
18.5605636
0
ARC
8
DEFAULT_255_1_388
10
18.7082879
20
0.1375432
40
1.2096583
50
1.127539
51
8.1718423
0
ARC
8
DEFAULT_255_1_388
10
18.3434013
20
0.1232374
40
1.5747719
50
0.5432713
51
1.38669
0
ARC
8
DEFAULT_255_1_388
10
18.5491392
20
0.1539163
40
1.2018103
50
359.8092569
51
4.9408001
0
ARC
8
DEFAULT_255_1_388
10
19.0227973
20
0.19619
40
0.7262727
50
4.8364937
51
12.2906017
0
ARC
8
DEFAULT_255_1_388
10
19.3327438
20
0.2652485
40
0.4087324
50
12.0806994
51
23.8171225
0
ARC
8
DEFAULT_255_1_388
10
19.4647834
20
0.3211508
40
0.2653719
50
24.2874621
51
31.3934353
0
ARC
8
DEFAULT_255_1_388
10
19.5238269
20
0.3597822
40
0.1948607
50
30.7407708
51
82.4658033
0
ARC
8
DEFAULT_255_1_388
10
19.503593
20
0.2604017
40
0.2961198
50
81.1057101
51
90.2187368
0
ARC
8
DEFAULT_255_1_388
10
19.4995742
20
0.2894421
40
0.2670929
50
89.380395
51
105.6763916
0
ARC
8
DEFAULT_255_1_388
10
19.4789464
20
0.364432
40
0.1893189
50
105.7980655
51
149.7387869
0
ARC
8
DEFAULT_255_1_388
10
19.5986604
20
0.2924719
40
0.3289892
50
149.4208441
51
163.628295
0
ARC
8
DEFAULT_255_1_388
10
19.8338834
20
0.2207345
40
0.5749004
50
163.3764549
51
172.141138
0
ARC
8
DEFAULT_255_1_388
10
20.2051555
20
0.1675582
40
0.9499585
50
172.0258462
51
178.0705453
0
ARC
8
DEFAULT_255_1_388
10
20.5473108
20
0.1513682
40
1.2924734
50
177.8639301
51
179.5036263
0
ARC
8
DEFAULT_255_1_388
10
20.4254127
20
-0.1089849
40
1.170534
50
179.7995545
51
185.246089
0
ARC
8
DEFAULT_255_1_388
10
19.970572
20
-0.1520596
40
0.7136613
50
185.1411911
51
193.0082205
0
ARC
8
DEFAULT_255_1_388
10
19.6731981
20
-0.2223559
40
0.4080987
50
192.7897338
51
205.2507384
0
ARC
8
DEFAULT_255_1_388
10
19.5554191
20
-0.2749462
40
0.2791522
50
205.8001921
51
211.2545876
0
ARC
8
DEFAULT_255_1_388
10
19.496573
20
-0.3143868
40
0.2084074
50
210.3789935
51
238.4007996
0
ARC
8
DEFAULT_255_1_388
10
19.4943816
20
-0.3091214
40
0.2117943
50
239.6521916
51
265.9793852
0
ARC
8
DEFAULT_255_1_388
10
19.5039665
20
-0.2334642
40
0.2879689
50
265.1324455
51
270.0603288
0
ARC
8
DEFAULT_255_1_388
10
19.5072042
20
-0.2699582
40
0.2514919
50
269.3314378
51
287.2180039
0
ARC
8
DEFAULT_255_1_388
10
19.5227124
20
-0.3265709
40
0.1928357
50
287.7957942
51
329.0808983
0
ARC
8
DEFAULT_255_1_388
10
19.4149881
20
-0.2593349
40
0.319808
50
328.6635261
51
343.3325043
0
ARC
8
DEFAULT_255_1_388
10
19.170534
20
-0.1831805
40
0.5758408
50
343.0498092
51
351.9392499
0
ARC
8
DEFAULT_255_1_388
10
18.7804661
20
-0.1256795
40
0.9701202
50
351.8071632
51
357.7957897
0
ARC
8
DEFAULT_255_1_388
10
18.4170138
20
-0.1068276
40
1.3340376
50
357.5870923
51
359.2682493
0
LINE
8
DEFAULT_255_1_388
10
20.2876601
20
0.6757898
11
20.6048112
21
0.1716009
0
LINE
8
DEFAULT_255_1_388
10
20.6048112
20
0.1716009
11
20.9201552
21
0.6757898
0
LINE
8
DEFAULT_255_1_388
10
20.9201552
20
0.6757898
11
21.1243607
21
0.6757898
0
LINE
8
DEFAULT_255_1_388
10
21.1243607
20
0.6757898
11
20.7087211
21
0.0234163
0
LINE
8
DEFAULT_255_1_388
10
20.7087211
20
0.0234163
11
21.1343
21
-0.6398
0
LINE
8
DEFAULT_255_1_388
10
21.1343
20
-0.6398
11
20.9282873
21
-0.6398
0
LINE
8
DEFAULT_255_1_388
10
20.9282873
20
-0.6398
11
20.6048112
21
-0.1265754
0
LINE
8
DEFAULT_255_1_388
10
20.6048112
20
-0.1265754
11
20.279528
21
-0.6398
0
LINE
8
DEFAULT_255_1_388
10
20.279528
20
-0.6398
11
20.0744188
21
-0.6398
0
LINE
8
DEFAULT_255_1_388
10
20.0744188
20
-0.6398
11
20.5009013
21
0.0234163
0
LINE
8
DEFAULT_255_1_388
10
20.5009013
20
0.0234163
11
20.0843581
21
0.6757898
0
LINE
8
DEFAULT_255_1_388
10
20.0843581
20
0.6757898
11
20.2876601
21
0.6757898
0
LINE
8
DEFAULT_255_1_388
10
21.7920949
20
-0.6398
11
21.3357948
21
-0.6398
0
LINE
8
DEFAULT_255_1_388
10
21.3357948
20
-0.6398
11
21.3357948
21
0.6757898
0
LINE
8
DEFAULT_255_1_388
10
21.3357948
20
0.6757898
11
21.7658915
21
0.6757898
0
LINE
8
DEFAULT_255_1_388
10
21.7984198
20
-0.0244726
11
21.5092792
21
-0.0244726
0
LINE
8
DEFAULT_255_1_388
10
21.5092792
20
-0.0244726
11
21.5092792
21
-0.4979404
0
LINE
8
DEFAULT_255_1_388
10
21.5092792
20
-0.4979404
11
21.7957091
21
-0.4979404
0
LINE
8
DEFAULT_255_1_388
10
21.5092792
20
0.5330267
11
21.5092792
21
0.1146763
0
LINE
8
DEFAULT_255_1_388
10
21.5092792
20
0.1146763
11
21.7713129
21
0.1146763
0
LINE
8
DEFAULT_255_1_388
10
21.7658915
20
0.5330267
11
21.5092792
21
0.5330267
0
ARC
8
DEFAULT_255_1_388
10
21.7701335
20
-0.1530176
40
0.8288183
50
82.1256322
51
90.2932506
0
ARC
8
DEFAULT_255_1_388
10
21.813891
20
0.152759
40
0.5199321
50
69.9044202
51
82.2857574
0
ARC
8
DEFAULT_255_1_388
10
21.8780903
20
0.3262993
40
0.3348993
50
51.1840204
51
70.018125
0
ARC
8
DEFAULT_255_1_388
10
21.9067735
20
0.3679945
40
0.2844579
50
12.1018086
51
50.421322
0
ARC
8
DEFAULT_255_1_388
10
21.7510607
20
0.3288937
40
0.4449429
50
359.5252354
51
12.8212369
0
ARC
8
DEFAULT_255_1_388
10
21.9288037
20
0.3210943
40
0.2672162
50
323.4907456
51
0.8818258
0
ARC
8
DEFAULT_255_1_388
10
21.8817449
20
0.3574523
40
0.3266736
50
298.6824053
51
323.2758285
0
ARC
8
DEFAULT_255_1_388
10
21.8410741
20
0.4250509
40
0.4055105
50
293.1994739
51
299.139634
0
ARC
8
DEFAULT_255_1_388
10
21.916769
20
-0.2595349
40
0.3229926
50
54.0009997
51
74.9168635
0
ARC
8
DEFAULT_255_1_388
10
21.9298617
20
-0.2373489
40
0.2973581
50
36.3578854
51
53.5293172
0
ARC
8
DEFAULT_255_1_388
10
21.9155985
20
-0.247515
40
0.3148715
50
4.8189348
51
36.3090187
0
ARC
8
DEFAULT_255_1_388
10
21.8279009
20
-0.2598617
40
0.4033265
50
359.9373213
51
5.5201284
0
ARC
8
DEFAULT_255_1_388
10
21.791434
20
-0.2644267
40
0.4398126
50
344.7479357
51
0.5372278
0
ARC
8
DEFAULT_255_1_388
10
21.9029238
20
-0.2944795
40
0.3243441
50
311.1785587
51
344.6887681
0
ARC
8
DEFAULT_255_1_388
10
21.8700781
20
-0.2535916
40
0.3767511
50
286.0417804
51
310.8440924
0
ARC
8
DEFAULT_255_1_388
10
21.8130191
20
-0.0683115
40
0.5705957
50
274.1044074
51
286.4070149
0
ARC
8
DEFAULT_255_1_388
10
21.7931406
20
0.1434901
40
0.7832907
50
269.9235077
51
274.4458593
0
ARC
8
DEFAULT_255_1_388
10
21.7983124
20
-0.1196538
40
0.3782955
50
269.6057074
51
281.3740795
0
ARC
8
DEFAULT_255_1_388
10
21.8242623
20
-0.2426431
40
0.2526069
50
281.105298
51
302.5134029
0
ARC
8
DEFAULT_255_1_388
10
21.840801
20
-0.2723056
40
0.2187131
50
303.0365425
51
311.8818034
0
ARC
8
DEFAULT_255_1_388
10
21.8488187
20
-0.2818398
40
0.2062624
50
311.9916937
51
351.7143773
0
ARC
8
DEFAULT_255_1_388
10
21.7569212
20
-0.2632729
40
0.2999202
50
350.7343295
51
0.2221526
0
ARC
8
DEFAULT_255_1_388
10
21.74483
20
-0.256913
40
0.3120525
50
359.045729
51
17.2295312
0
ARC
8
DEFAULT_255_1_388
10
21.8617331
20
-0.2221845
40
0.1901144
50
17.6685208
51
78.9940245
0
ARC
8
DEFAULT_255_1_388
10
21.8035691
20
-0.4309989
40
0.4065575
50
76.565218
51
90.7103392
0
LINE
8
DEFAULT_255_1_388
10
21.7985289
20
-0.0244726
11
21.7984198
21
-0.0244726
0
ARC
8
DEFAULT_255_1_388
10
21.7738517
20
0.4842949
40
0.3696273
50
269.6064514
51
281.4533785
0
ARC
8
DEFAULT_255_1_388
10
21.7989158
20
0.3660283
40
0.2487412
50
281.2044438
51
302.5143998
0
ARC
8
DEFAULT_255_1_388
10
21.8143412
20
0.3382576
40
0.2170405
50
303.0211308
51
309.8378766
0
ARC
8
DEFAULT_255_1_388
10
21.8349529
20
0.3151486
40
0.1860946
50
309.5229446
51
356.9509628
0
ARC
8
DEFAULT_255_1_388
10
21.7603655
20
0.3258831
40
0.2612347
50
355.4699226
51
0.0498632
0
ARC
8
DEFAULT_255_1_388
10
21.7289329
20
0.3283789
40
0.2926762
50
359.5558955
51
11.2092924
0
ARC
8
DEFAULT_255_1_388
10
21.8366296
20
0.3506667
40
0.1827036
50
10.9185717
51
31.322519
0
ARC
8
DEFAULT_255_1_388
10
21.8687844
20
0.3685571
40
0.1459418
50
31.8850633
51
52.1415586
0
ARC
8
DEFAULT_255_1_388
10
21.8379274
20
0.3249674
40
0.1993088
50
52.8283418
51
71.9850132
0
ARC
8
DEFAULT_255_1_388
10
21.7956434
20
0.2005158
40
0.3307407
50
71.686634
51
82.8453416
0
ARC
8
DEFAULT_255_1_388
10
21.7687081
20
-0.0030108
40
0.536039
50
82.6981895
51
90.1730083
0
ARC
8
DEFAULT_255_1_388
10
21.7661913
20
0.0848836
40
0.4481429
50
89.8851568
51
90.0383283
0
LINE
8
DEFAULT_255_1_388
10
23.2694228
20
0.138169
11
23.2694228
21
-0.0786865
0
LINE
8
DEFAULT_255_1_388
10
22.439047
20
-0.1012756
11
22.439047
21
0.1219048
0
LINE
8
DEFAULT_255_1_388
10
23.1022633
20
-0.1238647
11
23.1022633
21
0.1499153
0
LINE
8
DEFAULT_255_1_388
10
22.6062064
20
0.1625652
11
22.6062064
21
-0.1048898
0
ARC
8
DEFAULT_255_1_388
10
21.8916562
20
-0.0841882
40
1.3777776
50
353.8440855
51
0.2287917
0
ARC
8
DEFAULT_255_1_388
10
22.4135579
20
-0.1424586
40
0.852639
50
344.4934746
51
353.9763743
0
ARC
8
DEFAULT_255_1_388
10
22.7502386
20
-0.2381809
40
0.5026273
50
329.2803599
51
344.7473406
0
ARC
8
DEFAULT_255_1_388
10
22.8617882
20
-0.2993962
40
0.3754848
50
324.9361395
51
328.6153007
0
ARC
8
DEFAULT_255_1_388
10
22.9043532
20
-0.3291414
40
0.3235566
50
280.5801797
51
324.9173226
0
ARC
8
DEFAULT_255_1_388
10
22.859216
20
-0.1411764
40
0.5167077
50
269.5979457
51
281.6732777
0
ARC
8
DEFAULT_255_1_388
10
22.8511064
20
-0.1546887
40
0.5032026
50
256.6228565
51
270.5105488
0
ARC
8
DEFAULT_255_1_388
10
22.8058807
20
-0.3288655
40
0.3233092
50
215.8618351
51
257.2787793
0
ARC
8
DEFAULT_255_1_388
10
22.9207514
20
-0.2517894
40
0.4615831
50
197.9695203
51
215.2622745
0
ARC
8
DEFAULT_255_1_388
10
23.2003189
20
-0.1574359
40
0.7566307
50
187.8816486
51
198.2346584
0
ARC
8
DEFAULT_255_1_388
10
23.6456427
20
-0.0931547
40
1.2065653
50
180.8977266
51
188.0054894
0
ARC
8
DEFAULT_255_1_388
10
23.9506641
20
-0.08166
40
1.5117443
50
180.7434591
51
181.152202
0
ARC
8
DEFAULT_255_1_388
10
23.7831637
20
0.1273371
40
1.3441277
50
173.7674302
51
180.2315596
0
ARC
8
DEFAULT_255_1_388
10
23.2749506
20
0.1847779
40
0.8326847
50
164.3058537
51
173.9000553
0
ARC
8
DEFAULT_255_1_388
10
22.9473506
20
0.2791652
40
0.4917711
50
148.7922028
51
164.5682288
0
ARC
8
DEFAULT_255_1_388
10
22.8404243
20
0.3388457
40
0.3694204
50
144.5883979
51
148.1161588
0
ARC
8
DEFAULT_255_1_388
10
22.8016989
20
0.3658667
40
0.322202
50
101.6440149
51
144.5142619
0
ARC
8
DEFAULT_255_1_388
10
22.8495181
20
0.1758337
40
0.5180451
50
89.528284
51
102.5820197
0
ARC
8
DEFAULT_255_1_388
10
22.8584173
20
0.1714376
40
0.5224441
50
77.0437914
51
90.508231
0
ARC
8
DEFAULT_255_1_388
10
22.9036427
20
0.3562272
40
0.3322297
50
48.2777708
51
77.4996087
0
ARC
8
DEFAULT_255_1_388
10
22.9118166
20
0.3707557
40
0.315966
50
36.3141586
51
47.6307332
0
ARC
8
DEFAULT_255_1_388
10
22.8140889
20
0.3049159
40
0.4337313
50
18.2931065
51
35.6770203
0
ARC
8
DEFAULT_255_1_388
10
22.527973
20
0.2067107
40
0.7362203
50
8.0246996
51
18.5605636
0
ARC
8
DEFAULT_255_1_388
10
22.0596085
20
0.1375432
40
1.2096583
50
1.127539
51
8.1718423
0
ARC
8
DEFAULT_255_1_388
10
21.6947218
20
0.1232374
40
1.5747719
50
0.5432713
51
1.38669
0
ARC
8
DEFAULT_255_1_388
10
21.9004597
20
0.1539163
40
1.2018103
50
359.8092569
51
4.9408001
0
ARC
8
DEFAULT_255_1_388
10
22.3741178
20
0.19619
40
0.7262727
50
4.8364937
51
12.2906017
0
ARC
8
DEFAULT_255_1_388
10
22.6840643
20
0.2652485
40
0.4087324
50
12.0806994
51
23.8171225
0
ARC
8
DEFAULT_255_1_388
10
22.8161039
20
0.3211508
40
0.2653719
50
24.2874621
51
31.3934353
0
ARC
8
DEFAULT_255_1_388
10
22.8751475
20
0.3597822
40
0.1948607
50
30.7407708
51
82.4658033
0
ARC
8
DEFAULT_255_1_388
10
22.8549136
20
0.2604017
40
0.2961198
50
81.1057101
51
90.2187368
0
ARC
8
DEFAULT_255_1_388
10
22.8508948
20
0.2894421
40
0.2670929
50
89.380395
51
105.6763916
0
ARC
8
DEFAULT_255_1_388
10
22.830267
20
0.364432
40
0.1893189
50
105.7980655
51
149.7387869
0
ARC
8
DEFAULT_255_1_388
10
22.949981
20
0.2924719
40
0.3289892
50
149.4208441
51
163.628295
0
ARC
8
DEFAULT_255_1_388
10
23.185204
20
0.2207345
40
0.5749004
50
163.3764549
51
172.141138
0
ARC
8
DEFAULT_255_1_388
10
23.5564761
20
0.1675582
40
0.9499585
50
172.0258462
51
178.0705453
0
ARC
8
DEFAULT_255_1_388
10
23.8986314
20
0.1513682
40
1.2924734
50
177.8639301
51
179.5036263
0
ARC
8
DEFAULT_255_1_388
10
23.7767332
20
-0.1089849
40
1.170534
50
179.7995545
51
185.246089
0
ARC
8
DEFAULT_255_1_388
10
23.3218926
20
-0.1520596
40
0.7136613
50
185.1411911
51
193.0082205
0
ARC
8
DEFAULT_255_1_388
10
23.0245186
20
-0.2223559
40
0.4080987
50
192.7897338
51
205.2507384
0
ARC
8
DEFAULT_255_1_388
10
22.9067396
20
-0.2749462
40
0.2791522
50
205.8001921
51
211.2545876
0
ARC
8
DEFAULT_255_1_388
10
22.8478935
20
-0.3143868
40
0.2084074
50
210.3789935
51
238.4007996
0
ARC
8
DEFAULT_255_1_388
10
22.8457021
20
-0.3091214
40
0.2117943
50
239.6521916
51
265.9793852
0
ARC
8
DEFAULT_255_1_388
10
22.855287
20
-0.2334642
40
0.2879689
50
265.1324455
51
270.0603288
0
ARC
8
DEFAULT_255_1_388
10
22.8585247
20
-0.2699582
40
0.2514919
50
269.3314378
51
287.2180039
0
ARC
8
DEFAULT_255_1_388
10
22.8740329
20
-0.3265709
40
0.1928357
50
287.7957942
51
329.0808983
0
ARC
8
DEFAULT_255_1_388
10
22.7663087
20
-0.2593349
40
0.319808
50
328.6635261
51
343.3325043
0
ARC
8
DEFAULT_255_1_388
10
22.5218545
20
-0.1831805
40
0.5758408
50
343.0498092
51
351.9392499
0
ARC
8
DEFAULT_255_1_388
10
22.1317867
20
-0.1256795
40
0.9701202
50
351.8071632
51
357.7957897
0
ARC
8
DEFAULT_255_1_388
10
21.7683344
20
-0.1068276
40
1.3340376
50
357.5870923
51
359.2682493
0
ARC
8
DEFAULT_255_2_778
10
7.7537439
20
52.2948128
40
3.0466403
50
251.6724781
51
258.5987661
0
ARC
8
DEFAULT_255_2_778
10
7.5394558
20
51.2136316
40
1.9444375
50
258.4907215
51
268.3974115
0
ARC
8
DEFAULT_255_2_778
10
7.5171542
20
50.7829995
40
1.5133848
50
268.7854544
51
269.9953942
0
ARC
8
DEFAULT_255_2_778
10
7.5274263
20
50.3336726
40
1.0641086
50
269.4403512
51
279.6841037
0
ARC
8
DEFAULT_255_2_778
10
7.6415978
20
49.7041567
40
0.4244099
50
278.7863046
51
300.3428271
0
ARC
8
DEFAULT_255_2_778
10
7.7606279
20
49.50153
40
0.1894089
50
300.2328316
51
1.9014863
0
ARC
8
DEFAULT_255_2_778
10
7.745908
20
49.5106715
40
0.2040445
50
359.1977832
51
359.9996968
0
ARC
8
DEFAULT_255_2_778
10
7.752475
20
49.5115013
40
0.1974794
50
359.7589479
51
47.2071953
0
ARC
8
DEFAULT_255_2_778
10
7.618413
20
49.3625429
40
0.3978723
50
47.6130098
51
60.824453
0
ARC
8
DEFAULT_255_2_778
10
7.0178997
20
48.3455677
40
1.5788249
50
59.7878046
51
64.8721208
0
ARC
8
DEFAULT_255_2_778
10
6.0919837
20
46.4143461
40
3.7205057
50
64.5916011
51
66.820345
0
ARC
8
DEFAULT_255_2_778
10
9.6372482
20
54.7724609
40
5.3584611
50
244.3087082
51
247.1497851
0
ARC
8
DEFAULT_255_2_778
10
8.548378
20
52.516872
40
2.8538059
50
240.2312866
51
244.3765687
0
ARC
8
DEFAULT_255_2_778
10
7.7790999
20
51.1824805
40
1.3135689
50
233.2094737
51
240.4596791
0
ARC
8
DEFAULT_255_2_778
10
7.3558445
20
50.6124409
40
0.603585
50
225.678902
51
232.9782433
0
ARC
8
DEFAULT_255_2_778
10
7.396101
20
50.6372518
40
0.6495632
50
178.2741582
51
224.667467
0
ARC
8
DEFAULT_255_2_778
10
7.506051
20
50.6706559
40
0.7593447
50
157.036112
51
181.044431
0
ARC
8
DEFAULT_255_2_778
10
7.3786854
20
50.7114246
40
0.6262846
50
124.9253006
51
155.9241303
0
ARC
8
DEFAULT_255_2_778
10
7.5959789
20
50.4030358
40
1.0035357
50
100.4079723
51
125.0168617
0
ARC
8
DEFAULT_255_2_778
10
7.6990521
20
49.9089723
40
1.5081396
50
89.6483922
51
100.8684975
0
ARC
8
DEFAULT_255_2_778
10
7.7082565
20
49.5567665
40
1.8603169
50
89.5079487
51
89.9984402
0
ARC
8
DEFAULT_255_2_778
10
7.7098896
20
49.4915371
40
1.9255311
50
83.9170631
51
89.5732113
0
ARC
8
DEFAULT_255_2_778
10
7.507084
20
47.4839635
40
3.9433074
50
80.7325723
51
84.0779772
0
ARC
8
DEFAULT_255_2_778
10
7.020778
20
44.4610497
40
7.0050837
50
78.5086351
51
80.7886813
0
ARC
8
DEFAULT_255_2_778
10
7.66195
20
49.0605221
40
1.9415426
50
67.135818
51
78.0934208
0
ARC
8
DEFAULT_255_2_778
10
7.7851137
20
49.6309486
40
1.3579807
50
78.2126325
51
89.7333975
0
ARC
8
DEFAULT_255_2_778
10
7.7793169
20
50.0453048
40
0.9436877
50
89.2643807
51
100.5577599
0
ARC
8
DEFAULT_255_2_778
10
7.6665349
20
50.6140957
40
0.3639224
50
99.5099416
51
124.0285213
0
ARC
8
DEFAULT_255_2_778
10
7.57032
20
50.7641933
40
0.1857341
50
125.3416971
51
182.2767689
0
ARC
8
DEFAULT_255_2_778
10
7.5498732
20
50.7575853
40
0.1651425
50
180.2673353
51
239.6912529
0
ARC
8
DEFAULT_255_2_778
10
7.9317524
20
51.355904
40
0.8748407
50
237.8744287
51
242.8176978
0
ARC
8
DEFAULT_255_2_778
10
9.4128979
20
54.1665997
40
4.0518771
50
242.3429481
51
244.0446069
0
ARC
8
DEFAULT_255_2_778
10
12.366878
20
60.2004499
40
10.7700062
50
243.963828
51
244.8175572
0
ARC
8
DEFAULT_255_2_778
10
15.3890528
20
66.5921513
40
17.8401724
50
244.7685545
51
244.971514
0
ARC
8
DEFAULT_255_2_778
10
5.8608283
20
46.0973652
40
4.7613433
50
62.2451122
51
65.4192096
0
ARC
8
DEFAULT_255_2_778
10
6.9253351
20
48.109274
40
2.4851839
50
57.2979848
51
62.3628589
0
ARC
8
DEFAULT_255_2_778
10
7.6799627
20
49.274958
40
1.0965802
50
48.7493094
51
57.571194
0
ARC
8
DEFAULT_255_2_778
10
8.0114821
20
49.6632759
40
0.586081
50
44.3424824
51
48.0852666
0
ARC
8
DEFAULT_255_2_778
10
7.9782325
20
49.6437146
40
0.6236013
50
1.3523843
51
43.4925744
0
ARC
8
DEFAULT_255_2_778
10
7.7102854
20
49.6107828
40
0.8926473
50
359.9763756
51
3.0599076
0
ARC
8
DEFAULT_255_2_778
10
7.8642098
20
49.5956968
40
0.7388693
50
333.0409438
51
1.1413791
0
ARC
8
DEFAULT_255_2_778
10
7.8947469
20
49.6025035
40
0.7150136
50
300.8436672
51
331.44521
0
ARC
8
DEFAULT_255_2_778
10
7.6945587
20
49.9165479
40
1.0873327
50
281.4188469
51
301.4162372
0
ARC
8
DEFAULT_255_2_778
10
7.5631994
20
50.5253698
40
1.7101299
50
270.2272327
51
281.6944092
0
ARC
8
DEFAULT_255_2_778
10
7.5453128
20
51.0010692
40
2.185955
50
269.9983113
51
270.6466065
0
LINE
8
DEFAULT_255_2_778
10
7.5452484
20
48.8151142
11
7.5437325
21
48.8151147
0
ARC
8
DEFAULT_255_2_778
10
7.5508484
20
51.9980647
40
3.1829579
50
256.2431122
51
269.871909
0
ARC
8
DEFAULT_255_2_778
10
21.7540021
20
52.2168817
40
2.9666503
50
251.5318157
51
258.7258279
0
ARC
8
DEFAULT_255_2_778
10
21.5537563
20
51.194951
40
1.9252941
50
258.62435
51
268.8252909
0
ARC
8
DEFAULT_255_2_778
10
21.5354665
20
50.8000972
40
1.5301823
50
269.2068806
51
269.9987259
0
ARC
8
DEFAULT_255_2_778
10
21.5473171
20
50.3358861
40
1.0660376
50
269.3612297
51
279.5899087
0
ARC
8
DEFAULT_255_2_778
10
21.6607762
20
49.7044001
40
0.424527
50
278.6895227
51
300.2363944
0
ARC
8
DEFAULT_255_2_778
10
21.7798406
20
49.500947
40
0.188796
50
300.1108484
51
1.9024905
0
ARC
8
DEFAULT_255_2_778
10
21.74389
20
49.5115898
40
0.2246851
50
358.8842611
51
0.0019649
0
ARC
8
DEFAULT_255_2_778
10
21.7769114
20
49.5155062
40
0.1917038
50
358.831716
51
47.0900458
0
ARC
8
DEFAULT_255_2_778
10
21.6376597
20
49.3570519
40
0.402612
50
47.9285592
51
61.0836101
0
ARC
8
DEFAULT_255_2_778
10
21.0429796
20
48.3387787
40
1.5817315
50
60.0631222
51
65.1602386
0
ARC
8
DEFAULT_255_2_778
10
20.1314272
20
46.412706
40
3.7125866
50
64.8807046
51
67.1209578
0
ARC
8
DEFAULT_255_2_778
10
23.627479
20
54.7021565
40
5.2839333
50
244.2656926
51
247.1407051
0
ARC
8
DEFAULT_255_2_778
10
22.559432
20
52.4939327
40
2.8309849
50
240.1545061
51
244.3326325
0
ARC
8
DEFAULT_255_2_778
10
21.7855871
20
51.1579023
40
1.2870531
50
232.697515
51
240.4357497
0
ARC
8
DEFAULT_255_2_778
10
21.3704829
20
50.6068895
40
0.5972006
50
225.5850892
51
232.3393736
0
ARC
8
DEFAULT_255_2_778
10
21.4133264
20
50.636461
40
0.6483829
50
178.7795739
51
224.7095916
0
ARC
8
DEFAULT_255_2_778
10
21.6668642
20
50.6604812
40
0.9018316
50
179.997867
51
180.6487041
0
ARC
8
DEFAULT_255_2_778
10
21.5167061
20
50.6742926
40
0.7517998
50
156.9195758
51
181.050088
0
ARC
8
DEFAULT_255_2_778
10
21.3927805
20
50.7137389
40
0.6224513
50
124.7111133
51
155.7879672
0
ARC
8
DEFAULT_255_2_778
10
21.6049077
20
50.4234843
40
0.9818859
50
101.7943006
51
125.2417472
0
ARC
8
DEFAULT_255_2_778
10
21.7294568
20
49.8700359
40
1.5491324
50
89.5237779
51
102.119608
0
ARC
8
DEFAULT_255_2_778
10
21.727965
20
49.3152684
40
2.1038954
50
83.2897778
51
89.6087235
0
ARC
8
DEFAULT_255_2_778
10
21.5234013
20
47.5029907
40
3.9276711
50
79.3121016
51
83.4152109
0
ARC
8
DEFAULT_255_2_778
10
21.2067148
20
45.7383502
40
5.7204535
50
78.2244786
51
79.4731175
0
ARC
8
DEFAULT_255_2_778
10
21.6833903
20
49.0720601
40
1.9313541
50
67.1320052
51
78.3124693
0
ARC
8
DEFAULT_255_2_778
10
21.8010805
20
49.624309
40
1.3667182
50
78.4541134
51
89.7546716
0
ARC
8
DEFAULT_255_2_778
10
21.7948662
20
50.0529688
40
0.9381236
50
89.263032
51
100.5789495
0
ARC
8
DEFAULT_255_2_778
10
21.6820638
20
50.6196991
40
0.3603816
50
99.4915893
51
124.3627674
0
ARC
8
DEFAULT_255_2_778
10
21.5871509
20
50.7667673
40
0.1854666
50
125.8028369
51
182.2896157
0
ARC
8
DEFAULT_255_2_778
10
21.5489799
20
50.759272
40
0.1471476
50
179.9666171
51
180.1001736
0
ARC
8
DEFAULT_255_2_778
10
21.5661858
20
50.7592311
40
0.1643535
50
180.0754351
51
239.8483251
0
ARC
8
DEFAULT_255_2_778
10
21.9354551
20
51.341313
40
0.8535847
50
238.0402264
51
243.0370307
0
ARC
8
DEFAULT_255_2_778
10
23.4787463
20
54.2934461
40
4.1847343
50
242.5305029
51
244.1852103
0
ARC
8
DEFAULT_255_2_778
10
26.6265515
20
60.7636116
40
11.3799845
50
244.1038809
51
244.9214171
0
ARC
8
DEFAULT_255_2_778
10
29.8771528
20
67.672326
40
19.0152051
50
244.8737354
51
245.0669821
0
ARC
8
DEFAULT_255_2_778
10
19.8876742
20
46.139071
40
4.7223648
50
62.036831
51
65.2981624
0
ARC
8
DEFAULT_255_2_778
10
20.9516164
20
48.1336714
40
2.4617531
50
57.1110762
51
62.1404081
0
ARC
8
DEFAULT_255_2_778
10
21.7042272
20
49.286797
40
1.0847836
50
48.3568195
51
57.4187314
0
ARC
8
DEFAULT_255_2_778
10
22.028946
20
49.6631639
40
0.5878002
50
44.453022
51
47.6325253
0
ARC
8
DEFAULT_255_2_778
10
21.9973779
20
49.6449098
40
0.6231843
50
1.0876759
51
43.6183889
0
ARC
8
DEFAULT_255_2_778
10
21.7304111
20
49.6128301
40
0.8911213
50
359.9797211
51
2.8243422
0
ARC
8
DEFAULT_255_2_778
10
21.8798151
20
49.5977736
40
0.7418639
50
333.2156265
51
1.138567
0
ARC
8
DEFAULT_255_2_778
10
21.9146495
20
49.6022363
40
0.7130495
50
300.9658303
51
331.6339563
0
ARC
8
DEFAULT_255_2_778
10
21.7181382
20
49.91147
40
1.0793606
50
281.9136331
51
301.4645182
0
ARC
8
DEFAULT_255_2_778
10
21.5849532
20
50.5086054
40
1.6911426
50
270.5804277
51
282.1523279
0
ARC
8
DEFAULT_255_2_778
10
21.5638102
20
51.0025177
40
2.1853034
50
269.9959061
51
271.0035609
0
LINE
8
DEFAULT_255_2_778
10
21.5636541
20
48.8172142
11
21.5621325
21
48.8172147
0
ARC
8
DEFAULT_255_2_778
10
21.5690949
20
52.0013913
40
3.1841842
50
256.2458002
51
269.8747201
0
LINE
8
DEFAULT_255_2_778
10
6.7957325
20
48.9079147
11
6.7957325
21
49.4027147
0
LINE
8
DEFAULT_255_2_778
10
8.4163325
20
51.3257147
11
8.4163325
21
50.8495147
0
LINE
8
DEFAULT_255_2_778
10
6.7939325
20
48.9064147
11
6.7957325
21
48.9079147
0
LINE
8
DEFAULT_255_2_778
10
8.9865325
20
51.3752147
11
9.6628325
21
51.3752147
0
LINE
8
DEFAULT_255_2_778
10
9.6628325
20
51.3752147
11
9.6628325
21
48.8677147
0
LINE
8
DEFAULT_255_2_778
10
9.6628325
20
48.8677147
11
8.9865325
21
48.8677147
0
LINE
8
DEFAULT_255_2_778
10
8.9865325
20
48.8677147
11
8.9865325
21
51.3752147
0
LINE
8
DEFAULT_255_2_778
10
10.2808325
20
48.8677147
11
10.2808325
21
51.3752147
0
LINE
8
DEFAULT_255_2_778
10
10.2808325
20
51.3752147
11
12.0131325
21
51.3752147
0
LINE
8
DEFAULT_255_2_778
10
12.0131325
20
51.3752147
11
12.0131325
21
50.9214147
0
LINE
8
DEFAULT_255_2_778
10
12.0131325
20
50.9214147
11
10.9320325
21
50.9214147
0
LINE
8
DEFAULT_255_2_778
10
10.9320325
20
50.9214147
11
10.9320325
21
50.3552147
0
LINE
8
DEFAULT_255_2_778
10
10.9320325
20
50.3552147
11
11.8734325
21
50.3552147
0
LINE
8
DEFAULT_255_2_778
10
11.8734325
20
50.3552147
11
11.8734325
21
49.9417147
0
LINE
8
DEFAULT_255_2_778
10
11.8734325
20
49.9417147
11
10.9320325
21
49.9417147
0
LINE
8
DEFAULT_255_2_778
10
10.9320325
20
49.9417147
11
10.9320325
21
49.3464147
0
LINE
8
DEFAULT_255_2_778
10
10.9320325
20
49.3464147
11
12.0411325
21
49.3464147
0
LINE
8
DEFAULT_255_2_778
10
12.0411325
20
49.3464147
11
12.0411325
21
48.8661147
0
LINE
8
DEFAULT_255_2_778
10
12.0411325
20
48.8661147
11
10.2808325
21
48.8677147
0
LINE
8
DEFAULT_255_2_778
10
12.4816325
20
48.8677147
11
12.4816325
21
51.3752147
0
LINE
8
DEFAULT_255_2_778
10
12.4816325
20
51.3752147
11
13.3574325
21
51.3752147
0
LINE
8
DEFAULT_255_2_778
10
13.3574325
20
51.3752147
11
13.9670325
21
49.7729147
0
LINE
8
DEFAULT_255_2_778
10
13.9670325
20
49.7729147
11
14.5896325
21
51.3752147
0
LINE
8
DEFAULT_255_2_778
10
14.5896325
20
51.3752147
11
15.4214325
21
51.3752147
0
LINE
8
DEFAULT_255_2_778
10
15.4214325
20
51.3752147
11
15.4214325
21
48.8677147
0
LINE
8
DEFAULT_255_2_778
10
15.4214325
20
48.8677147
11
14.7811325
21
48.8677147
0
LINE
8
DEFAULT_255_2_778
10
14.7811325
20
48.8677147
11
14.7811325
21
50.6436147
0
LINE
8
DEFAULT_255_2_778
10
14.7811325
20
50.6436147
11
14.0723325
21
48.8434147
0
LINE
8
DEFAULT_255_2_778
10
14.0723325
20
48.8434147
11
13.6514325
21
48.8434147
0
LINE
8
DEFAULT_255_2_778
10
13.6514325
20
48.8434147
11
12.9558325
21
50.6436147
0
LINE
8
DEFAULT_255_2_778
10
12.9558325
20
50.6436147
11
12.9558325
21
48.8675147
0
LINE
8
DEFAULT_255_2_778
10
12.9558325
20
48.8675147
11
12.4816325
21
48.8677147
0
LINE
8
DEFAULT_255_2_778
10
16.0408325
20
48.8677147
11
16.0408325
21
51.3752147
0
LINE
8
DEFAULT_255_2_778
10
16.0408325
20
51.3752147
11
17.7730325
21
51.3752147
0
LINE
8
DEFAULT_255_2_778
10
17.7730325
20
51.3752147
11
17.7730325
21
50.9214147
0
LINE
8
DEFAULT_255_2_778
10
17.7730325
20
50.9214147
11
16.6920325
21
50.9214147
0
LINE
8
DEFAULT_255_2_778
10
16.6920325
20
50.9214147
11
16.6920325
21
50.3552147
0
LINE
8
DEFAULT_255_2_778
10
16.6920325
20
50.3552147
11
17.6333325
21
50.3552147
0
LINE
8
DEFAULT_255_2_778
10
17.6333325
20
50.3552147
11
17.6333325
21
49.9417147
0
LINE
8
DEFAULT_255_2_778
10
17.6333325
20
49.9417147
11
16.6920325
21
49.9417147
0
LINE
8
DEFAULT_255_2_778
10
16.6920325
20
49.9417147
11
16.6920325
21
49.3464147
0
LINE
8
DEFAULT_255_2_778
10
16.6920325
20
49.3464147
11
17.8029325
21
49.3464147
0
LINE
8
DEFAULT_255_2_778
10
17.8029325
20
49.3464147
11
17.8029325
21
48.8661147
0
LINE
8
DEFAULT_255_2_778
10
17.8029325
20
48.8661147
11
16.0408325
21
48.8677147
0
LINE
8
DEFAULT_255_2_778
10
18.2453325
20
48.8677147
11
18.2453325
21
51.3752147
0
LINE
8
DEFAULT_255_2_778
10
18.2453325
20
51.3752147
11
19.0282325
21
51.3752147
0
LINE
8
DEFAULT_255_2_778
10
19.0282325
20
51.3752147
11
19.8585325
21
49.6964147
0
LINE
8
DEFAULT_255_2_778
10
19.8585325
20
49.6964147
11
19.8585325
21
51.3752147
0
LINE
8
DEFAULT_255_2_778
10
19.8585325
20
51.3752147
11
20.3342325
21
51.3752147
0
LINE
8
DEFAULT_255_2_778
10
20.3342325
20
51.3752147
11
20.3342325
21
48.8677147
0
LINE
8
DEFAULT_255_2_778
10
20.3342325
20
48.8677147
11
19.5738325
21
48.8677147
0
LINE
8
DEFAULT_255_2_778
10
19.5738325
20
48.8677147
11
18.7213325
21
50.5690147
0
LINE
8
DEFAULT_255_2_778
10
18.7213325
20
50.5690147
11
18.7213325
21
48.8677147
0
LINE
8
DEFAULT_255_2_778
10
18.7213325
20
48.8677147
11
18.2453325
21
48.8677147
0
LINE
8
DEFAULT_255_2_778
10
20.8142325
20
48.9082147
11
20.8142325
21
49.4030147
0
LINE
8
DEFAULT_255_2_778
10
22.3741325
20
51.3384147
11
22.4339325
21
51.3278147
0
LINE
8
DEFAULT_255_2_778
10
22.4339325
20
51.3278147
11
22.4339325
21
50.8516147
0
LINE
8
DEFAULT_255_2_778
10
20.8120325
20
48.9085147
11
20.8142325
21
48.9082147
0
LINE
8
DEFAULT_255_1_388
10
7.9822457
20
47.2589892
11
7.8078577
21
47.2589892
0
LINE
8
DEFAULT_255_1_388
10
7.0289852
20
46.7051042
11
7.2033731
21
46.7051042
0
ARC
8
DEFAULT_255_1_388
10
7.8819304
20
48.2653821
40
1.4087688
50
248.9196578
51
254.1442424
0
ARC
8
DEFAULT_255_1_388
10
7.6929184
20
47.7787805
40
0.8867498
50
241.6337352
51
249.0064643
0
ARC
8
DEFAULT_255_1_388
10
7.5209498
20
47.4636764
40
0.5277799
50
230.4982261
51
241.8087583
0
ARC
8
DEFAULT_255_1_388
10
7.4327269
20
47.3512686
40
0.3849419
50
227.4062979
51
229.9877433
0
ARC
8
DEFAULT_255_1_388
10
7.3778615
20
47.2977155
40
0.3084129
50
200.6782127
51
228.1765252
0
ARC
8
DEFAULT_255_1_388
10
7.3859984
20
47.2960277
40
0.315461
50
179.506278
51
199.8695278
0
ARC
8
DEFAULT_255_1_388
10
7.3849573
20
47.3043671
40
0.3144584
50
132.4834401
51
181.0242352
0
ARC
8
DEFAULT_255_1_388
10
7.4518777
20
47.2411788
40
0.4063094
50
129.2526113
51
133.4249077
0
ARC
8
DEFAULT_255_1_388
10
7.468437
20
47.2163619
40
0.436014
50
101.9878945
51
128.8741833
0
ARC
8
DEFAULT_255_1_388
10
7.5132785
20
47.022736
40
0.6347415
50
89.5906376
51
102.3170567
0
ARC
8
DEFAULT_255_1_388
10
7.5212097
20
47.0585586
40
0.5989122
50
77.2359491
51
90.3248968
0
ARC
8
DEFAULT_255_1_388
10
7.5445028
20
47.1673554
40
0.4876594
50
63.8379856
51
77.0808925
0
ARC
8
DEFAULT_255_1_388
10
7.5757561
20
47.2255882
40
0.4216191
50
45.9863127
51
64.1608798
0
ARC
8
DEFAULT_255_1_388
10
7.6050955
20
47.259099
40
0.3771394
50
32.2747934
51
45.6544796
0
ARC
8
DEFAULT_255_1_388
10
7.6125761
20
47.2612426
40
0.3696765
50
359.6507495
51
32.6129943
0
ARC
8
DEFAULT_255_1_388
10
7.5064944
20
47.2617788
40
0.3013762
50
359.469654
51
14.983205
0
ARC
8
DEFAULT_255_1_388
10
7.5858196
20
47.2830288
40
0.2192542
50
14.9781954
51
48.2004799
0
ARC
8
DEFAULT_255_1_388
10
7.5673307
20
47.2597937
40
0.2489048
50
48.5926661
51
74.1242559
0
ARC
8
DEFAULT_255_1_388
10
7.5298109
20
47.1359607
40
0.3782845
50
73.7889321
51
86.6653996
0
ARC
8
DEFAULT_255_1_388
10
7.5182924
20
47.0001955
40
0.5145025
50
86.2642725
51
90.0533288
0
ARC
8
DEFAULT_255_1_388
10
7.5151017
20
47.0446376
40
0.4700681
50
89.669455
51
99.2313411
0
ARC
8
DEFAULT_255_1_388
10
7.4878176
20
47.2071401
40
0.3052945
50
99.0695987
51
113.7659242
0
ARC
8
DEFAULT_255_1_388
10
7.4570171
20
47.2797772
40
0.226407
50
114.0402885
51
127.9848946
0
ARC
8
DEFAULT_255_1_388
10
7.4299647
20
47.3130884
40
0.1835045
50
127.7287217
51
176.7106493
0
ARC
8
DEFAULT_255_1_388
10
7.5063312
20
47.301721
40
0.2604907
50
175.1780759
51
180.0581213
0
ARC
8
DEFAULT_255_1_388
10
7.4114656
20
47.3003411
40
0.1656287
50
179.6140658
51
228.124674
0
ARC
8
DEFAULT_255_1_388
10
7.4612013
20
47.346394
40
0.2332038
50
226.5785315
51
230.8792476
0
ARC
8
DEFAULT_255_1_388
10
7.51415
20
47.4166908
40
0.3211664
50
231.4636401
51
241.9261664
0
ARC
8
DEFAULT_255_1_388
10
7.6488283
20
47.6645349
40
0.6032345
50
241.7177136
51
248.3259138
0
ARC
8
DEFAULT_255_1_388
10
7.8046878
20
48.0506771
40
1.0196417
50
248.2007377
51
252.4527713
0
ARC
8
DEFAULT_255_1_388
10
7.9400405
20
48.4691092
40
1.4594143
50
252.3388938
51
254.347037
0
ARC
8
DEFAULT_255_1_388
10
7.0915705
20
45.4343095
40
1.6917621
50
71.0197462
51
74.4085467
0
ARC
8
DEFAULT_255_1_388
10
7.2822793
20
45.9848144
40
1.1091618
50
66.1845203
51
71.086519
0
ARC
8
DEFAULT_255_1_388
10
7.4573342
20
46.3789439
40
0.6779073
50
59.3537334
51
66.269255
0
ARC
8
DEFAULT_255_1_388
10
7.5573068
20
46.5480777
40
0.4814366
50
49.1021732
51
59.3294421
0
ARC
8
DEFAULT_255_1_388
10
7.6494056
20
46.6530575
40
0.3417875
50
32.7924183
51
49.2503526
0
ARC
8
DEFAULT_255_1_388
10
7.684367
20
46.6780311
40
0.2988789
50
31.121225
51
32.3977355
0
ARC
8
DEFAULT_255_1_388
10
7.6755848
20
46.6747728
40
0.3080861
50
8.1116803
51
30.7958224
0
ARC
8
DEFAULT_255_1_388
10
7.5844194
20
46.6592437
40
0.4005385
50
359.8390945
51
8.4707348
0
ARC
8
DEFAULT_255_1_388
10
7.6548242
20
46.6537751
40
0.3301608
50
337.4732479
51
0.7538283
0
ARC
8
DEFAULT_255_1_388
10
7.6749267
20
46.6515554
40
0.3107929
50
307.5917028
51
336.4313755
0
ARC
8
DEFAULT_255_1_388
10
7.6238324
20
46.7083509
40
0.3870096
50
307.6560665
51
308.4561779
0
ARC
8
DEFAULT_255_1_388
10
7.5972541
20
46.7491832
40
0.435591
50
284.3733666
51
307.1426212
0
ARC
8
DEFAULT_255_1_388
10
7.5415435
20
46.9541391
40
0.6479685
50
272.4384566
51
284.6464689
0
ARC
8
DEFAULT_255_1_388
10
7.527282
20
47.1565434
40
0.8508149
50
269.9708517
51
272.8180721
0
ARC
8
DEFAULT_255_1_388
10
7.5224503
20
46.9273283
40
0.6216151
50
248.2707343
51
270.4054609
0
ARC
8
DEFAULT_255_1_388
10
7.5163374
20
46.9058673
40
0.5994203
50
246.1380358
51
248.054058
0
ARC
8
DEFAULT_255_1_388
10
7.4692517
20
46.8069705
40
0.4899388
50
233.1671897
51
246.4951656
0
ARC
8
DEFAULT_255_1_388
10
7.4069152
20
46.7228137
40
0.3852115
50
215.3403381
51
233.084328
0
ARC
8
DEFAULT_255_1_388
10
7.3762516
20
46.7005093
40
0.3472969
50
179.2419235
51
215.2648426
0
ARC
8
DEFAULT_255_1_388
10
7.4626067
20
46.7020979
40
0.259251
50
179.3355796
51
199.1045873
0
ARC
8
DEFAULT_255_1_388
10
7.4252209
20
46.6923223
40
0.2207454
50
199.8830064
51
232.7061328
0
ARC
8
DEFAULT_255_1_388
10
7.4783483
20
46.7591456
40
0.306101
50
232.3736206
51
255.5136621
0
ARC
8
DEFAULT_255_1_388
10
7.5166989
20
46.8991177
40
0.4512213
50
255.2447928
51
267.5318292
0
ARC
8
DEFAULT_255_1_388
10
7.5265456
20
47.0377709
40
0.5901825
50
267.1564563
51
270.0294721
0
ARC
8
DEFAULT_255_1_388
10
7.5296781
20
46.9878623
40
0.5402814
50
269.6999944
51
278.1662446
0
ARC
8
DEFAULT_255_1_388
10
7.5584809
20
46.7931974
40
0.3435003
50
278.0229022
51
290.6255326
0
ARC
8
DEFAULT_255_1_388
10
7.5975975
20
46.6888547
40
0.2320666
50
290.6616368
51
307.0374127
0
ARC
8
DEFAULT_255_1_388
10
7.6313875
20
46.647404
40
0.1786372
50
306.3942078
51
355.303191
0
ARC
8
DEFAULT_255_1_388
10
7.5738168
20
46.6560186
40
0.2367516
50
354.3662092
51
0.0709489
0
ARC
8
DEFAULT_255_1_388
10
7.5898037
20
46.6585561
40
0.2207761
50
359.4175379
51
16.1975911
0
ARC
8
DEFAULT_255_1_388
10
7.6410155
20
46.6725954
40
0.1676828
50
16.4721294
51
52.6261798
0
ARC
8
DEFAULT_255_1_388
10
7.5486662
20
46.5506606
40
0.3206412
50
52.7381828
51
62.4979144
0
ARC
8
DEFAULT_255_1_388
10
7.3928415
20
46.2574236
40
0.6527035
50
62.2517425
51
68.1219454
0
ARC
8
DEFAULT_255_1_388
10
7.1993903
20
45.7819951
40
1.1659797
50
68.006043
51
71.8055127
0
ARC
8
DEFAULT_255_1_388
10
6.9973811
20
45.1761723
40
1.8045908
50
71.718361
51
73.9260743
0
LINE
8
DEFAULT_255_1_388
10
8.3933675
20
47.6393898
11
8.3933675
21
46.3238
0
LINE
8
DEFAULT_255_1_388
10
8.3933675
20
46.3238
11
8.2198831
21
46.3238
0
LINE
8
DEFAULT_255_1_388
10
8.2198831
20
46.3238
11
8.2198831
21
47.6393898
0
LINE
8
DEFAULT_255_1_388
10
8.2198831
20
47.6393898
11
8.3933675
21
47.6393898
0
LINE
8
DEFAULT_255_1_388
10
8.7105186
20
47.6393898
11
8.9346026
21
47.6393898
0
LINE
8
DEFAULT_255_1_388
10
8.9346026
20
47.6393898
11
9.3646993
21
46.5659553
0
LINE
8
DEFAULT_255_1_388
10
9.3646993
20
46.5659553
11
9.7947959
21
47.6393898
0
LINE
8
DEFAULT_255_1_388
10
9.7947959
20
47.6393898
11
10.0197835
21
47.6393898
0
LINE
8
DEFAULT_255_1_388
10
10.0197835
20
47.6393898
11
10.0197835
21
46.3238
0
LINE
8
DEFAULT_255_1_388
10
10.0197835
20
46.3238
11
9.8462991
21
46.3238
0
LINE
8
DEFAULT_255_1_388
10
9.8462991
20
46.3238
11
9.8462991
21
46.836121
0
LINE
8
DEFAULT_255_1_388
10
9.8462991
20
46.836121
11
9.8625633
21
47.3891025
0
LINE
8
DEFAULT_255_1_388
10
9.8625633
20
47.3891025
11
9.4306595
21
46.3238
0
LINE
8
DEFAULT_255_1_388
10
9.4306595
20
46.3238
11
9.2978355
21
46.3238
0
LINE
8
DEFAULT_255_1_388
10
9.2978355
20
46.3238
11
8.8668353
21
47.3863918
0
LINE
8
DEFAULT_255_1_388
10
8.8668353
20
47.3863918
11
8.884003
21
46.836121
0
LINE
8
DEFAULT_255_1_388
10
8.884003
20
46.836121
11
8.884003
21
46.3238
0
LINE
8
DEFAULT_255_1_388
10
8.884003
20
46.3238
11
8.7105186
21
46.3238
0
LINE
8
DEFAULT_255_1_388
10
8.7105186
20
46.3238
11
8.7105186
21
47.6393898
0
LINE
8
DEFAULT_255_1_388
10
11.1944173
20
46.3238
11
11.0688218
21
46.6671545
0
LINE
8
DEFAULT_255_1_388
10
11.0688218
20
46.6671545
11
10.5176475
21
46.6671545
0
LINE
8
DEFAULT_255_1_388
10
10.5176475
20
46.6671545
11
10.3938592
21
46.3238
0
LINE
8
DEFAULT_255_1_388
10
10.3938592
20
46.3238
11
10.2149534
21
46.3238
0
LINE
8
DEFAULT_255_1_388
10
10.2149534
20
46.3238
11
10.7173353
21
47.6393898
0
LINE
8
DEFAULT_255_1_388
10
10.7173353
20
47.6393898
11
10.8691341
21
47.6393898
0
LINE
8
DEFAULT_255_1_388
10
10.8691341
20
47.6393898
11
11.3724195
21
46.3238
0
LINE
8
DEFAULT_255_1_388
10
11.3724195
20
46.3238
11
11.1944173
21
46.3238
0
LINE
8
DEFAULT_255_1_388
10
10.7932347
20
47.4252451
11
10.5700542
21
46.8099177
0
LINE
8
DEFAULT_255_1_388
10
10.5700542
20
46.8099177
11
11.0173187
21
46.8099177
0
LINE
8
DEFAULT_255_1_388
10
11.0173187
20
46.8099177
11
10.7932347
21
47.4252451
0
LINE
8
DEFAULT_255_1_388
10
12.3419441
20
47.6393898
11
12.3419441
21
47.4966267
0
LINE
8
DEFAULT_255_1_388
10
12.3419441
20
47.4966267
11
11.919076
21
47.4966267
0
LINE
8
DEFAULT_255_1_388
10
11.919076
20
47.4966267
11
11.919076
21
46.3238
0
LINE
8
DEFAULT_255_1_388
10
11.919076
20
46.3238
11
11.7464952
21
46.3238
0
LINE
8
DEFAULT_255_1_388
10
11.7464952
20
46.3238
11
11.7464952
21
47.4966267
0
LINE
8
DEFAULT_255_1_388
10
11.7464952
20
47.4966267
11
11.3245306
21
47.4966267
0
LINE
8
DEFAULT_255_1_388
10
11.3245306
20
47.4966267
11
11.3245306
21
47.6393898
0
LINE
8
DEFAULT_255_1_388
10
11.3245306
20
47.6393898
11
12.3419441
21
47.6393898
0
LINE
8
DEFAULT_255_1_388
10
12.7232483
20
47.6393898
11
12.7232483
21
46.3238
0
LINE
8
DEFAULT_255_1_388
10
12.7232483
20
46.3238
11
12.549764
21
46.3238
0
LINE
8
DEFAULT_255_1_388
10
12.549764
20
46.3238
11
12.549764
21
47.6393898
0
LINE
8
DEFAULT_255_1_388
10
12.549764
20
47.6393898
11
12.7232483
21
47.6393898
0
LINE
8
DEFAULT_255_1_388
10
13.8337291
20
46.7412468
11
14.008117
21
46.7412468
0
LINE
8
DEFAULT_255_1_388
10
12.9952212
20
46.9201525
11
12.9952212
21
47.0466516
0
LINE
8
DEFAULT_255_1_388
10
14.008117
20
47.2165217
11
13.8337291
21
47.2165217
0
LINE
8
DEFAULT_255_1_388
10
13.1696092
20
47.0421337
11
13.1696092
21
46.9147312
0
ARC
8
DEFAULT_255_1_388
10
13.3915404
20
46.8084329
40
0.6202263
50
340.1774904
51
353.7812217
0
ARC
8
DEFAULT_255_1_388
10
13.5683257
20
46.7425893
40
0.4315926
50
311.4560052
51
340.4420756
0
ARC
8
DEFAULT_255_1_388
10
13.5645796
20
46.7550665
40
0.4434573
50
282.4332229
51
310.7514507
0
ARC
8
DEFAULT_255_1_388
10
13.5151614
20
46.9592703
40
0.6535262
50
269.9358869
51
282.8096729
0
ARC
8
DEFAULT_255_1_388
10
13.5093554
20
47.1105329
40
0.8048043
50
269.9995752
51
270.3612856
0
ARC
8
DEFAULT_255_1_388
10
13.5034044
20
46.8306781
40
0.5249831
50
250.7885263
51
270.6488451
0
ARC
8
DEFAULT_255_1_388
10
13.4844868
20
46.7589853
40
0.4510942
50
219.3628377
51
250.0611024
0
ARC
8
DEFAULT_255_1_388
10
13.5777743
20
46.8382653
40
0.5735046
50
193.5480293
51
219.5755675
0
ARC
8
DEFAULT_255_1_388
10
13.8445952
20
46.907552
40
0.849146
50
181.1220183
51
193.8754971
0
ARC
8
DEFAULT_255_1_388
10
14.0769185
20
46.9199914
40
1.0816971
50
179.9914644
51
181.5398227
0
ARC
8
DEFAULT_255_1_388
10
13.8692495
20
47.0508586
40
0.8740384
50
169.5837606
51
180.275782
0
ARC
8
DEFAULT_255_1_388
10
13.6625844
20
47.0890439
40
0.6638751
50
155.0367033
51
169.6002779
0
ARC
8
DEFAULT_255_1_388
10
13.5348302
20
47.1506336
40
0.5220662
50
136.7831557
51
155.2472983
0
ARC
8
DEFAULT_255_1_388
10
13.4910092
20
47.1878577
40
0.4646502
50
121.7633063
51
136.4281161
0
ARC
8
DEFAULT_255_1_388
10
13.5061932
20
47.1598049
40
0.4964979
50
95.6460018
51
121.5489589
0
ARC
8
DEFAULT_255_1_388
10
13.5238907
20
47.0350704
40
0.6223912
50
89.9245727
51
96.1375919
0
ARC
8
DEFAULT_255_1_388
10
13.5295612
20
47.0484721
40
0.6090084
50
76.6779212
51
90.456405
0
ARC
8
DEFAULT_255_1_388
10
13.5738425
20
47.227406
40
0.42469
50
47.4858803
51
76.9287069
0
ARC
8
DEFAULT_255_1_388
10
13.5573038
20
47.2161623
40
0.4441778
50
16.5424081
51
46.8934505
0
ARC
8
DEFAULT_255_1_388
10
13.3764088
20
47.1567265
40
0.6345318
50
5.4072971
51
17.0363711
0
ARC
8
DEFAULT_255_1_388
10
13.2145813
20
47.1307304
40
0.6250632
50
7.8888693
51
15.9242022
0
ARC
8
DEFAULT_255_1_388
10
13.4380799
20
47.1956309
40
0.3923364
50
15.7650676
51
27.9410069
0
ARC
8
DEFAULT_255_1_388
10
13.5622968
20
47.2621317
40
0.2514401
50
27.8167196
51
46.4007942
0
ARC
8
DEFAULT_255_1_388
10
13.5678809
20
47.2614882
40
0.2480958
50
47.4372362
51
75.0695672
0
ARC
8
DEFAULT_255_1_388
10
13.5331646
20
47.1406277
40
0.3738281
50
74.7009379
51
87.8124314
0
ARC
8
DEFAULT_255_1_388
10
13.5249262
20
47.0222659
40
0.4924321
50
87.3802571
51
90.0251599
0
ARC
8
DEFAULT_255_1_388
10
13.520591
20
47.1542997
40
0.3604218
50
89.3451886
51
108.5744412
0
ARC
8
DEFAULT_255_1_388
10
13.5051902
20
47.2120836
40
0.3007661
50
109.2998307
51
143.3037387
0
ARC
8
DEFAULT_255_1_388
10
13.5909192
20
47.1461584
40
0.4089031
50
143.075267
51
163.1918576
0
ARC
8
DEFAULT_255_1_388
10
13.8105026
20
47.0768652
40
0.6391492
50
162.9375929
51
174.6208776
0
ARC
8
DEFAULT_255_1_388
10
14.1059408
20
47.0444711
40
0.9363344
50
174.342123
51
180.1430283
0
ARC
8
DEFAULT_255_1_388
10
14.0011949
20
46.9101117
40
0.8315986
50
179.6817261
51
189.150555
0
ARC
8
DEFAULT_255_1_388
10
13.7198698
20
46.8632559
40
0.5464044
50
188.9911061
51
203.5772363
0
ARC
8
DEFAULT_255_1_388
10
13.598399
20
46.8128539
40
0.4149206
50
203.9075402
51
215.1312435
0
ARC
8
DEFAULT_255_1_388
10
13.4945788
20
46.7323907
40
0.2837747
50
213.9071511
51
263.8848919
0
ARC
8
DEFAULT_255_1_388
10
13.5086781
20
46.8206519
40
0.3730641
50
263.1757928
51
270.1031044
0
ARC
8
DEFAULT_255_1_388
10
13.512286
20
46.9609511
40
0.5133712
50
269.6722503
51
279.0606936
0
ARC
8
DEFAULT_255_1_388
10
13.5423016
20
46.779515
40
0.3294739
50
278.8749101
51
293.6349581
0
ARC
8
DEFAULT_255_1_388
10
13.5783219
20
46.6949251
40
0.2375405
50
293.8553806
51
310.0518171
0
ARC
8
DEFAULT_255_1_388
10
13.5788728
20
46.6879021
40
0.2318463
50
311.0644687
51
332.0111037
0
ARC
8
DEFAULT_255_1_388
10
13.4447402
20
46.7618702
40
0.3850112
50
331.6586806
51
343.2877423
0
ARC
8
DEFAULT_255_1_388
10
13.2126867
20
46.8331806
40
0.6277712
50
343.1446576
51
351.0103568
0
ARC
8
DEFAULT_255_1_388
10
13.049419
20
46.8631873
40
0.7937327
50
350.71248
51
351.1626997
0
LINE
8
DEFAULT_255_1_388
10
15.5758013
20
47.2589892
11
15.4014134
21
47.2589892
0
LINE
8
DEFAULT_255_1_388
10
14.6225408
20
46.7051042
11
14.7969288
21
46.7051042
0
ARC
8
DEFAULT_255_1_388
10
15.4754861
20
48.2653821
40
1.4087688
50
248.9196578
51
254.1442424
0
ARC
8
DEFAULT_255_1_388
10
15.2864741
20
47.7787805
40
0.8867498
50
241.6337352
51
249.0064643
0
ARC
8
DEFAULT_255_1_388
10
15.1145054
20
47.4636764
40
0.5277799
50
230.4982261
51
241.8087583
0
ARC
8
DEFAULT_255_1_388
10
15.0262825
20
47.3512686
40
0.3849419
50
227.4062979
51
229.9877433
0
ARC
8
DEFAULT_255_1_388
10
14.9714172
20
47.2977155
40
0.3084129
50
200.6782127
51
228.1765252
0
ARC
8
DEFAULT_255_1_388
10
14.9795541
20
47.2960277
40
0.315461
50
179.506278
51
199.8695278
0
ARC
8
DEFAULT_255_1_388
10
14.978513
20
47.3043671
40
0.3144584
50
132.4834401
51
181.0242352
0
ARC
8
DEFAULT_255_1_388
10
15.0454334
20
47.2411788
40
0.4063094
50
129.2526113
51
133.4249077
0
ARC
8
DEFAULT_255_1_388
10
15.0619926
20
47.2163619
40
0.436014
50
101.9878945
51
128.8741833
0
ARC
8
DEFAULT_255_1_388
10
15.1068342
20
47.022736
40
0.6347415
50
89.5906376
51
102.3170567
0
ARC
8
DEFAULT_255_1_388
10
15.1147653
20
47.0585586
40
0.5989122
50
77.2359491
51
90.3248968
0
ARC
8
DEFAULT_255_1_388
10
15.1380584
20
47.1673554
40
0.4876594
50
63.8379856
51
77.0808925
0
ARC
8
DEFAULT_255_1_388
10
15.1693118
20
47.2255882
40
0.4216191
50
45.9863127
51
64.1608798
0
ARC
8
DEFAULT_255_1_388
10
15.1986511
20
47.259099
40
0.3771394
50
32.2747934
51
45.6544796
0
ARC
8
DEFAULT_255_1_388
10
15.2061318
20
47.2612426
40
0.3696765
50
359.6507495
51
32.6129943
0
ARC
8
DEFAULT_255_1_388
10
15.1000501
20
47.2617788
40
0.3013762
50
359.469654
51
14.983205
0
ARC
8
DEFAULT_255_1_388
10
15.1793753
20
47.2830288
40
0.2192542
50
14.9781954
51
48.2004799
0
ARC
8
DEFAULT_255_1_388
10
15.1608864
20
47.2597937
40
0.2489048
50
48.5926661
51
74.1242559
0
ARC
8
DEFAULT_255_1_388
10
15.1233666
20
47.1359607
40
0.3782845
50
73.7889321
51
86.6653996
0
ARC
8
DEFAULT_255_1_388
10
15.1118481
20
47.0001955
40
0.5145025
50
86.2642725
51
90.0533288
0
ARC
8
DEFAULT_255_1_388
10
15.1086573
20
47.0446376
40
0.4700681
50
89.669455
51
99.2313411
0
ARC
8
DEFAULT_255_1_388
10
15.0813733
20
47.2071401
40
0.3052945
50
99.0695987
51
113.7659242
0
ARC
8
DEFAULT_255_1_388
10
15.0505728
20
47.2797772
40
0.226407
50
114.0402885
51
127.9848946
0
ARC
8
DEFAULT_255_1_388
10
15.0235204
20
47.3130884
40
0.1835045
50
127.7287217
51
176.7106493
0
ARC
8
DEFAULT_255_1_388
10
15.0998869
20
47.301721
40
0.2604907
50
175.1780759
51
180.0581213
0
ARC
8
DEFAULT_255_1_388
10
15.0050212
20
47.3003411
40
0.1656287
50
179.6140658
51
228.124674
0
ARC
8
DEFAULT_255_1_388
10
15.054757
20
47.346394
40
0.2332038
50
226.5785315
51
230.8792476
0
ARC
8
DEFAULT_255_1_388
10
15.1077056
20
47.4166908
40
0.3211664
50
231.4636401
51
241.9261664
0
ARC
8
DEFAULT_255_1_388
10
15.242384
20
47.6645349
40
0.6032345
50
241.7177136
51
248.3259138
0
ARC
8
DEFAULT_255_1_388
10
15.3982435
20
48.0506771
40
1.0196417
50
248.2007377
51
252.4527713
0
ARC
8
DEFAULT_255_1_388
10
15.5335961
20
48.4691092
40
1.4594143
50
252.3388938
51
254.347037
0
ARC
8
DEFAULT_255_1_388
10
14.6851262
20
45.4343095
40
1.6917621
50
71.0197462
51
74.4085467
0
ARC
8
DEFAULT_255_1_388
10
14.875835
20
45.9848144
40
1.1091618
50
66.1845203
51
71.086519
0
ARC
8
DEFAULT_255_1_388
10
15.0508899
20
46.3789439
40
0.6779073
50
59.3537334
51
66.269255
0
ARC
8
DEFAULT_255_1_388
10
15.1508625
20
46.5480777
40
0.4814366
50
49.1021732
51
59.3294421
0
ARC
8
DEFAULT_255_1_388
10
15.2429613
20
46.6530575
40
0.3417875
50
32.7924183
51
49.2503526
0
ARC
8
DEFAULT_255_1_388
10
15.2779227
20
46.6780311
40
0.2988789
50
31.121225
51
32.3977355
0
ARC
8
DEFAULT_255_1_388
10
15.2691405
20
46.6747728
40
0.3080861
50
8.1116803
51
30.7958224
0
ARC
8
DEFAULT_255_1_388
10
15.1779751
20
46.6592437
40
0.4005385
50
359.8390945
51
8.4707348
0
ARC
8
DEFAULT_255_1_388
10
15.2483798
20
46.6537751
40
0.3301608
50
337.4732479
51
0.7538283
0
ARC
8
DEFAULT_255_1_388
10
15.2684823
20
46.6515554
40
0.3107929
50
307.5917028
51
336.4313755
0
ARC
8
DEFAULT_255_1_388
10
15.2173881
20
46.7083509
40
0.3870096
50
307.6560665
51
308.4561779
0
ARC
8
DEFAULT_255_1_388
10
15.1908098
20
46.7491832
40
0.435591
50
284.3733666
51
307.1426212
0
ARC
8
DEFAULT_255_1_388
10
15.1350992
20
46.9541391
40
0.6479685
50
272.4384566
51
284.6464689
0
ARC
8
DEFAULT_255_1_388
10
15.1208377
20
47.1565434
40
0.8508149
50
269.9708517
51
272.8180721
0
ARC
8
DEFAULT_255_1_388
10
15.1160059
20
46.9273283
40
0.6216151
50
248.2707343
51
270.4054609
0
ARC
8
DEFAULT_255_1_388
10
15.1098931
20
46.9058673
40
0.5994203
50
246.1380358
51
248.054058
0
ARC
8
DEFAULT_255_1_388
10
15.0628073
20
46.8069705
40
0.4899388
50
233.1671897
51
246.4951656
0
ARC
8
DEFAULT_255_1_388
10
15.0004709
20
46.7228137
40
0.3852115
50
215.3403381
51
233.084328
0
ARC
8
DEFAULT_255_1_388
10
14.9698073
20
46.7005093
40
0.3472969
50
179.2419235
51
215.2648426
0
ARC
8
DEFAULT_255_1_388
10
15.0561624
20
46.7020979
40
0.259251
50
179.3355796
51
199.1045873
0
ARC
8
DEFAULT_255_1_388
10
15.0187765
20
46.6923223
40
0.2207454
50
199.8830064
51
232.7061328
0
ARC
8
DEFAULT_255_1_388
10
15.071904
20
46.7591456
40
0.306101
50
232.3736206
51
255.5136621
0
ARC
8
DEFAULT_255_1_388
10
15.1102546
20
46.8991177
40
0.4512213
50
255.2447928
51
267.5318292
0
ARC
8
DEFAULT_255_1_388
10
15.1201013
20
47.0377709
40
0.5901825
50
267.1564563
51
270.0294721
0
ARC
8
DEFAULT_255_1_388
10
15.1232338
20
46.9878623
40
0.5402814
50
269.6999944
51
278.1662446
0
ARC
8
DEFAULT_255_1_388
10
15.1520365
20
46.7931974
40
0.3435003
50
278.0229022
51
290.6255326
0
ARC
8
DEFAULT_255_1_388
10
15.1911532
20
46.6888547
40
0.2320666
50
290.6616368
51
307.0374127
0
ARC
8
DEFAULT_255_1_388
10
15.2249432
20
46.647404
40
0.1786372
50
306.3942078
51
355.303191
0
ARC
8
DEFAULT_255_1_388
10
15.1673725
20
46.6560186
40
0.2367516
50
354.3662092
51
0.0709489
0
ARC
8
DEFAULT_255_1_388
10
15.1833594
20
46.6585561
40
0.2207761
50
359.4175379
51
16.1975911
0
ARC
8
DEFAULT_255_1_388
10
15.2345711
20
46.6725954
40
0.1676828
50
16.4721294
51
52.6261798
0
ARC
8
DEFAULT_255_1_388
10
15.1422219
20
46.5506606
40
0.3206412
50
52.7381828
51
62.4979144
0
ARC
8
DEFAULT_255_1_388
10
14.9863972
20
46.2574236
40
0.6527035
50
62.2517425
51
68.1219454
0
ARC
8
DEFAULT_255_1_388
10
14.792946
20
45.7819951
40
1.1659797
50
68.006043
51
71.8055127
0
ARC
8
DEFAULT_255_1_388
10
14.5909368
20
45.1761723
40
1.8045908
50
71.718361
51
73.9260743
0
LINE
8
DEFAULT_255_1_388
10
16.6067684
20
47.6393898
11
16.6067684
21
47.5454191
0
LINE
8
DEFAULT_255_1_388
10
16.6067684
20
47.5454191
11
16.061919
21
46.3238
0
LINE
8
DEFAULT_255_1_388
10
16.061919
20
46.3238
11
15.8866275
21
46.3238
0
LINE
8
DEFAULT_255_1_388
10
15.8866275
20
46.3238
11
16.4296697
21
47.502048
0
LINE
8
DEFAULT_255_1_388
10
16.4296697
20
47.502048
11
15.7176609
21
47.502048
0
LINE
8
DEFAULT_255_1_388
10
15.7176609
20
47.502048
11
15.7176609
21
47.6393898
0
LINE
8
DEFAULT_255_1_388
10
15.7176609
20
47.6393898
11
16.6067684
21
47.6393898
0
LINE
8
DEFAULT_255_1_388
10
17.1615569
20
46.9508737
11
17.1615569
21
46.8144355
0
LINE
8
DEFAULT_255_1_388
10
17.1615569
20
46.8144355
11
16.7206175
21
46.8144355
0
LINE
8
DEFAULT_255_1_388
10
16.7206175
20
46.8144355
11
16.7206175
21
46.9508737
0
LINE
8
DEFAULT_255_1_388
10
16.7206175
20
46.9508737
11
17.1615569
21
46.9508737
0
LINE
8
DEFAULT_255_1_388
10
17.856398
20
47.6457148
11
17.856398
21
46.3238
0
LINE
8
DEFAULT_255_1_388
10
17.856398
20
46.3238
11
17.688335
21
46.3238
0
LINE
8
DEFAULT_255_1_388
10
17.688335
20
46.3238
11
17.688335
21
47.437895
0
LINE
8
DEFAULT_255_1_388
10
17.688335
20
47.437895
11
17.3513055
21
47.3141066
0
LINE
8
DEFAULT_255_1_388
10
17.3513055
20
47.3141066
11
17.3513055
21
47.4659055
0
LINE
8
DEFAULT_255_1_388
10
17.3513055
20
47.4659055
11
17.8301946
21
47.6457148
0
LINE
8
DEFAULT_255_1_388
10
17.8301946
20
47.6457148
11
17.856398
21
47.6457148
0
LINE
8
DEFAULT_255_1_388
10
19.2081304
20
46.4602382
11
19.2081304
21
46.3238
0
LINE
8
DEFAULT_255_1_388
10
19.2081304
20
46.3238
11
18.3461299
21
46.3238
0
LINE
8
DEFAULT_255_1_388
10
18.3461299
20
46.3238
11
18.3461299
21
46.4439741
0
LINE
8
DEFAULT_255_1_388
10
18.3461299
20
46.4439741
11
18.8015264
21
46.9499702
0
LINE
8
DEFAULT_255_1_388
10
18.4879896
20
47.2517607
11
18.3208301
21
47.2517607
0
LINE
8
DEFAULT_255_1_388
10
18.9000149
20
46.842446
11
18.5476248
21
46.4602382
0
LINE
8
DEFAULT_255_1_388
10
18.5476248
20
46.4602382
11
19.2081304
21
46.4602382
0
ARC
8
DEFAULT_255_1_388
10
17.2839324
20
48.2919983
40
2.0258655
50
318.5132526
51
320.7829045
0
ARC
8
DEFAULT_255_1_388
10
17.8787281
20
47.8078929
40
1.2589638
50
320.7372878
51
323.9739031
0
ARC
8
DEFAULT_255_1_388
10
18.3196212
20
47.4884554
40
0.7145141
50
323.8962701
51
328.64194
0
ARC
8
DEFAULT_255_1_388
10
18.549847
20
47.3464545
40
0.4440242
50
328.8294576
51
331.7891185
0
ARC
8
DEFAULT_255_1_388
10
18.662079
20
47.2885374
40
0.3177517
50
331.4254512
51
352.9365785
0
ARC
8
DEFAULT_255_1_388
10
18.677379
20
47.285105
40
0.3021496
50
353.2257659
51
0.0166158
0
ARC
8
DEFAULT_255_1_388
10
18.7010551
20
47.2876894
40
0.2784847
50
359.486299
51
15.9343185
0
ARC
8
DEFAULT_255_1_388
10
18.7580817
20
47.3030269
40
0.2194403
50
16.1712913
51
43.5286088
0
ARC
8
DEFAULT_255_1_388
10
18.7667762
20
47.3117191
40
0.2071504
50
43.4417391
51
83.1661095
0
ARC
8
DEFAULT_255_1_388
10
18.7516923
20
47.2288316
40
0.2912888
50
82.160179
51
90.1505708
0
ARC
8
DEFAULT_255_1_388
10
18.7481405
20
47.1684279
40
0.3517025
50
89.5460741
51
102.5418361
0
ARC
8
DEFAULT_255_1_388
10
18.7208125
20
47.2843933
40
0.2325748
50
102.1738499
51
129.206123
0
ARC
8
DEFAULT_255_1_388
10
18.7119578
20
47.2983664
40
0.2161591
50
129.72865
51
135.753947
0
ARC
8
DEFAULT_255_1_388
10
18.725606
20
47.2874728
40
0.2335433
50
136.1757367
51
166.3673339
0
ARC
8
DEFAULT_255_1_388
10
18.8388749
20
47.2571148
40
0.3507873
50
165.9090694
51
178.8684636
0
ARC
8
DEFAULT_255_1_388
10
18.936452
20
47.2518263
40
0.4484624
50
178.4391136
51
180.0083808
0
ARC
8
DEFAULT_255_1_388
10
18.7785222
20
47.2562197
40
0.4577138
50
163.2878482
51
180.5581842
0
ARC
8
DEFAULT_255_1_388
10
18.6883263
20
47.2810393
40
0.3641968
50
133.4540601
51
162.947111
0
ARC
8
DEFAULT_255_1_388
10
18.7084145
20
47.2596789
40
0.3935189
50
100.7869829
51
133.4382499
0
ARC
8
DEFAULT_255_1_388
10
18.747539
20
47.0854399
40
0.5720313
50
89.660664
51
101.3702276
0
ARC
8
DEFAULT_255_1_388
10
18.7549998
20
47.0923263
40
0.5651495
50
78.2172678
51
90.412935
0
ARC
8
DEFAULT_255_1_388
10
18.7949464
20
47.2750511
40
0.378122
50
55.9269121
51
78.4888449
0
ARC
8
DEFAULT_255_1_388
10
18.8170179
20
47.3131187
40
0.3342379
50
47.929771
51
55.4049217
0
ARC
8
DEFAULT_255_1_388
10
18.828471
20
47.3247618
40
0.3179217
50
4.334829
51
48.0560205
0
ARC
8
DEFAULT_255_1_388
10
18.7052511
20
47.3056487
40
0.442341
50
359.9251713
51
5.5971671
0
ARC
8
DEFAULT_255_1_388
10
18.7534666
20
47.3119728
40
0.3941854
50
337.8914027
51
358.9967534
0
ARC
8
DEFAULT_255_1_388
10
18.4482236
20
47.4297295
40
0.7213271
50
326.9132501
51
338.3508308
0
ARC
8
DEFAULT_255_1_388
10
17.9998348
20
47.7171105
40
1.2538973
50
319.6471833
51
327.0959558
0
ARC
8
DEFAULT_255_1_388
10
17.5685006
20
48.072905
40
1.8129975
50
317.2588228
51
319.9045804
0
LINE
8
DEFAULT_255_1_388
10
20.2101834
20
47.101769
11
20.2101834
21
46.8849135
0
LINE
8
DEFAULT_255_1_388
10
19.3798077
20
46.8623244
11
19.3798077
21
47.0855048
0
LINE
8
DEFAULT_255_1_388
10
20.043024
20
46.8397353
11
20.043024
21
47.1135153
0
LINE
8
DEFAULT_255_1_388
10
19.5469671
20
47.1261652
11
19.5469671
21
46.8587102
0
ARC
8
DEFAULT_255_1_388
10
18.8324168
20
46.8794118
40
1.3777776
50
353.8440855
51
0.2287917
0
ARC
8
DEFAULT_255_1_388
10
19.3543185
20
46.8211414
40
0.852639
50
344.4934746
51
353.9763743
0
ARC
8
DEFAULT_255_1_388
10
19.6909993
20
46.7254191
40
0.5026273
50
329.2803599
51
344.7473406
0
ARC
8
DEFAULT_255_1_388
10
19.8025488
20
46.6642038
40
0.3754848
50
324.9361395
51
328.6153007
0
ARC
8
DEFAULT_255_1_388
10
19.8451138
20
46.6344586
40
0.3235566
50
280.5801797
51
324.9173226
0
ARC
8
DEFAULT_255_1_388
10
19.7999767
20
46.8224236
40
0.5167077
50
269.5979457
51
281.6732777
0
ARC
8
DEFAULT_255_1_388
10
19.791867
20
46.8089113
40
0.5032026
50
256.6228565
51
270.5105488
0
ARC
8
DEFAULT_255_1_388
10
19.7466413
20
46.6347345
40
0.3233092
50
215.8618351
51
257.2787793
0
ARC
8
DEFAULT_255_1_388
10
19.861512
20
46.7118106
40
0.4615831
50
197.9695203
51
215.2622745
0
ARC
8
DEFAULT_255_1_388
10
20.1410796
20
46.8061641
40
0.7566307
50
187.8816486
51
198.2346584
0
ARC
8
DEFAULT_255_1_388
10
20.5864034
20
46.8704453
40
1.2065653
50
180.8977266
51
188.0054894
0
ARC
8
DEFAULT_255_1_388
10
20.8914248
20
46.88194
40
1.5117443
50
180.7434591
51
181.152202
0
ARC
8
DEFAULT_255_1_388
10
20.7239243
20
47.0909371
40
1.3441277
50
173.7674302
51
180.2315596
0
ARC
8
DEFAULT_255_1_388
10
20.2157112
20
47.1483779
40
0.8326847
50
164.3058537
51
173.9000553
0
ARC
8
DEFAULT_255_1_388
10
19.8881112
20
47.2427652
40
0.4917711
50
148.7922028
51
164.5682288
0
ARC
8
DEFAULT_255_1_388
10
19.781185
20
47.3024457
40
0.3694204
50
144.5883979
51
148.1161588
0
ARC
8
DEFAULT_255_1_388
10
19.7424595
20
47.3294667
40
0.322202
50
101.6440149
51
144.5142619
0
ARC
8
DEFAULT_255_1_388
10
19.7902787
20
47.1394337
40
0.5180451
50
89.528284
51
102.5820197
0
ARC
8
DEFAULT_255_1_388
10
19.7991779
20
47.1350376
40
0.5224441
50
77.0437914
51
90.508231
0
ARC
8
DEFAULT_255_1_388
10
19.8444033
20
47.3198272
40
0.3322297
50
48.2777708
51
77.4996087
0
ARC
8
DEFAULT_255_1_388
10
19.8525773
20
47.3343557
40
0.315966
50
36.3141586
51
47.6307332
0
ARC
8
DEFAULT_255_1_388
10
19.7548495
20
47.2685159
40
0.4337313
50
18.2931065
51
35.6770203
0
ARC
8
DEFAULT_255_1_388
10
19.4687336
20
47.1703107
40
0.7362203
50
8.0246996
51
18.5605636
0
ARC
8
DEFAULT_255_1_388
10
19.0003691
20
47.1011432
40
1.2096583
50
1.127539
51
8.1718423
0
ARC
8
DEFAULT_255_1_388
10
18.6354825
20
47.0868374
40
1.5747719
50
0.5432713
51
1.38669
0
ARC
8
DEFAULT_255_1_388
10
18.8412204
20
47.1175163
40
1.2018103
50
359.8092569
51
4.9408001
0
ARC
8
DEFAULT_255_1_388
10
19.3148785
20
47.15979
40
0.7262727
50
4.8364937
51
12.2906017
0
ARC
8
DEFAULT_255_1_388
10
19.624825
20
47.2288485
40
0.4087324
50
12.0806994
51
23.8171225
0
ARC
8
DEFAULT_255_1_388
10
19.7568646
20
47.2847508
40
0.2653719
50
24.2874621
51
31.3934353
0
ARC
8
DEFAULT_255_1_388
10
19.8159082
20
47.3233822
40
0.1948607
50
30.7407708
51
82.4658033
0
ARC
8
DEFAULT_255_1_388
10
19.7956742
20
47.2240017
40
0.2961198
50
81.1057101
51
90.2187368
0
ARC
8
DEFAULT_255_1_388
10
19.7916554
20
47.2530421
40
0.2670929
50
89.380395
51
105.6763916
0
ARC
8
DEFAULT_255_1_388
10
19.7710276
20
47.328032
40
0.1893189
50
105.7980655
51
149.7387869
0
ARC
8
DEFAULT_255_1_388
10
19.8907416
20
47.2560719
40
0.3289892
50
149.4208441
51
163.628295
0
ARC
8
DEFAULT_255_1_388
10
20.1259646
20
47.1843345
40
0.5749004
50
163.3764549
51
172.141138
0
ARC
8
DEFAULT_255_1_388
10
20.4972367
20
47.1311582
40
0.9499585
50
172.0258462
51
178.0705453
0
ARC
8
DEFAULT_255_1_388
10
20.839392
20
47.1149682
40
1.2924734
50
177.8639301
51
179.5036263
0
ARC
8
DEFAULT_255_1_388
10
20.7174939
20
46.8546151
40
1.170534
50
179.7995545
51
185.246089
0
ARC
8
DEFAULT_255_1_388
10
20.2626532
20
46.8115404
40
0.7136613
50
185.1411911
51
193.0082205
0
ARC
8
DEFAULT_255_1_388
10
19.9652793
20
46.7412441
40
0.4080987
50
192.7897338
51
205.2507384
0
ARC
8
DEFAULT_255_1_388
10
19.8475003
20
46.6886538
40
0.2791522
50
205.8001921
51
211.2545876
0
ARC
8
DEFAULT_255_1_388
10
19.7886542
20
46.6492132
40
0.2084074
50
210.3789935
51
238.4007996
0
ARC
8
DEFAULT_255_1_388
10
19.7864628
20
46.6544786
40
0.2117943
50
239.6521916
51
265.9793852
0
ARC
8
DEFAULT_255_1_388
10
19.7960477
20
46.7301358
40
0.2879689
50
265.1324455
51
270.0603288
0
ARC
8
DEFAULT_255_1_388
10
19.7992854
20
46.6936418
40
0.2514919
50
269.3314378
51
287.2180039
0
ARC
8
DEFAULT_255_1_388
10
19.8147936
20
46.6370291
40
0.1928357
50
287.7957942
51
329.0808983
0
ARC
8
DEFAULT_255_1_388
10
19.7070693
20
46.7042651
40
0.319808
50
328.6635261
51
343.3325043
0
ARC
8
DEFAULT_255_1_388
10
19.4626152
20
46.7804195
40
0.5758408
50
343.0498092
51
351.9392499
0
ARC
8
DEFAULT_255_1_388
10
19.0725473
20
46.8379205
40
0.9701202
50
351.8071632
51
357.7957897
0
ARC
8
DEFAULT_255_1_388
10
18.709095
20
46.8567724
40
1.3340376
50
357.5870923
51
359.2682493
0
LINE
8
DEFAULT_255_1_388
10
21.2492825
20
47.101769
11
21.2492825
21
46.8849135
0
LINE
8
DEFAULT_255_1_388
10
20.4189068
20
46.8623244
11
20.4189068
21
47.0855048
0
LINE
8
DEFAULT_255_1_388
10
21.0821231
20
46.8397353
11
21.0821231
21
47.1135153
0
LINE
8
DEFAULT_255_1_388
10
20.5860662
20
47.1261652
11
20.5860662
21
46.8587102
0
ARC
8
DEFAULT_255_1_388
10
19.8715159
20
46.8794118
40
1.3777776
50
353.8440855
51
0.2287917
0
ARC
8
DEFAULT_255_1_388
10
20.3934177
20
46.8211414
40
0.852639
50
344.4934746
51
353.9763743
0
ARC
8
DEFAULT_255_1_388
10
20.7300984
20
46.7254191
40
0.5026273
50
329.2803599
51
344.7473406
0
ARC
8
DEFAULT_255_1_388
10
20.8416479
20
46.6642038
40
0.3754848
50
324.9361395
51
328.6153007
0
ARC
8
DEFAULT_255_1_388
10
20.8842129
20
46.6344586
40
0.3235566
50
280.5801797
51
324.9173226
0
ARC
8
DEFAULT_255_1_388
10
20.8390758
20
46.8224236
40
0.5167077
50
269.5979457
51
281.6732777
0
ARC
8
DEFAULT_255_1_388
10
20.8309661
20
46.8089113
40
0.5032026
50
256.6228565
51
270.5105488
0
ARC
8
DEFAULT_255_1_388
10
20.7857404
20
46.6347345
40
0.3233092
50
215.8618351
51
257.2787793
0
ARC
8
DEFAULT_255_1_388
10
20.9006111
20
46.7118106
40
0.4615831
50
197.9695203
51
215.2622745
0
ARC
8
DEFAULT_255_1_388
10
21.1801787
20
46.8061641
40
0.7566307
50
187.8816486
51
198.2346584
0
ARC
8
DEFAULT_255_1_388
10
21.6255025
20
46.8704453
40
1.2065653
50
180.8977266
51
188.0054894
0
ARC
8
DEFAULT_255_1_388
10
21.9305239
20
46.88194
40
1.5117443
50
180.7434591
51
181.152202
0
ARC
8
DEFAULT_255_1_388
10
21.7630235
20
47.0909371
40
1.3441277
50
173.7674302
51
180.2315596
0
ARC
8
DEFAULT_255_1_388
10
21.2548104
20
47.1483779
40
0.8326847
50
164.3058537
51
173.9000553
0
ARC
8
DEFAULT_255_1_388
10
20.9272104
20
47.2427652
40
0.4917711
50
148.7922028
51
164.5682288
0
ARC
8
DEFAULT_255_1_388
10
20.8202841
20
47.3024457
40
0.3694204
50
144.5883979
51
148.1161588
0
ARC
8
DEFAULT_255_1_388
10
20.7815586
20
47.3294667
40
0.322202
50
101.6440149
51
144.5142619
0
ARC
8
DEFAULT_255_1_388
10
20.8293779
20
47.1394337
40
0.5180451
50
89.528284
51
102.5820197
0
ARC
8
DEFAULT_255_1_388
10
20.838277
20
47.1350376
40
0.5224441
50
77.0437914
51
90.508231
0
ARC
8
DEFAULT_255_1_388
10
20.8835024
20
47.3198272
40
0.3322297
50
48.2777708
51
77.4996087
0
ARC
8
DEFAULT_255_1_388
10
20.8916764
20
47.3343557
40
0.315966
50
36.3141586
51
47.6307332
0
ARC
8
DEFAULT_255_1_388
10
20.7939486
20
47.2685159
40
0.4337313
50
18.2931065
51
35.6770203
0
ARC
8
DEFAULT_255_1_388
10
20.5078327
20
47.1703107
40
0.7362203
50
8.0246996
51
18.5605636
0
ARC
8
DEFAULT_255_1_388
10
20.0394683
20
47.1011432
40
1.2096583
50
1.127539
51
8.1718423
0
ARC
8
DEFAULT_255_1_388
10
19.6745816
20
47.0868374
40
1.5747719
50
0.5432713
51
1.38669
0
ARC
8
DEFAULT_255_1_388
10
19.8803195
20
47.1175163
40
1.2018103
50
359.8092569
51
4.9408001
0
ARC
8
DEFAULT_255_1_388
10
20.3539776
20
47.15979
40
0.7262727
50
4.8364937
51
12.2906017
0
ARC
8
DEFAULT_255_1_388
10
20.6639241
20
47.2288485
40
0.4087324
50
12.0806994
51
23.8171225
0
ARC
8
DEFAULT_255_1_388
10
20.7959637
20
47.2847508
40
0.2653719
50
24.2874621
51
31.3934353
0
ARC
8
DEFAULT_255_1_388
10
20.8550073
20
47.3233822
40
0.1948607
50
30.7407708
51
82.4658033
0
ARC
8
DEFAULT_255_1_388
10
20.8347734
20
47.2240017
40
0.2961198
50
81.1057101
51
90.2187368
0
ARC
8
DEFAULT_255_1_388
10
20.8307545
20
47.2530421
40
0.2670929
50
89.380395
51
105.6763916
0
ARC
8
DEFAULT_255_1_388
10
20.8101267
20
47.328032
40
0.1893189
50
105.7980655
51
149.7387869
0
ARC
8
DEFAULT_255_1_388
10
20.9298407
20
47.2560719
40
0.3289892
50
149.4208441
51
163.628295
0
ARC
8
DEFAULT_255_1_388
10
21.1650637
20
47.1843345
40
0.5749004
50
163.3764549
51
172.141138
0
ARC
8
DEFAULT_255_1_388
10
21.5363359
20
47.1311582
40
0.9499585
50
172.0258462
51
178.0705453
0
ARC
8
DEFAULT_255_1_388
10
21.8784911
20
47.1149682
40
1.2924734
50
177.8639301
51
179.5036263
0
ARC
8
DEFAULT_255_1_388
10
21.756593
20
46.8546151
40
1.170534
50
179.7995545
51
185.246089
0
ARC
8
DEFAULT_255_1_388
10
21.3017523
20
46.8115404
40
0.7136613
50
185.1411911
51
193.0082205
0
ARC
8
DEFAULT_255_1_388
10
21.0043784
20
46.7412441
40
0.4080987
50
192.7897338
51
205.2507384
0
ARC
8
DEFAULT_255_1_388
10
20.8865994
20
46.6886538
40
0.2791522
50
205.8001921
51
211.2545876
0
ARC
8
DEFAULT_255_1_388
10
20.8277533
20
46.6492132
40
0.2084074
50
210.3789935
51
238.4007996
0
ARC
8
DEFAULT_255_1_388
10
20.8255619
20
46.6544786
40
0.2117943
50
239.6521916
51
265.9793852
0
ARC
8
DEFAULT_255_1_388
10
20.8351468
20
46.7301358
40
0.2879689
50
265.1324455
51
270.0603288
0
ARC
8
DEFAULT_255_1_388
10
20.8383845
20
46.6936418
40
0.2514919
50
269.3314378
51
287.2180039
0
ARC
8
DEFAULT_255_1_388
10
20.8538927
20
46.6370291
40
0.1928357
50
287.7957942
51
329.0808983
0
ARC
8
DEFAULT_255_1_388
10
20.7461684
20
46.7042651
40
0.319808
50
328.6635261
51
343.3325043
0
ARC
8
DEFAULT_255_1_388
10
20.5017143
20
46.7804195
40
0.5758408
50
343.0498092
51
351.9392499
0
ARC
8
DEFAULT_255_1_388
10
20.1116464
20
46.8379205
40
0.9701202
50
351.8071632
51
357.7957897
0
ARC
8
DEFAULT_255_1_388
10
19.7481941
20
46.8567724
40
1.3340376
50
357.5870923
51
359.2682493
0
LINE
8
DEFAULT_255_1_388
10
4.1680903
20
45.6549898
11
4.1680903
21
44.4812596
0
LINE
8
DEFAULT_255_1_388
10
4.1680903
20
44.4812596
11
4.7915498
21
44.4812596
0
LINE
8
DEFAULT_255_1_388
10
4.7915498
20
44.4812596
11
4.7915498
21
44.3394
0
LINE
8
DEFAULT_255_1_388
10
4.7915498
20
44.3394
11
3.9937024
21
44.3394
0
LINE
8
DEFAULT_255_1_388
10
3.9937024
20
44.3394
11
3.9937024
21
45.6549898
0
LINE
8
DEFAULT_255_1_388
10
3.9937024
20
45.6549898
11
4.1680903
21
45.6549898
0
LINE
8
DEFAULT_255_1_388
10
5.4421162
20
45.4290987
11
5.4421162
21
45.0450838
0
LINE
8
DEFAULT_255_1_388
10
5.4421162
20
45.0450838
11
5.8089634
21
45.0450838
0
LINE
8
DEFAULT_255_1_388
10
5.8089634
20
45.0450838
11
5.8089634
21
44.8869601
0
LINE
8
DEFAULT_255_1_388
10
5.8089634
20
44.8869601
11
5.4421162
21
44.8869601
0
LINE
8
DEFAULT_255_1_388
10
5.4421162
20
44.8869601
11
5.4421162
21
44.4713204
0
LINE
8
DEFAULT_255_1_388
10
5.4421162
20
44.4713204
11
5.2740532
21
44.4713204
0
LINE
8
DEFAULT_255_1_388
10
5.2740532
20
44.4713204
11
5.2740532
21
44.8869601
0
LINE
8
DEFAULT_255_1_388
10
5.2740532
20
44.8869601
11
4.9072061
21
44.8869601
0
LINE
8
DEFAULT_255_1_388
10
4.9072061
20
44.8869601
11
4.9072061
21
45.0450838
0
LINE
8
DEFAULT_255_1_388
10
4.9072061
20
45.0450838
11
5.2740532
21
45.0450838
0
LINE
8
DEFAULT_255_1_388
10
5.2740532
20
45.0450838
11
5.2740532
21
45.4290987
0
LINE
8
DEFAULT_255_1_388
10
5.2740532
20
45.4290987
11
5.4421162
21
45.4290987
0
LINE
8
DEFAULT_255_1_388
10
5.0166342
20
5.3069842
11
5.0166342
21
4.8244808
0
LINE
8
DEFAULT_255_1_388
10
4.0028349
20
5.2464454
11
4.0028349
21
5.3611981
0
LINE
8
DEFAULT_255_1_388
10
5.0166342
20
5.5816678
11
4.8431498
21
5.5816678
0
LINE
8
DEFAULT_255_1_388
10
4.1772228
20
5.3657159
11
4.1772228
21
5.2581917
0
LINE
8
DEFAULT_255_1_388
10
4.8440534
20
4.8705626
11
4.8440534
21
5.1660282
0
LINE
8
DEFAULT_255_1_388
10
4.8440534
20
5.1660282
11
4.5395521
21
5.1660282
0
LINE
8
DEFAULT_255_1_388
10
4.5395521
20
5.1660282
11
4.5395521
21
5.3069842
0
LINE
8
DEFAULT_255_1_388
10
4.5395521
20
5.3069842
11
5.0166342
21
5.3069842
0
ARC
8
DEFAULT_255_1_388
10
4.6980942
20
5.0487284
40
0.3895571
50
295.8437277
51
324.8549962
0
ARC
8
DEFAULT_255_1_388
10
4.6513325
20
5.1333619
40
0.4861381
50
291.5691164
51
296.4556269
0
ARC
8
DEFAULT_255_1_388
10
4.5938327
20
5.2869801
40
0.6501442
50
278.6622213
51
291.3047061
0
ARC
8
DEFAULT_255_1_388
10
4.5556359
20
5.5286557
40
0.8948168
50
270.0200506
51
278.7494673
0
ARC
8
DEFAULT_255_1_388
10
4.5512563
20
5.7132453
40
1.0794166
50
270.0022372
51
270.2490917
0
ARC
8
DEFAULT_255_1_388
10
4.5470456
20
5.2173827
40
0.5835695
50
253.5785313
51
270.4175629
0
ARC
8
DEFAULT_255_1_388
10
4.5275452
20
5.1418625
40
0.5056241
50
238.8203954
51
253.2788387
0
ARC
8
DEFAULT_255_1_388
10
4.5253367
20
5.1361224
40
0.4995712
50
206.7883476
51
238.696262
0
ARC
8
DEFAULT_255_1_388
10
4.6128763
20
5.1885847
40
0.6014056
50
206.1137778
51
207.4912776
0
ARC
8
DEFAULT_255_1_388
10
4.6795599
20
5.2169284
40
0.6737692
50
188.6922336
51
205.782076
0
ARC
8
DEFAULT_255_1_388
10
4.8883958
20
5.2524455
40
0.8855812
50
180.3881972
51
188.9218085
0
ARC
8
DEFAULT_255_1_388
10
5.0265116
20
5.3675622
40
1.0236965
50
170.2024645
51
180.3561986
0
ARC
8
DEFAULT_255_1_388
10
4.6706266
20
5.4312101
40
0.6621746
50
154.2856519
51
170.3893388
0
ARC
8
DEFAULT_255_1_388
10
4.526423
20
5.4972192
40
0.5036209
50
139.8400879
51
153.9334639
0
ARC
8
DEFAULT_255_1_388
10
4.4860133
20
5.5295716
40
0.4518751
50
98.4190017
51
139.6707015
0
ARC
8
DEFAULT_255_1_388
10
4.5287101
20
5.3219755
40
0.6635912
50
89.7660128
51
99.4415389
0
ARC
8
DEFAULT_255_1_388
10
4.5360497
20
5.3293517
40
0.6562258
50
78.0552044
51
90.4042252
0
ARC
8
DEFAULT_255_1_388
10
4.5815561
20
5.5339661
40
0.4466287
50
54.6380186
51
78.3338577
0
ARC
8
DEFAULT_255_1_388
10
4.6029859
20
5.5700444
40
0.4048184
50
50.0313964
51
54.1562739
0
ARC
8
DEFAULT_255_1_388
10
4.5908753
20
5.5591798
40
0.4209308
50
18.1092229
51
49.7179911
0
ARC
8
DEFAULT_255_1_388
10
4.4269833
20
5.4991399
40
0.5953982
50
7.967396
51
18.698492
0
ARC
8
DEFAULT_255_1_388
10
4.4439094
20
5.5130236
40
0.4050986
50
9.7558763
51
27.3214087
0
ARC
8
DEFAULT_255_1_388
10
4.5707559
20
5.5764087
40
0.2633168
50
27.736147
51
84.5257861
0
ARC
8
DEFAULT_255_1_388
10
4.5338968
20
5.3914988
40
0.4513019
50
82.1064239
51
90.1997295
0
ARC
8
DEFAULT_255_1_388
10
4.5282985
20
5.4486501
40
0.3941684
50
89.4148952
51
105.5824837
0
ARC
8
DEFAULT_255_1_388
10
4.4993865
20
5.5539043
40
0.2850167
50
105.6678541
51
144.2649156
0
ARC
8
DEFAULT_255_1_388
10
4.5998758
20
5.4824024
40
0.4083468
50
144.3560675
51
162.8564185
0
ARC
8
DEFAULT_255_1_388
10
4.83432
20
5.4071083
40
0.6545749
50
162.6076338
51
173.6779811
0
ARC
8
DEFAULT_255_1_388
10
5.1787315
20
5.3652422
40
1.0015089
50
173.4670996
51
179.9729015
0
ARC
8
DEFAULT_255_1_388
10
4.9640186
20
5.2534636
40
0.78681
50
179.6556955
51
190.007958
0
ARC
8
DEFAULT_255_1_388
10
4.7034468
20
5.205666
40
0.5218997
50
189.8117884
51
206.6795375
0
ARC
8
DEFAULT_255_1_388
10
4.6083914
20
5.1613514
40
0.4170788
50
207.1031171
51
217.7074698
0
ARC
8
DEFAULT_255_1_388
10
4.5370344
20
5.0992596
40
0.3226945
50
216.7345117
51
265.6812141
0
ARC
8
DEFAULT_255_1_388
10
4.5517486
20
5.201003
40
0.4253149
50
264.7367524
51
270.0610826
0
ARC
8
DEFAULT_255_1_388
10
4.5543672
20
5.5205173
40
0.7448321
50
269.8334494
51
276.0538364
0
ARC
8
DEFAULT_255_1_388
10
4.5776534
20
5.3065924
40
0.5296446
50
275.9894423
51
284.4615914
0
ARC
8
DEFAULT_255_1_388
10
4.5998047
20
5.213357
40
0.4338353
50
284.7038488
51
286.4938196
0
ARC
8
DEFAULT_255_1_388
10
4.6457196
20
5.0654371
40
0.2789738
50
286.0770429
51
304.2629628
0
ARC
8
DEFAULT_255_1_388
10
4.6607354
20
5.040868
40
0.2502188
50
304.5886247
51
317.1074126
0
LINE
8
DEFAULT_255_1_388
10
6.3168634
20
5.9674898
11
6.3168634
21
4.6519
0
LINE
8
DEFAULT_255_1_388
10
6.3168634
20
4.6519
11
6.1424755
21
4.6519
0
LINE
8
DEFAULT_255_1_388
10
6.1424755
20
4.6519
11
5.4801627
21
5.6656993
0
LINE
8
DEFAULT_255_1_388
10
5.4801627
20
5.6656993
11
5.4801627
21
4.6519
0
LINE
8
DEFAULT_255_1_388
10
5.4801627
20
4.6519
11
5.3057748
21
4.6519
0
LINE
8
DEFAULT_255_1_388
10
5.3057748
20
4.6519
11
5.3057748
21
5.9674898
0
LINE
8
DEFAULT_255_1_388
10
5.3057748
20
5.9674898
11
5.4801627
21
5.9674898
0
LINE
8
DEFAULT_255_1_388
10
5.4801627
20
5.9674898
11
6.1442826
21
4.9491727
0
LINE
8
DEFAULT_255_1_388
10
6.1442826
20
4.9491727
11
6.1442826
21
5.9674898
0
LINE
8
DEFAULT_255_1_388
10
6.1442826
20
5.9674898
11
6.3168634
21
5.9674898
0
LINE
8
DEFAULT_255_1_388
10
6.9891154
20
4.6519
11
6.6249789
21
4.6519
0
LINE
8
DEFAULT_255_1_388
10
6.6249789
20
4.6519
11
6.6249789
21
5.9674898
0
LINE
8
DEFAULT_255_1_388
10
6.6249789
20
5.9674898
11
6.9963439
21
5.9674898
0
LINE
8
DEFAULT_255_1_388
10
7.5764323
20
5.3539696
11
7.5764323
21
5.2699381
0
LINE
8
DEFAULT_255_1_388
10
7.0008617
20
5.8247267
11
6.7984633
21
5.8247267
0
LINE
8
DEFAULT_255_1_388
10
6.7984633
20
5.8247267
11
6.7984633
21
4.7937596
0
LINE
8
DEFAULT_255_1_388
10
6.7984633
20
4.7937596
11
6.9809833
21
4.7937596
0
LINE
8
DEFAULT_255_1_388
10
7.404755
20
5.2735523
11
7.404755
21
5.3503553
0
ARC
8
DEFAULT_255_1_388
10
7.0007234
20
5.3076436
40
0.6598608
50
75.4100343
51
90.3802731
0
ARC
8
DEFAULT_255_1_388
10
7.0265479
20
5.4152691
40
0.5492049
50
60.1455157
51
75.1889627
0
ARC
8
DEFAULT_255_1_388
10
7.0444071
20
5.4463914
40
0.5133226
50
26.525419
51
60.1451222
0
ARC
8
DEFAULT_255_1_388
10
6.9183857
20
5.3795642
40
0.6559324
50
7.4029944
51
26.832209
0
ARC
8
DEFAULT_255_1_388
10
6.7390254
20
5.3516229
40
0.8374103
50
0.1605597
51
7.7176135
0
ARC
8
DEFAULT_255_1_388
10
6.7574654
20
5.2656321
40
0.8189782
50
348.7289744
51
0.30125
0
ARC
8
DEFAULT_255_1_388
10
6.9438118
20
5.2286156
40
0.628991
50
333.0706936
51
348.7181455
0
ARC
8
DEFAULT_255_1_388
10
7.0525747
20
5.1695449
40
0.5052808
50
299.2531435
51
333.4571133
0
ARC
8
DEFAULT_255_1_388
10
7.0119777
20
5.2466629
40
0.5924066
50
278.1072193
51
299.0340218
0
ARC
8
DEFAULT_255_1_388
10
6.9831826
20
5.4162979
40
0.7644209
50
270.4446841
51
278.4508355
0
ARC
8
DEFAULT_255_1_388
10
6.985531
20
5.31173
40
0.5179903
50
269.4969684
51
284.0204874
0
ARC
8
DEFAULT_255_1_388
10
7.0255028
20
5.1581415
40
0.3592968
50
283.7699076
51
318.1557121
0
ARC
8
DEFAULT_255_1_388
10
6.9875573
20
5.1865399
40
0.4065308
50
318.7417595
51
343.687252
0
ARC
8
DEFAULT_255_1_388
10
6.7846152
20
5.2499275
40
0.6191194
50
343.3324891
51
355.8548594
0
ARC
8
DEFAULT_255_1_388
10
6.548519
20
5.2723719
40
0.856237
50
355.4988754
51
0.0789913
0
ARC
8
DEFAULT_255_1_388
10
6.6365989
20
5.355108
40
0.7681709
50
359.6455047
51
9.8607559
0
ARC
8
DEFAULT_255_1_388
10
6.9021712
20
5.4030664
40
0.498312
50
9.6573037
51
26.1931522
0
ARC
8
DEFAULT_255_1_388
10
7.0065787
20
5.4515587
40
0.3832303
50
26.5777895
51
40.1533752
0
ARC
8
DEFAULT_255_1_388
10
7.0353452
20
5.474002
40
0.3467742
50
40.3839958
51
80.1430923
0
ARC
8
DEFAULT_255_1_388
10
6.9985708
20
5.3109486
40
0.5137832
50
79.2153636
51
89.7445174
0
LINE
8
DEFAULT_255_1_388
10
5.1158637
20
12.5894
11
4.9902682
21
12.9327545
0
LINE
8
DEFAULT_255_1_388
10
4.9902682
20
12.9327545
11
4.4390939
21
12.9327545
0
LINE
8
DEFAULT_255_1_388
10
4.4390939
20
12.9327545
11
4.3153056
21
12.5894
0
LINE
8
DEFAULT_255_1_388
10
4.3153056
20
12.5894
11
4.1363998
21
12.5894
0
LINE
8
DEFAULT_255_1_388
10
4.1363998
20
12.5894
11
4.6387816
21
13.9049898
0
LINE
8
DEFAULT_255_1_388
10
4.6387816
20
13.9049898
11
4.7905805
21
13.9049898
0
LINE
8
DEFAULT_255_1_388
10
4.7905805
20
13.9049898
11
5.2938659
21
12.5894
0
LINE
8
DEFAULT_255_1_388
10
5.2938659
20
12.5894
11
5.1158637
21
12.5894
0
LINE
8
DEFAULT_255_1_388
10
4.7146811
20
13.6908451
11
4.4915006
21
13.0755177
0
LINE
8
DEFAULT_255_1_388
10
4.4915006
20
13.0755177
11
4.938765
21
13.0755177
0
LINE
8
DEFAULT_255_1_388
10
4.938765
20
13.0755177
11
4.7146811
21
13.6908451
0
LINE
8
DEFAULT_255_1_388
10
6.3438078
20
13.5245892
11
6.1694198
21
13.5245892
0
LINE
8
DEFAULT_255_1_388
10
5.3905473
20
12.9707042
11
5.5649352
21
12.9707042
0
ARC
8
DEFAULT_255_1_388
10
6.2434925
20
14.5309821
40
1.4087688
50
248.9196578
51
254.1442424
0
ARC
8
DEFAULT_255_1_388
10
6.0544805
20
14.0443805
40
0.8867498
50
241.6337352
51
249.0064643
0
ARC
8
DEFAULT_255_1_388
10
5.8825119
20
13.7292764
40
0.5277799
50
230.4982261
51
241.8087583
0
ARC
8
DEFAULT_255_1_388
10
5.794289
20
13.6168686
40
0.3849419
50
227.4062979
51
229.9877433
0
ARC
8
DEFAULT_255_1_388
10
5.7394236
20
13.5633155
40
0.3084129
50
200.6782127
51
228.1765252
0
ARC
8
DEFAULT_255_1_388
10
5.7475605
20
13.5616277
40
0.315461
50
179.506278
51
199.8695278
0
ARC
8
DEFAULT_255_1_388
10
5.7465194
20
13.5699671
40
0.3144584
50
132.4834401
51
181.0242352
0
ARC
8
DEFAULT_255_1_388
10
5.8134398
20
13.5067788
40
0.4063094
50
129.2526113
51
133.4249077
0
ARC
8
DEFAULT_255_1_388
10
5.8299991
20
13.4819619
40
0.436014
50
101.9878945
51
128.8741833
0
ARC
8
DEFAULT_255_1_388
10
5.8748406
20
13.288336
40
0.6347415
50
89.5906376
51
102.3170567
0
ARC
8
DEFAULT_255_1_388
10
5.8827718
20
13.3241586
40
0.5989122
50
77.2359491
51
90.3248968
0
ARC
8
DEFAULT_255_1_388
10
5.9060649
20
13.4329554
40
0.4876594
50
63.8379856
51
77.0808925
0
ARC
8
DEFAULT_255_1_388
10
5.9373182
20
13.4911882
40
0.4216191
50
45.9863127
51
64.1608798
0
ARC
8
DEFAULT_255_1_388
10
5.9666576
20
13.524699
40
0.3771394
50
32.2747934
51
45.6544796
0
ARC
8
DEFAULT_255_1_388
10
5.9741382
20
13.5268426
40
0.3696765
50
359.6507495
51
32.6129943
0
ARC
8
DEFAULT_255_1_388
10
5.8680565
20
13.5273788
40
0.3013762
50
359.469654
51
14.983205
0
ARC
8
DEFAULT_255_1_388
10
5.9473817
20
13.5486288
40
0.2192542
50
14.9781954
51
48.2004799
0
ARC
8
DEFAULT_255_1_388
10
5.9288928
20
13.5253937
40
0.2489048
50
48.5926661
51
74.1242559
0
ARC
8
DEFAULT_255_1_388
10
5.8913731
20
13.4015607
40
0.3782845
50
73.7889321
51
86.6653996
0
ARC
8
DEFAULT_255_1_388
10
5.8798545
20
13.2657955
40
0.5145025
50
86.2642725
51
90.0533288
0
ARC
8
DEFAULT_255_1_388
10
5.8766638
20
13.3102376
40
0.4700681
50
89.669455
51
99.2313411
0
ARC
8
DEFAULT_255_1_388
10
5.8493798
20
13.4727401
40
0.3052945
50
99.0695987
51
113.7659242
0
ARC
8
DEFAULT_255_1_388
10
5.8185792
20
13.5453772
40
0.226407
50
114.0402885
51
127.9848946
0
ARC
8
DEFAULT_255_1_388
10
5.7915268
20
13.5786884
40
0.1835045
50
127.7287217
51
176.7106493
0
ARC
8
DEFAULT_255_1_388
10
5.8678933
20
13.567321
40
0.2604907
50
175.1780759
51
180.0581213
0
ARC
8
DEFAULT_255_1_388
10
5.7730277
20
13.5659411
40
0.1656287
50
179.6140658
51
228.124674
0
ARC
8
DEFAULT_255_1_388
10
5.8227634
20
13.611994
40
0.2332038
50
226.5785315
51
230.8792476
0
ARC
8
DEFAULT_255_1_388
10
5.8757121
20
13.6822908
40
0.3211664
50
231.4636401
51
241.9261664
0
ARC
8
DEFAULT_255_1_388
10
6.0103904
20
13.9301349
40
0.6032345
50
241.7177136
51
248.3259138
0
ARC
8
DEFAULT_255_1_388
10
6.1662499
20
14.3162771
40
1.0196417
50
248.2007377
51
252.4527713
0
ARC
8
DEFAULT_255_1_388
10
6.3016026
20
14.7347092
40
1.4594143
50
252.3388938
51
254.347037
0
ARC
8
DEFAULT_255_1_388
10
5.4531326
20
11.6999095
40
1.6917621
50
71.0197462
51
74.4085467
0
ARC
8
DEFAULT_255_1_388
10
5.6438414
20
12.2504144
40
1.1091618
50
66.1845203
51
71.086519
0
ARC
8
DEFAULT_255_1_388
10
5.8188963
20
12.6445439
40
0.6779073
50
59.3537334
51
66.269255
0
ARC
8
DEFAULT_255_1_388
10
5.9188689
20
12.8136777
40
0.4814366
50
49.1021732
51
59.3294421
0
ARC
8
DEFAULT_255_1_388
10
6.0109677
20
12.9186575
40
0.3417875
50
32.7924183
51
49.2503526
0
ARC
8
DEFAULT_255_1_388
10
6.0459291
20
12.9436311
40
0.2988789
50
31.121225
51
32.3977355
0
ARC
8
DEFAULT_255_1_388
10
6.0371469
20
12.9403728
40
0.3080861
50
8.1116803
51
30.7958224
0
ARC
8
DEFAULT_255_1_388
10
5.9459815
20
12.9248437
40
0.4005385
50
359.8390945
51
8.4707348
0
ARC
8
DEFAULT_255_1_388
10
6.0163863
20
12.9193751
40
0.3301608
50
337.4732479
51
0.7538283
0
ARC
8
DEFAULT_255_1_388
10
6.0364888
20
12.9171554
40
0.3107929
50
307.5917028
51
336.4313755
0
ARC
8
DEFAULT_255_1_388
10
5.9853946
20
12.9739509
40
0.3870096
50
307.6560665
51
308.4561779
0
ARC
8
DEFAULT_255_1_388
10
5.9588162
20
13.0147832
40
0.435591
50
284.3733666
51
307.1426212
0
ARC
8
DEFAULT_255_1_388
10
5.9031056
20
13.2197391
40
0.6479685
50
272.4384566
51
284.6464689
0
ARC
8
DEFAULT_255_1_388
10
5.8888441
20
13.4221434
40
0.8508149
50
269.9708517
51
272.8180721
0
ARC
8
DEFAULT_255_1_388
10
5.8840124
20
13.1929283
40
0.6216151
50
248.2707343
51
270.4054609
0
ARC
8
DEFAULT_255_1_388
10
5.8778995
20
13.1714673
40
0.5994203
50
246.1380358
51
248.054058
0
ARC
8
DEFAULT_255_1_388
10
5.8308138
20
13.0725705
40
0.4899388
50
233.1671897
51
246.4951656
0
ARC
8
DEFAULT_255_1_388
10
5.7684773
20
12.9884137
40
0.3852115
50
215.3403381
51
233.084328
0
ARC
8
DEFAULT_255_1_388
10
5.7378137
20
12.9661093
40
0.3472969
50
179.2419235
51
215.2648426
0
ARC
8
DEFAULT_255_1_388
10
5.8241688
20
12.9676979
40
0.259251
50
179.3355796
51
199.1045873
0
ARC
8
DEFAULT_255_1_388
10
5.786783
20
12.9579223
40
0.2207454
50
199.8830064
51
232.7061328
0
ARC
8
DEFAULT_255_1_388
10
5.8399104
20
13.0247456
40
0.306101
50
232.3736206
51
255.5136621
0
ARC
8
DEFAULT_255_1_388
10
5.878261
20
13.1647177
40
0.4512213
50
255.2447928
51
267.5318292
0
ARC
8
DEFAULT_255_1_388
10
5.8881077
20
13.3033709
40
0.5901825
50
267.1564563
51
270.0294721
0
ARC
8
DEFAULT_255_1_388
10
5.8912402
20
13.2534623
40
0.5402814
50
269.6999944
51
278.1662446
0
ARC
8
DEFAULT_255_1_388
10
5.920043
20
13.0587974
40
0.3435003
50
278.0229022
51
290.6255326
0
ARC
8
DEFAULT_255_1_388
10
5.9591596
20
12.9544547
40
0.2320666
50
290.6616368
51
307.0374127
0
ARC
8
DEFAULT_255_1_388
10
5.9929496
20
12.913004
40
0.1786372
50
306.3942078
51
355.303191
0
ARC
8
DEFAULT_255_1_388
10
5.9353789
20
12.9216186
40
0.2367516
50
354.3662092
51
0.0709489
0
ARC
8
DEFAULT_255_1_388
10
5.9513658
20
12.9241561
40
0.2207761
50
359.4175379
51
16.1975911
0
ARC
8
DEFAULT_255_1_388
10
6.0025776
20
12.9381954
40
0.1676828
50
16.4721294
51
52.6261798
0
ARC
8
DEFAULT_255_1_388
10
5.9102283
20
12.8162606
40
0.3206412
50
52.7381828
51
62.4979144
0
ARC
8
DEFAULT_255_1_388
10
5.7544036
20
12.5230236
40
0.6527035
50
62.2517425
51
68.1219454
0
ARC
8
DEFAULT_255_1_388
10
5.5609524
20
12.0475951
40
1.1659797
50
68.006043
51
71.8055127
0
ARC
8
DEFAULT_255_1_388
10
5.3589432
20
11.4417723
40
1.8045908
50
71.718361
51
73.9260743
0
LINE
8
DEFAULT_255_1_388
10
6.7549296
20
13.9049898
11
6.7549296
21
12.5894
0
LINE
8
DEFAULT_255_1_388
10
6.7549296
20
12.5894
11
6.5814452
21
12.5894
0
LINE
8
DEFAULT_255_1_388
10
6.5814452
20
12.5894
11
6.5814452
21
13.9049898
0
LINE
8
DEFAULT_255_1_388
10
6.5814452
20
13.9049898
11
6.7549296
21
13.9049898
0
LINE
8
DEFAULT_255_1_388
10
7.3937497
20
13.2164737
11
7.3937497
21
13.0800355
0
LINE
8
DEFAULT_255_1_388
10
7.3937497
20
13.0800355
11
6.9528102
21
13.0800355
0
LINE
8
DEFAULT_255_1_388
10
6.9528102
20
13.0800355
11
6.9528102
21
13.2164737
0
LINE
8
DEFAULT_255_1_388
10
6.9528102
20
13.2164737
11
7.3937497
21
13.2164737
0
LINE
8
DEFAULT_255_1_388
10
4.9794637
20
20.5269
11
4.8538682
21
20.8702545
0
LINE
8
DEFAULT_255_1_388
10
4.8538682
20
20.8702545
11
4.3026939
21
20.8702545
0
LINE
8
DEFAULT_255_1_388
10
4.3026939
20
20.8702545
11
4.1789056
21
20.5269
0
LINE
8
DEFAULT_255_1_388
10
4.1789056
20
20.5269
11
3.9999998
21
20.5269
0
LINE
8
DEFAULT_255_1_388
10
3.9999998
20
20.5269
11
4.5023816
21
21.8424898
0
LINE
8
DEFAULT_255_1_388
10
4.5023816
20
21.8424898
11
4.6541805
21
21.8424898
0
LINE
8
DEFAULT_255_1_388
10
4.6541805
20
21.8424898
11
5.1574659
21
20.5269
0
LINE
8
DEFAULT_255_1_388
10
5.1574659
20
20.5269
11
4.9794637
21
20.5269
0
LINE
8
DEFAULT_255_1_388
10
4.5782811
20
21.6283451
11
4.3551006
21
21.0130177
0
LINE
8
DEFAULT_255_1_388
10
4.3551006
20
21.0130177
11
4.802365
21
21.0130177
0
LINE
8
DEFAULT_255_1_388
10
4.802365
20
21.0130177
11
4.5782811
21
21.6283451
0
LINE
8
DEFAULT_255_1_388
10
6.2074078
20
21.4620892
11
6.0330198
21
21.4620892
0
LINE
8
DEFAULT_255_1_388
10
5.2541473
20
20.9082042
11
5.4285352
21
20.9082042
0
ARC
8
DEFAULT_255_1_388
10
6.1070925
20
22.4684821
40
1.4087688
50
248.9196578
51
254.1442424
0
ARC
8
DEFAULT_255_1_388
10
5.9180805
20
21.9818805
40
0.8867498
50
241.6337352
51
249.0064643
0
ARC
8
DEFAULT_255_1_388
10
5.7461119
20
21.6667764
40
0.5277799
50
230.4982261
51
241.8087583
0
ARC
8
DEFAULT_255_1_388
10
5.657889
20
21.5543686
40
0.3849419
50
227.4062979
51
229.9877433
0
ARC
8
DEFAULT_255_1_388
10
5.6030236
20
21.5008155
40
0.3084129
50
200.6782127
51
228.1765252
0
ARC
8
DEFAULT_255_1_388
10
5.6111605
20
21.4991277
40
0.315461
50
179.506278
51
199.8695278
0
ARC
8
DEFAULT_255_1_388
10
5.6101194
20
21.5074671
40
0.3144584
50
132.4834401
51
181.0242352
0
ARC
8
DEFAULT_255_1_388
10
5.6770398
20
21.4442788
40
0.4063094
50
129.2526113
51
133.4249077
0
ARC
8
DEFAULT_255_1_388
10
5.6935991
20
21.4194619
40
0.436014
50
101.9878945
51
128.8741833
0
ARC
8
DEFAULT_255_1_388
10
5.7384406
20
21.225836
40
0.6347415
50
89.5906376
51
102.3170567
0
ARC
8
DEFAULT_255_1_388
10
5.7463718
20
21.2616586
40
0.5989122
50
77.2359491
51
90.3248968
0
ARC
8
DEFAULT_255_1_388
10
5.7696649
20
21.3704554
40
0.4876594
50
63.8379856
51
77.0808925
0
ARC
8
DEFAULT_255_1_388
10
5.8009182
20
21.4286882
40
0.4216191
50
45.9863127
51
64.1608798
0
ARC
8
DEFAULT_255_1_388
10
5.8302576
20
21.462199
40
0.3771394
50
32.2747934
51
45.6544796
0
ARC
8
DEFAULT_255_1_388
10
5.8377382
20
21.4643426
40
0.3696765
50
359.6507495
51
32.6129943
0
ARC
8
DEFAULT_255_1_388
10
5.7316565
20
21.4648788
40
0.3013762
50
359.469654
51
14.983205
0
ARC
8
DEFAULT_255_1_388
10
5.8109817
20
21.4861288
40
0.2192542
50
14.9781954
51
48.2004799
0
ARC
8
DEFAULT_255_1_388
10
5.7924928
20
21.4628937
40
0.2489048
50
48.5926661
51
74.1242559
0
ARC
8
DEFAULT_255_1_388
10
5.7549731
20
21.3390607
40
0.3782845
50
73.7889321
51
86.6653996
0
ARC
8
DEFAULT_255_1_388
10
5.7434545
20
21.2032955
40
0.5145025
50
86.2642725
51
90.0533288
0
ARC
8
DEFAULT_255_1_388
10
5.7402638
20
21.2477376
40
0.4700681
50
89.669455
51
99.2313411
0
ARC
8
DEFAULT_255_1_388
10
5.7129798
20
21.4102401
40
0.3052945
50
99.0695987
51
113.7659242
0
ARC
8
DEFAULT_255_1_388
10
5.6821792
20
21.4828772
40
0.226407
50
114.0402885
51
127.9848946
0
ARC
8
DEFAULT_255_1_388
10
5.6551268
20
21.5161884
40
0.1835045
50
127.7287217
51
176.7106493
0
ARC
8
DEFAULT_255_1_388
10
5.7314933
20
21.504821
40
0.2604907
50
175.1780759
51
180.0581213
0
ARC
8
DEFAULT_255_1_388
10
5.6366277
20
21.5034411
40
0.1656287
50
179.6140658
51
228.124674
0
ARC
8
DEFAULT_255_1_388
10
5.6863634
20
21.549494
40
0.2332038
50
226.5785315
51
230.8792476
0
ARC
8
DEFAULT_255_1_388
10
5.7393121
20
21.6197908
40
0.3211664
50
231.4636401
51
241.9261664
0
ARC
8
DEFAULT_255_1_388
10
5.8739904
20
21.8676349
40
0.6032345
50
241.7177136
51
248.3259138
0
ARC
8
DEFAULT_255_1_388
10
6.0298499
20
22.2537771
40
1.0196417
50
248.2007377
51
252.4527713
0
ARC
8
DEFAULT_255_1_388
10
6.1652026
20
22.6722092
40
1.4594143
50
252.3388938
51
254.347037
0
ARC
8
DEFAULT_255_1_388
10
5.3167326
20
19.6374095
40
1.6917621
50
71.0197462
51
74.4085467
0
ARC
8
DEFAULT_255_1_388
10
5.5074414
20
20.1879144
40
1.1091618
50
66.1845203
51
71.086519
0
ARC
8
DEFAULT_255_1_388
10
5.6824963
20
20.5820439
40
0.6779073
50
59.3537334
51
66.269255
0
ARC
8
DEFAULT_255_1_388
10
5.7824689
20
20.7511777
40
0.4814366
50
49.1021732
51
59.3294421
0
ARC
8
DEFAULT_255_1_388
10
5.8745677
20
20.8561575
40
0.3417875
50
32.7924183
51
49.2503526
0
ARC
8
DEFAULT_255_1_388
10
5.9095291
20
20.8811311
40
0.2988789
50
31.121225
51
32.3977355
0
ARC
8
DEFAULT_255_1_388
10
5.9007469
20
20.8778728
40
0.3080861
50
8.1116803
51
30.7958224
0
ARC
8
DEFAULT_255_1_388
10
5.8095815
20
20.8623437
40
0.4005385
50
359.8390945
51
8.4707348
0
ARC
8
DEFAULT_255_1_388
10
5.8799863
20
20.8568751
40
0.3301608
50
337.4732479
51
0.7538283
0
ARC
8
DEFAULT_255_1_388
10
5.9000888
20
20.8546554
40
0.3107929
50
307.5917028
51
336.4313755
0
ARC
8
DEFAULT_255_1_388
10
5.8489946
20
20.9114509
40
0.3870096
50
307.6560665
51
308.4561779
0
ARC
8
DEFAULT_255_1_388
10
5.8224162
20
20.9522832
40
0.435591
50
284.3733666
51
307.1426212
0
ARC
8
DEFAULT_255_1_388
10
5.7667056
20
21.1572391
40
0.6479685
50
272.4384566
51
284.6464689
0
ARC
8
DEFAULT_255_1_388
10
5.7524441
20
21.3596434
40
0.8508149
50
269.9708517
51
272.8180721
0
ARC
8
DEFAULT_255_1_388
10
5.7476124
20
21.1304283
40
0.6216151
50
248.2707343
51
270.4054609
0
ARC
8
DEFAULT_255_1_388
10
5.7414995
20
21.1089673
40
0.5994203
50
246.1380358
51
248.054058
0
ARC
8
DEFAULT_255_1_388
10
5.6944138
20
21.0100705
40
0.4899388
50
233.1671897
51
246.4951656
0
ARC
8
DEFAULT_255_1_388
10
5.6320773
20
20.9259137
40
0.3852115
50
215.3403381
51
233.084328
0
ARC
8
DEFAULT_255_1_388
10
5.6014137
20
20.9036093
40
0.3472969
50
179.2419235
51
215.2648426
0
ARC
8
DEFAULT_255_1_388
10
5.6877688
20
20.9051979
40
0.259251
50
179.3355796
51
199.1045873
0
ARC
8
DEFAULT_255_1_388
10
5.650383
20
20.8954223
40
0.2207454
50
199.8830064
51
232.7061328
0
ARC
8
DEFAULT_255_1_388
10
5.7035104
20
20.9622456
40
0.306101
50
232.3736206
51
255.5136621
0
ARC
8
DEFAULT_255_1_388
10
5.741861
20
21.1022177
40
0.4512213
50
255.2447928
51
267.5318292
0
ARC
8
DEFAULT_255_1_388
10
5.7517077
20
21.2408709
40
0.5901825
50
267.1564563
51
270.0294721
0
ARC
8
DEFAULT_255_1_388
10
5.7548402
20
21.1909623
40
0.5402814
50
269.6999944
51
278.1662446
0
ARC
8
DEFAULT_255_1_388
10
5.783643
20
20.9962974
40
0.3435003
50
278.0229022
51
290.6255326
0
ARC
8
DEFAULT_255_1_388
10
5.8227596
20
20.8919547
40
0.2320666
50
290.6616368
51
307.0374127
0
ARC
8
DEFAULT_255_1_388
10
5.8565496
20
20.850504
40
0.1786372
50
306.3942078
51
355.303191
0
ARC
8
DEFAULT_255_1_388
10
5.7989789
20
20.8591186
40
0.2367516
50
354.3662092
51
0.0709489
0
ARC
8
DEFAULT_255_1_388
10
5.8149658
20
20.8616561
40
0.2207761
50
359.4175379
51
16.1975911
0
ARC
8
DEFAULT_255_1_388
10
5.8661776
20
20.8756954
40
0.1676828
50
16.4721294
51
52.6261798
0
ARC
8
DEFAULT_255_1_388
10
5.7738283
20
20.7537606
40
0.3206412
50
52.7381828
51
62.4979144
0
ARC
8
DEFAULT_255_1_388
10
5.6180036
20
20.4605236
40
0.6527035
50
62.2517425
51
68.1219454
0
ARC
8
DEFAULT_255_1_388
10
5.4245524
20
19.9850951
40
1.1659797
50
68.006043
51
71.8055127
0
ARC
8
DEFAULT_255_1_388
10
5.2225432
20
19.3792723
40
1.8045908
50
71.718361
51
73.9260743
0
LINE
8
DEFAULT_255_1_388
10
6.6185296
20
21.8424898
11
6.6185296
21
20.5269
0
LINE
8
DEFAULT_255_1_388
10
6.6185296
20
20.5269
11
6.4450452
21
20.5269
0
LINE
8
DEFAULT_255_1_388
10
6.4450452
20
20.5269
11
6.4450452
21
21.8424898
0
LINE
8
DEFAULT_255_1_388
10
6.4450452
20
21.8424898
11
6.6185296
21
21.8424898
0
LINE
8
DEFAULT_255_1_388
10
7.3883665
20
21.6165987
11
7.3883665
21
21.2325838
0
LINE
8
DEFAULT_255_1_388
10
7.3883665
20
21.2325838
11
7.7552137
21
21.2325838
0
LINE
8
DEFAULT_255_1_388
10
7.7552137
20
21.2325838
11
7.7552137
21
21.0744601
0
LINE
8
DEFAULT_255_1_388
10
7.7552137
20
21.0744601
11
7.3883665
21
21.0744601
0
LINE
8
DEFAULT_255_1_388
10
7.3883665
20
21.0744601
11
7.3883665
21
20.6588204
0
LINE
8
DEFAULT_255_1_388
10
7.3883665
20
20.6588204
11
7.2203035
21
20.6588204
0
LINE
8
DEFAULT_255_1_388
10
7.2203035
20
20.6588204
11
7.2203035
21
21.0744601
0
LINE
8
DEFAULT_255_1_388
10
7.2203035
20
21.0744601
11
6.8534563
21
21.0744601
0
LINE
8
DEFAULT_255_1_388
10
6.8534563
20
21.0744601
11
6.8534563
21
21.2325838
0
LINE
8
DEFAULT_255_1_388
10
6.8534563
20
21.2325838
11
7.2203035
21
21.2325838
0
LINE
8
DEFAULT_255_1_388
10
7.2203035
20
21.2325838
11
7.2203035
21
21.6165987
0
LINE
8
DEFAULT_255_1_388
10
7.2203035
20
21.6165987
11
7.3883665
21
21.6165987
0
LINE
8
DEFAULT_255_1_388
10
5.1158637
20
28.4644
11
4.9902682
21
28.8077545
0
LINE
8
DEFAULT_255_1_388
10
4.9902682
20
28.8077545
11
4.4390939
21
28.8077545
0
LINE
8
DEFAULT_255_1_388
10
4.4390939
20
28.8077545
11
4.3153056
21
28.4644
0
LINE
8
DEFAULT_255_1_388
10
4.3153056
20
28.4644
11
4.1363998
21
28.4644
0
LINE
8
DEFAULT_255_1_388
10
4.1363998
20
28.4644
11
4.6387816
21
29.7799898
0
LINE
8
DEFAULT_255_1_388
10
4.6387816
20
29.7799898
11
4.7905805
21
29.7799898
0
LINE
8
DEFAULT_255_1_388
10
4.7905805
20
29.7799898
11
5.2938659
21
28.4644
0
LINE
8
DEFAULT_255_1_388
10
5.2938659
20
28.4644
11
5.1158637
21
28.4644
0
LINE
8
DEFAULT_255_1_388
10
4.7146811
20
29.5658451
11
4.4915006
21
28.9505177
0
LINE
8
DEFAULT_255_1_388
10
4.4915006
20
28.9505177
11
4.938765
21
28.9505177
0
LINE
8
DEFAULT_255_1_388
10
4.938765
20
28.9505177
11
4.7146811
21
29.5658451
0
LINE
8
DEFAULT_255_1_388
10
6.3438078
20
29.3995892
11
6.1694198
21
29.3995892
0
LINE
8
DEFAULT_255_1_388
10
5.3905473
20
28.8457042
11
5.5649352
21
28.8457042
0
ARC
8
DEFAULT_255_1_388
10
6.2434925
20
30.4059821
40
1.4087688
50
248.9196578
51
254.1442424
0
ARC
8
DEFAULT_255_1_388
10
6.0544805
20
29.9193805
40
0.8867498
50
241.6337352
51
249.0064643
0
ARC
8
DEFAULT_255_1_388
10
5.8825119
20
29.6042764
40
0.5277799
50
230.4982261
51
241.8087583
0
ARC
8
DEFAULT_255_1_388
10
5.794289
20
29.4918686
40
0.3849419
50
227.4062979
51
229.9877433
0
ARC
8
DEFAULT_255_1_388
10
5.7394236
20
29.4383155
40
0.3084129
50
200.6782127
51
228.1765252
0
ARC
8
DEFAULT_255_1_388
10
5.7475605
20
29.4366277
40
0.315461
50
179.506278
51
199.8695278
0
ARC
8
DEFAULT_255_1_388
10
5.7465194
20
29.4449671
40
0.3144584
50
132.4834401
51
181.0242352
0
ARC
8
DEFAULT_255_1_388
10
5.8134398
20
29.3817788
40
0.4063094
50
129.2526113
51
133.4249077
0
ARC
8
DEFAULT_255_1_388
10
5.8299991
20
29.3569619
40
0.436014
50
101.9878945
51
128.8741833
0
ARC
8
DEFAULT_255_1_388
10
5.8748406
20
29.163336
40
0.6347415
50
89.5906376
51
102.3170567
0
ARC
8
DEFAULT_255_1_388
10
5.8827718
20
29.1991586
40
0.5989122
50
77.2359491
51
90.3248968
0
ARC
8
DEFAULT_255_1_388
10
5.9060649
20
29.3079554
40
0.4876594
50
63.8379856
51
77.0808925
0
ARC
8
DEFAULT_255_1_388
10
5.9373182
20
29.3661882
40
0.4216191
50
45.9863127
51
64.1608798
0
ARC
8
DEFAULT_255_1_388
10
5.9666576
20
29.399699
40
0.3771394
50
32.2747934
51
45.6544796
0
ARC
8
DEFAULT_255_1_388
10
5.9741382
20
29.4018426
40
0.3696765
50
359.6507495
51
32.6129943
0
ARC
8
DEFAULT_255_1_388
10
5.8680565
20
29.4023788
40
0.3013762
50
359.469654
51
14.983205
0
ARC
8
DEFAULT_255_1_388
10
5.9473817
20
29.4236288
40
0.2192542
50
14.9781954
51
48.2004799
0
ARC
8
DEFAULT_255_1_388
10
5.9288928
20
29.4003937
40
0.2489048
50
48.5926661
51
74.1242559
0
ARC
8
DEFAULT_255_1_388
10
5.8913731
20
29.2765607
40
0.3782845
50
73.7889321
51
86.6653996
0
ARC
8
DEFAULT_255_1_388
10
5.8798545
20
29.1407955
40
0.5145025
50
86.2642725
51
90.0533288
0
ARC
8
DEFAULT_255_1_388
10
5.8766638
20
29.1852376
40
0.4700681
50
89.669455
51
99.2313411
0
ARC
8
DEFAULT_255_1_388
10
5.8493798
20
29.3477401
40
0.3052945
50
99.0695987
51
113.7659242
0
ARC
8
DEFAULT_255_1_388
10
5.8185792
20
29.4203772
40
0.226407
50
114.0402885
51
127.9848946
0
ARC
8
DEFAULT_255_1_388
10
5.7915268
20
29.4536884
40
0.1835045
50
127.7287217
51
176.7106493
0
ARC
8
DEFAULT_255_1_388
10
5.8678933
20
29.442321
40
0.2604907
50
175.1780759
51
180.0581213
0
ARC
8
DEFAULT_255_1_388
10
5.7730277
20
29.4409411
40
0.1656287
50
179.6140658
51
228.124674
0
ARC
8
DEFAULT_255_1_388
10
5.8227634
20
29.486994
40
0.2332038
50
226.5785315
51
230.8792476
0
ARC
8
DEFAULT_255_1_388
10
5.8757121
20
29.5572908
40
0.3211664
50
231.4636401
51
241.9261664
0
ARC
8
DEFAULT_255_1_388
10
6.0103904
20
29.8051349
40
0.6032345
50
241.7177136
51
248.3259138
0
ARC
8
DEFAULT_255_1_388
10
6.1662499
20
30.1912771
40
1.0196417
50
248.2007377
51
252.4527713
0
ARC
8
DEFAULT_255_1_388
10
6.3016026
20
30.6097092
40
1.4594143
50
252.3388938
51
254.347037
0
ARC
8
DEFAULT_255_1_388
10
5.4531326
20
27.5749095
40
1.6917621
50
71.0197462
51
74.4085467
0
ARC
8
DEFAULT_255_1_388
10
5.6438414
20
28.1254144
40
1.1091618
50
66.1845203
51
71.086519
0
ARC
8
DEFAULT_255_1_388
10
5.8188963
20
28.5195439
40
0.6779073
50
59.3537334
51
66.269255
0
ARC
8
DEFAULT_255_1_388
10
5.9188689
20
28.6886777
40
0.4814366
50
49.1021732
51
59.3294421
0
ARC
8
DEFAULT_255_1_388
10
6.0109677
20
28.7936575
40
0.3417875
50
32.7924183
51
49.2503526
0
ARC
8
DEFAULT_255_1_388
10
6.0459291
20
28.8186311
40
0.2988789
50
31.121225
51
32.3977355
0
ARC
8
DEFAULT_255_1_388
10
6.0371469
20
28.8153728
40
0.3080861
50
8.1116803
51
30.7958224
0
ARC
8
DEFAULT_255_1_388
10
5.9459815
20
28.7998437
40
0.4005385
50
359.8390945
51
8.4707348
0
ARC
8
DEFAULT_255_1_388
10
6.0163863
20
28.7943751
40
0.3301608
50
337.4732479
51
0.7538283
0
ARC
8
DEFAULT_255_1_388
10
6.0364888
20
28.7921554
40
0.3107929
50
307.5917028
51
336.4313755
0
ARC
8
DEFAULT_255_1_388
10
5.9853946
20
28.8489509
40
0.3870096
50
307.6560665
51
308.4561779
0
ARC
8
DEFAULT_255_1_388
10
5.9588162
20
28.8897832
40
0.435591
50
284.3733666
51
307.1426212
0
ARC
8
DEFAULT_255_1_388
10
5.9031056
20
29.0947391
40
0.6479685
50
272.4384566
51
284.6464689
0
ARC
8
DEFAULT_255_1_388
10
5.8888441
20
29.2971434
40
0.8508149
50
269.9708517
51
272.8180721
0
ARC
8
DEFAULT_255_1_388
10
5.8840124
20
29.0679283
40
0.6216151
50
248.2707343
51
270.4054609
0
ARC
8
DEFAULT_255_1_388
10
5.8778995
20
29.0464673
40
0.5994203
50
246.1380358
51
248.054058
0
ARC
8
DEFAULT_255_1_388
10
5.8308138
20
28.9475705
40
0.4899388
50
233.1671897
51
246.4951656
0
ARC
8
DEFAULT_255_1_388
10
5.7684773
20
28.8634137
40
0.3852115
50
215.3403381
51
233.084328
0
ARC
8
DEFAULT_255_1_388
10
5.7378137
20
28.8411093
40
0.3472969
50
179.2419235
51
215.2648426
0
ARC
8
DEFAULT_255_1_388
10
5.8241688
20
28.8426979
40
0.259251
50
179.3355796
51
199.1045873
0
ARC
8
DEFAULT_255_1_388
10
5.786783
20
28.8329223
40
0.2207454
50
199.8830064
51
232.7061328
0
ARC
8
DEFAULT_255_1_388
10
5.8399104
20
28.8997456
40
0.306101
50
232.3736206
51
255.5136621
0
ARC
8
DEFAULT_255_1_388
10
5.878261
20
29.0397177
40
0.4512213
50
255.2447928
51
267.5318292
0
ARC
8
DEFAULT_255_1_388
10
5.8881077
20
29.1783709
40
0.5901825
50
267.1564563
51
270.0294721
0
ARC
8
DEFAULT_255_1_388
10
5.8912402
20
29.1284623
40
0.5402814
50
269.6999944
51
278.1662446
0
ARC
8
DEFAULT_255_1_388
10
5.920043
20
28.9337974
40
0.3435003
50
278.0229022
51
290.6255326
0
ARC
8
DEFAULT_255_1_388
10
5.9591596
20
28.8294547
40
0.2320666
50
290.6616368
51
307.0374127
0
ARC
8
DEFAULT_255_1_388
10
5.9929496
20
28.788004
40
0.1786372
50
306.3942078
51
355.303191
0
ARC
8
DEFAULT_255_1_388
10
5.9353789
20
28.7966186
40
0.2367516
50
354.3662092
51
0.0709489
0
ARC
8
DEFAULT_255_1_388
10
5.9513658
20
28.7991561
40
0.2207761
50
359.4175379
51
16.1975911
0
ARC
8
DEFAULT_255_1_388
10
6.0025776
20
28.8131954
40
0.1676828
50
16.4721294
51
52.6261798
0
ARC
8
DEFAULT_255_1_388
10
5.9102283
20
28.6912606
40
0.3206412
50
52.7381828
51
62.4979144
0
ARC
8
DEFAULT_255_1_388
10
5.7544036
20
28.3980236
40
0.6527035
50
62.2517425
51
68.1219454
0
ARC
8
DEFAULT_255_1_388
10
5.5609524
20
27.9225951
40
1.1659797
50
68.006043
51
71.8055127
0
ARC
8
DEFAULT_255_1_388
10
5.3589432
20
27.3167723
40
1.8045908
50
71.718361
51
73.9260743
0
LINE
8
DEFAULT_255_1_388
10
6.7549296
20
29.7799898
11
6.7549296
21
28.4644
0
LINE
8
DEFAULT_255_1_388
10
6.7549296
20
28.4644
11
6.5814452
21
28.4644
0
LINE
8
DEFAULT_255_1_388
10
6.5814452
20
28.4644
11
6.5814452
21
29.7799898
0
LINE
8
DEFAULT_255_1_388
10
6.5814452
20
29.7799898
11
6.7549296
21
29.7799898
0
LINE
8
DEFAULT_255_1_388
10
7.3937497
20
29.0914737
11
7.3937497
21
28.9550355
0
LINE
8
DEFAULT_255_1_388
10
7.3937497
20
28.9550355
11
6.9528102
21
28.9550355
0
LINE
8
DEFAULT_255_1_388
10
6.9528102
20
28.9550355
11
6.9528102
21
29.0914737
0
LINE
8
DEFAULT_255_1_388
10
6.9528102
20
29.0914737
11
7.3937497
21
29.0914737
0
LINE
8
DEFAULT_255_1_388
10
4.9794637
20
36.4019
11
4.8538682
21
36.7452545
0
LINE
8
DEFAULT_255_1_388
10
4.8538682
20
36.7452545
11
4.3026939
21
36.7452545
0
LINE
8
DEFAULT_255_1_388
10
4.3026939
20
36.7452545
11
4.1789056
21
36.4019
0
LINE
8
DEFAULT_255_1_388
10
4.1789056
20
36.4019
11
3.9999998
21
36.4019
0
LINE
8
DEFAULT_255_1_388
10
3.9999998
20
36.4019
11
4.5023816
21
37.7174898
0
LINE
8
DEFAULT_255_1_388
10
4.5023816
20
37.7174898
11
4.6541805
21
37.7174898
0
LINE
8
DEFAULT_255_1_388
10
4.6541805
20
37.7174898
11
5.1574659
21
36.4019
0
LINE
8
DEFAULT_255_1_388
10
5.1574659
20
36.4019
11
4.9794637
21
36.4019
0
LINE
8
DEFAULT_255_1_388
10
4.5782811
20
37.5033451
11
4.3551006
21
36.8880177
0
LINE
8
DEFAULT_255_1_388
10
4.3551006
20
36.8880177
11
4.802365
21
36.8880177
0
LINE
8
DEFAULT_255_1_388
10
4.802365
20
36.8880177
11
4.5782811
21
37.5033451
0
LINE
8
DEFAULT_255_1_388
10
6.2074078
20
37.3370892
11
6.0330198
21
37.3370892
0
LINE
8
DEFAULT_255_1_388
10
5.2541473
20
36.7832042
11
5.4285352
21
36.7832042
0
ARC
8
DEFAULT_255_1_388
10
6.1070925
20
38.3434821
40
1.4087688
50
248.9196578
51
254.1442424
0
ARC
8
DEFAULT_255_1_388
10
5.9180805
20
37.8568805
40
0.8867498
50
241.6337352
51
249.0064643
0
ARC
8
DEFAULT_255_1_388
10
5.7461119
20
37.5417764
40
0.5277799
50
230.4982261
51
241.8087583
0
ARC
8
DEFAULT_255_1_388
10
5.657889
20
37.4293686
40
0.3849419
50
227.4062979
51
229.9877433
0
ARC
8
DEFAULT_255_1_388
10
5.6030236
20
37.3758155
40
0.3084129
50
200.6782127
51
228.1765252
0
ARC
8
DEFAULT_255_1_388
10
5.6111605
20
37.3741277
40
0.315461
50
179.506278
51
199.8695278
0
ARC
8
DEFAULT_255_1_388
10
5.6101194
20
37.3824671
40
0.3144584
50
132.4834401
51
181.0242352
0
ARC
8
DEFAULT_255_1_388
10
5.6770398
20
37.3192788
40
0.4063094
50
129.2526113
51
133.4249077
0
ARC
8
DEFAULT_255_1_388
10
5.6935991
20
37.2944619
40
0.436014
50
101.9878945
51
128.8741833
0
ARC
8
DEFAULT_255_1_388
10
5.7384406
20
37.100836
40
0.6347415
50
89.5906376
51
102.3170567
0
ARC
8
DEFAULT_255_1_388
10
5.7463718
20
37.1366586
40
0.5989122
50
77.2359491
51
90.3248968
0
ARC
8
DEFAULT_255_1_388
10
5.7696649
20
37.2454554
40
0.4876594
50
63.8379856
51
77.0808925
0
ARC
8
DEFAULT_255_1_388
10
5.8009182
20
37.3036882
40
0.4216191
50
45.9863127
51
64.1608798
0
ARC
8
DEFAULT_255_1_388
10
5.8302576
20
37.337199
40
0.3771394
50
32.2747934
51
45.6544796
0
ARC
8
DEFAULT_255_1_388
10
5.8377382
20
37.3393426
40
0.3696765
50
359.6507495
51
32.6129943
0
ARC
8
DEFAULT_255_1_388
10
5.7316565
20
37.3398788
40
0.3013762
50
359.469654
51
14.983205
0
ARC
8
DEFAULT_255_1_388
10
5.8109817
20
37.3611288
40
0.2192542
50
14.9781954
51
48.2004799
0
ARC
8
DEFAULT_255_1_388
10
5.7924928
20
37.3378937
40
0.2489048
50
48.5926661
51
74.1242559
0
ARC
8
DEFAULT_255_1_388
10
5.7549731
20
37.2140607
40
0.3782845
50
73.7889321
51
86.6653996
0
ARC
8
DEFAULT_255_1_388
10
5.7434545
20
37.0782955
40
0.5145025
50
86.2642725
51
90.0533288
0
ARC
8
DEFAULT_255_1_388
10
5.7402638
20
37.1227376
40
0.4700681
50
89.669455
51
99.2313411
0
ARC
8
DEFAULT_255_1_388
10
5.7129798
20
37.2852401
40
0.3052945
50
99.0695987
51
113.7659242
0
ARC
8
DEFAULT_255_1_388
10
5.6821792
20
37.3578772
40
0.226407
50
114.0402885
51
127.9848946
0
ARC
8
DEFAULT_255_1_388
10
5.6551268
20
37.3911884
40
0.1835045
50
127.7287217
51
176.7106493
0
ARC
8
DEFAULT_255_1_388
10
5.7314933
20
37.379821
40
0.2604907
50
175.1780759
51
180.0581213
0
ARC
8
DEFAULT_255_1_388
10
5.6366277
20
37.3784411
40
0.1656287
50
179.6140658
51
228.124674
0
ARC
8
DEFAULT_255_1_388
10
5.6863634
20
37.424494
40
0.2332038
50
226.5785315
51
230.8792476
0
ARC
8
DEFAULT_255_1_388
10
5.7393121
20
37.4947908
40
0.3211664
50
231.4636401
51
241.9261664
0
ARC
8
DEFAULT_255_1_388
10
5.8739904
20
37.7426349
40
0.6032345
50
241.7177136
51
248.3259138
0
ARC
8
DEFAULT_255_1_388
10
6.0298499
20
38.1287771
40
1.0196417
50
248.2007377
51
252.4527713
0
ARC
8
DEFAULT_255_1_388
10
6.1652026
20
38.5472092
40
1.4594143
50
252.3388938
51
254.347037
0
ARC
8
DEFAULT_255_1_388
10
5.3167326
20
35.5124095
40
1.6917621
50
71.0197462
51
74.4085467
0
ARC
8
DEFAULT_255_1_388
10
5.5074414
20
36.0629144
40
1.1091618
50
66.1845203
51
71.086519
0
ARC
8
DEFAULT_255_1_388
10
5.6824963
20
36.4570439
40
0.6779073
50
59.3537334
51
66.269255
0
ARC
8
DEFAULT_255_1_388
10
5.7824689
20
36.6261777
40
0.4814366
50
49.1021732
51
59.3294421
0
ARC
8
DEFAULT_255_1_388
10
5.8745677
20
36.7311575
40
0.3417875
50
32.7924183
51
49.2503526
0
ARC
8
DEFAULT_255_1_388
10
5.9095291
20
36.7561311
40
0.2988789
50
31.121225
51
32.3977355
0
ARC
8
DEFAULT_255_1_388
10
5.9007469
20
36.7528728
40
0.3080861
50
8.1116803
51
30.7958224
0
ARC
8
DEFAULT_255_1_388
10
5.8095815
20
36.7373437
40
0.4005385
50
359.8390945
51
8.4707348
0
ARC
8
DEFAULT_255_1_388
10
5.8799863
20
36.7318751
40
0.3301608
50
337.4732479
51
0.7538283
0
ARC
8
DEFAULT_255_1_388
10
5.9000888
20
36.7296554
40
0.3107929
50
307.5917028
51
336.4313755
0
ARC
8
DEFAULT_255_1_388
10
5.8489946
20
36.7864509
40
0.3870096
50
307.6560665
51
308.4561779
0
ARC
8
DEFAULT_255_1_388
10
5.8224162
20
36.8272832
40
0.435591
50
284.3733666
51
307.1426212
0
ARC
8
DEFAULT_255_1_388
10
5.7667056
20
37.0322391
40
0.6479685
50
272.4384566
51
284.6464689
0
ARC
8
DEFAULT_255_1_388
10
5.7524441
20
37.2346434
40
0.8508149
50
269.9708517
51
272.8180721
0
ARC
8
DEFAULT_255_1_388
10
5.7476124
20
37.0054283
40
0.6216151
50
248.2707343
51
270.4054609
0
ARC
8
DEFAULT_255_1_388
10
5.7414995
20
36.9839673
40
0.5994203
50
246.1380358
51
248.054058
0
ARC
8
DEFAULT_255_1_388
10
5.6944138
20
36.8850705
40
0.4899388
50
233.1671897
51
246.4951656
0
ARC
8
DEFAULT_255_1_388
10
5.6320773
20
36.8009137
40
0.3852115
50
215.3403381
51
233.084328
0
ARC
8
DEFAULT_255_1_388
10
5.6014137
20
36.7786093
40
0.3472969
50
179.2419235
51
215.2648426
0
ARC
8
DEFAULT_255_1_388
10
5.6877688
20
36.7801979
40
0.259251
50
179.3355796
51
199.1045873
0
ARC
8
DEFAULT_255_1_388
10
5.650383
20
36.7704223
40
0.2207454
50
199.8830064
51
232.7061328
0
ARC
8
DEFAULT_255_1_388
10
5.7035104
20
36.8372456
40
0.306101
50
232.3736206
51
255.5136621
0
ARC
8
DEFAULT_255_1_388
10
5.741861
20
36.9772177
40
0.4512213
50
255.2447928
51
267.5318292
0
ARC
8
DEFAULT_255_1_388
10
5.7517077
20
37.1158709
40
0.5901825
50
267.1564563
51
270.0294721
0
ARC
8
DEFAULT_255_1_388
10
5.7548402
20
37.0659623
40
0.5402814
50
269.6999944
51
278.1662446
0
ARC
8
DEFAULT_255_1_388
10
5.783643
20
36.8712974
40
0.3435003
50
278.0229022
51
290.6255326
0
ARC
8
DEFAULT_255_1_388
10
5.8227596
20
36.7669547
40
0.2320666
50
290.6616368
51
307.0374127
0
ARC
8
DEFAULT_255_1_388
10
5.8565496
20
36.725504
40
0.1786372
50
306.3942078
51
355.303191
0
ARC
8
DEFAULT_255_1_388
10
5.7989789
20
36.7341186
40
0.2367516
50
354.3662092
51
0.0709489
0
ARC
8
DEFAULT_255_1_388
10
5.8149658
20
36.7366561
40
0.2207761
50
359.4175379
51
16.1975911
0
ARC
8
DEFAULT_255_1_388
10
5.8661776
20
36.7506954
40
0.1676828
50
16.4721294
51
52.6261798
0
ARC
8
DEFAULT_255_1_388
10
5.7738283
20
36.6287606
40
0.3206412
50
52.7381828
51
62.4979144
0
ARC
8
DEFAULT_255_1_388
10
5.6180036
20
36.3355236
40
0.6527035
50
62.2517425
51
68.1219454
0
ARC
8
DEFAULT_255_1_388
10
5.4245524
20
35.8600951
40
1.1659797
50
68.006043
51
71.8055127
0
ARC
8
DEFAULT_255_1_388
10
5.2225432
20
35.2542723
40
1.8045908
50
71.718361
51
73.9260743
0
LINE
8
DEFAULT_255_1_388
10
6.6185296
20
37.7174898
11
6.6185296
21
36.4019
0
LINE
8
DEFAULT_255_1_388
10
6.6185296
20
36.4019
11
6.4450452
21
36.4019
0
LINE
8
DEFAULT_255_1_388
10
6.4450452
20
36.4019
11
6.4450452
21
37.7174898
0
LINE
8
DEFAULT_255_1_388
10
6.4450452
20
37.7174898
11
6.6185296
21
37.7174898
0
LINE
8
DEFAULT_255_1_388
10
7.3883665
20
37.4915987
11
7.3883665
21
37.1075838
0
LINE
8
DEFAULT_255_1_388
10
7.3883665
20
37.1075838
11
7.7552137
21
37.1075838
0
LINE
8
DEFAULT_255_1_388
10
7.7552137
20
37.1075838
11
7.7552137
21
36.9494601
0
LINE
8
DEFAULT_255_1_388
10
7.7552137
20
36.9494601
11
7.3883665
21
36.9494601
0
LINE
8
DEFAULT_255_1_388
10
7.3883665
20
36.9494601
11
7.3883665
21
36.5338204
0
LINE
8
DEFAULT_255_1_388
10
7.3883665
20
36.5338204
11
7.2203035
21
36.5338204
0
LINE
8
DEFAULT_255_1_388
10
7.2203035
20
36.5338204
11
7.2203035
21
36.9494601
0
LINE
8
DEFAULT_255_1_388
10
7.2203035
20
36.9494601
11
6.8534563
21
36.9494601
0
LINE
8
DEFAULT_255_1_388
10
6.8534563
20
36.9494601
11
6.8534563
21
37.1075838
0
LINE
8
DEFAULT_255_1_388
10
6.8534563
20
37.1075838
11
7.2203035
21
37.1075838
0
LINE
8
DEFAULT_255_1_388
10
7.2203035
20
37.1075838
11
7.2203035
21
37.4915987
0
LINE
8
DEFAULT_255_1_388
10
7.2203035
20
37.4915987
11
7.3883665
21
37.4915987
0
LINE
8
DEFAULT_255_1_388
10
23.0074024
20
45.6549898
11
23.2314864
21
45.6549898
0
LINE
8
DEFAULT_255_1_388
10
23.2314864
20
45.6549898
11
23.6615831
21
44.5815553
0
LINE
8
DEFAULT_255_1_388
10
23.6615831
20
44.5815553
11
24.0916797
21
45.6549898
0
LINE
8
DEFAULT_255_1_388
10
24.0916797
20
45.6549898
11
24.3166673
21
45.6549898
0
LINE
8
DEFAULT_255_1_388
10
24.3166673
20
45.6549898
11
24.3166673
21
44.3394
0
LINE
8
DEFAULT_255_1_388
10
24.3166673
20
44.3394
11
24.1431829
21
44.3394
0
LINE
8
DEFAULT_255_1_388
10
24.1431829
20
44.3394
11
24.1431829
21
44.851721
0
LINE
8
DEFAULT_255_1_388
10
24.1431829
20
44.851721
11
24.1594471
21
45.4047025
0
LINE
8
DEFAULT_255_1_388
10
24.1594471
20
45.4047025
11
23.7275433
21
44.3394
0
LINE
8
DEFAULT_255_1_388
10
23.7275433
20
44.3394
11
23.5947193
21
44.3394
0
LINE
8
DEFAULT_255_1_388
10
23.5947193
20
44.3394
11
23.163719
21
45.4019918
0
LINE
8
DEFAULT_255_1_388
10
23.163719
20
45.4019918
11
23.1808868
21
44.851721
0
LINE
8
DEFAULT_255_1_388
10
23.1808868
20
44.851721
11
23.1808868
21
44.3394
0
LINE
8
DEFAULT_255_1_388
10
23.1808868
20
44.3394
11
23.0074024
21
44.3394
0
LINE
8
DEFAULT_255_1_388
10
23.0074024
20
44.3394
11
23.0074024
21
45.6549898
0
ENDSEC
0
EOF