0
SECTION
2
HEADER
9
$MEASUREMENT
70
1
0
ENDSEC
0
SECTION
2
TABLES
0
TABLE
2
LTYPE
0
LTYPE
72
65
70
64
2
CONTINUOUS
3
______
73
0
40
0
0
ENDTAB
0
TABLE
2
LAYER
0
LAYER
2
DEFAULT_255_2_778
70
0
62
255
6
CONTINUOUS
0
ENDTAB
0
ENDSEC
0
SECTION
2
ENTITIES
0
LINE
8
DEFAULT_255_2_778
10
0.2059431
20
0.5217151
11
0.2059431
21
-0.1454849
0
LINE
8
DEFAULT_255_2_778
10
0.2059431
20
-0.1454849
11
30.2226431
21
-0.1280849
0
LINE
8
DEFAULT_255_2_778
10
30.2226431
20
-0.1280849
11
30.2226431
21
40.3381151
0
ARC
8
DEFAULT_255_2_778
10
2.572691
20
54.3724858
40
53.8685157
50
285.3082424
51
293.9148111
0
ARC
8
DEFAULT_255_2_778
10
2.571784
20
54.3758388
40
53.8719893
50
270.2400336
51
285.3082313
0
ARC
8
DEFAULT_255_2_778
10
2.5717831
20
54.4161388
40
53.912289
50
270.0000898
51
270.2398551
0
ARC
8
DEFAULT_255_2_778
10
2.5718987
20
54.3814442
40
53.8775945
50
267.6405638
51
269.999967
0
ARC
8
DEFAULT_255_2_778
10
2.5699649
20
54.3379013
40
53.8340088
50
267.4831027
51
267.6407123
0
LINE
8
DEFAULT_255_2_778
10
30.2226973
20
5.1286255
11
24.4097973
21
5.1286255
0
LINE
8
DEFAULT_255_2_778
10
0.2058973
20
0.5558255
11
0.2058973
21
34.6910255
0
LINE
8
DEFAULT_255_2_778
10
0.2058973
20
34.6910255
11
0.2270973
21
99.9415255
0
LINE
8
DEFAULT_255_2_778
10
0.2270973
20
99.9415255
11
5.4692973
21
99.9415255
0
LINE
8
DEFAULT_255_2_778
10
5.4692973
20
99.9415255
11
5.4610973
21
100.9006255
0
LINE
8
DEFAULT_255_2_778
10
5.4610973
20
100.9006255
11
6.1886973
21
100.9006255
0
LINE
8
DEFAULT_255_2_778
10
6.1886973
20
100.9006255
11
6.1886973
21
110.0533255
0
LINE
8
DEFAULT_255_2_778
10
6.1886973
20
110.0533255
11
5.4610973
21
110.0533255
0
LINE
8
DEFAULT_255_2_778
10
5.4610973
20
110.0533255
11
5.4610973
21
110.6568255
0
LINE
8
DEFAULT_255_2_778
10
5.4610973
20
110.6568255
11
8.7103973
21
110.6568255
0
LINE
8
DEFAULT_255_2_778
10
8.7103973
20
110.6568255
11
8.7185973
21
110.9463255
0
LINE
8
DEFAULT_255_2_778
10
8.7185973
20
110.9463255
11
13.6631973
21
110.9463255
0
LINE
8
DEFAULT_255_2_778
10
13.6631973
20
110.9463255
11
13.6631973
21
110.3592255
0
LINE
8
DEFAULT_255_2_778
10
13.6631973
20
110.3592255
11
13.0844973
21
110.3592255
0
LINE
8
DEFAULT_255_2_778
10
13.0844973
20
110.3592255
11
13.0760973
21
109.2596255
0
LINE
8
DEFAULT_255_2_778
10
13.0760973
20
109.2596255
11
14.2417973
21
106.0597255
0
LINE
8
DEFAULT_255_2_778
10
14.2417973
20
106.0597255
11
15.8623973
21
106.0515255
0
LINE
8
DEFAULT_255_2_778
10
15.8623973
20
106.0515255
11
15.8623973
21
99.9494255
0
LINE
8
DEFAULT_255_2_778
10
15.8623973
20
99.9494255
11
30.2241973
21
99.9658255
0
LINE
8
DEFAULT_255_2_778
10
30.2241973
20
99.9658255
11
30.2241973
21
-0.0963745
0
LINE
8
DEFAULT_255_2_778
10
30.2241973
20
-0.0963745
11
0.2024973
21
-0.1125745
0
LINE
8
DEFAULT_255_2_778
10
0.2024973
20
-0.1125745
11
30.2244973
21
-0.0960745
0
LINE
8
DEFAULT_255_2_778
10
30.2244973
20
-0.0960745
11
30.2162973
21
40.3520255
0
LINE
8
DEFAULT_255_2_778
10
5.4622171
20
99.3914875
11
4.8229171
21
99.3914875
0
LINE
8
DEFAULT_255_2_778
10
4.8229171
20
99.3914875
11
4.8229171
21
96.8596875
0
LINE
8
DEFAULT_255_2_778
10
4.8229171
20
96.8596875
11
11.4629171
21
96.8596875
0
LINE
8
DEFAULT_255_2_778
10
7.6622171
20
96.8596875
11
7.6622171
21
98.4529875
0
LINE
8
DEFAULT_255_2_778
10
7.6622171
20
98.4529875
11
5.4622171
21
98.4529875
0
LINE
8
DEFAULT_255_2_778
10
5.4622171
20
98.4529875
11
5.4622171
21
100.9030875
0
LINE
8
DEFAULT_255_2_778
10
5.4622171
20
100.9030875
11
6.1871171
21
100.9030875
0
LINE
8
DEFAULT_255_2_778
10
6.1871171
20
100.9030875
11
6.1871171
21
110.0528875
0
LINE
8
DEFAULT_255_2_778
10
6.1871171
20
110.0528875
11
5.4622171
21
110.0528875
0
LINE
8
DEFAULT_255_2_778
10
5.4622171
20
110.0528875
11
5.4622171
21
110.6529875
0
LINE
8
DEFAULT_255_2_778
10
5.4622171
20
110.6529875
11
8.7123171
21
110.6529875
0
LINE
8
DEFAULT_255_2_778
10
8.7123171
20
110.6529875
11
8.7184171
21
110.9529875
0
LINE
8
DEFAULT_255_2_778
10
8.7184171
20
110.9529875
11
13.6621171
21
110.9529875
0
LINE
8
DEFAULT_255_2_778
10
13.6621171
20
110.9529875
11
13.6621171
21
110.3528875
0
LINE
8
DEFAULT_255_2_778
10
13.6621171
20
110.3528875
11
13.0774171
21
110.3528875
0
LINE
8
DEFAULT_255_2_778
10
13.0774171
20
110.3528875
11
13.0774171
21
109.2527875
0
LINE
8
DEFAULT_255_2_778
10
13.0774171
20
109.2527875
11
14.2421171
21
106.0526875
0
LINE
8
DEFAULT_255_2_778
10
14.2421171
20
106.0526875
11
15.8621171
21
106.0526875
0
LINE
8
DEFAULT_255_2_778
10
15.8621171
20
106.0526875
11
15.8621171
21
98.1116875
0
LINE
8
DEFAULT_255_2_778
10
30.2227171
20
39.9062875
11
28.2060171
21
39.9062875
0
LINE
8
DEFAULT_255_2_778
10
28.2060171
20
39.9062875
11
28.2060171
21
34.6907875
0
LINE
8
DEFAULT_255_2_778
10
28.2060171
20
34.6907875
11
30.2227171
21
34.6907875
0
LINE
8
DEFAULT_255_2_778
10
15.8621171
20
98.4529875
11
7.6622171
21
98.4529875
0
LINE
8
DEFAULT_255_2_778
10
0.2041171
20
37.8790875
11
0.2060171
21
37.8790875
0
LINE
8
DEFAULT_255_2_778
10
29.9449171
20
99.9634875
11
29.9449171
21
99.3028875
0
LINE
8
DEFAULT_255_2_778
10
27.9047171
20
60.8601875
11
27.9536171
21
69.3239875
0
LINE
8
DEFAULT_255_2_778
10
27.9536171
20
69.3239875
11
27.9549171
21
70.8982875
0
LINE
8
DEFAULT_255_2_778
10
0.2065171
20
40.3480875
11
2.4229171
21
40.3480875
0
LINE
8
DEFAULT_255_2_778
10
2.4229171
20
40.3480875
11
2.4229171
21
39.0280875
0
LINE
8
DEFAULT_255_2_778
10
0.2059431
20
39.9062761
11
0.2226431
21
59.5401761
0
LINE
8
DEFAULT_255_2_778
10
0.2226431
20
59.5401761
11
2.4223431
21
59.5401761
0
LINE
8
DEFAULT_255_2_778
10
2.4223431
20
59.5401761
11
2.4226431
21
60.8601761
0
LINE
8
DEFAULT_255_2_778
10
27.3394431
20
66.0002761
11
27.9512431
21
66.0002761
0
LINE
8
DEFAULT_255_2_778
10
28.0226431
20
33.9440761
11
28.0226431
21
28.9738761
0
LINE
8
DEFAULT_255_2_778
10
30.2226431
20
59.5404761
11
30.2226431
21
99.9642761
0
LINE
8
DEFAULT_255_2_778
10
30.2226431
20
99.9642761
11
19.8226431
21
99.9441761
0
LINE
8
DEFAULT_255_2_778
10
19.8226431
20
99.9441761
11
19.8226431
21
98.8688761
0
LINE
8
DEFAULT_255_2_778
10
5.4621833
20
99.9441865
11
4.8229833
21
99.9441865
0
LINE
8
DEFAULT_255_2_778
10
4.8229833
20
99.9441865
11
4.8229833
21
99.4919865
0
LINE
8
DEFAULT_255_2_778
10
4.8229833
20
99.4919865
11
5.4621833
21
99.4919865
0
LINE
8
DEFAULT_255_2_778
10
0.2228982
20
99.9444354
11
0.2228982
21
96.5159354
0
LINE
8
DEFAULT_255_2_778
10
0.2228982
20
96.5159354
11
10.4759982
21
96.5159354
0
LINE
8
DEFAULT_255_2_778
10
19.8226982
20
99.9441354
11
15.8621982
21
99.9441354
0
LINE
8
DEFAULT_255_2_778
10
15.862216
20
99.9442387
11
18.122816
21
99.9442387
0
LINE
8
DEFAULT_255_2_778
10
18.122816
20
99.9442387
11
18.122816
21
99.4920387
0
LINE
8
DEFAULT_255_2_778
10
18.122816
20
99.4920387
11
15.862216
21
99.4920387
0
LINE
8
DEFAULT_255_2_778
10
17.222916
20
98.4107387
11
17.222916
21
99.3915387
0
LINE
8
DEFAULT_255_2_778
10
17.222916
20
99.3915387
11
15.862216
21
99.3915387
0
LINE
8
DEFAULT_255_2_778
10
28.023016
20
39.0281387
11
28.023016
21
40.3381387
0
LINE
8
DEFAULT_255_2_778
10
28.023016
20
40.3381387
11
30.223016
21
40.3381387
0
LINE
8
DEFAULT_255_2_778
10
30.223016
20
40.3381387
11
30.223016
21
59.5405387
0
LINE
8
DEFAULT_255_2_778
10
30.223016
20
59.5405387
11
27.904216
21
59.5405387
0
LINE
8
DEFAULT_255_2_778
10
27.904216
20
59.5405387
11
27.904716
21
60.8605387
0
LINE
8
DEFAULT_255_2_778
10
27.904716
20
60.8605387
11
2.422916
21
60.8605387
0
LINE
8
DEFAULT_255_2_778
10
2.422916
20
60.8605387
11
2.422916
21
66.0003387
0
LINE
8
DEFAULT_255_2_778
10
2.422916
20
66.0003387
11
3.085716
21
66.0003387
0
LINE
8
DEFAULT_255_2_778
10
2.285616
20
59.9289387
11
2.285616
21
65.2203387
0
LINE
8
DEFAULT_255_2_778
10
2.285616
20
65.2203387
11
0.475616
21
65.2203387
0
LINE
8
DEFAULT_255_2_778
10
0.475616
20
65.2203387
11
0.475616
21
59.9291387
0
LINE
8
DEFAULT_255_2_778
10
0.475616
20
59.9186387
11
2.285616
21
59.9186387
0
LINE
8
DEFAULT_255_2_778
10
29.944916
20
59.9302387
11
29.944916
21
65.2203387
0
LINE
8
DEFAULT_255_2_778
10
29.944916
20
65.2203387
11
28.139616
21
65.2203387
0
LINE
8
DEFAULT_255_2_778
10
28.139616
20
65.2203387
11
28.139616
21
59.9302387
0
LINE
8
DEFAULT_255_2_778
10
28.139616
20
59.9186387
11
29.944916
21
59.9186387
0
LINE
8
DEFAULT_255_2_778
10
4.8671827
20
63.9389022
11
4.8671827
21
62.3686022
0
LINE
8
DEFAULT_255_2_778
10
4.8671827
20
62.3686022
11
6.4985827
21
62.3686022
0
LINE
8
DEFAULT_255_2_778
10
6.4985827
20
62.3686022
11
6.4985827
21
63.9389022
0
LINE
8
DEFAULT_255_2_778
10
6.4985827
20
63.9389022
11
4.8671827
21
63.9389022
0
LINE
8
DEFAULT_255_2_778
10
2.4226827
20
33.9442022
11
2.4226827
21
28.9528022
0
LINE
8
DEFAULT_255_2_778
10
27.4059827
20
33.9442022
11
28.0226827
21
33.9442022
0
LINE
8
DEFAULT_255_2_778
10
28.0226827
20
33.9442022
11
28.0226827
21
39.0281022
0
LINE
8
DEFAULT_255_2_778
10
28.0226827
20
39.0281022
11
2.4226827
21
39.0281022
0
LINE
8
DEFAULT_255_2_778
10
2.4226827
20
39.0281022
11
2.4226827
21
33.9442022
0
LINE
8
DEFAULT_255_2_778
10
2.4226827
20
33.9442022
11
3.0060827
21
33.9442022
0
LINE
8
DEFAULT_255_2_778
10
0.2226827
20
59.5402022
11
0.2226827
21
96.5160022
0
LINE
8
DEFAULT_255_2_778
10
0.4755827
20
94.7293022
11
0.4755827
21
96.4610022
0
LINE
8
DEFAULT_255_2_778
10
0.4755827
20
96.4610022
11
10.3236827
21
96.4610022
0
ARC
8
DEFAULT_255_2_778
10
26.9554445
20
50.7823231
40
48.6125382
50
86.4743927
51
89.1195733
0
ARC
8
DEFAULT_255_2_778
10
26.9555744
20
50.7874181
40
48.6074418
50
89.1196341
51
89.9999765
0
ARC
8
DEFAULT_255_2_778
10
26.9558557
20
50.7870803
40
48.6077794
50
90.0003081
51
110.5479542
0
ARC
8
DEFAULT_255_2_778
10
26.956204
20
50.7870637
40
48.6079172
50
110.5483317
51
115.3101358
0
ARC
8
DEFAULT_255_2_778
10
2.6855938
20
70.5603187
40
0.4000393
50
89.9913012
51
179.9943939
0
ARC
8
DEFAULT_255_2_778
10
2.6856366
20
70.5603399
40
0.4000179
50
0.0025686
51
89.9974285
0
ARC
8
DEFAULT_255_2_778
10
27.7397938
20
70.5603187
40
0.4000393
50
89.9913012
51
179.9943939
0
ARC
8
DEFAULT_255_2_778
10
27.7398367
20
70.5603402
40
0.4000177
50
0.0025298
51
89.9974386
0
LINE
8
DEFAULT_255_2_778
10
29.9448546
20
65.2202579
11
29.9448546
21
99.3028579
0
LINE
8
DEFAULT_255_2_778
10
6.1754546
20
94.7289579
11
0.4755546
21
94.7289579
0
LINE
8
DEFAULT_255_2_778
10
0.4755546
20
94.7289579
11
0.4755546
21
65.2202579
0
LINE
8
DEFAULT_255_2_778
10
2.4226546
20
65.9999579
11
2.4226546
21
70.8595579
0
LINE
8
DEFAULT_255_2_778
10
2.2855546
20
65.2202579
11
2.2855546
21
70.5603579
0
LINE
8
DEFAULT_255_2_778
10
3.0856546
20
70.5603579
11
3.0856546
21
65.3837579
0
LINE
8
DEFAULT_255_2_778
10
3.0856546
20
65.3837579
11
27.3397546
21
65.3837579
0
LINE
8
DEFAULT_255_2_778
10
27.3397546
20
65.3837579
11
27.3397546
21
70.5603579
0
LINE
8
DEFAULT_255_2_778
10
28.1398546
20
70.5603579
11
28.1398546
21
65.2202579
0
LINE
8
DEFAULT_255_2_778
10
5.4621546
20
99.9441579
11
1.0346546
21
99.9441579
0
ARC
8
DEFAULT_255_2_778
10
5.8310415
20
59.5558043
40
0.5827919
50
263.1697872
51
263.9948174
0
ARC
8
DEFAULT_255_2_778
10
5.8307536
20
59.5530673
40
0.5800397
50
263.9948182
51
269.9991553
0
ARC
8
DEFAULT_255_2_778
10
5.8307875
20
59.5524475
40
0.5794199
50
269.995797
51
311.3297344
0
ARC
8
DEFAULT_255_2_778
10
5.8308547
20
59.5524794
40
0.5793995
50
311.3226663
51
359.4926216
0
ARC
8
DEFAULT_255_2_778
10
5.8221186
20
59.5176288
40
0.7401057
50
0.0003783
51
0.9073374
0
ARC
8
DEFAULT_255_2_778
10
5.8243014
20
59.5176336
40
0.7379229
50
313.1134695
51
0.0000028
0
ARC
8
DEFAULT_255_2_778
10
5.8238894
20
59.5175726
40
0.7381601
50
270.011038
51
313.1400554
0
ARC
8
DEFAULT_255_2_778
10
5.824039
20
59.5172703
40
0.7378577
50
265.3429619
51
269.9994205
0
ARC
8
DEFAULT_255_2_778
10
5.689879
20
59.5441862
40
0.7659452
50
270.0010719
51
275.5631246
0
ARC
8
DEFAULT_255_2_778
10
5.6899144
20
59.5433425
40
0.7651014
50
228.0574051
51
269.9984204
0
ARC
8
DEFAULT_255_2_778
10
5.6895944
20
59.5428128
40
0.7644937
50
180.5144524
51
228.0487093
0
ARC
8
DEFAULT_255_2_778
10
5.5989307
20
59.5299875
40
0.5221996
50
180.0701033
51
232.5270705
0
ARC
8
DEFAULT_255_2_778
10
5.6511413
20
55.8101794
40
0.7516426
50
83.6762862
51
89.9981464
0
ARC
8
DEFAULT_255_2_778
10
5.6514167
20
55.8101737
40
0.7516483
50
90.0191381
51
141.8243161
0
ARC
8
DEFAULT_255_2_778
10
5.8049183
20
55.7673873
40
0.7930459
50
39.7741363
51
89.9949312
0
ARC
8
DEFAULT_255_2_778
10
5.8050072
20
55.7656862
40
0.794747
50
90.0013522
51
95.1309238
0
ARC
8
DEFAULT_255_2_778
10
5.6653874
20
55.742452
40
0.624479
50
90.0132203
51
142.7150464
0
ARC
8
DEFAULT_255_2_778
10
5.6652098
20
55.7419129
40
0.6250181
50
82.6164419
51
89.9969286
0
ARC
8
DEFAULT_255_2_778
10
5.7964887
20
55.7042903
40
0.6594301
50
90.0007503
51
94.4319274
0
ARC
8
DEFAULT_255_2_778
10
5.7964193
20
55.7050942
40
0.6586263
50
42.0055386
51
89.9947132
0
LINE
8
DEFAULT_255_2_778
10
1.0791315
20
99.9441486
11
1.0868315
21
99.9441486
0
LINE
8
DEFAULT_255_2_778
10
1.0868315
20
99.9441486
11
0.2229315
21
99.9444486
0
LINE
8
DEFAULT_255_2_778
10
5.2812315
20
59.1152486
11
5.5021315
21
59.0149486
0
LINE
8
DEFAULT_255_2_778
10
5.5021315
20
59.0149486
11
5.7617315
21
58.9771486
0
LINE
8
DEFAULT_255_2_778
10
6.4102315
20
59.5473486
11
6.3594315
21
59.8275486
0
LINE
8
DEFAULT_255_2_778
10
6.3594315
20
59.8275486
11
5.8699315
21
59.8275486
0
LINE
8
DEFAULT_255_2_778
10
5.8699315
20
59.8275486
11
5.8699315
21
59.5153486
0
LINE
8
DEFAULT_255_2_778
10
5.8699315
20
59.5153486
11
5.7180315
21
59.5153486
0
LINE
8
DEFAULT_255_2_778
10
5.7180315
20
59.5153486
11
5.7180315
21
60.0119486
0
LINE
8
DEFAULT_255_2_778
10
5.7180315
20
60.0119486
11
6.4700315
21
60.0119486
0
LINE
8
DEFAULT_255_2_778
10
6.4700315
20
60.0119486
11
6.5621315
21
59.5293486
0
LINE
8
DEFAULT_255_2_778
10
4.9251315
20
59.5359486
11
4.9513315
21
59.7619486
0
LINE
8
DEFAULT_255_2_778
10
4.9513315
20
59.7619486
11
5.0378315
21
60.0000486
0
LINE
8
DEFAULT_255_2_778
10
5.0378315
20
60.0000486
11
5.1846315
21
59.9473486
0
LINE
8
DEFAULT_255_2_778
10
5.1846315
20
59.9473486
11
5.1031315
21
59.7373486
0
LINE
8
DEFAULT_255_2_778
10
5.1031315
20
59.7373486
11
5.0767315
21
59.5293486
0
LINE
8
DEFAULT_255_2_778
10
4.9478315
20
57.0732486
11
6.5385315
21
57.0732486
0
LINE
8
DEFAULT_255_2_778
10
6.5385315
20
57.0732486
11
6.5385315
21
56.8893486
0
LINE
8
DEFAULT_255_2_778
10
6.5385315
20
56.8893486
11
4.9478315
21
56.8893486
0
LINE
8
DEFAULT_255_2_778
10
4.9478315
20
56.8893486
11
4.9478315
21
57.0732486
0
LINE
8
DEFAULT_255_2_778
10
6.5385315
20
58.4826486
11
6.5385315
21
58.6802486
0
LINE
8
DEFAULT_255_2_778
10
6.5385315
20
58.6802486
11
4.9478315
21
58.1101486
0
LINE
8
DEFAULT_255_2_778
10
4.9478315
20
58.1101486
11
4.9478315
21
57.8778486
0
LINE
8
DEFAULT_255_2_778
10
4.9478315
20
57.8778486
11
6.5385315
21
57.3124486
0
LINE
8
DEFAULT_255_2_778
10
6.5385315
20
57.3124486
11
6.5385315
21
57.4986486
0
LINE
8
DEFAULT_255_2_778
10
6.5385315
20
57.4986486
11
5.9821315
21
57.6939486
0
LINE
8
DEFAULT_255_2_778
10
5.9821315
20
57.6939486
11
5.9821315
21
58.2868486
0
LINE
8
DEFAULT_255_2_778
10
5.9821315
20
58.2868486
11
6.5385315
21
58.4826486
0
LINE
8
DEFAULT_255_2_778
10
5.4122315
20
58.0894486
11
5.8302315
21
58.2318486
0
LINE
8
DEFAULT_255_2_778
10
5.8302315
20
58.2318486
11
5.8302315
21
57.7492486
0
LINE
8
DEFAULT_255_2_778
10
5.8302315
20
57.7492486
11
5.2465315
21
57.9492486
0
LINE
8
DEFAULT_255_2_778
10
5.2465315
20
57.9492486
11
5.1039315
21
57.9929486
0
LINE
8
DEFAULT_255_2_778
10
5.1039315
20
57.9929486
11
5.4122315
21
58.0894486
0
LINE
8
DEFAULT_255_2_778
10
5.0605315
20
56.2747486
11
4.9732315
21
56.0609486
0
LINE
8
DEFAULT_255_2_778
10
4.9732315
20
56.0609486
11
4.9478315
21
55.7368486
0
LINE
8
DEFAULT_255_2_778
10
4.9478315
20
55.7368486
11
4.9478315
21
55.3804486
0
LINE
8
DEFAULT_255_2_778
10
4.9478315
20
55.3804486
11
6.5385315
21
55.3804486
0
LINE
8
DEFAULT_255_2_778
10
6.5385315
20
55.3804486
11
6.5385315
21
55.7114486
0
LINE
8
DEFAULT_255_2_778
10
6.5385315
20
55.7114486
11
6.5110315
21
56.0498486
0
LINE
8
DEFAULT_255_2_778
10
6.5110315
20
56.0498486
11
6.4144315
21
56.2747486
0
LINE
8
DEFAULT_255_2_778
10
5.7339315
20
56.5572486
11
5.7339315
21
56.5572486
0
LINE
8
DEFAULT_255_2_778
10
6.2858315
20
56.1458486
11
6.3618315
21
55.9733486
0
LINE
8
DEFAULT_255_2_778
10
6.3618315
20
55.9733486
11
6.3869315
21
55.7254486
0
LINE
8
DEFAULT_255_2_778
10
6.3869315
20
55.7254486
11
6.3869315
21
55.5643486
0
LINE
8
DEFAULT_255_2_778
10
6.3869315
20
55.5643486
11
5.0997315
21
55.5643486
0
LINE
8
DEFAULT_255_2_778
10
5.0997315
20
55.5643486
11
5.0997315
21
55.6973486
0
LINE
8
DEFAULT_255_2_778
10
5.0997315
20
55.6973486
11
5.1135315
21
55.9675486
0
LINE
8
DEFAULT_255_2_778
10
5.1135315
20
55.9675486
11
5.1685315
21
56.1207486
0
LINE
8
DEFAULT_255_2_778
10
17.7060315
20
-0.0934514
11
17.7060315
21
1.3339486
0
LINE
8
DEFAULT_255_2_778
10
12.7059315
20
1.3339486
11
17.7060315
21
1.3339486
0
LINE
8
DEFAULT_255_2_778
10
14.8720804
20
1.9266468
11
17.7060804
21
1.9266468
0
LINE
8
DEFAULT_255_2_778
10
17.7060804
20
1.9266468
11
17.7060804
21
1.3339468
0
LINE
8
DEFAULT_255_2_778
10
12.7059804
20
-0.0934532
11
12.7059804
21
1.3339468
0
LINE
8
DEFAULT_255_2_778
10
12.7059804
20
1.4654468
11
12.7059804
21
1.3339468
0
LINE
8
DEFAULT_255_2_778
10
20.2060804
20
1.3339468
11
25.2061804
21
1.3339468
0
LINE
8
DEFAULT_255_2_778
10
25.2059804
20
-0.0934532
11
25.2059804
21
1.3339468
0
LINE
8
DEFAULT_255_2_778
10
20.2060888
20
1.3339468
11
20.2060888
21
1.9266468
0
LINE
8
DEFAULT_255_2_778
10
20.2060888
20
1.9266468
11
25.2061888
21
1.9266468
0
LINE
8
DEFAULT_255_2_778
10
25.2061888
20
1.9266468
11
25.2061888
21
1.3339468
0
LINE
8
DEFAULT_255_2_778
10
20.2060888
20
-0.0934532
11
20.2060888
21
1.3339468
0
LINE
8
DEFAULT_255_2_778
10
10.2061888
20
1.0474468
11
10.2061888
21
-0.0934532
0
ARC
8
DEFAULT_255_2_778
10
0.6150687
20
59.8247811
40
59.6490288
50
290.7794296
51
293.5556173
0
ARC
8
DEFAULT_255_2_778
10
1.4761148
20
57.553683
40
57.2201841
50
287.6582878
51
290.7801133
0
ARC
8
DEFAULT_255_2_778
10
2.1207672
20
55.5235745
40
55.0901807
50
283.8776705
51
287.6598831
0
ARC
8
DEFAULT_255_2_778
10
2.5397989
20
53.8190367
40
53.3348937
50
278.7034493
51
283.8798541
0
ARC
8
DEFAULT_255_2_778
10
2.6550659
20
53.1351793
40
52.6414699
50
269.9864359
51
278.6920665
0
ARC
8
DEFAULT_255_2_778
10
2.643773
20
54.0252407
40
53.5315298
50
268.3731064
51
269.9987484
0
ARC
8
DEFAULT_255_2_778
10
2.6558221
20
54.4761768
40
53.9826261
50
267.4039763
51
268.3739111
0
ARC
8
DEFAULT_255_2_778
10
27.8060124
20
29.3062914
40
0.4000391
50
269.9912768
51
359.9943939
0
ARC
8
DEFAULT_255_2_778
10
27.8059693
20
29.30627
40
0.4000177
50
180.0025298
51
269.9974487
0
ARC
8
DEFAULT_255_2_778
10
2.6060124
20
29.3062914
40
0.4000391
50
269.9912768
51
359.9943939
0
ARC
8
DEFAULT_255_2_778
10
2.6059693
20
29.3062702
40
0.4000179
50
180.0025686
51
269.9974386
0
LINE
8
DEFAULT_255_2_778
10
30.2078515
20
5.1461523
11
24.4531515
21
5.1461523
0
LINE
8
DEFAULT_255_2_778
10
28.2060515
20
34.6908523
11
28.2060515
21
29.3062523
0
LINE
8
DEFAULT_255_2_778
10
27.4059515
20
29.3062523
11
27.4059515
21
34.4185523
0
LINE
8
DEFAULT_255_2_778
10
27.4059515
20
34.4185523
11
3.0060515
21
34.4185523
0
LINE
8
DEFAULT_255_2_778
10
3.0060515
20
34.4185523
11
3.0060515
21
29.3062523
0
LINE
8
DEFAULT_255_2_778
10
2.2059515
20
29.3062523
11
2.2059515
21
34.6908523
0
LINE
8
DEFAULT_255_2_778
10
2.2059515
20
34.6908523
11
2.2059515
21
39.9062523
0
LINE
8
DEFAULT_255_2_778
10
2.2059515
20
39.9062523
11
0.2059515
21
39.9062523
0
LINE
8
DEFAULT_255_2_778
10
0.2059515
20
39.9062523
11
0.2059515
21
34.6908523
0
LINE
8
DEFAULT_255_2_778
10
0.2059515
20
34.6908523
11
2.2059515
21
34.6908523
0
LINE
8
DEFAULT_255_2_778
10
7.6619515
20
97.8828523
11
4.8226515
21
97.8828523
0
ARC
8
DEFAULT_255_2_778
10
16.6999226
20
52.7948503
40
1.2682798
50
77.7887062
51
90.563841
0
ARC
8
DEFAULT_255_2_778
10
16.8214042
20
53.3260867
40
0.7233957
50
53.1946138
51
78.2930219
0
ARC
8
DEFAULT_255_2_778
10
16.891876
20
53.4364119
40
0.5929204
50
49.842909
51
52.2600597
0
ARC
8
DEFAULT_255_2_778
10
16.8985474
20
53.454053
40
0.5751697
50
6.7604477
51
49.2175479
0
ARC
8
DEFAULT_255_2_778
10
16.5585373
20
53.3875565
40
0.9210108
50
359.7892458
51
8.3786537
0
ARC
8
DEFAULT_255_2_778
10
16.871734
20
53.3712816
40
0.6079444
50
324.3171507
51
1.2146424
0
ARC
8
DEFAULT_255_2_778
10
16.8201504
20
53.4235169
40
0.6804243
50
289.6126915
51
323.2779914
0
ARC
8
DEFAULT_255_2_778
10
16.7105364
20
53.5645707
40
0.6022487
50
268.7350966
51
292.2870135
0
ARC
8
DEFAULT_255_2_778
10
16.7714837
20
53.3960707
40
0.423289
50
293.3034386
51
311.1356413
0
ARC
8
DEFAULT_255_2_778
10
16.7933538
20
53.3680754
40
0.3878221
50
311.4229836
51
2.3782622
0
ARC
8
DEFAULT_255_2_778
10
16.7057241
20
53.3976012
40
0.4753075
50
358.3805749
51
26.0733054
0
ARC
8
DEFAULT_255_2_778
10
16.8256378
20
53.4469243
40
0.3460205
50
27.4645066
51
48.2732209
0
ARC
8
DEFAULT_255_2_778
10
16.7671863
20
53.3657034
40
0.4456641
50
49.6148954
51
81.6352804
0
ARC
8
DEFAULT_255_2_778
10
16.6949421
20
53.0124129
40
0.8059562
50
80.207558
51
89.9502596
0
ARC
8
DEFAULT_255_2_778
10
19.8479262
20
54.916849
40
3.067566
50
318.3914374
51
322.2319649
0
ARC
8
DEFAULT_255_2_778
10
21.1957215
20
53.8797071
40
1.3669353
50
321.9963325
51
328.8805147
0
ARC
8
DEFAULT_255_2_778
10
21.7314144
20
53.5480247
40
0.7369458
50
329.4318504
51
331.8254358
0
ARC
8
DEFAULT_255_2_778
10
21.9118301
20
53.4571332
40
0.5350157
50
331.2832238
51
359.7789062
0
ARC
8
DEFAULT_255_2_778
10
22.0417866
20
53.4704597
40
0.4053476
50
357.8239594
51
42.6459008
0
ARC
8
DEFAULT_255_2_778
10
22.0715816
20
53.4851536
40
0.3735948
50
44.0841317
51
92.5834754
0
ARC
8
DEFAULT_255_2_778
10
22.0413664
20
53.341886
40
0.5166558
50
88.5165341
51
114.6704548
0
ARC
8
DEFAULT_255_2_778
10
21.9876347
20
53.4781214
40
0.3705153
50
115.9134151
51
135.7704324
0
ARC
8
DEFAULT_255_2_778
10
22.0358234
20
53.4435662
40
0.4292396
50
136.9521879
51
175.6719785
0
ARC
8
DEFAULT_255_2_778
10
22.3068821
20
53.3995087
40
0.7032421
50
173.7589474
51
180.1254714
0
ARC
8
DEFAULT_255_2_778
10
22.0459932
20
53.4121876
40
0.7292901
50
154.5210191
51
181.1171592
0
ARC
8
DEFAULT_255_2_778
10
21.9491545
20
53.4465054
40
0.6271976
50
133.4720903
51
153.5455218
0
ARC
8
DEFAULT_255_2_778
10
21.9913366
20
53.3971184
40
0.6920677
50
96.4081746
51
133.1933951
0
ARC
8
DEFAULT_255_2_778
10
22.0518218
20
53.0597531
40
1.0343197
50
89.8382441
51
97.6520836
0
ARC
8
DEFAULT_255_2_778
10
22.0678597
20
53.2015027
40
0.8926624
50
72.4879985
51
90.842007
0
ARC
8
DEFAULT_255_2_778
10
22.152264
20
53.4812441
40
0.6004995
50
48.2095411
51
72.1365575
0
ARC
8
DEFAULT_255_2_778
10
22.1763223
20
53.5156773
40
0.5588163
50
359.060233
51
47.6959602
0
ARC
8
DEFAULT_255_2_778
10
21.9260518
20
53.4895212
40
0.8091899
50
359.9962865
51
1.203146
0
ARC
8
DEFAULT_255_2_778
10
22.0529273
20
53.5021257
40
0.6824319
50
337.3579636
51
358.9372836
0
ARC
8
DEFAULT_255_2_778
10
21.5055399
20
53.7184035
40
1.2709408
50
326.3806179
51
337.8592837
0
ARC
8
DEFAULT_255_2_778
10
20.6910981
20
54.2515948
40
2.2443786
50
319.0056134
51
326.5574853
0
ARC
8
DEFAULT_255_2_778
10
19.9669329
20
54.8593567
40
3.1896841
50
317.2884408
51
319.2987463
0
ARC
8
DEFAULT_255_2_778
10
22.2522272
20
52.7569327
40
2.3065434
50
353.0771796
51
0.2865611
0
ARC
8
DEFAULT_255_2_778
10
23.2075312
20
52.6361861
40
1.3436587
50
341.9014491
51
353.2785078
0
ARC
8
DEFAULT_255_2_778
10
23.7448178
20
52.4590769
40
0.7779372
50
325.6179186
51
342.0072951
0
ARC
8
DEFAULT_255_2_778
10
23.9253565
20
52.3469334
40
0.5656902
50
276.5847692
51
324.6657088
0
ARC
8
DEFAULT_255_2_778
10
23.8525539
20
52.7077672
40
0.9330056
50
269.7781839
51
278.4854144
0
ARC
8
DEFAULT_255_2_778
10
23.8358679
20
52.5772202
40
0.802558
50
251.2227359
51
270.9334086
0
ARC
8
DEFAULT_255_2_778
10
23.7567512
20
52.3323569
40
0.5452741
50
215.6997792
51
250.8115505
0
ARC
8
DEFAULT_255_2_778
10
23.9867068
20
52.4859806
40
0.8217172
50
195.6991117
51
215.0420829
0
ARC
8
DEFAULT_255_2_778
10
24.6002204
20
52.6685595
40
1.4617799
50
185.1705575
51
196.0816673
0
ARC
8
DEFAULT_255_2_778
10
25.3994328
20
52.7545265
40
2.2655283
50
180.6312003
51
185.5142923
0
ARC
8
DEFAULT_255_2_778
10
25.3574117
20
53.1249784
40
2.2234051
50
172.5950766
51
180.3223673
0
ARC
8
DEFAULT_255_2_778
10
24.4081594
20
53.2531914
40
1.2655544
50
160.5704483
51
172.8125422
0
ARC
8
DEFAULT_255_2_778
10
23.9196253
20
53.4246318
40
0.747813
50
145.1486765
51
160.5066554
0
ARC
8
DEFAULT_255_2_778
10
23.7633962
20
53.5226059
40
0.5636882
50
97.5888543
51
144.2464702
0
ARC
8
DEFAULT_255_2_778
10
23.840999
20
53.1570726
40
0.9367067
50
89.7282468
51
99.34154
0
ARC
8
DEFAULT_255_2_778
10
23.8581701
20
53.2547431
40
0.8391222
50
72.5538514
51
90.8691304
0
ARC
8
DEFAULT_255_2_778
10
23.9472194
20
53.5410354
40
0.5393026
50
36.3209677
51
72.4603447
0
ARC
8
DEFAULT_255_2_778
10
23.753266
20
53.4130319
40
0.7714801
50
16.2574211
51
35.448569
0
ARC
8
DEFAULT_255_2_778
10
23.1575923
20
53.2286787
40
1.3949826
50
6.0653983
51
16.6772169
0
ARC
8
DEFAULT_255_2_778
10
22.2843659
20
53.1257177
40
2.2742224
50
0.3665952
51
6.3202691
0
ARC
8
DEFAULT_255_2_778
10
22.3837254
20
53.1730947
40
1.8882573
50
359.6229546
51
7.0537022
0
ARC
8
DEFAULT_255_2_778
10
23.3387806
20
53.2963869
40
0.9253042
50
6.7392218
51
19.3097258
0
ARC
8
DEFAULT_255_2_778
10
23.7420734
20
53.4335302
40
0.4993643
50
19.7606936
51
31.1268286
0
ARC
8
DEFAULT_255_2_778
10
23.8711689
20
53.5087377
40
0.349986
50
31.5122596
51
92.8025657
0
ARC
8
DEFAULT_255_2_778
10
23.8454777
20
53.2779406
40
0.5804279
50
89.1531381
51
90.0035465
0
ARC
8
DEFAULT_255_2_778
10
23.8312118
20
53.4724922
40
0.3861389
50
87.88805
51
123.0990676
0
ARC
8
DEFAULT_255_2_778
10
23.8133091
20
53.521271
40
0.335701
50
125.0861189
51
149.3381186
0
ARC
8
DEFAULT_255_2_778
10
24.0631843
20
53.380505
40
0.6224605
50
149.9220151
51
167.6951685
0
ARC
8
DEFAULT_255_2_778
10
24.7220335
20
53.2248416
40
1.2994008
50
167.1802207
51
176.7813121
0
ARC
8
DEFAULT_255_2_778
10
25.5004539
20
53.1655609
40
2.0799792
50
176.354859
51
179.5397551
0
ARC
8
DEFAULT_255_2_778
10
25.2793616
20
52.7113853
40
1.8588597
50
179.6244673
51
187.2740069
0
ARC
8
DEFAULT_255_2_778
10
24.359873
20
52.5885528
40
0.9312344
50
186.9403294
51
200.0609843
0
ARC
8
DEFAULT_255_2_778
10
23.9781965
20
52.4545227
40
0.526764
50
200.6075018
51
210.9937113
0
ARC
8
DEFAULT_255_2_778
10
23.8304705
20
52.3598087
40
0.3513947
50
210.1587734
51
272.9152141
0
ARC
8
DEFAULT_255_2_778
10
23.8687242
20
52.3546218
40
0.3463533
50
266.6262809
51
328.4060597
0
ARC
8
DEFAULT_255_2_778
10
23.6422482
20
52.4842245
40
0.6072161
50
329.1851514
51
347.5218138
0
ARC
8
DEFAULT_255_2_778
10
22.9543807
20
52.6499561
40
1.3147103
50
346.9469507
51
356.6219701
0
ARC
8
DEFAULT_255_2_778
10
22.1284925
20
52.7154713
40
2.1430893
50
356.1744967
51
359.3449057
0
ARC
8
DEFAULT_255_2_778
10
25.6583229
20
52.6262582
40
1.0080076
50
335.8322067
51
354.0729211
0
ARC
8
DEFAULT_255_2_778
10
25.9182708
20
52.514442
40
0.7250787
50
311.2703369
51
335.4837478
0
ARC
8
DEFAULT_255_2_778
10
25.889616
20
52.5630304
40
0.7805698
50
278.5919162
51
310.4986718
0
ARC
8
DEFAULT_255_2_778
10
25.8106255
20
52.9593368
40
1.1843803
50
269.7395553
51
279.5061429
0
ARC
8
DEFAULT_255_2_778
10
25.7906751
20
52.6407467
40
0.8659005
50
245.3826092
51
270.9639082
0
ARC
8
DEFAULT_255_2_778
10
25.7691689
20
52.5604029
40
0.7840241
50
219.4937005
51
244.3655667
0
ARC
8
DEFAULT_255_2_778
10
25.9307581
20
52.6934548
40
0.9933417
50
192.2178598
51
219.4882666
0
ARC
8
DEFAULT_255_2_778
10
26.4496471
20
52.8165142
40
1.5265568
50
179.528791
51
192.6104535
0
ARC
8
DEFAULT_255_2_778
10
26.3375502
20
53.0592768
40
1.4144701
50
164.9575851
51
180.5350272
0
ARC
8
DEFAULT_255_2_778
10
26.0292281
20
53.1339849
40
1.0973519
50
154.8949324
51
164.5465627
0
ARC
8
DEFAULT_255_2_778
10
25.803294
20
53.2542771
40
0.8418252
50
122.2453357
51
155.7844753
0
ARC
8
DEFAULT_255_2_778
10
25.8108343
20
53.2130987
40
0.8808139
50
89.8825612
51
121.2309643
0
ARC
8
DEFAULT_255_2_778
10
25.8315901
20
52.9561162
40
1.1379523
50
89.9973971
51
90.9541951
0
ARC
8
DEFAULT_255_2_778
10
25.8447564
20
53.1054144
40
0.9887413
50
72.225281
51
90.7599911
0
ARC
8
DEFAULT_255_2_778
10
25.9238652
20
53.3675753
40
0.7149602
50
47.3305809
51
71.8487227
0
ARC
8
DEFAULT_255_2_778
10
25.8726735
20
53.3258271
40
0.7804087
50
12.5456849
51
46.6445155
0
ARC
8
DEFAULT_255_2_778
10
25.5229737
20
53.2262949
40
1.1435752
50
5.5738465
51
13.6076464
0
ARC
8
DEFAULT_255_2_778
10
25.4241208
20
53.214868
40
0.9457879
50
7.4419916
51
21.1993794
0
ARC
8
DEFAULT_255_2_778
10
25.8634713
20
53.3893418
40
0.4730923
50
20.7402218
51
45.7413252
0
ARC
8
DEFAULT_255_2_778
10
25.8883341
20
53.3869002
40
0.457905
50
48.1833503
51
84.1246137
0
ARC
8
DEFAULT_255_2_778
10
25.8342256
20
53.081699
40
0.7673742
50
82.4382708
51
90.1929161
0
ARC
8
DEFAULT_255_2_778
10
25.8092286
20
53.3172165
40
0.5323243
50
87.5868755
51
142.9202424
0
ARC
8
DEFAULT_255_2_778
10
25.9751016
20
53.1999335
40
0.7353985
50
143.4220916
51
167.1168144
0
ARC
8
DEFAULT_255_2_778
10
26.524352
20
53.063403
40
1.3013073
50
166.6487535
51
179.1220245
0
ARC
8
DEFAULT_255_2_778
10
27.0188749
20
53.038661
40
1.7962331
50
178.5746041
51
180.0093245
0
ARC
8
DEFAULT_255_2_778
10
26.5666437
20
52.8070279
40
1.3440632
50
179.4526018
51
192.2255283
0
ARC
8
DEFAULT_255_2_778
10
26.0337269
20
52.6870141
40
0.7978304
50
191.9065642
51
214.4781569
0
ARC
8
DEFAULT_255_2_778
10
25.7864247
20
52.5140864
40
0.4960824
50
214.1829753
51
272.1969447
0
ARC
8
DEFAULT_255_2_778
10
25.8181471
20
52.7850342
40
0.7667707
50
269.0505708
51
286.0844385
0
ARC
8
DEFAULT_255_2_778
10
25.9091669
20
52.4640893
40
0.4331746
50
286.2778462
51
309.7132187
0
ARC
8
DEFAULT_255_2_778
10
25.8911167
20
52.4597111
40
0.441655
50
311.8779545
51
339.3130737
0
ARC
8
DEFAULT_255_2_778
10
25.4146449
20
52.6545912
40
0.9563521
50
338.4745293
51
351.5824806
0
ARC
8
DEFAULT_255_2_778
10
24.9988812
20
52.7343111
40
1.3794243
50
350.834838
51
351.1659519
0
LINE
8
DEFAULT_255_2_778
10
17.2597418
20
51.8059687
11
16.7697418
21
52.7190687
0
LINE
8
DEFAULT_255_2_778
10
16.7697418
20
52.7190687
11
16.2394418
21
52.7190687
0
LINE
8
DEFAULT_255_2_778
10
16.2394418
20
52.7190687
11
16.2394418
21
51.8059687
0
LINE
8
DEFAULT_255_2_778
10
16.2394418
20
51.8059687
11
15.9402418
21
51.8059687
0
LINE
8
DEFAULT_255_2_778
10
15.9402418
20
51.8059687
11
15.9402418
21
54.0630687
0
LINE
8
DEFAULT_255_2_778
10
15.9402418
20
54.0630687
11
16.6874418
21
54.0630687
0
LINE
8
DEFAULT_255_2_778
10
17.0485418
20
52.7825687
11
17.5788418
21
51.8244687
0
LINE
8
DEFAULT_255_2_778
10
17.5788418
20
51.8244687
11
17.5788418
21
51.8059687
0
LINE
8
DEFAULT_255_2_778
10
17.5788418
20
51.8059687
11
17.2594418
21
51.8059687
0
LINE
8
DEFAULT_255_2_778
10
17.2594418
20
51.8059687
11
17.2597418
21
51.8059687
0
LINE
8
DEFAULT_255_2_778
10
16.2397418
20
53.8180687
11
16.2397418
21
52.9624687
0
LINE
8
DEFAULT_255_2_778
10
16.2397418
20
52.9624687
11
16.6972418
21
52.9624687
0
LINE
8
DEFAULT_255_2_778
10
16.6956418
20
53.8183687
11
16.2397418
21
53.8183687
0
LINE
8
DEFAULT_255_2_778
10
16.2397418
20
53.8183687
11
16.2397418
21
53.8180687
0
LINE
8
DEFAULT_255_2_778
10
19.1419418
20
53.0460687
11
19.1419418
21
52.8026687
0
LINE
8
DEFAULT_255_2_778
10
19.1419418
20
52.8026687
11
18.1947418
21
52.8026687
0
LINE
8
DEFAULT_255_2_778
10
18.1947418
20
52.8026687
11
18.1947418
21
51.8056687
0
LINE
8
DEFAULT_255_2_778
10
18.1947418
20
51.8056687
11
17.8971418
21
51.8056687
0
LINE
8
DEFAULT_255_2_778
10
17.8971418
20
51.8056687
11
17.8971418
21
54.0628687
0
LINE
8
DEFAULT_255_2_778
10
17.8971418
20
54.0628687
11
19.2954418
21
54.0628687
0
LINE
8
DEFAULT_255_2_778
10
19.2954418
20
54.0628687
11
19.2954418
21
53.8178687
0
LINE
8
DEFAULT_255_2_778
10
19.2954418
20
53.8178687
11
18.1947418
21
53.8178687
0
LINE
8
DEFAULT_255_2_778
10
18.1947418
20
53.8178687
11
18.1947418
21
53.0457687
0
LINE
8
DEFAULT_255_2_778
10
18.1947418
20
53.0457687
11
19.1419418
21
53.0457687
0
LINE
8
DEFAULT_255_2_778
10
19.1419418
20
53.0457687
11
19.1419418
21
53.0460687
0
LINE
8
DEFAULT_255_2_778
10
20.5199418
20
54.0739687
11
20.5199418
21
51.8059687
0
LINE
8
DEFAULT_255_2_778
10
20.5199418
20
51.8059687
11
20.2315418
21
51.8059687
0
LINE
8
DEFAULT_255_2_778
10
20.2315418
20
51.8059687
11
20.2315418
21
53.7175687
0
LINE
8
DEFAULT_255_2_778
10
20.2315418
20
53.7175687
11
19.6531418
21
53.5050687
0
LINE
8
DEFAULT_255_2_778
10
19.6531418
20
53.5050687
11
19.6531418
21
53.7654687
0
LINE
8
DEFAULT_255_2_778
10
19.6531418
20
53.7654687
11
20.4749418
21
54.0739687
0
LINE
8
DEFAULT_255_2_778
10
20.4749418
20
54.0739687
11
20.5199418
21
54.0739687
0
LINE
8
DEFAULT_255_2_778
10
20.5199418
20
54.0739687
11
20.5199418
21
54.0739687
0
LINE
8
DEFAULT_255_2_778
10
22.8392418
20
52.0398687
11
22.8392418
21
51.8056687
0
LINE
8
DEFAULT_255_2_778
10
22.8392418
20
51.8056687
11
21.3602418
21
51.8056687
0
LINE
8
DEFAULT_255_2_778
10
21.3602418
20
51.8056687
11
21.3602418
21
52.0117687
0
LINE
8
DEFAULT_255_2_778
10
21.3602418
20
52.0117687
11
22.1415418
21
52.8798687
0
LINE
8
DEFAULT_255_2_778
10
21.6036418
20
53.3979687
11
21.3168418
21
53.3979687
0
LINE
8
DEFAULT_255_2_778
10
22.3106418
20
52.6957687
11
21.7060418
21
52.0400687
0
LINE
8
DEFAULT_255_2_778
10
21.7060418
20
52.0400687
11
22.8392418
21
52.0400687
0
LINE
8
DEFAULT_255_2_778
10
22.8392418
20
52.0400687
11
22.8392418
21
52.0398687
0
LINE
8
DEFAULT_255_2_778
10
24.5587418
20
53.1404687
11
24.5587418
21
52.7684687
0
LINE
8
DEFAULT_255_2_778
10
23.1340418
20
52.7295687
11
23.1340418
21
53.1124687
0
LINE
8
DEFAULT_255_2_778
10
24.5585418
20
53.1402687
11
24.5587418
21
53.1404687
0
LINE
8
DEFAULT_255_2_778
10
24.2719418
20
52.6909687
11
24.2719418
21
53.1606687
0
LINE
8
DEFAULT_255_2_778
10
23.4205418
20
53.1822687
11
23.4205418
21
52.7235687
0
LINE
8
DEFAULT_255_2_778
10
24.2714418
20
52.6909687
11
24.2719418
21
52.6909687
0
LINE
8
DEFAULT_255_2_778
10
26.3616418
20
52.5221687
11
26.6609418
21
52.5221687
0
LINE
8
DEFAULT_255_2_778
10
24.9231418
20
52.8290687
11
24.9231418
21
53.0460687
0
LINE
8
DEFAULT_255_2_778
10
26.6611418
20
53.3373687
11
26.3619418
21
53.3373687
0
LINE
8
DEFAULT_255_2_778
10
25.2226418
20
53.0383687
11
25.2226418
21
52.8198687
0
LINE
8
DEFAULT_255_2_778
10
26.3619418
20
52.5224687
11
26.3616418
21
52.5221687
0
ARC
8
DEFAULT_255_2_778
10
13.0493811
20
51.1768155
40
1.5903415
50
246.1306087
51
254.4355972
0
ARC
8
DEFAULT_255_2_778
10
12.7121139
20
50.4287311
40
0.7697856
50
231.6493428
51
246.555328
0
ARC
8
DEFAULT_255_2_778
10
12.5457623
20
50.2045798
40
0.490859
50
227.3598659
51
230.6428689
0
ARC
8
DEFAULT_255_2_778
10
12.4644219
20
50.1276143
40
0.3792204
50
179.0060352
51
228.5233337
0
ARC
8
DEFAULT_255_2_778
10
12.4861617
20
50.1401697
40
0.4009477
50
127.5399369
51
180.8541494
0
ARC
8
DEFAULT_255_2_778
10
12.6022482
20
50.0017426
40
0.5814948
50
94.4320577
51
128.2989242
0
ARC
8
DEFAULT_255_2_778
10
12.6472104
20
49.7045014
40
0.8815926
50
89.8993874
51
95.8527734
0
ARC
8
DEFAULT_255_2_778
10
12.6608718
20
49.9070384
40
0.6791623
50
64.490668
51
91.021958
0
ARC
8
DEFAULT_255_2_778
10
12.7386696
20
50.0666329
40
0.5016238
50
32.7491974
51
64.6600575
0
ARC
8
DEFAULT_255_2_778
10
12.7664494
20
50.0868671
40
0.4673179
50
359.6475824
51
32.5052142
0
ARC
8
DEFAULT_255_2_778
10
12.7128205
20
50.0995624
40
0.30174
50
357.0422449
51
46.986532
0
ARC
8
DEFAULT_255_2_778
10
12.6909651
20
50.05135
40
0.3523077
50
49.7374196
51
86.2717309
0
ARC
8
DEFAULT_255_2_778
10
12.6501524
20
49.7859972
40
0.620197
50
84.1028159
51
90.1287734
0
ARC
8
DEFAULT_255_2_778
10
12.6360244
20
49.931487
40
0.4748765
50
88.4633903
51
111.5066954
0
ARC
8
DEFAULT_255_2_778
10
12.573686
20
50.1081195
40
0.2877675
50
112.852192
51
127.9646454
0
ARC
8
DEFAULT_255_2_778
10
12.542777
20
50.1485634
40
0.2368681
50
128.0884431
51
182.630434
0
ARC
8
DEFAULT_255_2_778
10
12.5198361
20
50.1375303
40
0.2136776
50
179.9564518
51
233.307207
0
ARC
8
DEFAULT_255_2_778
10
12.7054582
20
50.37399
40
0.5142522
50
232.4659044
51
248.0112923
0
ARC
8
DEFAULT_255_2_778
10
13.0465288
20
51.172705
40
1.3826789
50
247.2984356
51
254.8323386
0
ARC
8
DEFAULT_255_2_778
10
12.206098
20
48.0882686
40
1.8142078
50
67.8941236
51
74.7019667
0
ARC
8
DEFAULT_255_2_778
10
12.5457026
20
48.9251876
40
0.9110111
50
59.4939563
51
67.874719
0
ARC
8
DEFAULT_255_2_778
10
12.7637675
20
49.2776676
40
0.4967076
50
33.5814536
51
60.5264348
0
ARC
8
DEFAULT_255_2_778
10
12.8591792
20
49.3521541
40
0.3761344
50
31.1271597
51
32.16764
0
ARC
8
DEFAULT_255_2_778
10
12.8203952
20
49.3370849
40
0.4171854
50
358.6138051
51
30.1452177
0
ARC
8
DEFAULT_255_2_778
10
12.8503555
20
49.315759
40
0.387266
50
306.4353145
51
1.6622519
0
ARC
8
DEFAULT_255_2_778
10
12.7308171
20
49.4754403
40
0.5867312
50
277.4595464
51
306.565672
0
ARC
8
DEFAULT_255_2_778
10
12.6643393
20
49.8400351
40
0.9570515
50
269.7497083
51
278.5720151
0
ARC
8
DEFAULT_255_2_778
10
12.6542109
20
49.6637141
40
0.7807441
50
246.3773997
51
270.4364806
0
ARC
8
DEFAULT_255_2_778
10
12.5457647
20
49.4434794
40
0.5356237
50
216.1131321
51
247.5657648
0
ARC
8
DEFAULT_255_2_778
10
12.4703176
20
49.3803239
40
0.4374997
50
179.2182921
51
215.2548663
0
ARC
8
DEFAULT_255_2_778
10
12.5376755
20
49.3750737
40
0.2854375
50
177.7474439
51
232.4104771
0
ARC
8
DEFAULT_255_2_778
10
12.6195976
20
49.4932417
40
0.4291063
50
233.3675239
51
266.4664747
0
ARC
8
DEFAULT_255_2_778
10
12.6589292
20
49.7704916
40
0.7086
50
264.6736367
51
270.0994041
0
ARC
8
DEFAULT_255_2_778
10
12.6726612
20
49.6114871
40
0.5497366
50
268.6968116
51
288.0435189
0
ARC
8
DEFAULT_255_2_778
10
12.7466288
20
49.369562
40
0.296834
50
288.9321661
51
306.9977137
0
ARC
8
DEFAULT_255_2_778
10
12.7885095
20
49.3165539
40
0.2293007
50
306.6106644
51
2.0840912
0
ARC
8
DEFAULT_255_2_778
10
12.7928475
20
49.3364694
40
0.2251089
50
357.0521307
51
51.7670212
0
ARC
8
DEFAULT_255_2_778
10
12.622593
20
49.0914125
40
0.5232721
50
53.7296801
51
67.644591
0
ARC
8
DEFAULT_255_2_778
10
12.2245452
20
48.1739216
40
1.5233248
50
66.9237993
51
73.4327444
0
ARC
8
DEFAULT_255_2_778
10
11.9221475
20
47.2243346
40
2.5197884
50
72.9989399
51
73.8588924
0
ARC
8
DEFAULT_255_2_778
10
20.1267106
20
49.4998327
40
0.7031476
50
331.2679883
51
354.4470934
0
ARC
8
DEFAULT_255_2_778
10
20.2866605
20
49.421233
40
0.5251676
50
311.1674653
51
330.3986649
0
ARC
8
DEFAULT_255_2_778
10
20.2536428
20
49.4726081
40
0.5856452
50
275.672426
51
310.2905645
0
ARC
8
DEFAULT_255_2_778
10
20.2005026
20
49.7873774
40
0.9043876
50
269.8514935
51
277.0516211
0
ARC
8
DEFAULT_255_2_778
10
20.1768178
20
49.4666124
40
0.5840098
50
219.696569
51
272.0941577
0
ARC
8
DEFAULT_255_2_778
10
20.3049731
20
49.5660096
40
0.7461238
50
189.2821656
51
219.283764
0
ARC
8
DEFAULT_255_2_778
10
20.716884
20
49.6507873
40
1.166443
50
179.6853672
51
190.1284269
0
ARC
8
DEFAULT_255_2_778
10
20.5507266
20
49.8297308
40
1.0003557
50
161.716405
51
180.7582419
0
ARC
8
DEFAULT_255_2_778
10
20.3435576
20
49.8884414
40
0.7852812
50
154.7923557
51
161.0417392
0
ARC
8
DEFAULT_255_2_778
10
20.1954451
20
49.9707816
40
0.6163105
50
122.2186035
51
155.8538847
0
ARC
8
DEFAULT_255_2_778
10
20.2040085
20
49.9348338
40
0.6513977
50
88.8168755
51
121.1700153
0
ARC
8
DEFAULT_255_2_778
10
20.2310464
20
49.8951237
40
0.6911025
50
67.6182405
51
91.1265745
0
ARC
8
DEFAULT_255_2_778
10
20.2893666
20
50.0579948
40
0.5183573
50
47.2754855
51
66.7239163
0
ARC
8
DEFAULT_255_2_778
10
20.2380483
20
50.0153796
40
0.5845476
50
9.6180499
51
46.4142328
0
ARC
8
DEFAULT_255_2_778
10
19.9579825
20
49.9445224
40
0.8728202
50
5.6526328
51
11.1325119
0
ARC
8
DEFAULT_255_2_778
10
19.9572107
20
49.9491976
40
0.6545162
50
7.1349269
51
23.912089
0
ARC
8
DEFAULT_255_2_778
10
20.2539964
20
50.079028
40
0.3305833
50
24.1912425
51
46.1156224
0
ARC
8
DEFAULT_255_2_778
10
20.2530686
20
50.0568769
40
0.3475022
50
48.5378446
51
87.4033901
0
ARC
8
DEFAULT_255_2_778
10
20.2181278
20
49.8134858
40
0.5927075
50
85.0944968
51
90.0840283
0
ARC
8
DEFAULT_255_2_778
10
20.2006703
20
50.0156422
40
0.3909026
50
87.5678776
51
142.9082867
0
ARC
8
DEFAULT_255_2_778
10
20.3396558
20
49.9197416
40
0.5596522
50
143.6581226
51
169.9061249
0
ARC
8
DEFAULT_255_2_778
10
20.8119695
20
49.8199979
40
1.0422507
50
169.0583286
51
180.500551
0
ARC
8
DEFAULT_255_2_778
10
20.7109486
20
49.6376161
40
0.9412754
50
179.2283482
51
194.7433346
0
ARC
8
DEFAULT_255_2_778
10
20.3471432
20
49.5436914
40
0.5655479
50
194.9208656
51
214.7670532
0
ARC
8
DEFAULT_255_2_778
10
20.1838733
20
49.4258962
40
0.3642721
50
214.1909156
51
272.2002507
0
ARC
8
DEFAULT_255_2_778
10
20.2103425
20
49.5915538
40
0.5298082
50
268.6498055
51
289.6270906
0
ARC
8
DEFAULT_255_2_778
10
20.2804305
20
49.3797626
40
0.3068228
50
290.5840201
51
309.9040455
0
ARC
8
DEFAULT_255_2_778
10
20.245912
20
49.397772
40
0.3431068
50
312.3974529
51
342.6363901
0
ARC
8
DEFAULT_255_2_778
10
19.857821
20
49.5410878
40
0.7565735
50
341.0484882
51
351.69395
0
ARC
8
DEFAULT_255_2_778
10
23.134778
20
49.5448987
40
0.8833167
50
162.7524486
51
180.850143
0
ARC
8
DEFAULT_255_2_778
10
22.8533101
20
49.6275503
40
0.5900168
50
142.3820555
51
162.3134695
0
ARC
8
DEFAULT_255_2_778
10
22.7279995
20
49.7351171
40
0.4251899
50
88.6713412
51
143.5564841
0
ARC
8
DEFAULT_255_2_778
10
22.7570023
20
49.7335647
40
0.4270572
50
40.7432994
51
92.5692721
0
ARC
8
DEFAULT_255_2_778
10
22.7581107
20
49.3100731
40
0.427325
50
267.9169396
51
320.4185821
0
ARC
8
DEFAULT_255_2_778
10
22.7355888
20
49.529179
40
0.6461863
50
269.997317
51
270.6197404
0
ARC
8
DEFAULT_255_2_778
10
22.7283947
20
49.3036478
40
0.4207161
50
215.6580744
51
270.9756606
0
ARC
8
DEFAULT_255_2_778
10
22.9142922
20
49.4510074
40
0.6577607
50
186.7447076
51
216.6479094
0
ARC
8
DEFAULT_255_2_778
10
23.2704697
20
49.5127925
40
1.0189167
50
179.8088021
51
187.8427639
0
ARC
8
DEFAULT_255_2_778
10
23.1601761
20
49.4954718
40
0.6981299
50
178.9723531
51
196.5885664
0
ARC
8
DEFAULT_255_2_778
10
22.8748346
20
49.4144253
40
0.4015437
50
197.1294853
51
215.7026849
0
ARC
8
DEFAULT_255_2_778
10
22.7773435
20
49.3415532
40
0.2798582
50
215.2354014
51
272.1532673
0
ARC
8
DEFAULT_255_2_778
10
22.8006143
20
49.3692025
40
0.3075744
50
267.6231392
51
335.5284983
0
ARC
8
DEFAULT_255_2_778
10
22.8020559
20
49.6721862
40
0.3096313
50
25.9121335
51
92.1835759
0
ARC
8
DEFAULT_255_2_778
10
22.7790846
20
49.7009183
40
0.2808967
50
87.7202029
51
145.0102958
0
ARC
8
DEFAULT_255_2_778
10
22.9200489
20
49.6095915
40
0.4487922
50
145.7779873
51
171.0390121
0
ARC
8
DEFAULT_255_2_778
10
23.3992751
20
49.5163578
40
0.936854
50
169.9717165
51
180.5115969
0
ARC
8
DEFAULT_255_2_778
10
24.1088488
20
49.4201781
40
0.537558
50
223.876595
51
272.1332412
0
ARC
8
DEFAULT_255_2_778
10
24.142919
20
49.4397586
40
0.5757667
50
184.3390458
51
222.931182
0
ARC
8
DEFAULT_255_2_778
10
24.4362146
20
49.4860859
40
0.8720573
50
179.9010037
51
185.9163724
0
ARC
8
DEFAULT_255_2_778
10
24.3019884
20
49.5393237
40
0.7379467
50
154.8028677
51
181.0195735
0
ARC
8
DEFAULT_255_2_778
10
24.1308706
20
49.6198403
40
0.5488324
50
123.2363932
51
154.8033572
0
ARC
8
DEFAULT_255_2_778
10
24.1012088
20
49.6686014
40
0.491794
50
89.8077959
51
123.4596207
0
ARC
8
DEFAULT_255_2_778
10
24.1168393
20
49.6473158
40
0.5132673
50
61.5496225
51
91.5608629
0
ARC
8
DEFAULT_255_2_778
10
24.1505381
20
49.7306504
40
0.4240626
50
39.816845
51
60.1887346
0
ARC
8
DEFAULT_255_2_778
10
24.0451307
20
49.6546424
40
0.553771
50
10.4206139
51
38.8737464
0
ARC
8
DEFAULT_255_2_778
10
23.60502
20
49.5577192
40
1.0042765
50
359.5021305
51
11.3175323
0
ARC
8
DEFAULT_255_2_778
10
24.2364512
20
49.4585149
40
0.4617016
50
179.6428729
51
212.0382241
0
ARC
8
DEFAULT_255_2_778
10
24.1602967
20
49.4215531
40
0.377647
50
213.4138994
51
222.3408637
0
ARC
8
DEFAULT_255_2_778
10
24.1312201
20
49.3893943
40
0.334521
50
221.6238955
51
271.5311359
0
ARC
8
DEFAULT_255_2_778
10
24.1519355
20
49.4209723
40
0.366169
50
268.1569062
51
298.92861
0
ARC
8
DEFAULT_255_2_778
10
24.0893979
20
49.5059474
40
0.4709891
50
300.586949
51
322.8007468
0
ARC
8
DEFAULT_255_2_778
10
24.1587712
20
49.3977585
40
0.5151185
50
267.7115101
51
327.4877495
0
ARC
8
DEFAULT_255_2_778
10
24.1285608
20
49.6815661
40
0.7985735
50
269.9998352
51
270.691744
0
ARC
8
DEFAULT_255_2_778
10
24.0972726
20
49.7066449
40
0.2807995
50
88.900949
51
138.0120002
0
ARC
8
DEFAULT_255_2_778
10
24.201022
20
49.619264
40
0.4163943
50
138.6252771
51
170.2649882
0
ARC
8
DEFAULT_255_2_778
10
24.4648885
20
49.5519553
40
0.6881854
50
168.4562046
51
173.1200417
0
ARC
8
DEFAULT_255_2_778
10
23.9333437
20
49.6370903
40
0.4655021
50
1.6252145
51
25.8237525
0
ARC
8
DEFAULT_255_2_778
10
24.0902069
20
49.7048553
40
0.294876
50
27.2486367
51
41.1756571
0
ARC
8
DEFAULT_255_2_778
10
24.1145892
20
49.7232193
40
0.2644427
50
41.6588395
51
92.5858496
0
ARC
8
DEFAULT_255_2_778
10
25.4168993
20
49.7112829
40
0.4492459
50
88.5893916
51
142.8006253
0
ARC
8
DEFAULT_255_2_778
10
25.4409754
20
49.7044521
40
0.4561264
50
65.8143399
51
91.6353208
0
ARC
8
DEFAULT_255_2_778
10
25.4805609
20
49.8280892
40
0.327447
50
11.3094558
51
63.2688539
0
ARC
8
DEFAULT_255_2_778
10
25.1061036
20
49.7233874
40
0.7157633
50
359.7202543
51
13.6503022
0
ARC
8
DEFAULT_255_2_778
10
25.2597351
20
49.730701
40
0.3516575
50
358.4180207
51
23.4231467
0
ARC
8
DEFAULT_255_2_778
10
25.4132252
20
49.7906361
40
0.1870876
50
25.2668031
51
42.8173228
0
ARC
8
DEFAULT_255_2_778
10
25.3967099
20
49.759271
40
0.2208343
50
45.8757089
51
88.5559961
0
ARC
8
DEFAULT_255_2_778
10
25.3652209
20
49.5402574
40
0.4413359
50
85.1838479
51
90.0989759
0
ARC
8
DEFAULT_255_2_778
10
25.3586834
20
49.6775415
40
0.304106
50
88.9118642
51
124.9532947
0
ARC
8
DEFAULT_255_2_778
10
25.3989373
20
49.6240026
40
0.3710566
50
125.3115225
51
154.5605257
0
ARC
8
DEFAULT_255_2_778
10
26.5985818
20
49.1989589
40
0.1736478
50
175.9931404
51
213.7326378
0
ARC
8
DEFAULT_255_2_778
10
26.5310626
20
49.1627477
40
0.0976667
50
218.0662221
51
219.8288044
0
ARC
8
DEFAULT_255_2_778
10
26.5458045
20
49.1891782
40
0.1263834
50
224.7562049
51
274.7498052
0
ARC
8
DEFAULT_255_2_778
10
26.5608376
20
49.3530042
40
0.2898114
50
269.0968837
51
270.0041413
0
ARC
8
DEFAULT_255_2_778
10
26.5449006
20
49.5430736
40
0.4801462
50
271.9046119
51
283.0465715
0
ARC
8
DEFAULT_255_2_778
10
26.4384577
20
50.1062846
40
1.0531086
50
281.7708707
51
282.2085085
0
ARC
8
DEFAULT_255_2_778
10
26.4959202
20
49.493384
40
0.6099016
50
270.332407
51
285.7193955
0
ARC
8
DEFAULT_255_2_778
10
26.4855696
20
49.1661289
40
0.2829772
50
233.8883192
51
272.8132854
0
ARC
8
DEFAULT_255_2_778
10
26.4559619
20
49.1107957
40
0.2209965
50
219.9151654
51
231.6342412
0
ARC
8
DEFAULT_255_2_778
10
26.5447532
20
49.1705618
40
0.3276373
50
183.471095
51
217.9679261
0
ARC
8
DEFAULT_255_2_778
10
26.8141192
20
49.2102182
40
0.5993623
50
179.8686084
51
185.6966081
0
LINE
8
DEFAULT_255_2_778
10
13.2337585
20
50.0839927
11
13.0141585
21
50.0839927
0
LINE
8
DEFAULT_255_2_778
10
12.0328585
20
49.3862927
11
12.2524585
21
49.3862927
0
LINE
8
DEFAULT_255_2_778
10
12.6226585
20
49.6447927
11
12.6226585
21
49.6447927
0
LINE
8
DEFAULT_255_2_778
10
13.7518585
20
50.5633927
11
13.7518585
21
48.9057927
0
LINE
8
DEFAULT_255_2_778
10
13.7518585
20
48.9057927
11
13.5333585
21
48.9057927
0
LINE
8
DEFAULT_255_2_778
10
13.5333585
20
48.9057927
11
13.5333585
21
50.5633927
0
LINE
8
DEFAULT_255_2_778
10
13.5333585
20
50.5633927
11
13.7518585
21
50.5633927
0
LINE
8
DEFAULT_255_2_778
10
13.7518585
20
50.5633927
11
13.7518585
21
50.5633927
0
LINE
8
DEFAULT_255_2_778
10
14.1516585
20
50.5633927
11
14.4339585
21
50.5633927
0
LINE
8
DEFAULT_255_2_778
10
14.4339585
20
50.5633927
11
14.9758585
21
49.2107927
0
LINE
8
DEFAULT_255_2_778
10
14.9758585
20
49.2107927
11
15.5176585
21
50.5633927
0
LINE
8
DEFAULT_255_2_778
10
15.5176585
20
50.5633927
11
15.8010585
21
50.5633927
0
LINE
8
DEFAULT_255_2_778
10
15.8010585
20
50.5633927
11
15.8010585
21
48.9057927
0
LINE
8
DEFAULT_255_2_778
10
15.8010585
20
48.9057927
11
15.5824585
21
48.9057927
0
LINE
8
DEFAULT_255_2_778
10
15.5824585
20
48.9057927
11
15.5824585
21
49.5513927
0
LINE
8
DEFAULT_255_2_778
10
15.5824585
20
49.5513927
11
15.6028585
21
50.2479927
0
LINE
8
DEFAULT_255_2_778
10
15.6028585
20
50.2479927
11
15.0586585
21
48.9057927
0
LINE
8
DEFAULT_255_2_778
10
15.0586585
20
48.9057927
11
14.8911585
21
48.9057927
0
LINE
8
DEFAULT_255_2_778
10
14.8911585
20
48.9057927
11
14.3482585
21
50.2445927
0
LINE
8
DEFAULT_255_2_778
10
14.3482585
20
50.2445927
11
14.3699585
21
49.5513927
0
LINE
8
DEFAULT_255_2_778
10
14.3699585
20
49.5513927
11
14.3699585
21
48.9057927
0
LINE
8
DEFAULT_255_2_778
10
14.3699585
20
48.9057927
11
14.1513585
21
48.9057927
0
LINE
8
DEFAULT_255_2_778
10
14.1513585
20
48.9057927
11
14.1513585
21
50.5633927
0
LINE
8
DEFAULT_255_2_778
10
14.1513585
20
50.5633927
11
14.1516585
21
50.5633927
0
LINE
8
DEFAULT_255_2_778
10
17.2811585
20
48.9057927
11
17.1229585
21
49.3383927
0
LINE
8
DEFAULT_255_2_778
10
17.1229585
20
49.3383927
11
16.4283585
21
49.3383927
0
LINE
8
DEFAULT_255_2_778
10
16.4283585
20
49.3383927
11
16.2722585
21
48.9057927
0
LINE
8
DEFAULT_255_2_778
10
16.2722585
20
48.9057927
11
16.0468585
21
48.9057927
0
LINE
8
DEFAULT_255_2_778
10
16.0468585
20
48.9057927
11
16.6797585
21
50.5633927
0
LINE
8
DEFAULT_255_2_778
10
16.6797585
20
50.5633927
11
16.8712585
21
50.5633927
0
LINE
8
DEFAULT_255_2_778
10
16.8712585
20
50.5633927
11
17.5054585
21
48.9057927
0
LINE
8
DEFAULT_255_2_778
10
17.5054585
20
48.9057927
11
17.2811585
21
48.9057927
0
LINE
8
DEFAULT_255_2_778
10
17.2811585
20
48.9057927
11
17.2811585
21
48.9057927
0
LINE
8
DEFAULT_255_2_778
10
16.7757585
20
50.2934927
11
16.4945585
21
49.5182927
0
LINE
8
DEFAULT_255_2_778
10
16.4945585
20
49.5182927
11
17.0580585
21
49.5182927
0
LINE
8
DEFAULT_255_2_778
10
17.0580585
20
49.5182927
11
16.7757585
21
50.2934927
0
LINE
8
DEFAULT_255_2_778
10
16.7757585
20
50.2934927
11
16.7757585
21
50.2934927
0
LINE
8
DEFAULT_255_2_778
10
18.7270585
20
50.5633927
11
18.7270585
21
50.3834927
0
LINE
8
DEFAULT_255_2_778
10
18.7270585
20
50.3834927
11
18.1942585
21
50.3834927
0
LINE
8
DEFAULT_255_2_778
10
18.1942585
20
50.3834927
11
18.1942585
21
48.9057927
0
LINE
8
DEFAULT_255_2_778
10
18.1942585
20
48.9057927
11
17.9767585
21
48.9057927
0
LINE
8
DEFAULT_255_2_778
10
17.9767585
20
48.9057927
11
17.9767585
21
50.3834927
0
LINE
8
DEFAULT_255_2_778
10
17.9767585
20
50.3834927
11
17.4451585
21
50.3834927
0
LINE
8
DEFAULT_255_2_778
10
17.4451585
20
50.3834927
11
17.4451585
21
50.5633927
0
LINE
8
DEFAULT_255_2_778
10
17.4451585
20
50.5633927
11
18.7270585
21
50.5633927
0
LINE
8
DEFAULT_255_2_778
10
18.7270585
20
50.5633927
11
18.7270585
21
50.5633927
0
LINE
8
DEFAULT_255_2_778
10
19.2072585
20
50.5633927
11
19.2072585
21
48.9057927
0
LINE
8
DEFAULT_255_2_778
10
19.2072585
20
48.9057927
11
18.9887585
21
48.9057927
0
LINE
8
DEFAULT_255_2_778
10
18.9887585
20
48.9057927
11
18.9887585
21
50.5633927
0
LINE
8
DEFAULT_255_2_778
10
18.9887585
20
50.5633927
11
19.2072585
21
50.5633927
0
LINE
8
DEFAULT_255_2_778
10
19.2072585
20
50.5633927
11
19.2072585
21
50.5633927
0
LINE
8
DEFAULT_255_2_778
10
20.6066585
20
49.4317927
11
20.8265585
21
49.4317927
0
LINE
8
DEFAULT_255_2_778
10
19.5504585
20
49.6571927
11
19.5504585
21
49.8164927
0
LINE
8
DEFAULT_255_2_778
10
20.8265585
20
50.0304927
11
20.6066585
21
50.0304927
0
LINE
8
DEFAULT_255_2_778
10
19.7697585
20
49.8108927
11
19.7697585
21
49.6502927
0
LINE
8
DEFAULT_255_2_778
10
20.6064585
20
49.4317927
11
20.6066585
21
49.4317927
0
LINE
8
DEFAULT_255_2_778
10
21.9362585
20
50.5633927
11
21.9362585
21
48.9057927
0
LINE
8
DEFAULT_255_2_778
10
21.9362585
20
48.9057927
11
21.7176585
21
48.9057927
0
LINE
8
DEFAULT_255_2_778
10
21.7176585
20
48.9057927
11
21.7176585
21
50.5633927
0
LINE
8
DEFAULT_255_2_778
10
21.7176585
20
50.5633927
11
21.9362585
21
50.5633927
0
LINE
8
DEFAULT_255_2_778
10
21.9362585
20
50.5633927
11
21.9362585
21
50.5633927
0
LINE
8
DEFAULT_255_2_778
10
22.2515585
20
49.5158927
11
22.2515585
21
49.5317927
0
LINE
8
DEFAULT_255_2_778
10
23.0805585
20
50.0122927
11
23.0805585
21
50.6543927
0
LINE
8
DEFAULT_255_2_778
10
23.0805585
20
50.6543927
11
23.2911585
21
50.6543927
0
LINE
8
DEFAULT_255_2_778
10
23.2911585
20
50.6543927
11
23.2911585
21
48.9057927
0
LINE
8
DEFAULT_255_2_778
10
23.2911585
20
48.9057927
11
23.0977585
21
48.9057927
0
LINE
8
DEFAULT_255_2_778
10
23.0977585
20
48.9057927
11
23.0874585
21
49.0377927
0
LINE
8
DEFAULT_255_2_778
10
22.2515585
20
49.5161927
11
22.2515585
21
49.5158927
0
LINE
8
DEFAULT_255_2_778
10
23.0805585
20
49.2417927
11
23.0805585
21
49.8074927
0
LINE
8
DEFAULT_255_2_778
10
22.4624585
20
49.5079927
11
22.4621585
21
49.5079927
0
LINE
8
DEFAULT_255_2_778
10
23.5641585
20
49.4875927
11
23.5641585
21
49.5261927
0
LINE
8
DEFAULT_255_2_778
10
24.6092585
20
49.5489927
11
24.6092585
21
49.4613927
0
LINE
8
DEFAULT_255_2_778
10
24.6092585
20
49.4613927
11
23.7747585
21
49.4613927
0
LINE
8
DEFAULT_255_2_778
10
24.4645585
20
49.2211927
11
24.5931585
21
49.1208927
0
LINE
8
DEFAULT_255_2_778
10
24.1285585
20
48.8829927
11
24.1288585
21
48.8829927
0
LINE
8
DEFAULT_255_2_778
10
23.7816585
20
49.6343927
11
24.3986585
21
49.6343927
0
LINE
8
DEFAULT_255_2_778
10
24.3986585
20
49.6343927
11
24.3986585
21
49.6502927
0
LINE
8
DEFAULT_255_2_778
10
24.1026585
20
49.9873927
11
24.1026585
21
49.9873927
0
LINE
8
DEFAULT_255_2_778
10
24.8529585
20
50.1376927
11
25.0522585
21
50.1376927
0
LINE
8
DEFAULT_255_2_778
10
25.0522585
20
50.1376927
11
25.0590585
21
49.9828927
0
LINE
8
DEFAULT_255_2_778
10
25.8218585
20
49.7198927
11
25.8218585
21
48.9057927
0
LINE
8
DEFAULT_255_2_778
10
25.8218585
20
48.9057927
11
25.6112585
21
48.9057927
0
LINE
8
DEFAULT_255_2_778
10
25.6112585
20
48.9057927
11
25.6112585
21
49.7209927
0
LINE
8
DEFAULT_255_2_778
10
25.0638585
20
49.7833927
11
25.0638585
21
48.9057927
0
LINE
8
DEFAULT_255_2_778
10
25.0638585
20
48.9057927
11
24.8532585
21
48.9057927
0
LINE
8
DEFAULT_255_2_778
10
24.8532585
20
48.9057927
11
24.8532585
21
50.1376927
0
LINE
8
DEFAULT_255_2_778
10
24.8532585
20
50.1376927
11
24.8529585
21
50.1376927
0
LINE
8
DEFAULT_255_2_778
10
26.2147585
20
50.4358927
11
26.4253585
21
50.4358927
0
LINE
8
DEFAULT_255_2_778
10
26.4253585
20
50.4358927
11
26.4253585
21
50.1376927
0
LINE
8
DEFAULT_255_2_778
10
26.4253585
20
50.1376927
11
26.6553585
21
50.1376927
0
LINE
8
DEFAULT_255_2_778
10
26.6553585
20
50.1376927
11
26.6553585
21
49.9749927
0
LINE
8
DEFAULT_255_2_778
10
26.6553585
20
49.9749927
11
26.4253585
21
49.9749927
0
LINE
8
DEFAULT_255_2_778
10
26.4253585
20
49.9749927
11
26.4253585
21
49.2110927
0
LINE
8
DEFAULT_255_2_778
10
26.6611585
20
49.0769927
11
26.6611585
21
48.9062927
0
LINE
8
DEFAULT_255_2_778
10
26.2147585
20
49.2115927
11
26.2147585
21
49.9754927
0
LINE
8
DEFAULT_255_2_778
10
26.2147585
20
49.9754927
11
25.9904585
21
49.9754927
0
LINE
8
DEFAULT_255_2_778
10
25.9904585
20
49.9754927
11
25.9904585
21
50.1381927
0
LINE
8
DEFAULT_255_2_778
10
25.9904585
20
50.1381927
11
26.2147585
21
50.1381927
0
LINE
8
DEFAULT_255_2_778
10
26.2147585
20
50.1381927
11
26.2147585
21
50.4363927
0
LINE
8
DEFAULT_255_2_778
10
26.2147585
20
50.4363927
11
26.2147585
21
50.4358927
0
ENDSEC
0
EOF