0
SECTION
2
HEADER
9
$MEASUREMENT
70
1
0
ENDSEC
0
SECTION
2
TABLES
0
TABLE
2
LTYPE
0
LTYPE
72
65
70
64
2
CONTINUOUS
3
______
73
0
40
0
0
ENDTAB
0
TABLE
2
LAYER
0
LAYER
2
DEFAULT_255_2_778
70
0
62
255
6
CONTINUOUS
0
LAYER
2
DEFAULT_255_1_234
70
0
62
255
6
CONTINUOUS
0
ENDTAB
0
ENDSEC
0
SECTION
2
ENTITIES
0
ARC
8
DEFAULT_255_2_778
10
3.5695693
20
99.6176527
40
0.7914215
50
129.1312896
51
180.1450914
0
ARC
8
DEFAULT_255_2_778
10
3.5698345
20
99.6181398
40
0.7912112
50
89.854026
51
129.1684493
0
ARC
8
DEFAULT_255_2_778
10
25.7988937
20
99.6178263
40
0.7915249
50
39.4792447
51
90.147911
0
ARC
8
DEFAULT_255_2_778
10
25.7994935
20
99.617673
40
0.7911595
50
359.8533901
51
39.5154338
0
ARC
8
DEFAULT_255_2_778
10
25.7991693
20
-1.9863996
40
0.7914836
50
309.4761667
51
0.1482649
0
ARC
8
DEFAULT_255_2_778
10
25.798898
20
-1.9868307
40
0.7913235
50
269.8517415
51
309.511178
0
ARC
8
DEFAULT_255_2_778
10
3.569842
20
-1.9867725
40
0.7913815
50
219.1282118
51
270.1454017
0
ARC
8
DEFAULT_255_2_778
10
3.5695247
20
-1.98639
40
0.7913769
50
179.8524075
51
219.1641908
0
LINE
8
DEFAULT_255_2_778
10
3.5718503
20
100.4093486
11
25.7968503
21
100.4093486
0
LINE
8
DEFAULT_255_2_778
10
26.5906503
20
99.6156486
11
26.5906503
21
-1.9843514
0
LINE
8
DEFAULT_255_2_778
10
25.7968503
20
-2.7781514
11
3.5718503
21
-2.7781514
0
LINE
8
DEFAULT_255_2_778
10
2.7781503
20
-1.9843514
11
2.7781503
21
99.6156486
0
LINE
8
DEFAULT_255_1_234
10
6.7127835
20
1.1804243
11
6.7392882
21
1.1804243
0
LINE
8
DEFAULT_255_1_234
10
6.7392882
20
1.1804243
11
6.7392882
21
1.054326
0
LINE
8
DEFAULT_255_1_234
10
6.7392882
20
1.054326
11
6.7119803
21
1.054326
0
LINE
8
DEFAULT_255_1_234
10
6.1650189
20
0.4551583
11
6.1650189
21
0.5121836
0
LINE
8
DEFAULT_255_1_234
10
6.3144093
20
0.4929075
11
6.3144093
21
0.4382917
0
ARC
8
DEFAULT_255_1_234
10
6.7172151
20
0.5545455
40
0.4998079
50
90.6001036
51
104.514704
0
ARC
8
DEFAULT_255_1_234
10
6.6783667
20
0.6990131
40
0.3502176
50
104.2855254
51
133.862935
0
ARC
8
DEFAULT_255_1_234
10
6.6947424
20
0.688183
40
0.3693984
50
134.5302688
51
161.6210873
0
ARC
8
DEFAULT_255_1_234
10
6.8600613
20
0.6298895
40
0.5446739
50
161.2849839
51
174.2076652
0
ARC
8
DEFAULT_255_1_234
10
7.000755
20
0.6104787
40
0.6866274
50
173.7810589
51
174.9254635
0
ARC
8
DEFAULT_255_1_234
10
6.5457382
20
0.4721839
40
0.3033419
50
95.8330959
51
138.9954921
0
ARC
8
DEFAULT_255_1_234
10
6.5680738
20
0.3443375
40
0.4328947
50
89.8753725
51
97.0544009
0
ARC
8
DEFAULT_255_1_234
10
6.5728204
20
0.4278748
40
0.3493769
50
71.6407809
51
90.6240094
0
ARC
8
DEFAULT_255_1_234
10
6.5878777
20
0.4833082
40
0.2920396
50
39.6367836
51
71.019018
0
ARC
8
DEFAULT_255_1_234
10
6.524225
20
0.4282998
40
0.3761538
50
10.658731
51
39.9043955
0
ARC
8
DEFAULT_255_1_234
10
6.3694333
20
0.3946686
40
0.5345136
50
359.682601
51
11.132623
0
ARC
8
DEFAULT_255_1_234
10
6.3654464
20
0.387601
40
0.5385081
50
347.2486944
51
0.4369317
0
ARC
8
DEFAULT_255_1_234
10
6.5321941
20
0.3474807
40
0.3670249
50
318.1409698
51
347.6118597
0
ARC
8
DEFAULT_255_1_234
10
6.5646934
20
0.3207702
40
0.3250007
50
275.6342139
51
317.8248465
0
ARC
8
DEFAULT_255_1_234
10
6.5426045
20
0.4507219
40
0.4565864
50
269.8874292
51
276.7917694
0
ARC
8
DEFAULT_255_1_234
10
6.5371116
20
0.3481743
40
0.3540676
50
246.9140195
51
270.7437342
0
ARC
8
DEFAULT_255_1_234
10
6.5377506
20
0.3339384
40
0.3412781
50
218.1665114
51
245.878116
0
ARC
8
DEFAULT_255_1_234
10
6.6256967
20
0.4075279
40
0.455911
50
191.4115814
51
218.6077802
0
ARC
8
DEFAULT_255_1_234
10
6.8195056
20
0.4509833
40
0.6545001
50
179.6345085
51
191.7836486
0
ARC
8
DEFAULT_255_1_234
10
7.3777393
20
0.5188697
40
1.2127388
50
171.4525249
51
180.3158839
0
ARC
8
DEFAULT_255_1_234
10
6.9382269
20
0.5872608
40
0.7679464
50
157.9802646
51
171.6246686
0
ARC
8
DEFAULT_255_1_234
10
6.716829
20
0.6755421
40
0.5296008
50
141.4298019
51
157.854097
0
ARC
8
DEFAULT_255_1_234
10
6.652661
20
0.7209381
40
0.4511509
50
102.8715806
51
140.8564722
0
ARC
8
DEFAULT_255_1_234
10
6.7174226
20
0.4769552
40
0.7034845
50
90.3778349
51
103.5869322
0
ARC
8
DEFAULT_255_1_234
10
6.5436002
20
0.416473
40
0.2370698
50
89.8751008
51
126.2071704
0
ARC
8
DEFAULT_255_1_234
10
6.5481792
20
0.4010303
40
0.2522934
50
124.9745049
51
144.895901
0
ARC
8
DEFAULT_255_1_234
10
6.5305982
20
0.415356
40
0.2296779
50
145.2974905
51
160.2660252
0
ARC
8
DEFAULT_255_1_234
10
6.8378521
20
0.4351071
40
0.5234525
50
179.6514266
51
190.2855912
0
ARC
8
DEFAULT_255_1_234
10
6.6684658
20
0.4031786
40
0.3510893
50
190.0945431
51
207.5098196
0
ARC
8
DEFAULT_255_1_234
10
6.6118928
20
0.3762623
40
0.288489
50
207.9583163
51
216.3251085
0
ARC
8
DEFAULT_255_1_234
10
6.5779036
20
0.3483105
40
0.2445587
50
215.7661442
51
232.5456785
0
ARC
8
DEFAULT_255_1_234
10
6.5396019
20
0.2996482
40
0.1826382
50
232.8005391
51
270.6605633
0
ARC
8
DEFAULT_255_1_234
10
6.544172
20
0.3360612
40
0.2190529
50
269.35537
51
288.4744281
0
ARC
8
DEFAULT_255_1_234
10
6.5534617
20
0.3011118
40
0.1829749
50
289.1833337
51
322.9683818
0
ARC
8
DEFAULT_255_1_234
10
6.4923139
20
0.3493391
40
0.2608399
50
322.6007884
51
346.5182367
0
ARC
8
DEFAULT_255_1_234
10
6.3765735
20
0.3788616
40
0.3802777
50
346.2582162
51
358.7741648
0
ARC
8
DEFAULT_255_1_234
10
6.2747404
20
0.3843965
40
0.4822176
50
358.3755224
51
0.0098023
0
ARC
8
DEFAULT_255_1_234
10
6.3503591
20
0.3871657
40
0.4066078
50
359.6214041
51
11.2839074
0
ARC
8
DEFAULT_255_1_234
10
6.4780738
20
0.4138066
40
0.2761514
50
11.0482309
51
31.8146458
0
ARC
8
DEFAULT_255_1_234
10
6.5089781
20
0.4305584
40
0.2410679
50
32.3035391
51
38.082671
0
ARC
8
DEFAULT_255_1_234
10
6.5510441
20
0.4686662
40
0.1844966
50
36.825067
51
85.7415724
0
ARC
8
DEFAULT_255_1_234
10
6.5443274
20
0.4186301
40
0.2349122
50
85.0140713
51
90.0513278
0
LINE
8
DEFAULT_255_1_234
10
7.7793983
20
0.6768343
11
7.7793983
21
0.550736
0
LINE
8
DEFAULT_255_1_234
10
7.7793983
20
0.550736
11
7.2725957
21
0.550736
0
LINE
8
DEFAULT_255_1_234
10
7.2725957
20
0.550736
11
7.2725957
21
0.1362983
0
LINE
8
DEFAULT_255_1_234
10
7.2725957
20
0.1362983
11
7.8613221
21
0.1362983
0
LINE
8
DEFAULT_255_1_234
10
7.8613221
20
0.1362983
11
7.8613221
21
0.0102
0
LINE
8
DEFAULT_255_1_234
10
7.8613221
20
0.0102
11
7.1183863
21
0.0102
0
LINE
8
DEFAULT_255_1_234
10
7.1183863
20
0.0102
11
7.1183863
21
1.1796211
0
LINE
8
DEFAULT_255_1_234
10
7.1183863
20
1.1796211
11
7.8532903
21
1.1796211
0
LINE
8
DEFAULT_255_1_234
10
7.8532903
20
1.1796211
11
7.8532903
21
1.0527196
0
LINE
8
DEFAULT_255_1_234
10
7.8532903
20
1.0527196
11
7.2725957
21
1.0527196
0
LINE
8
DEFAULT_255_1_234
10
7.2725957
20
1.0527196
11
7.2725957
21
0.6768343
0
LINE
8
DEFAULT_255_1_234
10
7.2725957
20
0.6768343
11
7.7793983
21
0.6768343
0
LINE
8
DEFAULT_255_1_234
10
8.8291465
20
0.8414849
11
8.674134
21
0.8414849
0
LINE
8
DEFAULT_255_1_234
10
7.9817981
20
0.3491394
11
8.1368107
21
0.3491394
0
ARC
8
DEFAULT_255_1_234
10
8.7400153
20
1.7361768
40
1.252368
50
248.9199003
51
254.1439814
0
ARC
8
DEFAULT_255_1_234
10
8.5719648
20
1.3035234
40
0.788226
50
241.633709
51
249.0064503
0
ARC
8
DEFAULT_255_1_234
10
8.4191042
20
1.0234317
40
0.4691427
50
230.498225
51
241.8087113
0
ARC
8
DEFAULT_255_1_234
10
8.3406616
20
0.9234906
40
0.3421437
50
227.4064532
51
229.9881192
0
ARC
8
DEFAULT_255_1_234
10
8.2919137
20
0.8759088
40
0.2741476
50
200.6781896
51
228.1763934
0
ARC
8
DEFAULT_255_1_234
10
8.2991447
20
0.8744077
40
0.2804109
50
179.5061581
51
199.8694617
0
ARC
8
DEFAULT_255_1_234
10
8.2982199
20
0.881821
40
0.2795204
50
132.4834203
51
181.0242172
0
ARC
8
DEFAULT_255_1_234
10
8.3577782
20
0.8255704
40
0.3612768
50
129.2532479
51
133.4242687
0
ARC
8
DEFAULT_255_1_234
10
8.3724231
20
0.8035965
40
0.3875675
50
101.98776
51
128.8742646
0
ARC
8
DEFAULT_255_1_234
10
8.4122842
20
0.6314741
40
0.5642249
50
89.5906553
51
102.3169264
0
ARC
8
DEFAULT_255_1_234
10
8.4193334
20
0.6633148
40
0.5323783
50
77.2360837
51
90.3248275
0
ARC
8
DEFAULT_255_1_234
10
8.4400413
20
0.76004
40
0.4334697
50
63.837784
51
77.0809408
0
ARC
8
DEFAULT_255_1_234
10
8.4678175
20
0.8117911
40
0.3747796
50
45.9864267
51
64.1607727
0
ARC
8
DEFAULT_255_1_234
10
8.4939056
20
0.8415866
40
0.3352302
50
32.2747395
51
45.6547121
0
ARC
8
DEFAULT_255_1_234
10
8.5005497
20
0.843488
40
0.328603
50
359.6507365
51
32.6130309
0
ARC
8
DEFAULT_255_1_234
10
8.4062592
20
0.843966
40
0.2678863
50
359.469343
51
14.9832209
0
ARC
8
DEFAULT_255_1_234
10
8.4767654
20
0.8628539
40
0.1948938
50
14.9781179
51
48.2004265
0
ARC
8
DEFAULT_255_1_234
10
8.4603299
20
0.8421983
40
0.2212521
50
48.5927837
51
74.1241538
0
ARC
8
DEFAULT_255_1_234
10
8.4269788
20
0.7321248
40
0.3362561
50
73.7888341
51
86.6652678
0
ARC
8
DEFAULT_255_1_234
10
8.4167354
20
0.6113881
40
0.4573953
50
86.2640471
51
90.0526343
0
ARC
8
DEFAULT_255_1_234
10
8.4139066
20
0.6509192
40
0.4178709
50
89.6697524
51
99.2309573
0
ARC
8
DEFAULT_255_1_234
10
8.3896517
20
0.7953964
40
0.2713749
50
99.069534
51
113.7658566
0
ARC
8
DEFAULT_255_1_234
10
8.3622708
20
0.8599677
40
0.2012469
50
114.0401004
51
127.9850673
0
ARC
8
DEFAULT_255_1_234
10
8.3382272
20
0.889573
40
0.1631167
50
127.7287463
51
176.7105154
0
ARC
8
DEFAULT_255_1_234
10
8.406099
20
0.8794693
40
0.2315392
50
175.1779447
51
180.0581938
0
ARC
8
DEFAULT_255_1_234
10
8.3217836
20
0.8782428
40
0.1472271
50
179.6142195
51
228.1246017
0
ARC
8
DEFAULT_255_1_234
10
8.3659505
20
0.9191308
40
0.2072299
50
226.5779593
51
230.8800004
0
ARC
8
DEFAULT_255_1_234
10
8.4130584
20
0.9816636
40
0.2854818
50
231.4635071
51
241.9260842
0
ARC
8
DEFAULT_255_1_234
10
8.5327762
20
1.20198
40
0.53622
50
241.7178533
51
248.3259551
0
ARC
8
DEFAULT_255_1_234
10
8.6713134
20
1.5452064
40
0.9063478
50
248.2007737
51
252.4528373
0
ARC
8
DEFAULT_255_1_234
10
8.7916858
20
1.9173441
40
1.2974635
50
252.3391078
51
254.3469452
0
ARC
8
DEFAULT_255_1_234
10
8.0374561
20
-0.7803852
40
1.5037162
50
71.0197183
51
74.4087047
0
ARC
8
DEFAULT_255_1_234
10
8.2069246
20
-0.2911889
40
0.9859993
50
66.1847285
51
71.086374
0
ARC
8
DEFAULT_255_1_234
10
8.3625559
20
0.05922
40
0.6025855
50
59.3536294
51
66.2691831
0
ARC
8
DEFAULT_255_1_234
10
8.4514211
20
0.2095609
40
0.4279449
50
49.1020879
51
59.3293958
0
ARC
8
DEFAULT_255_1_234
10
8.5332951
20
0.3028834
40
0.3038015
50
32.7919921
51
49.2505539
0
ARC
8
DEFAULT_255_1_234
10
8.5654041
20
0.3257191
40
0.264448
50
31.1181161
51
32.4005348
0
ARC
8
DEFAULT_255_1_234
10
8.5565579
20
0.3221779
40
0.2738556
50
8.1116974
51
30.7958831
0
ARC
8
DEFAULT_255_1_234
10
8.4755247
20
0.3083753
40
0.3560327
50
359.8389159
51
8.4706516
0
ARC
8
DEFAULT_255_1_234
10
8.5381038
20
0.3035137
40
0.2934776
50
337.4731098
51
0.7537279
0
ARC
8
DEFAULT_255_1_234
10
8.5559733
20
0.3015387
40
0.2762607
50
307.5917067
51
336.4315538
0
ARC
8
DEFAULT_255_1_234
10
8.5099561
20
0.3528102
40
0.3449979
50
307.6551545
51
308.4529766
0
ARC
8
DEFAULT_255_1_234
10
8.486928
20
0.388325
40
0.3871988
50
284.3734338
51
307.1424381
0
ARC
8
DEFAULT_255_1_234
10
8.437411
20
0.5704932
40
0.5759636
50
272.4382747
51
284.646547
0
ARC
8
DEFAULT_255_1_234
10
8.4247319
20
0.7504893
40
0.7563528
50
269.9708387
51
272.8178037
0
ARC
8
DEFAULT_255_1_234
10
8.4204358
20
0.5466716
40
0.5525489
50
248.2707594
51
270.4055579
0
ARC
8
DEFAULT_255_1_234
10
8.41501
20
0.5276192
40
0.5328452
50
246.1383403
51
248.0542782
0
ARC
8
DEFAULT_255_1_234
10
8.3731478
20
0.4396843
40
0.4355005
50
233.1670131
51
246.4950969
0
ARC
8
DEFAULT_255_1_234
10
8.3177383
20
0.3648812
40
0.3424126
50
215.3403242
51
233.0843104
0
ARC
8
DEFAULT_255_1_234
10
8.2904815
20
0.3450549
40
0.3087104
50
179.2419209
51
215.2648451
0
ARC
8
DEFAULT_255_1_234
10
8.3672409
20
0.3464666
40
0.2304457
50
179.335461
51
199.1045811
0
ARC
8
DEFAULT_255_1_234
10
8.3340085
20
0.3377766
40
0.1962176
50
199.8828939
51
232.7063202
0
ARC
8
DEFAULT_255_1_234
10
8.3812353
20
0.3971788
40
0.2720938
50
232.3738199
51
255.5136649
0
ARC
8
DEFAULT_255_1_234
10
8.415322
20
0.5215835
40
0.4010747
50
255.2446292
51
267.5320849
0
ARC
8
DEFAULT_255_1_234
10
8.4240843
20
0.6448702
40
0.5246356
50
267.1557994
51
270.0286766
0
ARC
8
DEFAULT_255_1_234
10
8.4268616
20
0.600495
40
0.4802668
50
269.7000017
51
278.1660162
0
ARC
8
DEFAULT_255_1_234
10
8.452462
20
0.4274515
40
0.3053425
50
278.0231263
51
290.625471
0
ARC
8
DEFAULT_255_1_234
10
8.4872308
20
0.3347025
40
0.206291
50
290.6619762
51
307.0370976
0
ARC
8
DEFAULT_255_1_234
10
8.5172697
20
0.2978504
40
0.1587906
50
306.3943566
51
355.3030547
0
ARC
8
DEFAULT_255_1_234
10
8.4660628
20
0.3055113
40
0.2104809
50
354.3660432
51
0.0698737
0
ARC
8
DEFAULT_255_1_234
10
8.4802973
20
0.3077617
40
0.1962563
50
359.417946
51
16.1971788
0
ARC
8
DEFAULT_255_1_234
10
8.5258284
20
0.3202418
40
0.149053
50
16.4723299
51
52.6262157
0
ARC
8
DEFAULT_255_1_234
10
8.4437338
20
0.2118433
40
0.2850296
50
52.7386432
51
62.4979148
0
ARC
8
DEFAULT_255_1_234
10
8.3052415
20
-0.0487717
40
0.5801521
50
62.2515216
51
68.1220564
0
ARC
8
DEFAULT_255_1_234
10
8.1332325
20
-0.4715128
40
1.0365451
50
68.0062803
51
71.8053402
0
ARC
8
DEFAULT_255_1_234
10
7.9536697
20
-1.0100242
40
1.6042013
50
71.7183119
51
73.9258742
0
LINE
8
DEFAULT_255_1_234
10
9.7455679
20
1.1796211
11
9.7455679
21
1.096091
0
LINE
8
DEFAULT_255_1_234
10
9.7455679
20
1.096091
11
9.2612541
21
0.0102
0
LINE
8
DEFAULT_255_1_234
10
9.2612541
20
0.0102
11
9.1054383
21
0.0102
0
LINE
8
DEFAULT_255_1_234
10
9.1054383
20
0.0102
11
9.5881458
21
1.0575387
0
LINE
8
DEFAULT_255_1_234
10
9.5881458
20
1.0575387
11
8.9552448
21
1.0575387
0
LINE
8
DEFAULT_255_1_234
10
8.9552448
20
1.0575387
11
8.9552448
21
1.1796211
0
LINE
8
DEFAULT_255_1_234
10
8.9552448
20
1.1796211
11
9.7455679
21
1.1796211
0
LINE
8
DEFAULT_255_1_234
10
10.6804622
20
0.1314792
11
10.6804622
21
0.0102
0
LINE
8
DEFAULT_255_1_234
10
10.6804622
20
0.0102
11
9.9142344
21
0.0102
0
LINE
8
DEFAULT_255_1_234
10
9.9142344
20
0.0102
11
9.9142344
21
0.1170221
0
LINE
8
DEFAULT_255_1_234
10
9.9142344
20
0.1170221
11
10.319034
21
0.5667995
0
LINE
8
DEFAULT_255_1_234
10
10.0403327
20
0.8350595
11
9.8917455
21
0.8350595
0
LINE
8
DEFAULT_255_1_234
10
10.4065799
20
0.4712218
11
10.0933421
21
0.1314792
0
LINE
8
DEFAULT_255_1_234
10
10.0933421
20
0.1314792
11
10.6804622
21
0.1314792
0
ARC
8
DEFAULT_255_1_234
10
8.9700173
20
1.7597527
40
1.8008286
50
318.5132453
51
320.7828378
0
ARC
8
DEFAULT_255_1_234
10
9.4987148
20
1.3294426
40
1.1191493
50
320.7372736
51
323.9737074
0
ARC
8
DEFAULT_255_1_234
10
9.8907004
20
1.0454361
40
0.6350923
50
323.8961724
51
328.6421089
0
ARC
8
DEFAULT_255_1_234
10
10.0953599
20
0.9192031
40
0.3946393
50
328.8299013
51
331.789948
0
ARC
8
DEFAULT_255_1_234
10
10.1950778
20
0.8677509
40
0.2824501
50
331.4255242
51
352.9364833
0
ARC
8
DEFAULT_255_1_234
10
10.2087279
20
0.8646976
40
0.2685315
50
353.2248685
51
0.0169286
0
ARC
8
DEFAULT_255_1_234
10
10.2297155
20
0.866995
40
0.2475536
50
359.4866256
51
15.9339782
0
ARC
8
DEFAULT_255_1_234
10
10.2804141
20
0.8806286
40
0.1950618
50
16.1714718
51
43.5284424
0
ARC
8
DEFAULT_255_1_234
10
10.2881449
20
0.8883573
40
0.184134
50
43.4415429
51
83.1661404
0
ARC
8
DEFAULT_255_1_234
10
10.2747367
20
0.8146771
40
0.258926
50
82.160215
51
90.1505798
0
ARC
8
DEFAULT_255_1_234
10
10.2715795
20
0.7609865
40
0.3126255
50
89.5460705
51
102.5418777
0
ARC
8
DEFAULT_255_1_234
10
10.2472881
20
0.8640665
40
0.2067346
50
102.1739365
51
129.2061916
0
ARC
8
DEFAULT_255_1_234
10
10.2393953
20
0.8765094
40
0.1921118
50
129.7279328
51
135.7542026
0
ARC
8
DEFAULT_255_1_234
10
10.251548
20
0.8668045
40
0.2075944
50
136.175737
51
166.3674722
0
ARC
8
DEFAULT_255_1_234
10
10.35224
20
0.8398182
40
0.3118201
50
165.9092917
51
178.8683903
0
ARC
8
DEFAULT_255_1_234
10
10.4387261
20
0.8351179
40
0.3983935
50
178.438168
51
180.0083905
0
ARC
8
DEFAULT_255_1_234
10
10.2985863
20
0.8390231
40
0.4068601
50
163.2878735
51
180.5581814
0
ARC
8
DEFAULT_255_1_234
10
10.2184124
20
0.861084
40
0.3237344
50
133.454115
51
162.9470031
0
ARC
8
DEFAULT_255_1_234
10
10.2362666
20
0.8421
40
0.349795
50
100.7869394
51
133.4384016
0
ARC
8
DEFAULT_255_1_234
10
10.2710437
20
0.6872319
40
0.5084616
50
89.6605301
51
101.3704185
0
ARC
8
DEFAULT_255_1_234
10
10.2776776
20
0.6933496
40
0.502348
50
78.2171172
51
90.4130393
0
ARC
8
DEFAULT_255_1_234
10
10.3131854
20
0.8557637
40
0.3361092
50
55.9268222
51
78.4888551
0
ARC
8
DEFAULT_255_1_234
10
10.3328294
20
0.8896324
40
0.2970617
50
47.9292255
51
55.4054003
0
ARC
8
DEFAULT_255_1_234
10
10.3429855
20
0.8999502
40
0.2825983
50
4.3347696
51
48.0560701
0
ARC
8
DEFAULT_255_1_234
10
10.2334249
20
0.8829601
40
0.393225
50
359.925209
51
5.5967654
0
ARC
8
DEFAULT_255_1_234
10
10.276314
20
0.8885816
40
0.3503892
50
337.8914096
51
358.9967724
0
ARC
8
DEFAULT_255_1_234
10
10.0049553
20
0.9932706
40
0.6412172
50
326.9135351
51
338.3505194
0
ARC
8
DEFAULT_255_1_234
10
9.6063856
20
1.2487284
40
1.1146189
50
319.6472867
51
327.095818
0
ARC
8
DEFAULT_255_1_234
10
9.2230859
20
1.5649
40
1.6114559
50
317.2586784
51
319.9046139
0
LINE
8
DEFAULT_255_1_234
10
11.6041121
20
0.1314792
11
11.6041121
21
0.0102
0
LINE
8
DEFAULT_255_1_234
10
11.6041121
20
0.0102
11
10.8378843
21
0.0102
0
LINE
8
DEFAULT_255_1_234
10
10.8378843
20
0.0102
11
10.8378843
21
0.1170221
0
LINE
8
DEFAULT_255_1_234
10
10.8378843
20
0.1170221
11
11.2426839
21
0.5667995
0
LINE
8
DEFAULT_255_1_234
10
10.9639826
20
0.8350595
11
10.8153954
21
0.8350595
0
LINE
8
DEFAULT_255_1_234
10
11.3302298
20
0.4712218
11
11.016992
21
0.1314792
0
LINE
8
DEFAULT_255_1_234
10
11.016992
20
0.1314792
11
11.6041121
21
0.1314792
0
ARC
8
DEFAULT_255_1_234
10
9.8936672
20
1.7597527
40
1.8008286
50
318.5132453
51
320.7828378
0
ARC
8
DEFAULT_255_1_234
10
10.4223647
20
1.3294426
40
1.1191493
50
320.7372736
51
323.9737074
0
ARC
8
DEFAULT_255_1_234
10
10.8143503
20
1.0454361
40
0.6350923
50
323.8961724
51
328.6421089
0
ARC
8
DEFAULT_255_1_234
10
11.0190098
20
0.9192031
40
0.3946393
50
328.8299013
51
331.789948
0
ARC
8
DEFAULT_255_1_234
10
11.1187277
20
0.8677509
40
0.2824501
50
331.4255242
51
352.9364833
0
ARC
8
DEFAULT_255_1_234
10
11.1323778
20
0.8646976
40
0.2685315
50
353.2248685
51
0.0169286
0
ARC
8
DEFAULT_255_1_234
10
11.1533654
20
0.866995
40
0.2475536
50
359.4866256
51
15.9339782
0
ARC
8
DEFAULT_255_1_234
10
11.204064
20
0.8806286
40
0.1950618
50
16.1714718
51
43.5284424
0
ARC
8
DEFAULT_255_1_234
10
11.2117948
20
0.8883573
40
0.184134
50
43.4415429
51
83.1661404
0
ARC
8
DEFAULT_255_1_234
10
11.1983866
20
0.8146771
40
0.258926
50
82.160215
51
90.1505798
0
ARC
8
DEFAULT_255_1_234
10
11.1952294
20
0.7609865
40
0.3126255
50
89.5460705
51
102.5418777
0
ARC
8
DEFAULT_255_1_234
10
11.170938
20
0.8640665
40
0.2067346
50
102.1739365
51
129.2061916
0
ARC
8
DEFAULT_255_1_234
10
11.1630452
20
0.8765094
40
0.1921118
50
129.7279328
51
135.7542026
0
ARC
8
DEFAULT_255_1_234
10
11.1751979
20
0.8668045
40
0.2075944
50
136.175737
51
166.3674722
0
ARC
8
DEFAULT_255_1_234
10
11.2758899
20
0.8398182
40
0.3118201
50
165.9092917
51
178.8683903
0
ARC
8
DEFAULT_255_1_234
10
11.362376
20
0.8351179
40
0.3983935
50
178.438168
51
180.0083905
0
ARC
8
DEFAULT_255_1_234
10
11.2222362
20
0.8390231
40
0.4068601
50
163.2878735
51
180.5581814
0
ARC
8
DEFAULT_255_1_234
10
11.1420623
20
0.861084
40
0.3237344
50
133.454115
51
162.9470031
0
ARC
8
DEFAULT_255_1_234
10
11.1599165
20
0.8421
40
0.349795
50
100.7869394
51
133.4384016
0
ARC
8
DEFAULT_255_1_234
10
11.1946936
20
0.6872319
40
0.5084616
50
89.6605301
51
101.3704185
0
ARC
8
DEFAULT_255_1_234
10
11.2013275
20
0.6933496
40
0.502348
50
78.2171172
51
90.4130393
0
ARC
8
DEFAULT_255_1_234
10
11.2368353
20
0.8557637
40
0.3361092
50
55.9268222
51
78.4888551
0
ARC
8
DEFAULT_255_1_234
10
11.2564793
20
0.8896324
40
0.2970617
50
47.9292255
51
55.4054003
0
ARC
8
DEFAULT_255_1_234
10
11.2666354
20
0.8999502
40
0.2825983
50
4.3347696
51
48.0560701
0
ARC
8
DEFAULT_255_1_234
10
11.1570748
20
0.8829601
40
0.393225
50
359.925209
51
5.5967654
0
ARC
8
DEFAULT_255_1_234
10
11.1999639
20
0.8885816
40
0.3503892
50
337.8914096
51
358.9967724
0
ARC
8
DEFAULT_255_1_234
10
10.9286052
20
0.9932706
40
0.6412172
50
326.9135351
51
338.3505194
0
ARC
8
DEFAULT_255_1_234
10
10.5300355
20
1.2487284
40
1.1146189
50
319.6472867
51
327.095818
0
ARC
8
DEFAULT_255_1_234
10
10.1467358
20
1.5649
40
1.6114559
50
317.2586784
51
319.9046139
0
LINE
8
DEFAULT_255_1_234
10
12.527762
20
0.1314792
11
12.527762
21
0.0102
0
LINE
8
DEFAULT_255_1_234
10
12.527762
20
0.0102
11
11.7615342
21
0.0102
0
LINE
8
DEFAULT_255_1_234
10
11.7615342
20
0.0102
11
11.7615342
21
0.1170221
0
LINE
8
DEFAULT_255_1_234
10
11.7615342
20
0.1170221
11
12.1663338
21
0.5667995
0
LINE
8
DEFAULT_255_1_234
10
11.8876325
20
0.8350595
11
11.7390453
21
0.8350595
0
LINE
8
DEFAULT_255_1_234
10
12.2538797
20
0.4712218
11
11.9406419
21
0.1314792
0
LINE
8
DEFAULT_255_1_234
10
11.9406419
20
0.1314792
11
12.527762
21
0.1314792
0
ARC
8
DEFAULT_255_1_234
10
10.8173171
20
1.7597527
40
1.8008286
50
318.5132453
51
320.7828378
0
ARC
8
DEFAULT_255_1_234
10
11.3460146
20
1.3294426
40
1.1191493
50
320.7372736
51
323.9737074
0
ARC
8
DEFAULT_255_1_234
10
11.7380002
20
1.0454361
40
0.6350923
50
323.8961724
51
328.6421089
0
ARC
8
DEFAULT_255_1_234
10
11.9426597
20
0.9192031
40
0.3946393
50
328.8299013
51
331.789948
0
ARC
8
DEFAULT_255_1_234
10
12.0423776
20
0.8677509
40
0.2824501
50
331.4255242
51
352.9364833
0
ARC
8
DEFAULT_255_1_234
10
12.0560277
20
0.8646976
40
0.2685315
50
353.2248685
51
0.0169286
0
ARC
8
DEFAULT_255_1_234
10
12.0770153
20
0.866995
40
0.2475536
50
359.4866256
51
15.9339782
0
ARC
8
DEFAULT_255_1_234
10
12.1277139
20
0.8806286
40
0.1950618
50
16.1714718
51
43.5284424
0
ARC
8
DEFAULT_255_1_234
10
12.1354447
20
0.8883573
40
0.184134
50
43.4415429
51
83.1661404
0
ARC
8
DEFAULT_255_1_234
10
12.1220365
20
0.8146771
40
0.258926
50
82.160215
51
90.1505798
0
ARC
8
DEFAULT_255_1_234
10
12.1188793
20
0.7609865
40
0.3126255
50
89.5460705
51
102.5418777
0
ARC
8
DEFAULT_255_1_234
10
12.0945879
20
0.8640665
40
0.2067346
50
102.1739365
51
129.2061916
0
ARC
8
DEFAULT_255_1_234
10
12.0866951
20
0.8765094
40
0.1921118
50
129.7279328
51
135.7542026
0
ARC
8
DEFAULT_255_1_234
10
12.0988478
20
0.8668045
40
0.2075944
50
136.175737
51
166.3674722
0
ARC
8
DEFAULT_255_1_234
10
12.1995398
20
0.8398182
40
0.3118201
50
165.9092917
51
178.8683903
0
ARC
8
DEFAULT_255_1_234
10
12.2860259
20
0.8351179
40
0.3983935
50
178.438168
51
180.0083905
0
ARC
8
DEFAULT_255_1_234
10
12.1458861
20
0.8390231
40
0.4068601
50
163.2878735
51
180.5581814
0
ARC
8
DEFAULT_255_1_234
10
12.0657122
20
0.861084
40
0.3237344
50
133.454115
51
162.9470031
0
ARC
8
DEFAULT_255_1_234
10
12.0835664
20
0.8421
40
0.349795
50
100.7869394
51
133.4384016
0
ARC
8
DEFAULT_255_1_234
10
12.1183435
20
0.6872319
40
0.5084616
50
89.6605301
51
101.3704185
0
ARC
8
DEFAULT_255_1_234
10
12.1249774
20
0.6933496
40
0.502348
50
78.2171172
51
90.4130393
0
ARC
8
DEFAULT_255_1_234
10
12.1604852
20
0.8557637
40
0.3361092
50
55.9268222
51
78.4888551
0
ARC
8
DEFAULT_255_1_234
10
12.1801292
20
0.8896324
40
0.2970617
50
47.9292255
51
55.4054003
0
ARC
8
DEFAULT_255_1_234
10
12.1902853
20
0.8999502
40
0.2825983
50
4.3347696
51
48.0560701
0
ARC
8
DEFAULT_255_1_234
10
12.0807247
20
0.8829601
40
0.393225
50
359.925209
51
5.5967654
0
ARC
8
DEFAULT_255_1_234
10
12.1236138
20
0.8885816
40
0.3503892
50
337.8914096
51
358.9967724
0
ARC
8
DEFAULT_255_1_234
10
11.8522551
20
0.9932706
40
0.6412172
50
326.9135351
51
338.3505194
0
ARC
8
DEFAULT_255_1_234
10
11.4536854
20
1.2487284
40
1.1146189
50
319.6472867
51
327.095818
0
ARC
8
DEFAULT_255_1_234
10
11.0703857
20
1.5649
40
1.6114559
50
317.2586784
51
319.9046139
0
LINE
8
DEFAULT_255_1_234
10
13.0096663
20
0.5676026
11
13.0096663
21
0.4463234
0
LINE
8
DEFAULT_255_1_234
10
13.0096663
20
0.4463234
11
12.6177175
21
0.4463234
0
LINE
8
DEFAULT_255_1_234
10
12.6177175
20
0.4463234
11
12.6177175
21
0.5676026
0
LINE
8
DEFAULT_255_1_234
10
12.6177175
20
0.5676026
11
13.0096663
21
0.5676026
0
LINE
8
DEFAULT_255_1_234
10
13.627307
20
1.1852433
11
13.627307
21
0.0102
0
LINE
8
DEFAULT_255_1_234
10
13.627307
20
0.0102
11
13.4779167
21
0.0102
0
LINE
8
DEFAULT_255_1_234
10
13.4779167
20
0.0102
11
13.4779167
21
1.0005133
0
LINE
8
DEFAULT_255_1_234
10
13.4779167
20
1.0005133
11
13.1783328
21
0.8904785
0
LINE
8
DEFAULT_255_1_234
10
13.1783328
20
0.8904785
11
13.1783328
21
1.0254117
0
LINE
8
DEFAULT_255_1_234
10
13.1783328
20
1.0254117
11
13.6040149
21
1.1852433
0
LINE
8
DEFAULT_255_1_234
10
13.6040149
20
1.1852433
11
13.627307
21
1.1852433
0
LINE
8
DEFAULT_255_1_234
10
14.9999311
20
1.1796211
11
14.9999311
21
0.0102
0
LINE
8
DEFAULT_255_1_234
10
14.9999311
20
0.0102
11
14.8449185
21
0.0102
0
LINE
8
DEFAULT_255_1_234
10
14.8449185
20
0.0102
11
14.8449185
21
0.550736
0
LINE
8
DEFAULT_255_1_234
10
14.8449185
20
0.550736
11
14.2553889
21
0.550736
0
LINE
8
DEFAULT_255_1_234
10
14.2553889
20
0.550736
11
14.2553889
21
0.0102
0
LINE
8
DEFAULT_255_1_234
10
14.2553889
20
0.0102
11
14.1011795
21
0.0102
0
LINE
8
DEFAULT_255_1_234
10
14.1011795
20
0.0102
11
14.1011795
21
1.1796211
0
LINE
8
DEFAULT_255_1_234
10
14.1011795
20
1.1796211
11
14.2553889
21
1.1796211
0
LINE
8
DEFAULT_255_1_234
10
14.2553889
20
1.1796211
11
14.2553889
21
0.6768343
0
LINE
8
DEFAULT_255_1_234
10
14.2553889
20
0.6768343
11
14.8449185
21
0.6768343
0
LINE
8
DEFAULT_255_1_234
10
14.8449185
20
0.6768343
11
14.8449185
21
1.1796211
0
LINE
8
DEFAULT_255_1_234
10
14.8449185
20
1.1796211
11
14.9999311
21
1.1796211
0
LINE
8
DEFAULT_255_1_234
10
15.9187619
20
0.6527391
11
15.9187619
21
0.5266408
0
LINE
8
DEFAULT_255_1_234
10
15.9187619
20
0.5266408
11
15.4280227
21
0.5266408
0
LINE
8
DEFAULT_255_1_234
10
15.4280227
20
0.5266408
11
15.4280227
21
0.0102
0
LINE
8
DEFAULT_255_1_234
10
15.4280227
20
0.0102
11
15.2738133
21
0.0102
0
LINE
8
DEFAULT_255_1_234
10
15.2738133
20
0.0102
11
15.2738133
21
1.1796211
0
LINE
8
DEFAULT_255_1_234
10
15.2738133
20
1.1796211
11
15.9982761
21
1.1796211
0
LINE
8
DEFAULT_255_1_234
10
15.9982761
20
1.1796211
11
15.9982761
21
1.0527196
0
LINE
8
DEFAULT_255_1_234
10
15.9982761
20
1.0527196
11
15.4280227
21
1.0527196
0
LINE
8
DEFAULT_255_1_234
10
15.4280227
20
1.0527196
11
15.4280227
21
0.6527391
0
LINE
8
DEFAULT_255_1_234
10
15.4280227
20
0.6527391
11
15.9187619
21
0.6527391
0
LINE
8
DEFAULT_255_1_234
10
16.3605075
20
0.5459169
11
16.3605075
21
0.6671962
0
LINE
8
DEFAULT_255_1_234
10
16.3605075
20
0.6671962
11
16.4721487
21
0.6671962
0
LINE
8
DEFAULT_255_1_234
10
16.2817965
20
0.8728087
11
16.1332093
21
0.8728087
0
LINE
8
DEFAULT_255_1_234
10
16.1227681
20
0.3186187
11
16.2721584
21
0.3186187
0
LINE
8
DEFAULT_255_1_234
10
16.4721487
20
0.5459169
11
16.3605075
21
0.5459169
0
ARC
8
DEFAULT_255_1_234
10
16.4692353
20
1.0064713
40
0.3392876
50
270.4919872
51
281.8951556
0
ARC
8
DEFAULT_255_1_234
10
16.4933615
20
0.8962702
40
0.2264817
50
281.6691735
51
301.2943132
0
ARC
8
DEFAULT_255_1_234
10
16.5103825
20
0.8651304
40
0.1910381
50
301.7833094
51
311.7545298
0
ARC
8
DEFAULT_255_1_234
10
16.5195401
20
0.8549748
40
0.1773635
50
311.7323931
51
354.2802411
0
ARC
8
DEFAULT_255_1_234
10
16.4469026
20
0.8674722
40
0.2509385
50
353.0937916
51
0.1181479
0
ARC
8
DEFAULT_255_1_234
10
16.4007811
20
0.8722386
40
0.2970898
50
359.1805295
51
15.0453146
0
ARC
8
DEFAULT_255_1_234
10
16.5353648
20
0.9114992
40
0.1569564
50
13.9577229
51
77.6713066
0
ARC
8
DEFAULT_255_1_234
10
16.4967177
20
0.7729949
40
0.3006298
50
76.1116566
51
90.7026153
0
ARC
8
DEFAULT_255_1_234
10
16.4908016
20
0.8003545
40
0.2732568
50
89.5324876
51
103.531937
0
ARC
8
DEFAULT_255_1_234
10
16.470746
20
0.8802884
40
0.1908508
50
103.2931773
51
133.5619022
0
ARC
8
DEFAULT_255_1_234
10
16.4662948
20
0.8862375
40
0.1834746
50
133.8349307
51
173.5344437
0
ARC
8
DEFAULT_255_1_234
10
16.5385991
20
0.8734213
40
0.2568033
50
172.5096846
51
180.1366907
0
ARC
8
DEFAULT_255_1_234
10
16.4434885
20
0.8768622
40
0.3103056
50
155.3484492
51
180.7484736
0
ARC
8
DEFAULT_255_1_234
10
16.4385974
20
0.8739846
40
0.3070957
50
131.5744599
51
154.4798489
0
ARC
8
DEFAULT_255_1_234
10
16.4699121
20
0.842331
40
0.3515643
50
96.9875458
51
131.9690667
0
ARC
8
DEFAULT_255_1_234
10
16.4918601
20
0.7177636
40
0.4779224
50
89.8596053
51
97.7825159
0
ARC
8
DEFAULT_255_1_234
10
16.4966664
20
0.6915616
40
0.5041361
50
78.3655447
51
90.4131539
0
ARC
8
DEFAULT_255_1_234
10
16.5324582
20
0.8574887
40
0.3344039
50
56.6229102
51
78.638727
0
ARC
8
DEFAULT_255_1_234
10
16.5539526
20
0.8950805
40
0.2912001
50
47.0253525
51
56.0854072
0
ARC
8
DEFAULT_255_1_234
10
16.5559306
20
0.8990223
40
0.2869704
50
10.9208013
51
46.7778124
0
ARC
8
DEFAULT_255_1_234
10
16.4195373
20
0.8674857
40
0.426899
50
359.6364486
51
11.6087304
0
ARC
8
DEFAULT_255_1_234
10
16.6030217
20
0.8659752
40
0.243409
50
332.3549906
51
359.7179418
0
ARC
8
DEFAULT_255_1_234
10
16.5379818
20
0.8968142
40
0.3153459
50
325.2333722
51
332.8745602
0
ARC
8
DEFAULT_255_1_234
10
16.5532442
20
0.8861828
40
0.2967456
50
292.9802137
51
325.2392345
0
ARC
8
DEFAULT_255_1_234
10
16.5257816
20
0.9395863
40
0.3566604
50
292.5402179
51
293.6924929
0
ARC
8
DEFAULT_255_1_234
10
16.5650412
20
0.2941091
40
0.3307468
50
57.6435486
51
72.8625112
0
ARC
8
DEFAULT_255_1_234
10
16.6004911
20
0.3515549
40
0.2632492
50
36.7248896
51
57.4697979
0
ARC
8
DEFAULT_255_1_234
10
16.5993544
20
0.352822
40
0.2634081
50
8.0545065
51
36.356114
0
ARC
8
DEFAULT_255_1_234
10
16.5130729
20
0.3373174
40
0.3510261
50
359.8320645
51
8.5869982
0
ARC
8
DEFAULT_255_1_234
10
16.4755505
20
0.3325101
40
0.3885653
50
343.9829931
51
0.5571613
0
ARC
8
DEFAULT_255_1_234
10
16.5641703
20
0.3082438
40
0.2966924
50
311.6359546
51
343.7651759
0
ARC
8
DEFAULT_255_1_234
10
16.5263272
20
0.3509102
40
0.3537231
50
279.7829875
51
311.6255694
0
ARC
8
DEFAULT_255_1_234
10
16.4962048
20
0.494628
40
0.5004971
50
269.7286406
51
280.3856417
0
ARC
8
DEFAULT_255_1_234
10
16.4900121
20
0.4904996
40
0.4963778
50
256.6828919
51
270.4412052
0
ARC
8
DEFAULT_255_1_234
10
16.4561416
20
0.3520394
40
0.3538406
50
229.4223008
51
256.8556159
0
ARC
8
DEFAULT_255_1_234
10
16.4146809
20
0.3053736
40
0.2914296
50
181.818294
51
229.6455059
0
ARC
8
DEFAULT_255_1_234
10
16.5186766
20
0.3184496
40
0.3959084
50
179.9755256
51
183.2323064
0
ARC
8
DEFAULT_255_1_234
10
16.5014511
20
0.3164037
40
0.2293034
50
179.4465117
51
196.2869258
0
ARC
8
DEFAULT_255_1_234
10
16.4526919
20
0.3030651
40
0.1787621
50
196.5661473
51
227.705904
0
ARC
8
DEFAULT_255_1_234
10
16.4691014
20
0.3214155
40
0.2033784
50
227.7652068
51
257.8762805
0
ARC
8
DEFAULT_255_1_234
10
16.4915984
20
0.4157156
40
0.3003081
50
257.4584385
51
270.426602
0
ARC
8
DEFAULT_255_1_234
10
16.496155
20
0.4446996
40
0.329292
50
269.5962073
51
280.8789248
0
ARC
8
DEFAULT_255_1_234
10
16.5191079
20
0.3300685
40
0.2123908
50
280.6346389
51
299.8595945
0
ARC
8
DEFAULT_255_1_234
10
16.5381986
20
0.2938212
40
0.171457
50
300.3576302
51
314.5517981
0
ARC
8
DEFAULT_255_1_234
10
16.5299046
20
0.2998919
40
0.1816095
50
315.0728369
51
345.0431014
0
ARC
8
DEFAULT_255_1_234
10
16.437586
20
0.3267841
40
0.2777492
50
344.5986631
51
357.9269593
0
ARC
8
DEFAULT_255_1_234
10
16.3480187
20
0.3329276
40
0.3674917
50
357.4748886
51
0.0231117
0
ARC
8
DEFAULT_255_1_234
10
16.4503296
20
0.3353679
40
0.2651907
50
359.5047933
51
13.4239635
0
ARC
8
DEFAULT_255_1_234
10
16.536994
20
0.3575478
40
0.1757509
50
12.9498199
51
48.7551375
0
ARC
8
DEFAULT_255_1_234
10
16.5187674
20
0.33264
40
0.2065134
50
49.5088623
51
72.1836453
0
ARC
8
DEFAULT_255_1_234
10
16.4829826
20
0.2264291
40
0.3185836
50
71.9010081
51
84.3554254
0
ARC
8
DEFAULT_255_1_234
10
16.4668458
20
0.0903326
40
0.4556151
50
84.0193428
51
89.333121
0
LINE
8
DEFAULT_255_1_234
10
17.8343315
20
0.1314792
11
17.8343315
21
0.0102
0
LINE
8
DEFAULT_255_1_234
10
17.8343315
20
0.0102
11
17.0681037
21
0.0102
0
LINE
8
DEFAULT_255_1_234
10
17.0681037
20
0.0102
11
17.0681037
21
0.1170221
0
LINE
8
DEFAULT_255_1_234
10
17.0681037
20
0.1170221
11
17.4729033
21
0.5667995
0
LINE
8
DEFAULT_255_1_234
10
17.194202
20
0.8350595
11
17.0456148
21
0.8350595
0
LINE
8
DEFAULT_255_1_234
10
17.5604492
20
0.4712218
11
17.2472114
21
0.1314792
0
LINE
8
DEFAULT_255_1_234
10
17.2472114
20
0.1314792
11
17.8343315
21
0.1314792
0
ARC
8
DEFAULT_255_1_234
10
16.1238866
20
1.7597527
40
1.8008286
50
318.5132453
51
320.7828378
0
ARC
8
DEFAULT_255_1_234
10
16.652584
20
1.3294426
40
1.1191493
50
320.7372736
51
323.9737074
0
ARC
8
DEFAULT_255_1_234
10
17.0445697
20
1.0454361
40
0.6350923
50
323.8961724
51
328.6421089
0
ARC
8
DEFAULT_255_1_234
10
17.2492292
20
0.9192031
40
0.3946393
50
328.8299013
51
331.789948
0
ARC
8
DEFAULT_255_1_234
10
17.3489471
20
0.8677509
40
0.2824501
50
331.4255242
51
352.9364833
0
ARC
8
DEFAULT_255_1_234
10
17.3625971
20
0.8646976
40
0.2685315
50
353.2248685
51
0.0169286
0
ARC
8
DEFAULT_255_1_234
10
17.3835848
20
0.866995
40
0.2475536
50
359.4866256
51
15.9339782
0
ARC
8
DEFAULT_255_1_234
10
17.4342834
20
0.8806286
40
0.1950618
50
16.1714718
51
43.5284424
0
ARC
8
DEFAULT_255_1_234
10
17.4420142
20
0.8883573
40
0.184134
50
43.4415429
51
83.1661404
0
ARC
8
DEFAULT_255_1_234
10
17.428606
20
0.8146771
40
0.258926
50
82.160215
51
90.1505798
0
ARC
8
DEFAULT_255_1_234
10
17.4254488
20
0.7609865
40
0.3126255
50
89.5460705
51
102.5418777
0
ARC
8
DEFAULT_255_1_234
10
17.4011574
20
0.8640665
40
0.2067346
50
102.1739365
51
129.2061916
0
ARC
8
DEFAULT_255_1_234
10
17.3932646
20
0.8765094
40
0.1921118
50
129.7279328
51
135.7542026
0
ARC
8
DEFAULT_255_1_234
10
17.4054173
20
0.8668045
40
0.2075944
50
136.175737
51
166.3674722
0
ARC
8
DEFAULT_255_1_234
10
17.5061092
20
0.8398182
40
0.3118201
50
165.9092917
51
178.8683903
0
ARC
8
DEFAULT_255_1_234
10
17.5925954
20
0.8351179
40
0.3983935
50
178.438168
51
180.0083905
0
ARC
8
DEFAULT_255_1_234
10
17.4524556
20
0.8390231
40
0.4068601
50
163.2878735
51
180.5581814
0
ARC
8
DEFAULT_255_1_234
10
17.3722817
20
0.861084
40
0.3237344
50
133.454115
51
162.9470031
0
ARC
8
DEFAULT_255_1_234
10
17.3901359
20
0.8421
40
0.349795
50
100.7869394
51
133.4384016
0
ARC
8
DEFAULT_255_1_234
10
17.424913
20
0.6872319
40
0.5084616
50
89.6605301
51
101.3704185
0
ARC
8
DEFAULT_255_1_234
10
17.4315469
20
0.6933496
40
0.502348
50
78.2171172
51
90.4130393
0
ARC
8
DEFAULT_255_1_234
10
17.4670547
20
0.8557637
40
0.3361092
50
55.9268222
51
78.4888551
0
ARC
8
DEFAULT_255_1_234
10
17.4866987
20
0.8896324
40
0.2970617
50
47.9292255
51
55.4054003
0
ARC
8
DEFAULT_255_1_234
10
17.4968548
20
0.8999502
40
0.2825983
50
4.3347696
51
48.0560701
0
ARC
8
DEFAULT_255_1_234
10
17.3872942
20
0.8829601
40
0.393225
50
359.925209
51
5.5967654
0
ARC
8
DEFAULT_255_1_234
10
17.4301833
20
0.8885816
40
0.3503892
50
337.8914096
51
358.9967724
0
ARC
8
DEFAULT_255_1_234
10
17.1588245
20
0.9932706
40
0.6412172
50
326.9135351
51
338.3505194
0
ARC
8
DEFAULT_255_1_234
10
16.7602549
20
1.2487284
40
1.1146189
50
319.6472867
51
327.095818
0
ARC
8
DEFAULT_255_1_234
10
16.3769552
20
1.5649
40
1.6114559
50
317.2586784
51
319.9046139
0
LINE
8
DEFAULT_255_1_234
10
18.3162358
20
0.5676026
11
18.3162358
21
0.4463234
0
LINE
8
DEFAULT_255_1_234
10
18.3162358
20
0.4463234
11
17.924287
21
0.4463234
0
LINE
8
DEFAULT_255_1_234
10
17.924287
20
0.4463234
11
17.924287
21
0.5676026
0
LINE
8
DEFAULT_255_1_234
10
17.924287
20
0.5676026
11
18.3162358
21
0.5676026
0
LINE
8
DEFAULT_255_1_234
10
19.1788445
20
0.7017327
11
19.1788445
21
0.5089709
0
LINE
8
DEFAULT_255_1_234
10
18.4407277
20
0.4888916
11
18.4407277
21
0.6872755
0
LINE
8
DEFAULT_255_1_234
10
19.0302573
20
0.4688123
11
19.0302573
21
0.7121739
0
LINE
8
DEFAULT_255_1_234
10
18.5893149
20
0.7234184
11
18.5893149
21
0.4856789
0
ARC
8
DEFAULT_255_1_234
10
17.9541334
20
0.5040805
40
1.2247208
50
353.8441951
51
0.2287902
0
ARC
8
DEFAULT_255_1_234
10
18.4180838
20
0.4522806
40
0.7578929
50
344.4934747
51
353.9765454
0
ARC
8
DEFAULT_255_1_234
10
18.7173428
20
0.3671981
40
0.4467846
50
329.2803592
51
344.7472793
0
ARC
8
DEFAULT_255_1_234
10
18.8166253
20
0.3127018
40
0.3336173
50
324.9352394
51
328.6160465
0
ARC
8
DEFAULT_255_1_234
10
18.8543362
20
0.2863427
40
0.2876076
50
280.580143
51
324.9173126
0
ARC
8
DEFAULT_255_1_234
10
18.8142154
20
0.4534099
40
0.4592847
50
269.5977311
51
281.6734359
0
ARC
8
DEFAULT_255_1_234
10
18.807006
20
0.4414173
40
0.4472986
50
256.6228859
51
270.51044
0
ARC
8
DEFAULT_255_1_234
10
18.7668038
20
0.2865877
40
0.2873874
50
215.8618325
51
257.2788573
0
ARC
8
DEFAULT_255_1_234
10
18.8689069
20
0.3550977
40
0.4102928
50
197.9693508
51
215.2623606
0
ARC
8
DEFAULT_255_1_234
10
19.1174185
20
0.4389709
40
0.6725652
50
187.8816417
51
198.2346507
0
ARC
8
DEFAULT_255_1_234
10
19.5132393
20
0.4961079
40
1.0724845
50
180.8976217
51
188.0055519
0
ARC
8
DEFAULT_255_1_234
10
19.7932582
20
0.5064777
40
1.3526448
50
180.7449369
51
181.1510016
0
ARC
8
DEFAULT_255_1_234
10
19.6355311
20
0.6921042
40
1.1948131
50
173.7675579
51
180.231553
0
ARC
8
DEFAULT_255_1_234
10
19.1837457
20
0.7431666
40
0.7401564
50
164.3058563
51
173.9002247
0
ARC
8
DEFAULT_255_1_234
10
18.8925526
20
0.8270656
40
0.4371288
50
148.7922025
51
164.568378
0
ARC
8
DEFAULT_255_1_234
10
18.7973978
20
0.8801929
40
0.3282386
50
144.5883898
51
148.1176286
0
ARC
8
DEFAULT_255_1_234
10
18.7630876
20
0.9041315
40
0.2864044
50
101.6440918
51
144.514236
0
ARC
8
DEFAULT_255_1_234
10
18.8055943
20
0.7352069
40
0.4604934
50
89.5284041
51
102.5819763
0
ARC
8
DEFAULT_255_1_234
10
18.8135031
20
0.7313018
40
0.464401
50
77.0437873
51
90.5081339
0
ARC
8
DEFAULT_255_1_234
10
18.8537032
20
0.8955615
40
0.2953195
50
48.2778575
51
77.4994676
0
ARC
8
DEFAULT_255_1_234
10
18.8609664
20
0.9084746
40
0.2808655
50
36.3142134
51
47.6305865
0
ARC
8
DEFAULT_255_1_234
10
18.7740971
20
0.8499515
40
0.3855453
50
18.2931786
51
35.6769206
0
ARC
8
DEFAULT_255_1_234
10
18.5197729
20
0.7626593
40
0.654423
50
8.024666
51
18.5605216
0
ARC
8
DEFAULT_255_1_234
10
18.1034649
20
0.7011792
40
1.0752407
50
1.1274072
51
8.1718305
0
ARC
8
DEFAULT_255_1_234
10
17.779884
20
0.6884885
40
1.3990231
50
0.5424119
51
1.3863029
0
ARC
8
DEFAULT_255_1_234
10
17.9620218
20
0.7157342
40
1.0682415
50
359.8090433
51
4.9407866
0
ARC
8
DEFAULT_255_1_234
10
18.3830232
20
0.7533113
40
0.6455691
50
4.8362157
51
12.2904523
0
ARC
8
DEFAULT_255_1_234
10
18.6585347
20
0.8146965
40
0.3633074
50
12.0805627
51
23.8173984
0
ARC
8
DEFAULT_255_1_234
10
18.7759052
20
0.8643919
40
0.2358723
50
24.2871213
51
31.3935614
0
ARC
8
DEFAULT_255_1_234
10
18.8283749
20
0.8987233
40
0.1732111
50
30.7407893
51
82.4657128
0
ARC
8
DEFAULT_255_1_234
10
18.8103884
20
0.8103691
40
0.263235
50
81.1060089
51
90.2184952
0
ARC
8
DEFAULT_255_1_234
10
18.8068182
20
0.8361924
40
0.2374236
50
89.3806855
51
105.6762551
0
ARC
8
DEFAULT_255_1_234
10
18.7884813
20
0.9028567
40
0.1682847
50
105.7981136
51
149.7388061
0
ARC
8
DEFAULT_255_1_234
10
18.8948891
20
0.838895
40
0.2924306
50
149.4208916
51
163.6286378
0
ARC
8
DEFAULT_255_1_234
10
19.1039779
20
0.775125
40
0.5110213
50
163.3763315
51
172.1410975
0
ARC
8
DEFAULT_255_1_234
10
19.4340498
20
0.7278518
40
0.8444586
50
172.0259487
51
178.0703232
0
ARC
8
DEFAULT_255_1_234
10
19.7370588
20
0.7134906
40
1.1477868
50
177.8631668
51
179.5044149
0
ARC
8
DEFAULT_255_1_234
10
19.6297992
20
0.4820389
40
1.0404907
50
179.7995573
51
185.2460446
0
ARC
8
DEFAULT_255_1_234
10
19.2255032
20
0.4437513
40
0.6343885
50
185.1411642
51
193.0079639
0
ARC
8
DEFAULT_255_1_234
10
18.9611504
20
0.3812641
40
0.3627568
50
192.7897626
51
205.2507664
0
ARC
8
DEFAULT_255_1_234
10
18.8565051
20
0.3345415
40
0.2481908
50
205.8005384
51
211.2537509
0
ARC
8
DEFAULT_255_1_234
10
18.8041492
20
0.299458
40
0.1852521
50
210.3789793
51
238.4008143
0
ARC
8
DEFAULT_255_1_234
10
18.8022014
20
0.3041376
40
0.1882621
50
239.6520629
51
265.9793761
0
ARC
8
DEFAULT_255_1_234
10
18.8107214
20
0.3713427
40
0.2559272
50
265.1315437
51
270.060332
0
ARC
8
DEFAULT_255_1_234
10
18.8135992
20
0.3389534
40
0.2235528
50
269.3314664
51
287.2178029
0
ARC
8
DEFAULT_255_1_234
10
18.8273844
20
0.2886279
40
0.1714108
50
287.7958004
51
329.080874
0
ARC
8
DEFAULT_255_1_234
10
18.7316301
20
0.348393
40
0.2842745
50
328.6634704
51
343.3325132
0
ARC
8
DEFAULT_255_1_234
10
18.5143321
20
0.4160863
40
0.5118644
50
343.0499468
51
351.9393422
0
ARC
8
DEFAULT_255_1_234
10
18.1676621
20
0.4671949
40
0.8622784
50
351.8069023
51
357.7959224
0
ARC
8
DEFAULT_255_1_234
10
17.8441177
20
0.4839721
40
1.1862365
50
357.5871873
51
359.2677531
0
LINE
8
DEFAULT_255_1_234
10
19.5073426
20
1.1796211
11
19.7892566
21
0.7314501
0
LINE
8
DEFAULT_255_1_234
10
19.7892566
20
0.7314501
11
20.0695643
21
1.1796211
0
LINE
8
DEFAULT_255_1_234
10
20.0695643
20
1.1796211
11
20.2510815
21
1.1796211
0
LINE
8
DEFAULT_255_1_234
10
20.2510815
20
1.1796211
11
19.8816216
21
0.5997296
0
LINE
8
DEFAULT_255_1_234
10
19.8816216
20
0.5997296
11
20.2599165
21
0.0102
0
LINE
8
DEFAULT_255_1_234
10
20.2599165
20
0.0102
11
20.0767928
21
0.0102
0
LINE
8
DEFAULT_255_1_234
10
20.0767928
20
0.0102
11
19.7892566
21
0.4664027
0
LINE
8
DEFAULT_255_1_234
10
19.7892566
20
0.4664027
11
19.500114
21
0.0102
0
LINE
8
DEFAULT_255_1_234
10
19.500114
20
0.0102
11
19.3177936
21
0.0102
0
LINE
8
DEFAULT_255_1_234
10
19.3177936
20
0.0102
11
19.6968916
21
0.5997296
0
LINE
8
DEFAULT_255_1_234
10
19.6968916
20
0.5997296
11
19.3266285
21
1.1796211
0
LINE
8
DEFAULT_255_1_234
10
19.3266285
20
1.1796211
11
19.5073426
21
1.1796211
0
LINE
8
DEFAULT_255_1_234
10
20.844627
20
0.0102
11
20.4390242
21
0.0102
0
LINE
8
DEFAULT_255_1_234
10
20.4390242
20
0.0102
11
20.4390242
21
1.1796211
0
LINE
8
DEFAULT_255_1_234
10
20.4390242
20
1.1796211
11
20.821335
21
1.1796211
0
LINE
8
DEFAULT_255_1_234
10
20.8502492
20
0.5571614
11
20.5932336
21
0.5571614
0
LINE
8
DEFAULT_255_1_234
10
20.5932336
20
0.5571614
11
20.5932336
21
0.1362983
0
LINE
8
DEFAULT_255_1_234
10
20.5932336
20
0.1362983
11
20.8478397
21
0.1362983
0
LINE
8
DEFAULT_255_1_234
10
20.5932336
20
1.0527196
11
20.5932336
21
0.6808501
0
LINE
8
DEFAULT_255_1_234
10
20.5932336
20
0.6808501
11
20.826154
21
0.6808501
0
LINE
8
DEFAULT_255_1_234
10
20.821335
20
1.0527196
11
20.5932336
21
1.0527196
0
ARC
8
DEFAULT_255_1_234
10
20.8251058
20
0.4428901
40
0.7367406
50
82.1257326
51
90.2932599
0
ARC
8
DEFAULT_255_1_234
10
20.8640013
20
0.7147013
40
0.4621653
50
69.9044149
51
82.2857423
0
ARC
8
DEFAULT_255_1_234
10
20.9210691
20
0.8689637
40
0.2976871
50
51.1838526
51
70.0181538
0
ARC
8
DEFAULT_255_1_234
10
20.9465657
20
0.906024
40
0.2528517
50
12.1017251
51
50.4214761
0
ARC
8
DEFAULT_255_1_234
10
20.8081531
20
0.8712676
40
0.3955061
50
359.5251267
51
12.8211707
0
ARC
8
DEFAULT_255_1_234
10
20.9661458
20
0.8643344
40
0.2375281
50
323.4908128
51
0.8817314
0
ARC
8
DEFAULT_255_1_234
10
20.9243144
20
0.896655
40
0.2903817
50
298.6825083
51
323.2756573
0
ARC
8
DEFAULT_255_1_234
10
20.8881507
20
0.9567649
40
0.3604842
50
293.1999386
51
299.1396394
0
ARC
8
DEFAULT_255_1_234
10
20.955448
20
0.3482126
40
0.2871098
50
54.0011765
51
74.9167975
0
ARC
8
DEFAULT_255_1_234
10
20.9670839
20
0.3679332
40
0.2643248
50
36.3580696
51
53.5291921
0
ARC
8
DEFAULT_255_1_234
10
20.9544082
20
0.3588998
40
0.2798884
50
4.8189881
51
36.3089977
0
ARC
8
DEFAULT_255_1_234
10
20.8764917
20
0.347927
40
0.358478
50
359.9370252
51
5.5204067
0
ARC
8
DEFAULT_255_1_234
10
20.8440438
20
0.3438667
40
0.3909429
50
344.7478609
51
0.5373281
0
ARC
8
DEFAULT_255_1_234
10
20.9431409
20
0.3171544
40
0.2883093
50
311.1786488
51
344.6886812
0
ARC
8
DEFAULT_255_1_234
10
20.9139457
20
0.3534987
40
0.3348923
50
286.0418249
51
310.8441291
0
ARC
8
DEFAULT_255_1_234
10
20.8632288
20
0.5181807
40
0.5071869
50
274.1042341
51
286.4071509
0
ARC
8
DEFAULT_255_1_234
10
20.8455544
20
0.7065229
40
0.6963234
50
269.9236873
51
274.445647
0
ARC
8
DEFAULT_255_1_234
10
20.8501545
20
0.4725537
40
0.3362634
50
269.6055768
51
281.3740047
0
ARC
8
DEFAULT_255_1_234
10
20.8732183
20
0.3632353
40
0.224546
50
281.1055983
51
302.5132223
0
ARC
8
DEFAULT_255_1_234
10
20.8879083
20
0.3368823
40
0.1944357
50
303.0368945
51
311.8811219
0
ARC
8
DEFAULT_255_1_234
10
20.8950489
20
0.328389
40
0.1833454
50
311.9916004
51
351.7143462
0
ARC
8
DEFAULT_255_1_234
10
20.8133719
20
0.344893
40
0.2665871
50
350.7339597
51
0.2221581
0
ARC
8
DEFAULT_255_1_234
10
20.8026165
20
0.3505467
40
0.2773789
50
359.0456241
51
17.2296242
0
ARC
8
DEFAULT_255_1_234
10
20.9065282
20
0.3814163
40
0.1689915
50
17.6685481
51
78.9940892
0
ARC
8
DEFAULT_255_1_234
10
20.8548446
20
0.1959224
40
0.3612658
50
76.5635957
51
90.6980921
0
LINE
8
DEFAULT_255_1_234
10
20.8504431
20
0.5571613
11
20.8502492
21
0.5571614
0
ARC
8
DEFAULT_255_1_234
10
20.8284107
20
1.0094036
40
0.3285612
50
269.6064736
51
281.4533503
0
ARC
8
DEFAULT_255_1_234
10
20.8506926
20
0.9042688
40
0.2210975
50
281.2041486
51
302.5148063
0
ARC
8
DEFAULT_255_1_234
10
20.8643776
20
0.8796241
40
0.1929674
50
303.021671
51
309.8369575
0
ARC
8
DEFAULT_255_1_234
10
20.8827238
20
0.8590488
40
0.1654181
50
309.5228395
51
356.9509836
0
ARC
8
DEFAULT_255_1_234
10
20.816382
20
0.8685932
40
0.2322512
50
355.4701227
51
0.0492546
0
ARC
8
DEFAULT_255_1_234
10
20.7884911
20
0.8708094
40
0.2601498
50
359.5558597
51
11.2096359
0
ARC
8
DEFAULT_255_1_234
10
20.8842201
20
0.890623
40
0.1623975
50
10.9182341
51
31.3230275
0
ARC
8
DEFAULT_255_1_234
10
20.9127935
20
0.9065214
40
0.1297302
50
31.8852677
51
52.1412565
0
ARC
8
DEFAULT_255_1_234
10
20.8853667
20
0.867775
40
0.1771663
50
52.8285564
51
71.9850297
0
ARC
8
DEFAULT_255_1_234
10
20.8477844
20
0.7571664
40
0.2939794
50
71.6863486
51
82.8455995
0
ARC
8
DEFAULT_255_1_234
10
20.823838
20
0.5762149
40
0.476506
50
82.6984714
51
90.1729175
0
ARC
8
DEFAULT_255_1_234
10
20.8216015
20
0.6985623
40
0.3541573
50
89.8708275
51
90.0431131
0
LINE
8
DEFAULT_255_1_234
10
22.1578162
20
0.7017327
11
22.1578162
21
0.5089709
0
LINE
8
DEFAULT_255_1_234
10
21.4196995
20
0.4888916
11
21.4196995
21
0.6872755
0
LINE
8
DEFAULT_255_1_234
10
22.0092291
20
0.4688123
11
22.0092291
21
0.7121739
0
LINE
8
DEFAULT_255_1_234
10
21.5682866
20
0.7234184
11
21.5682866
21
0.4856789
0
ARC
8
DEFAULT_255_1_234
10
20.9331052
20
0.5040805
40
1.2247208
50
353.8441951
51
0.2287902
0
ARC
8
DEFAULT_255_1_234
10
21.3970555
20
0.4522806
40
0.7578929
50
344.4934747
51
353.9765454
0
ARC
8
DEFAULT_255_1_234
10
21.6963146
20
0.3671981
40
0.4467846
50
329.2803592
51
344.7472793
0
ARC
8
DEFAULT_255_1_234
10
21.795597
20
0.3127018
40
0.3336173
50
324.9352394
51
328.6160465
0
ARC
8
DEFAULT_255_1_234
10
21.8333079
20
0.2863427
40
0.2876076
50
280.580143
51
324.9173126
0
ARC
8
DEFAULT_255_1_234
10
21.7931872
20
0.4534099
40
0.4592847
50
269.5977311
51
281.6734359
0
ARC
8
DEFAULT_255_1_234
10
21.7859777
20
0.4414173
40
0.4472986
50
256.6228859
51
270.51044
0
ARC
8
DEFAULT_255_1_234
10
21.7457755
20
0.2865877
40
0.2873874
50
215.8618325
51
257.2788573
0
ARC
8
DEFAULT_255_1_234
10
21.8478787
20
0.3550977
40
0.4102928
50
197.9693508
51
215.2623606
0
ARC
8
DEFAULT_255_1_234
10
22.0963902
20
0.4389709
40
0.6725652
50
187.8816417
51
198.2346507
0
ARC
8
DEFAULT_255_1_234
10
22.4922111
20
0.4961079
40
1.0724845
50
180.8976217
51
188.0055519
0
ARC
8
DEFAULT_255_1_234
10
22.7722299
20
0.5064777
40
1.3526448
50
180.7449369
51
181.1510016
0
ARC
8
DEFAULT_255_1_234
10
22.6145028
20
0.6921042
40
1.1948131
50
173.7675579
51
180.231553
0
ARC
8
DEFAULT_255_1_234
10
22.1627174
20
0.7431666
40
0.7401564
50
164.3058563
51
173.9002247
0
ARC
8
DEFAULT_255_1_234
10
21.8715243
20
0.8270656
40
0.4371288
50
148.7922025
51
164.568378
0
ARC
8
DEFAULT_255_1_234
10
21.7763695
20
0.8801929
40
0.3282386
50
144.5883898
51
148.1176286
0
ARC
8
DEFAULT_255_1_234
10
21.7420593
20
0.9041315
40
0.2864044
50
101.6440918
51
144.514236
0
ARC
8
DEFAULT_255_1_234
10
21.784566
20
0.7352069
40
0.4604934
50
89.5284041
51
102.5819763
0
ARC
8
DEFAULT_255_1_234
10
21.7924748
20
0.7313018
40
0.464401
50
77.0437873
51
90.5081339
0
ARC
8
DEFAULT_255_1_234
10
21.832675
20
0.8955615
40
0.2953195
50
48.2778575
51
77.4994676
0
ARC
8
DEFAULT_255_1_234
10
21.8399381
20
0.9084746
40
0.2808655
50
36.3142134
51
47.6305865
0
ARC
8
DEFAULT_255_1_234
10
21.7530688
20
0.8499515
40
0.3855453
50
18.2931786
51
35.6769206
0
ARC
8
DEFAULT_255_1_234
10
21.4987447
20
0.7626593
40
0.654423
50
8.024666
51
18.5605216
0
ARC
8
DEFAULT_255_1_234
10
21.0824367
20
0.7011792
40
1.0752407
50
1.1274072
51
8.1718305
0
ARC
8
DEFAULT_255_1_234
10
20.7588557
20
0.6884885
40
1.3990231
50
0.5424119
51
1.3863029
0
ARC
8
DEFAULT_255_1_234
10
20.9409935
20
0.7157342
40
1.0682415
50
359.8090433
51
4.9407866
0
ARC
8
DEFAULT_255_1_234
10
21.3619949
20
0.7533113
40
0.6455691
50
4.8362157
51
12.2904523
0
ARC
8
DEFAULT_255_1_234
10
21.6375064
20
0.8146965
40
0.3633074
50
12.0805627
51
23.8173984
0
ARC
8
DEFAULT_255_1_234
10
21.7548769
20
0.8643919
40
0.2358723
50
24.2871213
51
31.3935614
0
ARC
8
DEFAULT_255_1_234
10
21.8073466
20
0.8987233
40
0.1732111
50
30.7407893
51
82.4657128
0
ARC
8
DEFAULT_255_1_234
10
21.7893601
20
0.8103691
40
0.263235
50
81.1060089
51
90.2184952
0
ARC
8
DEFAULT_255_1_234
10
21.78579
20
0.8361924
40
0.2374236
50
89.3806855
51
105.6762551
0
ARC
8
DEFAULT_255_1_234
10
21.767453
20
0.9028567
40
0.1682847
50
105.7981136
51
149.7388061
0
ARC
8
DEFAULT_255_1_234
10
21.8738609
20
0.838895
40
0.2924306
50
149.4208916
51
163.6286378
0
ARC
8
DEFAULT_255_1_234
10
22.0829497
20
0.775125
40
0.5110213
50
163.3763315
51
172.1410975
0
ARC
8
DEFAULT_255_1_234
10
22.4130216
20
0.7278518
40
0.8444586
50
172.0259487
51
178.0703232
0
ARC
8
DEFAULT_255_1_234
10
22.7160305
20
0.7134906
40
1.1477868
50
177.8631668
51
179.5044149
0
ARC
8
DEFAULT_255_1_234
10
22.608771
20
0.4820389
40
1.0404907
50
179.7995573
51
185.2460446
0
ARC
8
DEFAULT_255_1_234
10
22.2044749
20
0.4437513
40
0.6343885
50
185.1411642
51
193.0079639
0
ARC
8
DEFAULT_255_1_234
10
21.9401221
20
0.3812641
40
0.3627568
50
192.7897626
51
205.2507664
0
ARC
8
DEFAULT_255_1_234
10
21.8354768
20
0.3345415
40
0.2481908
50
205.8005384
51
211.2537509
0
ARC
8
DEFAULT_255_1_234
10
21.7831209
20
0.299458
40
0.1852521
50
210.3789793
51
238.4008143
0
ARC
8
DEFAULT_255_1_234
10
21.7811731
20
0.3041376
40
0.1882621
50
239.6520629
51
265.9793761
0
ARC
8
DEFAULT_255_1_234
10
21.7896931
20
0.3713427
40
0.2559272
50
265.1315437
51
270.060332
0
ARC
8
DEFAULT_255_1_234
10
21.792571
20
0.3389534
40
0.2235528
50
269.3314664
51
287.2178029
0
ARC
8
DEFAULT_255_1_234
10
21.8063562
20
0.2886279
40
0.1714108
50
287.7958004
51
329.080874
0
ARC
8
DEFAULT_255_1_234
10
21.7106019
20
0.348393
40
0.2842745
50
328.6634704
51
343.3325132
0
ARC
8
DEFAULT_255_1_234
10
21.4933039
20
0.4160863
40
0.5118644
50
343.0499468
51
351.9393422
0
ARC
8
DEFAULT_255_1_234
10
21.1466339
20
0.4671949
40
0.8622784
50
351.8069023
51
357.7959224
0
ARC
8
DEFAULT_255_1_234
10
20.8230895
20
0.4839721
40
1.1862365
50
357.5871873
51
359.2677531
0
ARC
8
DEFAULT_255_2_778
10
7.7537338
20
99.9638315
40
3.0484709
50
251.6854144
51
258.6071955
0
ARC
8
DEFAULT_255_2_778
10
7.539521
20
98.8822061
40
1.9458471
50
258.4992492
51
268.3986479
0
ARC
8
DEFAULT_255_2_778
10
7.5172314
20
98.4519529
40
1.5151737
50
268.7865272
51
269.9950384
0
ARC
8
DEFAULT_255_2_778
10
7.5277432
20
98.0007678
40
1.0640417
50
269.426895
51
279.6711067
0
ARC
8
DEFAULT_255_2_778
10
7.6417753
20
97.3712069
40
0.4243233
50
278.7731084
51
300.3324923
0
ARC
8
DEFAULT_255_2_778
10
7.760746
20
97.1685875
40
0.1893587
50
300.2240287
51
1.9041213
0
ARC
8
DEFAULT_255_2_778
10
7.7452705
20
97.1777412
40
0.2047497
50
359.1991369
51
359.99965
0
ARC
8
DEFAULT_255_2_778
10
7.7523233
20
97.1785701
40
0.1976988
50
359.7594145
51
47.1793976
0
ARC
8
DEFAULT_255_2_778
10
7.6187277
20
97.0299633
40
0.3975169
50
47.6144502
51
60.8366176
0
ARC
8
DEFAULT_255_2_778
10
7.0190958
20
96.0140188
40
1.5771337
50
59.799464
51
64.8885807
0
ARC
8
DEFAULT_255_2_778
10
6.0948833
20
94.0850005
40
3.7160912
50
64.6076081
51
66.8386974
0
ARC
8
DEFAULT_255_2_778
10
9.6419609
20
102.4480375
40
5.368109
50
244.3032309
51
247.1393781
0
ARC
8
DEFAULT_255_2_778
10
8.5507088
20
100.1880503
40
2.8584574
50
240.2323579
51
244.3709759
0
ARC
8
DEFAULT_255_2_778
10
7.7800475
20
98.8511914
40
1.315392
50
233.2209971
51
240.4606284
0
ARC
8
DEFAULT_255_2_778
10
7.3561477
20
98.280051
40
0.6041399
50
225.6990744
51
232.9899679
0
ARC
8
DEFAULT_255_2_778
10
7.3965073
20
98.3044537
40
0.6499005
50
178.2783416
51
224.6550883
0
ARC
8
DEFAULT_255_2_778
10
7.5056522
20
98.3378479
40
0.7588787
50
157.0288557
51
181.0471398
0
ARC
8
DEFAULT_255_2_778
10
7.3778115
20
98.3788361
40
0.6252972
50
124.8832528
51
155.9151102
0
ARC
8
DEFAULT_255_2_778
10
7.5960466
20
98.0699004
40
1.0035357
50
100.4079723
51
125.0168617
0
ARC
8
DEFAULT_255_2_778
10
7.6991199
20
97.5758369
40
1.5081396
50
89.6483922
51
100.8684975
0
ARC
8
DEFAULT_255_2_778
10
7.7083242
20
97.223631
40
1.8603169
50
89.5079487
51
89.9984402
0
ARC
8
DEFAULT_255_2_778
10
7.7099573
20
97.1584016
40
1.9255311
50
83.9170631
51
89.5732113
0
ARC
8
DEFAULT_255_2_778
10
7.5071517
20
95.150828
40
3.9433074
50
80.7325723
51
84.0779772
0
ARC
8
DEFAULT_255_2_778
10
7.0208457
20
92.1279143
40
7.0050837
50
78.5086351
51
80.7886813
0
ARC
8
DEFAULT_255_2_778
10
7.661948
20
96.7284248
40
1.9405211
50
67.1208636
51
78.0849567
0
ARC
8
DEFAULT_255_2_778
10
7.7851787
20
97.2987435
40
1.3570505
50
78.2043188
51
89.7330997
0
ARC
8
DEFAULT_255_2_778
10
7.7793853
20
97.7129533
40
0.9429038
50
89.2638155
51
100.5666868
0
ARC
8
DEFAULT_255_2_778
10
7.6660949
20
98.2827742
40
0.362036
50
99.4784875
51
124.329414
0
ARC
8
DEFAULT_255_2_778
10
7.5705593
20
98.4308833
40
0.1859067
50
125.7571195
51
182.2824883
0
ARC
8
DEFAULT_255_2_778
10
7.550479
20
98.4244596
40
0.1656817
50
180.3390097
51
239.5846645
0
ARC
8
DEFAULT_255_2_778
10
7.9333928
20
99.0265385
40
0.8791243
50
237.9286811
51
242.8458337
0
ARC
8
DEFAULT_255_2_778
10
9.4217494
20
101.8546761
40
4.0749535
50
242.373546
51
244.0651863
0
ARC
8
DEFAULT_255_2_778
10
12.390292
20
107.9240417
40
10.8313843
50
243.98499
51
244.8337487
0
ARC
8
DEFAULT_255_2_778
10
15.4038489
20
114.3020119
40
17.8854532
50
244.7847508
51
244.9871702
0
ARC
8
DEFAULT_255_2_778
10
5.8629951
20
93.7665624
40
4.7582581
50
62.2541229
51
65.4300104
0
ARC
8
DEFAULT_255_2_778
10
6.9264949
20
95.7773316
40
2.4835767
50
57.3041202
51
62.3718824
0
ARC
8
DEFAULT_255_2_778
10
7.6804753
20
96.9422785
40
1.0959436
50
48.7510565
51
57.5776061
0
ARC
8
DEFAULT_255_2_778
10
8.0117456
20
97.3303315
40
0.5858075
50
44.3424985
51
48.0869801
0
ARC
8
DEFAULT_255_2_778
10
7.9783002
20
97.3105791
40
0.6236013
50
1.3523843
51
43.4925744
0
ARC
8
DEFAULT_255_2_778
10
7.7103531
20
97.2776474
40
0.8926473
50
359.9763756
51
3.0599076
0
ARC
8
DEFAULT_255_2_778
10
7.8642775
20
97.2625614
40
0.7388693
50
333.0409438
51
1.1413791
0
ARC
8
DEFAULT_255_2_778
10
7.8948146
20
97.2693681
40
0.7150136
50
300.8436672
51
331.44521
0
ARC
8
DEFAULT_255_2_778
10
7.694317
20
97.5839483
40
1.0879513
50
281.4165435
51
301.4154357
0
ARC
8
DEFAULT_255_2_778
10
7.5627859
20
98.1936291
40
1.7116243
50
270.2268997
51
281.6926461
0
ARC
8
DEFAULT_255_2_778
10
7.5448759
20
98.6712566
40
2.1893775
50
269.9983134
51
270.6461031
0
LINE
8
DEFAULT_255_2_778
10
7.5448115
20
96.4818791
11
7.5438002
21
96.4818793
0
ARC
8
DEFAULT_255_2_778
10
7.5521942
20
99.6753257
40
3.1934574
50
256.2656224
51
269.8493988
0
ARC
8
DEFAULT_255_2_778
10
21.7540698
20
99.8839463
40
2.9666503
50
251.5318157
51
258.7258279
0
ARC
8
DEFAULT_255_2_778
10
21.553824
20
98.8620156
40
1.9252941
50
258.62435
51
268.8252909
0
ARC
8
DEFAULT_255_2_778
10
21.5355342
20
98.4671618
40
1.5301823
50
269.2068806
51
269.9987259
0
ARC
8
DEFAULT_255_2_778
10
21.5473845
20
98.0025014
40
1.0655883
50
269.3609778
51
279.5940067
0
ARC
8
DEFAULT_255_2_778
10
21.6608327
20
97.3713487
40
0.4244079
50
278.6935063
51
300.247521
0
ARC
8
DEFAULT_255_2_778
10
21.7798114
20
97.1680964
40
0.1888934
50
300.127721
51
1.9060978
0
ARC
8
DEFAULT_255_2_778
10
21.7447346
20
97.1787469
40
0.2239082
50
358.8823242
51
0.0020179
0
ARC
8
DEFAULT_255_2_778
10
21.7768284
20
97.1826067
40
0.1918533
50
358.8495576
51
47.0701228
0
ARC
8
DEFAULT_255_2_778
10
21.6367166
20
97.02358
40
0.4037618
50
47.8826
51
61.1868986
0
ARC
8
DEFAULT_255_2_778
10
21.0430221
20
96.0046636
40
1.5829342
50
60.132737
51
65.2082276
0
ARC
8
DEFAULT_255_2_778
10
20.1441578
20
94.1008602
40
3.6882346
50
64.933001
51
67.1748213
0
ARC
8
DEFAULT_255_2_778
10
23.6250005
20
102.3632412
40
5.277434
50
244.2623681
51
247.1409573
0
ARC
8
DEFAULT_255_2_778
10
22.5583672
20
100.1582817
40
2.8280396
50
240.146721
51
244.3294125
0
ARC
8
DEFAULT_255_2_778
10
21.7852892
20
98.8240032
40
1.2860081
50
232.6825201
51
240.4280651
0
ARC
8
DEFAULT_255_2_778
10
21.3705577
20
98.2737698
40
0.5970025
50
225.5655026
51
232.3238302
0
ARC
8
DEFAULT_255_2_778
10
21.4129174
20
98.3033841
40
0.6478743
50
178.857918
51
224.724069
0
ARC
8
DEFAULT_255_2_778
10
21.6666766
20
98.3276438
40
0.9015762
50
179.9977405
51
180.7210917
0
ARC
8
DEFAULT_255_2_778
10
21.5166307
20
98.3414374
40
0.7516564
50
156.9174031
51
181.048778
0
ARC
8
DEFAULT_255_2_778
10
21.3931761
20
98.3806804
40
0.6228214
50
124.7242223
51
155.7857984
0
ARC
8
DEFAULT_255_2_778
10
21.6069697
20
98.0872586
40
0.9858056
50
101.5111366
51
125.2227131
0
ARC
8
DEFAULT_255_2_778
10
21.7302849
20
97.5316457
40
1.5548833
50
89.5425022
51
101.8780642
0
ARC
8
DEFAULT_255_2_778
10
21.7282791
20
96.9816906
40
2.1048381
50
83.2912026
51
89.6074409
0
ARC
8
DEFAULT_255_2_778
10
21.5294768
20
95.2089905
40
3.8886369
50
79.4832476
51
83.4334092
0
ARC
8
DEFAULT_255_2_778
10
21.217335
20
93.450126
40
5.674946
50
78.2313406
51
79.6259572
0
ARC
8
DEFAULT_255_2_778
10
21.6853339
20
96.7428061
40
1.9277426
50
67.1278883
51
78.406469
0
ARC
8
DEFAULT_255_2_778
10
21.8015016
20
97.2909698
40
1.3674214
50
78.5587647
51
89.7612237
0
ARC
8
DEFAULT_255_2_778
10
21.7951366
20
97.7219793
40
0.9364778
50
89.2619009
51
100.5950934
0
ARC
8
DEFAULT_255_2_778
10
21.6824182
20
98.2874492
40
0.3599879
50
99.5087086
51
124.406715
0
ARC
8
DEFAULT_255_2_778
10
21.5878565
20
98.4338753
40
0.1858061
50
125.8630185
51
182.2986975
0
ARC
8
DEFAULT_255_2_778
10
21.5497296
20
98.426337
40
0.1475296
50
179.9666559
51
180.100057
0
ARC
8
DEFAULT_255_2_778
10
21.5661853
20
98.4263254
40
0.1639852
50
180.0859806
51
239.8819424
0
ARC
8
DEFAULT_255_2_778
10
21.9379018
20
99.0130942
40
0.8584853
50
238.072871
51
243.0442008
0
ARC
8
DEFAULT_255_2_778
10
23.4872034
20
101.9781168
40
4.2038426
50
242.5409111
51
244.1884903
0
ARC
8
DEFAULT_255_2_778
10
26.6463384
20
108.4727283
40
11.4260319
50
244.1076525
51
244.9219574
0
ARC
8
DEFAULT_255_2_778
10
29.9038827
20
115.3963872
40
19.0777309
50
244.8743531
51
245.066969
0
ARC
8
DEFAULT_255_2_778
10
19.8820247
20
93.7944116
40
4.7358031
50
62.0413029
51
65.2928181
0
ARC
8
DEFAULT_255_2_778
10
20.948719
20
95.7945641
40
2.4689973
50
57.1308653
51
62.1446733
0
ARC
8
DEFAULT_255_2_778
10
21.7031964
20
96.9514484
40
1.0878598
50
48.4032712
51
57.4378329
0
ARC
8
DEFAULT_255_2_778
10
22.0286125
20
97.3292089
40
0.5893653
50
44.5107389
51
47.6808321
0
ARC
8
DEFAULT_255_2_778
10
21.9979457
20
97.3126355
40
0.6229283
50
1.2061613
51
43.6203607
0
ARC
8
DEFAULT_255_2_778
10
21.7312413
20
97.2802226
40
0.890659
50
359.9779196
51
2.9299178
0
ARC
8
DEFAULT_255_2_778
10
21.8801828
20
97.2651382
40
0.7418639
50
333.2156265
51
1.138567
0
ARC
8
DEFAULT_255_2_778
10
21.9150172
20
97.2696009
40
0.7130495
50
300.9658303
51
331.6339563
0
ARC
8
DEFAULT_255_2_778
10
21.7189407
20
97.5775773
40
1.0780613
50
281.9099982
51
301.4796858
0
ARC
8
DEFAULT_255_2_778
10
21.5853758
20
98.1764077
40
1.69158
50
270.5790084
51
282.1506886
0
ARC
8
DEFAULT_255_2_778
10
21.564179
20
98.6717509
40
2.187172
50
269.9958994
51
271.0031312
0
LINE
8
DEFAULT_255_2_778
10
21.5640225
20
96.4845788
11
21.5625002
21
96.4845793
0
ARC
8
DEFAULT_255_2_778
10
21.5684421
20
99.6603647
40
3.1757909
50
256.22769
51
269.8928006
0
LINE
8
DEFAULT_255_2_778
10
6.7958002
20
96.5750793
11
6.7958002
21
97.0697793
0
LINE
8
DEFAULT_255_2_778
10
8.4164002
20
98.9925793
11
8.4164002
21
98.5162793
0
LINE
8
DEFAULT_255_2_778
10
6.7940002
20
96.5731793
11
6.7958002
21
96.5750793
0
LINE
8
DEFAULT_255_2_778
10
8.9866002
20
99.0422793
11
9.6629002
21
99.0422793
0
LINE
8
DEFAULT_255_2_778
10
9.6629002
20
99.0422793
11
9.6629002
21
96.5348793
0
LINE
8
DEFAULT_255_2_778
10
9.6629002
20
96.5348793
11
8.9866002
21
96.5348793
0
LINE
8
DEFAULT_255_2_778
10
8.9866002
20
96.5348793
11
8.9866002
21
99.0422793
0
LINE
8
DEFAULT_255_2_778
10
10.2809002
20
96.5348793
11
10.2809002
21
99.0422793
0
LINE
8
DEFAULT_255_2_778
10
10.2809002
20
99.0422793
11
12.0132002
21
99.0422793
0
LINE
8
DEFAULT_255_2_778
10
12.0132002
20
99.0422793
11
12.0132002
21
98.5885793
0
LINE
8
DEFAULT_255_2_778
10
12.0132002
20
98.5885793
11
10.9321002
21
98.5885793
0
LINE
8
DEFAULT_255_2_778
10
10.9321002
20
98.5885793
11
10.9321002
21
98.0222793
0
LINE
8
DEFAULT_255_2_778
10
10.9321002
20
98.0222793
11
11.8735002
21
98.0222793
0
LINE
8
DEFAULT_255_2_778
10
11.8735002
20
98.0222793
11
11.8735002
21
97.6087793
0
LINE
8
DEFAULT_255_2_778
10
11.8735002
20
97.6087793
11
10.9321002
21
97.6087793
0
LINE
8
DEFAULT_255_2_778
10
10.9321002
20
97.6087793
11
10.9321002
21
97.0134793
0
LINE
8
DEFAULT_255_2_778
10
10.9321002
20
97.0134793
11
12.0412002
21
97.0134793
0
LINE
8
DEFAULT_255_2_778
10
12.0412002
20
97.0134793
11
12.0412002
21
96.5332793
0
LINE
8
DEFAULT_255_2_778
10
12.0412002
20
96.5332793
11
10.2809002
21
96.5348793
0
LINE
8
DEFAULT_255_2_778
10
12.4817002
20
96.5348793
11
12.4817002
21
99.0422793
0
LINE
8
DEFAULT_255_2_778
10
12.4817002
20
99.0422793
11
13.3575002
21
99.0422793
0
LINE
8
DEFAULT_255_2_778
10
13.3575002
20
99.0422793
11
13.9671002
21
97.4399793
0
LINE
8
DEFAULT_255_2_778
10
13.9671002
20
97.4399793
11
14.5897002
21
99.0422793
0
LINE
8
DEFAULT_255_2_778
10
14.5897002
20
99.0422793
11
15.4215002
21
99.0422793
0
LINE
8
DEFAULT_255_2_778
10
15.4215002
20
99.0422793
11
15.4215002
21
96.5348793
0
LINE
8
DEFAULT_255_2_778
10
15.4215002
20
96.5348793
11
14.7812002
21
96.5348793
0
LINE
8
DEFAULT_255_2_778
10
14.7812002
20
96.5348793
11
14.7812002
21
98.3106793
0
LINE
8
DEFAULT_255_2_778
10
14.7812002
20
98.3106793
11
14.0724002
21
96.5104793
0
LINE
8
DEFAULT_255_2_778
10
14.0724002
20
96.5104793
11
13.6515002
21
96.5104793
0
LINE
8
DEFAULT_255_2_778
10
13.6515002
20
96.5104793
11
12.9559002
21
98.3106793
0
LINE
8
DEFAULT_255_2_778
10
12.9559002
20
98.3106793
11
12.9559002
21
96.5345793
0
LINE
8
DEFAULT_255_2_778
10
12.9559002
20
96.5345793
11
12.4817002
21
96.5348793
0
LINE
8
DEFAULT_255_2_778
10
16.0409002
20
96.5348793
11
16.0409002
21
99.0422793
0
LINE
8
DEFAULT_255_2_778
10
16.0409002
20
99.0422793
11
17.7731002
21
99.0422793
0
LINE
8
DEFAULT_255_2_778
10
17.7731002
20
99.0422793
11
17.7731002
21
98.5885793
0
LINE
8
DEFAULT_255_2_778
10
17.7731002
20
98.5885793
11
16.6921002
21
98.5885793
0
LINE
8
DEFAULT_255_2_778
10
16.6921002
20
98.5885793
11
16.6921002
21
98.0222793
0
LINE
8
DEFAULT_255_2_778
10
16.6921002
20
98.0222793
11
17.6334002
21
98.0222793
0
LINE
8
DEFAULT_255_2_778
10
17.6334002
20
98.0222793
11
17.6334002
21
97.6087793
0
LINE
8
DEFAULT_255_2_778
10
17.6334002
20
97.6087793
11
16.6921002
21
97.6087793
0
LINE
8
DEFAULT_255_2_778
10
16.6921002
20
97.6087793
11
16.6921002
21
97.0134793
0
LINE
8
DEFAULT_255_2_778
10
16.6921002
20
97.0134793
11
17.8030002
21
97.0134793
0
LINE
8
DEFAULT_255_2_778
10
17.8030002
20
97.0134793
11
17.8030002
21
96.5332793
0
LINE
8
DEFAULT_255_2_778
10
17.8030002
20
96.5332793
11
16.0409002
21
96.5348793
0
LINE
8
DEFAULT_255_2_778
10
18.2454002
20
96.5348793
11
18.2454002
21
99.0422793
0
LINE
8
DEFAULT_255_2_778
10
18.2454002
20
99.0422793
11
19.0283002
21
99.0422793
0
LINE
8
DEFAULT_255_2_778
10
19.0283002
20
99.0422793
11
19.8586002
21
97.3634793
0
LINE
8
DEFAULT_255_2_778
10
19.8586002
20
97.3634793
11
19.8586002
21
99.0422793
0
LINE
8
DEFAULT_255_2_778
10
19.8586002
20
99.0422793
11
20.3343002
21
99.0422793
0
LINE
8
DEFAULT_255_2_778
10
20.3343002
20
99.0422793
11
20.3343002
21
96.5348793
0
LINE
8
DEFAULT_255_2_778
10
20.3343002
20
96.5348793
11
19.5739002
21
96.5348793
0
LINE
8
DEFAULT_255_2_778
10
19.5739002
20
96.5348793
11
18.7214002
21
98.2360793
0
LINE
8
DEFAULT_255_2_778
10
18.7214002
20
98.2360793
11
18.7214002
21
96.5348793
0
LINE
8
DEFAULT_255_2_778
10
18.7214002
20
96.5348793
11
18.2454002
21
96.5348793
0
LINE
8
DEFAULT_255_2_778
10
20.8143002
20
96.5752793
11
20.8143002
21
97.0700793
0
LINE
8
DEFAULT_255_2_778
10
22.3748002
20
99.0057793
11
22.4346002
21
98.9951793
0
LINE
8
DEFAULT_255_2_778
10
22.4346002
20
98.9951793
11
22.4346002
21
98.5189793
0
LINE
8
DEFAULT_255_2_778
10
20.8124002
20
96.5758793
11
20.8143002
21
96.5752793
0
LINE
8
DEFAULT_255_1_234
10
8.6689023
20
94.7684849
11
8.5138897
21
94.7684849
0
LINE
8
DEFAULT_255_1_234
10
7.8215539
20
94.2761394
11
7.9765665
21
94.2761394
0
ARC
8
DEFAULT_255_1_234
10
8.579771
20
95.6631768
40
1.252368
50
248.9199003
51
254.1439814
0
ARC
8
DEFAULT_255_1_234
10
8.4117205
20
95.2305234
40
0.788226
50
241.633709
51
249.0064503
0
ARC
8
DEFAULT_255_1_234
10
8.25886
20
94.9504317
40
0.4691427
50
230.498225
51
241.8087113
0
ARC
8
DEFAULT_255_1_234
10
8.1804174
20
94.8504906
40
0.3421437
50
227.4064532
51
229.9881192
0
ARC
8
DEFAULT_255_1_234
10
8.1316694
20
94.8029088
40
0.2741476
50
200.6781896
51
228.1763934
0
ARC
8
DEFAULT_255_1_234
10
8.1389005
20
94.8014077
40
0.2804109
50
179.5061581
51
199.8694617
0
ARC
8
DEFAULT_255_1_234
10
8.1379757
20
94.808821
40
0.2795204
50
132.4834203
51
181.0242172
0
ARC
8
DEFAULT_255_1_234
10
8.1975339
20
94.7525704
40
0.3612768
50
129.2532479
51
133.4242687
0
ARC
8
DEFAULT_255_1_234
10
8.2121789
20
94.7305965
40
0.3875675
50
101.98776
51
128.8742646
0
ARC
8
DEFAULT_255_1_234
10
8.2520399
20
94.5584741
40
0.5642249
50
89.5906553
51
102.3169264
0
ARC
8
DEFAULT_255_1_234
10
8.2590891
20
94.5903148
40
0.5323783
50
77.2360837
51
90.3248275
0
ARC
8
DEFAULT_255_1_234
10
8.2797971
20
94.68704
40
0.4334697
50
63.837784
51
77.0809408
0
ARC
8
DEFAULT_255_1_234
10
8.3075732
20
94.7387911
40
0.3747796
50
45.9864267
51
64.1607727
0
ARC
8
DEFAULT_255_1_234
10
8.3336614
20
94.7685866
40
0.3352302
50
32.2747395
51
45.6547121
0
ARC
8
DEFAULT_255_1_234
10
8.3403054
20
94.770488
40
0.328603
50
359.6507365
51
32.6130309
0
ARC
8
DEFAULT_255_1_234
10
8.246015
20
94.770966
40
0.2678863
50
359.469343
51
14.9832209
0
ARC
8
DEFAULT_255_1_234
10
8.3165212
20
94.7898539
40
0.1948938
50
14.9781179
51
48.2004265
0
ARC
8
DEFAULT_255_1_234
10
8.3000856
20
94.7691983
40
0.2212521
50
48.5927837
51
74.1241538
0
ARC
8
DEFAULT_255_1_234
10
8.2667346
20
94.6591248
40
0.3362561
50
73.7888341
51
86.6652678
0
ARC
8
DEFAULT_255_1_234
10
8.2564911
20
94.5383881
40
0.4573953
50
86.2640471
51
90.0526343
0
ARC
8
DEFAULT_255_1_234
10
8.2536624
20
94.5779192
40
0.4178709
50
89.6697524
51
99.2309573
0
ARC
8
DEFAULT_255_1_234
10
8.2294075
20
94.7223964
40
0.2713749
50
99.069534
51
113.7658566
0
ARC
8
DEFAULT_255_1_234
10
8.2020266
20
94.7869677
40
0.2012469
50
114.0401004
51
127.9850673
0
ARC
8
DEFAULT_255_1_234
10
8.177983
20
94.816573
40
0.1631167
50
127.7287463
51
176.7105154
0
ARC
8
DEFAULT_255_1_234
10
8.2458547
20
94.8064693
40
0.2315392
50
175.1779447
51
180.0581938
0
ARC
8
DEFAULT_255_1_234
10
8.1615394
20
94.8052428
40
0.1472271
50
179.6142195
51
228.1246017
0
ARC
8
DEFAULT_255_1_234
10
8.2057063
20
94.8461308
40
0.2072299
50
226.5779593
51
230.8800004
0
ARC
8
DEFAULT_255_1_234
10
8.2528141
20
94.9086636
40
0.2854818
50
231.4635071
51
241.9260842
0
ARC
8
DEFAULT_255_1_234
10
8.3725319
20
95.12898
40
0.53622
50
241.7178533
51
248.3259551
0
ARC
8
DEFAULT_255_1_234
10
8.5110691
20
95.4722064
40
0.9063478
50
248.2007737
51
252.4528373
0
ARC
8
DEFAULT_255_1_234
10
8.6314416
20
95.8443441
40
1.2974635
50
252.3391078
51
254.3469452
0
ARC
8
DEFAULT_255_1_234
10
7.8772119
20
93.1466148
40
1.5037162
50
71.0197183
51
74.4087047
0
ARC
8
DEFAULT_255_1_234
10
8.0466804
20
93.6358111
40
0.9859993
50
66.1847285
51
71.086374
0
ARC
8
DEFAULT_255_1_234
10
8.2023116
20
93.98622
40
0.6025855
50
59.3536294
51
66.2691831
0
ARC
8
DEFAULT_255_1_234
10
8.2911769
20
94.1365609
40
0.4279449
50
49.1020879
51
59.3293958
0
ARC
8
DEFAULT_255_1_234
10
8.3730509
20
94.2298834
40
0.3038015
50
32.7919921
51
49.2505539
0
ARC
8
DEFAULT_255_1_234
10
8.4051599
20
94.2527191
40
0.264448
50
31.1181161
51
32.4005348
0
ARC
8
DEFAULT_255_1_234
10
8.3963136
20
94.2491779
40
0.2738556
50
8.1116974
51
30.7958831
0
ARC
8
DEFAULT_255_1_234
10
8.3152804
20
94.2353753
40
0.3560327
50
359.8389159
51
8.4706516
0
ARC
8
DEFAULT_255_1_234
10
8.3778596
20
94.2305137
40
0.2934776
50
337.4731098
51
0.7537279
0
ARC
8
DEFAULT_255_1_234
10
8.3957291
20
94.2285387
40
0.2762607
50
307.5917067
51
336.4315538
0
ARC
8
DEFAULT_255_1_234
10
8.3497119
20
94.2798102
40
0.3449979
50
307.6551545
51
308.4529766
0
ARC
8
DEFAULT_255_1_234
10
8.3266838
20
94.315325
40
0.3871988
50
284.3734338
51
307.1424381
0
ARC
8
DEFAULT_255_1_234
10
8.2771668
20
94.4974932
40
0.5759636
50
272.4382747
51
284.646547
0
ARC
8
DEFAULT_255_1_234
10
8.2644876
20
94.6774893
40
0.7563528
50
269.9708387
51
272.8178037
0
ARC
8
DEFAULT_255_1_234
10
8.2601916
20
94.4736716
40
0.5525489
50
248.2707594
51
270.4055579
0
ARC
8
DEFAULT_255_1_234
10
8.2547657
20
94.4546192
40
0.5328452
50
246.1383403
51
248.0542782
0
ARC
8
DEFAULT_255_1_234
10
8.2129036
20
94.3666843
40
0.4355005
50
233.1670131
51
246.4950969
0
ARC
8
DEFAULT_255_1_234
10
8.1574941
20
94.2918812
40
0.3424126
50
215.3403242
51
233.0843104
0
ARC
8
DEFAULT_255_1_234
10
8.1302372
20
94.2720549
40
0.3087104
50
179.2419209
51
215.2648451
0
ARC
8
DEFAULT_255_1_234
10
8.2069966
20
94.2734666
40
0.2304457
50
179.335461
51
199.1045811
0
ARC
8
DEFAULT_255_1_234
10
8.1737643
20
94.2647766
40
0.1962176
50
199.8828939
51
232.7063202
0
ARC
8
DEFAULT_255_1_234
10
8.2209911
20
94.3241788
40
0.2720938
50
232.3738199
51
255.5136649
0
ARC
8
DEFAULT_255_1_234
10
8.2550778
20
94.4485835
40
0.4010747
50
255.2446292
51
267.5320849
0
ARC
8
DEFAULT_255_1_234
10
8.2638401
20
94.5718702
40
0.5246356
50
267.1557994
51
270.0286766
0
ARC
8
DEFAULT_255_1_234
10
8.2666173
20
94.527495
40
0.4802668
50
269.7000017
51
278.1660162
0
ARC
8
DEFAULT_255_1_234
10
8.2922178
20
94.3544515
40
0.3053425
50
278.0231263
51
290.625471
0
ARC
8
DEFAULT_255_1_234
10
8.3269865
20
94.2617025
40
0.206291
50
290.6619762
51
307.0370976
0
ARC
8
DEFAULT_255_1_234
10
8.3570254
20
94.2248504
40
0.1587906
50
306.3943566
51
355.3030547
0
ARC
8
DEFAULT_255_1_234
10
8.3058186
20
94.2325113
40
0.2104809
50
354.3660432
51
0.0698737
0
ARC
8
DEFAULT_255_1_234
10
8.3200531
20
94.2347617
40
0.1962563
50
359.417946
51
16.1971788
0
ARC
8
DEFAULT_255_1_234
10
8.3655841
20
94.2472418
40
0.149053
50
16.4723299
51
52.6262157
0
ARC
8
DEFAULT_255_1_234
10
8.2834895
20
94.1388433
40
0.2850296
50
52.7386432
51
62.4979148
0
ARC
8
DEFAULT_255_1_234
10
8.1449972
20
93.8782283
40
0.5801521
50
62.2515216
51
68.1220564
0
ARC
8
DEFAULT_255_1_234
10
7.9729883
20
93.4554872
40
1.0365451
50
68.0062803
51
71.8053402
0
ARC
8
DEFAULT_255_1_234
10
7.7934255
20
92.9169758
40
1.6042013
50
71.7183119
51
73.9258742
0
LINE
8
DEFAULT_255_1_234
10
9.0343464
20
95.1066211
11
9.0343464
21
93.9372
0
LINE
8
DEFAULT_255_1_234
10
9.0343464
20
93.9372
11
8.880137
21
93.9372
0
LINE
8
DEFAULT_255_1_234
10
8.880137
20
93.9372
11
8.880137
21
95.1066211
0
LINE
8
DEFAULT_255_1_234
10
8.880137
20
95.1066211
11
9.0343464
21
95.1066211
0
LINE
8
DEFAULT_255_1_234
10
9.3162604
20
95.1066211
11
9.5154475
21
95.1066211
0
LINE
8
DEFAULT_255_1_234
10
9.5154475
20
95.1066211
11
9.8977583
21
94.1524506
0
LINE
8
DEFAULT_255_1_234
10
9.8977583
20
94.1524506
11
10.280069
21
95.1066211
0
LINE
8
DEFAULT_255_1_234
10
10.280069
20
95.1066211
11
10.4800593
21
95.1066211
0
LINE
8
DEFAULT_255_1_234
10
10.4800593
20
95.1066211
11
10.4800593
21
93.9372
0
LINE
8
DEFAULT_255_1_234
10
10.4800593
20
93.9372
11
10.3258499
21
93.9372
0
LINE
8
DEFAULT_255_1_234
10
10.3258499
20
93.9372
11
10.3258499
21
94.3925996
0
LINE
8
DEFAULT_255_1_234
10
10.3258499
20
94.3925996
11
10.340307
21
94.8841419
0
LINE
8
DEFAULT_255_1_234
10
10.340307
20
94.8841419
11
9.9563899
21
93.9372
0
LINE
8
DEFAULT_255_1_234
10
9.9563899
20
93.9372
11
9.8383234
21
93.9372
0
LINE
8
DEFAULT_255_1_234
10
9.8383234
20
93.9372
11
9.4552095
21
94.8817324
0
LINE
8
DEFAULT_255_1_234
10
9.4552095
20
94.8817324
11
9.4704698
21
94.3925996
0
LINE
8
DEFAULT_255_1_234
10
9.4704698
20
94.3925996
11
9.4704698
21
93.9372
0
LINE
8
DEFAULT_255_1_234
10
9.4704698
20
93.9372
11
9.3162604
21
93.9372
0
LINE
8
DEFAULT_255_1_234
10
9.3162604
20
93.9372
11
9.3162604
21
95.1066211
0
LINE
8
DEFAULT_255_1_234
10
11.5241853
20
93.9372
11
11.4125441
21
94.2424061
0
LINE
8
DEFAULT_255_1_234
10
11.4125441
20
94.2424061
11
10.9226081
21
94.2424061
0
LINE
8
DEFAULT_255_1_234
10
10.9226081
20
94.2424061
11
10.8125732
21
93.9372
0
LINE
8
DEFAULT_255_1_234
10
10.8125732
20
93.9372
11
10.6535448
21
93.9372
0
LINE
8
DEFAULT_255_1_234
10
10.6535448
20
93.9372
11
11.1001095
21
95.1066211
0
LINE
8
DEFAULT_255_1_234
10
11.1001095
20
95.1066211
11
11.2350427
21
95.1066211
0
LINE
8
DEFAULT_255_1_234
10
11.2350427
20
95.1066211
11
11.6824105
21
93.9372
0
LINE
8
DEFAULT_255_1_234
10
11.6824105
20
93.9372
11
11.5241853
21
93.9372
0
LINE
8
DEFAULT_255_1_234
10
11.1675761
20
94.9162689
11
10.9691921
21
94.3693075
0
LINE
8
DEFAULT_255_1_234
10
10.9691921
20
94.3693075
11
11.3667632
21
94.3693075
0
LINE
8
DEFAULT_255_1_234
10
11.3667632
20
94.3693075
11
11.1675761
21
94.9162689
0
LINE
8
DEFAULT_255_1_234
10
12.544216
20
95.1066211
11
12.544216
21
94.9797196
0
LINE
8
DEFAULT_255_1_234
10
12.544216
20
94.9797196
11
12.1683307
21
94.9797196
0
LINE
8
DEFAULT_255_1_234
10
12.1683307
20
94.9797196
11
12.1683307
21
93.9372
0
LINE
8
DEFAULT_255_1_234
10
12.1683307
20
93.9372
11
12.0149245
21
93.9372
0
LINE
8
DEFAULT_255_1_234
10
12.0149245
20
93.9372
11
12.0149245
21
94.9797196
0
LINE
8
DEFAULT_255_1_234
10
12.0149245
20
94.9797196
11
11.6398423
21
94.9797196
0
LINE
8
DEFAULT_255_1_234
10
11.6398423
20
94.9797196
11
11.6398423
21
95.1066211
0
LINE
8
DEFAULT_255_1_234
10
11.6398423
20
95.1066211
11
12.544216
21
95.1066211
0
LINE
8
DEFAULT_255_1_234
10
12.8831554
20
95.1066211
11
12.8831554
21
93.9372
0
LINE
8
DEFAULT_255_1_234
10
12.8831554
20
93.9372
11
12.728946
21
93.9372
0
LINE
8
DEFAULT_255_1_234
10
12.728946
20
93.9372
11
12.728946
21
95.1066211
0
LINE
8
DEFAULT_255_1_234
10
12.728946
20
95.1066211
11
12.8831554
21
95.1066211
0
LINE
8
DEFAULT_255_1_234
10
13.870256
20
94.3082663
11
14.0252686
21
94.3082663
0
LINE
8
DEFAULT_255_1_234
10
13.1249107
20
94.4672947
11
13.1249107
21
94.5797391
0
LINE
8
DEFAULT_255_1_234
10
14.0252686
20
94.7307357
11
13.870256
21
94.7307357
0
LINE
8
DEFAULT_255_1_234
10
13.2799232
20
94.5757232
11
13.2799232
21
94.4624757
0
ARC
8
DEFAULT_255_1_234
10
13.4772072
20
94.3679846
40
0.5513052
50
340.1774281
51
353.7814284
0
ARC
8
DEFAULT_255_1_234
10
13.6343425
20
94.3094582
40
0.3836379
50
311.4558989
51
340.4421614
0
ARC
8
DEFAULT_255_1_234
10
13.6310093
20
94.3205528
40
0.3941894
50
282.4333181
51
310.7513653
0
ARC
8
DEFAULT_255_1_234
10
13.5870832
20
94.5020679
40
0.5809175
50
269.9358511
51
282.809604
0
ARC
8
DEFAULT_255_1_234
10
13.5818899
20
94.6478212
40
0.7266847
50
270.0021091
51
270.3581957
0
ARC
8
DEFAULT_255_1_234
10
13.5766315
20
94.3877585
40
0.4666519
50
250.7884749
51
270.6489167
0
ARC
8
DEFAULT_255_1_234
10
13.559815
20
94.3240319
40
0.4009729
50
219.3627325
51
250.0611886
0
ARC
8
DEFAULT_255_1_234
10
13.6427361
20
94.3945042
40
0.5097822
50
193.5479632
51
219.5756669
0
ARC
8
DEFAULT_255_1_234
10
13.8798982
20
94.4560919
40
0.7547848
50
181.1218675
51
193.87563
0
ARC
8
DEFAULT_255_1_234
10
14.0869163
20
94.467158
40
0.9620055
50
179.9918545
51
181.5394234
0
ARC
8
DEFAULT_255_1_234
10
13.9018265
20
94.5834788
40
0.7769248
50
169.5837241
51
180.2757934
0
ARC
8
DEFAULT_255_1_234
10
13.7181203
20
94.6174229
40
0.590109
50
155.0365899
51
169.6003176
0
ARC
8
DEFAULT_255_1_234
10
13.6045667
20
94.6721677
40
0.4640625
50
136.783148
51
155.2472683
0
ARC
8
DEFAULT_255_1_234
10
13.5656144
20
94.7052562
40
0.4130255
50
121.7633186
51
136.428115
0
ARC
8
DEFAULT_255_1_234
10
13.5791106
20
94.6803227
40
0.4413323
50
95.6459699
51
121.5490577
0
ARC
8
DEFAULT_255_1_234
10
13.5948388
20
94.5694949
40
0.55319
50
89.924208
51
96.1377933
0
ARC
8
DEFAULT_255_1_234
10
13.5998821
20
94.5813542
40
0.5413475
50
76.6779277
51
90.4563316
0
ARC
8
DEFAULT_255_1_234
10
13.6392444
20
94.7404114
40
0.3775041
50
47.485847
51
76.9287264
0
ARC
8
DEFAULT_255_1_234
10
13.6245417
20
94.7304159
40
0.3948286
50
16.5424086
51
46.8933463
0
ARC
8
DEFAULT_255_1_234
10
13.4637574
20
94.6775861
40
0.564021
50
5.4072051
51
17.0365086
0
ARC
8
DEFAULT_255_1_234
10
13.3198591
20
94.6544679
40
0.5556559
50
7.8891745
51
15.9239216
0
ARC
8
DEFAULT_255_1_234
10
13.5185605
20
94.7121631
40
0.3487515
50
15.7653144
51
27.9410532
0
ARC
8
DEFAULT_255_1_234
10
13.6289822
20
94.771279
40
0.2235026
50
27.8166557
51
46.4008329
0
ARC
8
DEFAULT_255_1_234
10
13.6339465
20
94.7707082
40
0.2205286
50
47.4371857
51
75.0698205
0
ARC
8
DEFAULT_255_1_234
10
13.603086
20
94.6632765
40
0.3322915
50
74.7008593
51
87.8124495
0
ARC
8
DEFAULT_255_1_234
10
13.5957547
20
94.5576844
40
0.4380987
50
87.3814673
51
90.0240855
0
ARC
8
DEFAULT_255_1_234
10
13.5919091
20
94.6754291
40
0.3203749
50
89.3451631
51
108.5745436
0
ARC
8
DEFAULT_255_1_234
10
13.5782196
20
94.7267908
40
0.2673494
50
109.2998449
51
143.3037509
0
ARC
8
DEFAULT_255_1_234
10
13.6544268
20
94.6681881
40
0.3634757
50
143.0753173
51
163.1916937
0
ARC
8
DEFAULT_255_1_234
10
13.8495996
20
94.6065967
40
0.5681262
50
162.9373603
51
174.6208611
0
ARC
8
DEFAULT_255_1_234
10
14.1122038
20
94.577801
40
0.8322832
50
174.3419979
51
180.1430411
0
ARC
8
DEFAULT_255_1_234
10
14.0191194
20
94.4583698
40
0.7392076
50
179.6817502
51
189.150529
0
ARC
8
DEFAULT_255_1_234
10
13.7690443
20
94.416719
40
0.4856932
50
188.9910863
51
203.5773039
0
ARC
8
DEFAULT_255_1_234
10
13.6610775
20
94.3719211
40
0.3688271
50
203.9077269
51
215.1312379
0
ARC
8
DEFAULT_255_1_234
10
13.5687869
20
94.3003941
40
0.2522457
50
213.9071664
51
263.8849284
0
ARC
8
DEFAULT_255_1_234
10
13.5813198
20
94.3788518
40
0.3316174
50
263.1758525
51
270.1031083
0
ARC
8
DEFAULT_255_1_234
10
13.584529
20
94.5035365
40
0.4563091
50
269.6719807
51
279.0609165
0
ARC
8
DEFAULT_255_1_234
10
13.6112058
20
94.3422907
40
0.2928759
50
278.8750225
51
293.6346586
0
ARC
8
DEFAULT_255_1_234
10
13.6432266
20
94.26709
40
0.2111472
50
293.8553404
51
310.0518804
0
ARC
8
DEFAULT_255_1_234
10
13.643712
20
94.2608516
40
0.2060917
50
311.0646779
51
332.0108348
0
ARC
8
DEFAULT_255_1_234
10
13.5244847
20
94.3265978
40
0.3422352
50
331.6588543
51
343.2878891
0
ARC
8
DEFAULT_255_1_234
10
13.3182362
20
94.3899798
40
0.5580003
50
343.1446044
51
351.010618
0
ARC
8
DEFAULT_255_1_234
10
13.1641008
20
94.4180871
40
0.7146438
50
350.7157277
51
351.1602153
0
LINE
8
DEFAULT_255_1_234
10
15.4187751
20
94.7684849
11
15.2637626
21
94.7684849
0
LINE
8
DEFAULT_255_1_234
10
14.5714268
20
94.2761394
11
14.7264393
21
94.2761394
0
ARC
8
DEFAULT_255_1_234
10
15.3296439
20
95.6631768
40
1.252368
50
248.9199003
51
254.1439814
0
ARC
8
DEFAULT_255_1_234
10
15.1615934
20
95.2305234
40
0.788226
50
241.633709
51
249.0064503
0
ARC
8
DEFAULT_255_1_234
10
15.0087328
20
94.9504317
40
0.4691427
50
230.498225
51
241.8087113
0
ARC
8
DEFAULT_255_1_234
10
14.9302902
20
94.8504906
40
0.3421437
50
227.4064532
51
229.9881192
0
ARC
8
DEFAULT_255_1_234
10
14.8815423
20
94.8029088
40
0.2741476
50
200.6781896
51
228.1763934
0
ARC
8
DEFAULT_255_1_234
10
14.8887734
20
94.8014077
40
0.2804109
50
179.5061581
51
199.8694617
0
ARC
8
DEFAULT_255_1_234
10
14.8878485
20
94.808821
40
0.2795204
50
132.4834203
51
181.0242172
0
ARC
8
DEFAULT_255_1_234
10
14.9474068
20
94.7525704
40
0.3612768
50
129.2532479
51
133.4242687
0
ARC
8
DEFAULT_255_1_234
10
14.9620517
20
94.7305965
40
0.3875675
50
101.98776
51
128.8742646
0
ARC
8
DEFAULT_255_1_234
10
15.0019128
20
94.5584741
40
0.5642249
50
89.5906553
51
102.3169264
0
ARC
8
DEFAULT_255_1_234
10
15.008962
20
94.5903148
40
0.5323783
50
77.2360837
51
90.3248275
0
ARC
8
DEFAULT_255_1_234
10
15.0296699
20
94.68704
40
0.4334697
50
63.837784
51
77.0809408
0
ARC
8
DEFAULT_255_1_234
10
15.0574461
20
94.7387911
40
0.3747796
50
45.9864267
51
64.1607727
0
ARC
8
DEFAULT_255_1_234
10
15.0835342
20
94.7685866
40
0.3352302
50
32.2747395
51
45.6547121
0
ARC
8
DEFAULT_255_1_234
10
15.0901783
20
94.770488
40
0.328603
50
359.6507365
51
32.6130309
0
ARC
8
DEFAULT_255_1_234
10
14.9958878
20
94.770966
40
0.2678863
50
359.469343
51
14.9832209
0
ARC
8
DEFAULT_255_1_234
10
15.0663941
20
94.7898539
40
0.1948938
50
14.9781179
51
48.2004265
0
ARC
8
DEFAULT_255_1_234
10
15.0499585
20
94.7691983
40
0.2212521
50
48.5927837
51
74.1241538
0
ARC
8
DEFAULT_255_1_234
10
15.0166074
20
94.6591248
40
0.3362561
50
73.7888341
51
86.6652678
0
ARC
8
DEFAULT_255_1_234
10
15.006364
20
94.5383881
40
0.4573953
50
86.2640471
51
90.0526343
0
ARC
8
DEFAULT_255_1_234
10
15.0035352
20
94.5779192
40
0.4178709
50
89.6697524
51
99.2309573
0
ARC
8
DEFAULT_255_1_234
10
14.9792803
20
94.7223964
40
0.2713749
50
99.069534
51
113.7658566
0
ARC
8
DEFAULT_255_1_234
10
14.9518994
20
94.7869677
40
0.2012469
50
114.0401004
51
127.9850673
0
ARC
8
DEFAULT_255_1_234
10
14.9278558
20
94.816573
40
0.1631167
50
127.7287463
51
176.7105154
0
ARC
8
DEFAULT_255_1_234
10
14.9957276
20
94.8064693
40
0.2315392
50
175.1779447
51
180.0581938
0
ARC
8
DEFAULT_255_1_234
10
14.9114123
20
94.8052428
40
0.1472271
50
179.6142195
51
228.1246017
0
ARC
8
DEFAULT_255_1_234
10
14.9555791
20
94.8461308
40
0.2072299
50
226.5779593
51
230.8800004
0
ARC
8
DEFAULT_255_1_234
10
15.002687
20
94.9086636
40
0.2854818
50
231.4635071
51
241.9260842
0
ARC
8
DEFAULT_255_1_234
10
15.1224048
20
95.12898
40
0.53622
50
241.7178533
51
248.3259551
0
ARC
8
DEFAULT_255_1_234
10
15.260942
20
95.4722064
40
0.9063478
50
248.2007737
51
252.4528373
0
ARC
8
DEFAULT_255_1_234
10
15.3813145
20
95.8443441
40
1.2974635
50
252.3391078
51
254.3469452
0
ARC
8
DEFAULT_255_1_234
10
14.6270847
20
93.1466148
40
1.5037162
50
71.0197183
51
74.4087047
0
ARC
8
DEFAULT_255_1_234
10
14.7965532
20
93.6358111
40
0.9859993
50
66.1847285
51
71.086374
0
ARC
8
DEFAULT_255_1_234
10
14.9521845
20
93.98622
40
0.6025855
50
59.3536294
51
66.2691831
0
ARC
8
DEFAULT_255_1_234
10
15.0410497
20
94.1365609
40
0.4279449
50
49.1020879
51
59.3293958
0
ARC
8
DEFAULT_255_1_234
10
15.1229237
20
94.2298834
40
0.3038015
50
32.7919921
51
49.2505539
0
ARC
8
DEFAULT_255_1_234
10
15.1550327
20
94.2527191
40
0.264448
50
31.1181161
51
32.4005348
0
ARC
8
DEFAULT_255_1_234
10
15.1461865
20
94.2491779
40
0.2738556
50
8.1116974
51
30.7958831
0
ARC
8
DEFAULT_255_1_234
10
15.0651533
20
94.2353753
40
0.3560327
50
359.8389159
51
8.4706516
0
ARC
8
DEFAULT_255_1_234
10
15.1277324
20
94.2305137
40
0.2934776
50
337.4731098
51
0.7537279
0
ARC
8
DEFAULT_255_1_234
10
15.1456019
20
94.2285387
40
0.2762607
50
307.5917067
51
336.4315538
0
ARC
8
DEFAULT_255_1_234
10
15.0995847
20
94.2798102
40
0.3449979
50
307.6551545
51
308.4529766
0
ARC
8
DEFAULT_255_1_234
10
15.0765566
20
94.315325
40
0.3871988
50
284.3734338
51
307.1424381
0
ARC
8
DEFAULT_255_1_234
10
15.0270396
20
94.4974932
40
0.5759636
50
272.4382747
51
284.646547
0
ARC
8
DEFAULT_255_1_234
10
15.0143605
20
94.6774893
40
0.7563528
50
269.9708387
51
272.8178037
0
ARC
8
DEFAULT_255_1_234
10
15.0100645
20
94.4736716
40
0.5525489
50
248.2707594
51
270.4055579
0
ARC
8
DEFAULT_255_1_234
10
15.0046386
20
94.4546192
40
0.5328452
50
246.1383403
51
248.0542782
0
ARC
8
DEFAULT_255_1_234
10
14.9627765
20
94.3666843
40
0.4355005
50
233.1670131
51
246.4950969
0
ARC
8
DEFAULT_255_1_234
10
14.907367
20
94.2918812
40
0.3424126
50
215.3403242
51
233.0843104
0
ARC
8
DEFAULT_255_1_234
10
14.8801101
20
94.2720549
40
0.3087104
50
179.2419209
51
215.2648451
0
ARC
8
DEFAULT_255_1_234
10
14.9568695
20
94.2734666
40
0.2304457
50
179.335461
51
199.1045811
0
ARC
8
DEFAULT_255_1_234
10
14.9236371
20
94.2647766
40
0.1962176
50
199.8828939
51
232.7063202
0
ARC
8
DEFAULT_255_1_234
10
14.970864
20
94.3241788
40
0.2720938
50
232.3738199
51
255.5136649
0
ARC
8
DEFAULT_255_1_234
10
15.0049506
20
94.4485835
40
0.4010747
50
255.2446292
51
267.5320849
0
ARC
8
DEFAULT_255_1_234
10
15.013713
20
94.5718702
40
0.5246356
50
267.1557994
51
270.0286766
0
ARC
8
DEFAULT_255_1_234
10
15.0164902
20
94.527495
40
0.4802668
50
269.7000017
51
278.1660162
0
ARC
8
DEFAULT_255_1_234
10
15.0420907
20
94.3544515
40
0.3053425
50
278.0231263
51
290.625471
0
ARC
8
DEFAULT_255_1_234
10
15.0768594
20
94.2617025
40
0.206291
50
290.6619762
51
307.0370976
0
ARC
8
DEFAULT_255_1_234
10
15.1068983
20
94.2248504
40
0.1587906
50
306.3943566
51
355.3030547
0
ARC
8
DEFAULT_255_1_234
10
15.0556914
20
94.2325113
40
0.2104809
50
354.3660432
51
0.0698737
0
ARC
8
DEFAULT_255_1_234
10
15.069926
20
94.2347617
40
0.1962563
50
359.417946
51
16.1971788
0
ARC
8
DEFAULT_255_1_234
10
15.115457
20
94.2472418
40
0.149053
50
16.4723299
51
52.6262157
0
ARC
8
DEFAULT_255_1_234
10
15.0333624
20
94.1388433
40
0.2850296
50
52.7386432
51
62.4979148
0
ARC
8
DEFAULT_255_1_234
10
14.8948701
20
93.8782283
40
0.5801521
50
62.2515216
51
68.1220564
0
ARC
8
DEFAULT_255_1_234
10
14.7228612
20
93.4554872
40
1.0365451
50
68.0062803
51
71.8053402
0
ARC
8
DEFAULT_255_1_234
10
14.5432983
20
92.9169758
40
1.6042013
50
71.7183119
51
73.9258742
0
LINE
8
DEFAULT_255_1_234
10
16.3351965
20
95.1066211
11
16.3351965
21
95.023091
0
LINE
8
DEFAULT_255_1_234
10
16.3351965
20
95.023091
11
15.8508827
21
93.9372
0
LINE
8
DEFAULT_255_1_234
10
15.8508827
20
93.9372
11
15.6950669
21
93.9372
0
LINE
8
DEFAULT_255_1_234
10
15.6950669
20
93.9372
11
16.1777744
21
94.9845387
0
LINE
8
DEFAULT_255_1_234
10
16.1777744
20
94.9845387
11
15.5448734
21
94.9845387
0
LINE
8
DEFAULT_255_1_234
10
15.5448734
20
94.9845387
11
15.5448734
21
95.1066211
0
LINE
8
DEFAULT_255_1_234
10
15.5448734
20
95.1066211
11
16.3351965
21
95.1066211
0
LINE
8
DEFAULT_255_1_234
10
16.8283452
20
94.4946026
11
16.8283452
21
94.3733234
0
LINE
8
DEFAULT_255_1_234
10
16.8283452
20
94.3733234
11
16.4363964
21
94.3733234
0
LINE
8
DEFAULT_255_1_234
10
16.4363964
20
94.3733234
11
16.4363964
21
94.4946026
0
LINE
8
DEFAULT_255_1_234
10
16.4363964
20
94.4946026
11
16.8283452
21
94.4946026
0
LINE
8
DEFAULT_255_1_234
10
17.4459859
20
95.1122433
11
17.4459859
21
93.9372
0
LINE
8
DEFAULT_255_1_234
10
17.4459859
20
93.9372
11
17.2965956
21
93.9372
0
LINE
8
DEFAULT_255_1_234
10
17.2965956
20
93.9372
11
17.2965956
21
94.9275133
0
LINE
8
DEFAULT_255_1_234
10
17.2965956
20
94.9275133
11
16.9970117
21
94.8174785
0
LINE
8
DEFAULT_255_1_234
10
16.9970117
20
94.8174785
11
16.9970117
21
94.9524117
0
LINE
8
DEFAULT_255_1_234
10
16.9970117
20
94.9524117
11
17.4226938
21
95.1122433
0
LINE
8
DEFAULT_255_1_234
10
17.4226938
20
95.1122433
11
17.4459859
21
95.1122433
0
LINE
8
DEFAULT_255_1_234
10
18.6475339
20
94.0584792
11
18.6475339
21
93.9372
0
LINE
8
DEFAULT_255_1_234
10
18.6475339
20
93.9372
11
17.8813061
21
93.9372
0
LINE
8
DEFAULT_255_1_234
10
17.8813061
20
93.9372
11
17.8813061
21
94.0440221
0
LINE
8
DEFAULT_255_1_234
10
17.8813061
20
94.0440221
11
18.2861057
21
94.4937995
0
LINE
8
DEFAULT_255_1_234
10
18.0074044
20
94.7620595
11
17.8588172
21
94.7620595
0
LINE
8
DEFAULT_255_1_234
10
18.3736517
20
94.3982218
11
18.0604139
21
94.0584792
0
LINE
8
DEFAULT_255_1_234
10
18.0604139
20
94.0584792
11
18.6475339
21
94.0584792
0
ARC
8
DEFAULT_255_1_234
10
16.937089
20
95.6867527
40
1.8008286
50
318.5132453
51
320.7828378
0
ARC
8
DEFAULT_255_1_234
10
17.4657865
20
95.2564426
40
1.1191493
50
320.7372736
51
323.9737074
0
ARC
8
DEFAULT_255_1_234
10
17.8577721
20
94.9724361
40
0.6350923
50
323.8961724
51
328.6421089
0
ARC
8
DEFAULT_255_1_234
10
18.0624317
20
94.8462031
40
0.3946393
50
328.8299013
51
331.789948
0
ARC
8
DEFAULT_255_1_234
10
18.1621495
20
94.7947509
40
0.2824501
50
331.4255242
51
352.9364833
0
ARC
8
DEFAULT_255_1_234
10
18.1757996
20
94.7916976
40
0.2685315
50
353.2248685
51
0.0169286
0
ARC
8
DEFAULT_255_1_234
10
18.1967873
20
94.793995
40
0.2475536
50
359.4866256
51
15.9339782
0
ARC
8
DEFAULT_255_1_234
10
18.2474858
20
94.8076286
40
0.1950618
50
16.1714718
51
43.5284424
0
ARC
8
DEFAULT_255_1_234
10
18.2552166
20
94.8153573
40
0.184134
50
43.4415429
51
83.1661404
0
ARC
8
DEFAULT_255_1_234
10
18.2418085
20
94.7416771
40
0.258926
50
82.160215
51
90.1505798
0
ARC
8
DEFAULT_255_1_234
10
18.2386512
20
94.6879865
40
0.3126255
50
89.5460705
51
102.5418777
0
ARC
8
DEFAULT_255_1_234
10
18.2143598
20
94.7910665
40
0.2067346
50
102.1739365
51
129.2061916
0
ARC
8
DEFAULT_255_1_234
10
18.206467
20
94.8035094
40
0.1921118
50
129.7279328
51
135.7542026
0
ARC
8
DEFAULT_255_1_234
10
18.2186197
20
94.7938045
40
0.2075944
50
136.175737
51
166.3674722
0
ARC
8
DEFAULT_255_1_234
10
18.3193117
20
94.7668182
40
0.3118201
50
165.9092917
51
178.8683903
0
ARC
8
DEFAULT_255_1_234
10
18.4057978
20
94.7621179
40
0.3983935
50
178.438168
51
180.0083905
0
ARC
8
DEFAULT_255_1_234
10
18.265658
20
94.7660231
40
0.4068601
50
163.2878735
51
180.5581814
0
ARC
8
DEFAULT_255_1_234
10
18.1854841
20
94.788084
40
0.3237344
50
133.454115
51
162.9470031
0
ARC
8
DEFAULT_255_1_234
10
18.2033383
20
94.7691
40
0.349795
50
100.7869394
51
133.4384016
0
ARC
8
DEFAULT_255_1_234
10
18.2381154
20
94.6142319
40
0.5084616
50
89.6605301
51
101.3704185
0
ARC
8
DEFAULT_255_1_234
10
18.2447493
20
94.6203496
40
0.502348
50
78.2171172
51
90.4130393
0
ARC
8
DEFAULT_255_1_234
10
18.2802571
20
94.7827637
40
0.3361092
50
55.9268222
51
78.4888551
0
ARC
8
DEFAULT_255_1_234
10
18.2999012
20
94.8166324
40
0.2970617
50
47.9292255
51
55.4054003
0
ARC
8
DEFAULT_255_1_234
10
18.3100572
20
94.8269502
40
0.2825983
50
4.3347696
51
48.0560701
0
ARC
8
DEFAULT_255_1_234
10
18.2004966
20
94.8099601
40
0.393225
50
359.925209
51
5.5967654
0
ARC
8
DEFAULT_255_1_234
10
18.2433858
20
94.8155816
40
0.3503892
50
337.8914096
51
358.9967724
0
ARC
8
DEFAULT_255_1_234
10
17.972027
20
94.9202706
40
0.6412172
50
326.9135351
51
338.3505194
0
ARC
8
DEFAULT_255_1_234
10
17.5734574
20
95.1757284
40
1.1146189
50
319.6472867
51
327.095818
0
ARC
8
DEFAULT_255_1_234
10
17.1901577
20
95.4919
40
1.6114559
50
317.2586784
51
319.9046139
0
LINE
8
DEFAULT_255_1_234
10
19.5382537
20
94.6287327
11
19.5382537
21
94.4359709
0
LINE
8
DEFAULT_255_1_234
10
18.800137
20
94.4158916
11
18.800137
21
94.6142755
0
LINE
8
DEFAULT_255_1_234
10
19.3896666
20
94.3958123
11
19.3896666
21
94.6391739
0
LINE
8
DEFAULT_255_1_234
10
18.9487241
20
94.6504184
11
18.9487241
21
94.4126789
0
ARC
8
DEFAULT_255_1_234
10
18.3135427
20
94.4310805
40
1.2247208
50
353.8441951
51
0.2287902
0
ARC
8
DEFAULT_255_1_234
10
18.777493
20
94.3792806
40
0.7578929
50
344.4934747
51
353.9765454
0
ARC
8
DEFAULT_255_1_234
10
19.0767521
20
94.2941981
40
0.4467846
50
329.2803592
51
344.7472793
0
ARC
8
DEFAULT_255_1_234
10
19.1760345
20
94.2397018
40
0.3336173
50
324.9352394
51
328.6160465
0
ARC
8
DEFAULT_255_1_234
10
19.2137454
20
94.2133427
40
0.2876076
50
280.580143
51
324.9173126
0
ARC
8
DEFAULT_255_1_234
10
19.1736247
20
94.3804099
40
0.4592847
50
269.5977311
51
281.6734359
0
ARC
8
DEFAULT_255_1_234
10
19.1664152
20
94.3684173
40
0.4472986
50
256.6228859
51
270.51044
0
ARC
8
DEFAULT_255_1_234
10
19.126213
20
94.2135877
40
0.2873874
50
215.8618325
51
257.2788573
0
ARC
8
DEFAULT_255_1_234
10
19.2283162
20
94.2820977
40
0.4102928
50
197.9693508
51
215.2623606
0
ARC
8
DEFAULT_255_1_234
10
19.4768277
20
94.3659709
40
0.6725652
50
187.8816417
51
198.2346507
0
ARC
8
DEFAULT_255_1_234
10
19.8726486
20
94.4231079
40
1.0724845
50
180.8976217
51
188.0055519
0
ARC
8
DEFAULT_255_1_234
10
20.1526674
20
94.4334777
40
1.3526448
50
180.7449369
51
181.1510016
0
ARC
8
DEFAULT_255_1_234
10
19.9949403
20
94.6191042
40
1.1948131
50
173.7675579
51
180.231553
0
ARC
8
DEFAULT_255_1_234
10
19.5431549
20
94.6701666
40
0.7401564
50
164.3058563
51
173.9002247
0
ARC
8
DEFAULT_255_1_234
10
19.2519618
20
94.7540656
40
0.4371288
50
148.7922025
51
164.568378
0
ARC
8
DEFAULT_255_1_234
10
19.156807
20
94.8071929
40
0.3282386
50
144.5883898
51
148.1176286
0
ARC
8
DEFAULT_255_1_234
10
19.1224968
20
94.8311315
40
0.2864044
50
101.6440918
51
144.514236
0
ARC
8
DEFAULT_255_1_234
10
19.1650035
20
94.6622069
40
0.4604934
50
89.5284041
51
102.5819763
0
ARC
8
DEFAULT_255_1_234
10
19.1729123
20
94.6583018
40
0.464401
50
77.0437873
51
90.5081339
0
ARC
8
DEFAULT_255_1_234
10
19.2131125
20
94.8225615
40
0.2953195
50
48.2778575
51
77.4994676
0
ARC
8
DEFAULT_255_1_234
10
19.2203756
20
94.8354746
40
0.2808655
50
36.3142134
51
47.6305865
0
ARC
8
DEFAULT_255_1_234
10
19.1335063
20
94.7769515
40
0.3855453
50
18.2931786
51
35.6769206
0
ARC
8
DEFAULT_255_1_234
10
18.8791822
20
94.6896593
40
0.654423
50
8.024666
51
18.5605216
0
ARC
8
DEFAULT_255_1_234
10
18.4628742
20
94.6281792
40
1.0752407
50
1.1274072
51
8.1718305
0
ARC
8
DEFAULT_255_1_234
10
18.1392932
20
94.6154885
40
1.3990231
50
0.5424119
51
1.3863029
0
ARC
8
DEFAULT_255_1_234
10
18.321431
20
94.6427342
40
1.0682415
50
359.8090433
51
4.9407866
0
ARC
8
DEFAULT_255_1_234
10
18.7424324
20
94.6803113
40
0.6455691
50
4.8362157
51
12.2904523
0
ARC
8
DEFAULT_255_1_234
10
19.0179439
20
94.7416965
40
0.3633074
50
12.0805627
51
23.8173984
0
ARC
8
DEFAULT_255_1_234
10
19.1353144
20
94.7913919
40
0.2358723
50
24.2871213
51
31.3935614
0
ARC
8
DEFAULT_255_1_234
10
19.1877841
20
94.8257233
40
0.1732111
50
30.7407893
51
82.4657128
0
ARC
8
DEFAULT_255_1_234
10
19.1697976
20
94.7373691
40
0.263235
50
81.1060089
51
90.2184952
0
ARC
8
DEFAULT_255_1_234
10
19.1662275
20
94.7631924
40
0.2374236
50
89.3806855
51
105.6762551
0
ARC
8
DEFAULT_255_1_234
10
19.1478905
20
94.8298567
40
0.1682847
50
105.7981136
51
149.7388061
0
ARC
8
DEFAULT_255_1_234
10
19.2542984
20
94.765895
40
0.2924306
50
149.4208916
51
163.6286378
0
ARC
8
DEFAULT_255_1_234
10
19.4633872
20
94.702125
40
0.5110213
50
163.3763315
51
172.1410975
0
ARC
8
DEFAULT_255_1_234
10
19.7934591
20
94.6548518
40
0.8444586
50
172.0259487
51
178.0703232
0
ARC
8
DEFAULT_255_1_234
10
20.096468
20
94.6404906
40
1.1477868
50
177.8631668
51
179.5044149
0
ARC
8
DEFAULT_255_1_234
10
19.9892085
20
94.4090389
40
1.0404907
50
179.7995573
51
185.2460446
0
ARC
8
DEFAULT_255_1_234
10
19.5849124
20
94.3707513
40
0.6343885
50
185.1411642
51
193.0079639
0
ARC
8
DEFAULT_255_1_234
10
19.3205596
20
94.3082641
40
0.3627568
50
192.7897626
51
205.2507664
0
ARC
8
DEFAULT_255_1_234
10
19.2159143
20
94.2615415
40
0.2481908
50
205.8005384
51
211.2537509
0
ARC
8
DEFAULT_255_1_234
10
19.1635584
20
94.226458
40
0.1852521
50
210.3789793
51
238.4008143
0
ARC
8
DEFAULT_255_1_234
10
19.1616106
20
94.2311376
40
0.1882621
50
239.6520629
51
265.9793761
0
ARC
8
DEFAULT_255_1_234
10
19.1701306
20
94.2983427
40
0.2559272
50
265.1315437
51
270.060332
0
ARC
8
DEFAULT_255_1_234
10
19.1730085
20
94.2659534
40
0.2235528
50
269.3314664
51
287.2178029
0
ARC
8
DEFAULT_255_1_234
10
19.1867937
20
94.2156279
40
0.1714108
50
287.7958004
51
329.080874
0
ARC
8
DEFAULT_255_1_234
10
19.0910394
20
94.275393
40
0.2842745
50
328.6634704
51
343.3325132
0
ARC
8
DEFAULT_255_1_234
10
18.8737414
20
94.3430863
40
0.5118644
50
343.0499468
51
351.9393422
0
ARC
8
DEFAULT_255_1_234
10
18.5270714
20
94.3941949
40
0.8622784
50
351.8069023
51
357.7959224
0
ARC
8
DEFAULT_255_1_234
10
18.203527
20
94.4109721
40
1.1862365
50
357.5871873
51
359.2677531
0
LINE
8
DEFAULT_255_1_234
10
20.4619036
20
94.6287327
11
20.4619036
21
94.4359709
0
LINE
8
DEFAULT_255_1_234
10
19.7237869
20
94.4158916
11
19.7237869
21
94.6142755
0
LINE
8
DEFAULT_255_1_234
10
20.3133165
20
94.3958123
11
20.3133165
21
94.6391739
0
LINE
8
DEFAULT_255_1_234
10
19.872374
20
94.6504184
11
19.872374
21
94.4126789
0
ARC
8
DEFAULT_255_1_234
10
19.2371926
20
94.4310805
40
1.2247208
50
353.8441951
51
0.2287902
0
ARC
8
DEFAULT_255_1_234
10
19.7011429
20
94.3792806
40
0.7578929
50
344.4934747
51
353.9765454
0
ARC
8
DEFAULT_255_1_234
10
20.000402
20
94.2941981
40
0.4467846
50
329.2803592
51
344.7472793
0
ARC
8
DEFAULT_255_1_234
10
20.0996844
20
94.2397018
40
0.3336173
50
324.9352394
51
328.6160465
0
ARC
8
DEFAULT_255_1_234
10
20.1373953
20
94.2133427
40
0.2876076
50
280.580143
51
324.9173126
0
ARC
8
DEFAULT_255_1_234
10
20.0972746
20
94.3804099
40
0.4592847
50
269.5977311
51
281.6734359
0
ARC
8
DEFAULT_255_1_234
10
20.0900651
20
94.3684173
40
0.4472986
50
256.6228859
51
270.51044
0
ARC
8
DEFAULT_255_1_234
10
20.0498629
20
94.2135877
40
0.2873874
50
215.8618325
51
257.2788573
0
ARC
8
DEFAULT_255_1_234
10
20.1519661
20
94.2820977
40
0.4102928
50
197.9693508
51
215.2623606
0
ARC
8
DEFAULT_255_1_234
10
20.4004776
20
94.3659709
40
0.6725652
50
187.8816417
51
198.2346507
0
ARC
8
DEFAULT_255_1_234
10
20.7962985
20
94.4231079
40
1.0724845
50
180.8976217
51
188.0055519
0
ARC
8
DEFAULT_255_1_234
10
21.0763173
20
94.4334777
40
1.3526448
50
180.7449369
51
181.1510016
0
ARC
8
DEFAULT_255_1_234
10
20.9185902
20
94.6191042
40
1.1948131
50
173.7675579
51
180.231553
0
ARC
8
DEFAULT_255_1_234
10
20.4668048
20
94.6701666
40
0.7401564
50
164.3058563
51
173.9002247
0
ARC
8
DEFAULT_255_1_234
10
20.1756117
20
94.7540656
40
0.4371288
50
148.7922025
51
164.568378
0
ARC
8
DEFAULT_255_1_234
10
20.0804569
20
94.8071929
40
0.3282386
50
144.5883898
51
148.1176286
0
ARC
8
DEFAULT_255_1_234
10
20.0461467
20
94.8311315
40
0.2864044
50
101.6440918
51
144.514236
0
ARC
8
DEFAULT_255_1_234
10
20.0886534
20
94.6622069
40
0.4604934
50
89.5284041
51
102.5819763
0
ARC
8
DEFAULT_255_1_234
10
20.0965622
20
94.6583018
40
0.464401
50
77.0437873
51
90.5081339
0
ARC
8
DEFAULT_255_1_234
10
20.1367624
20
94.8225615
40
0.2953195
50
48.2778575
51
77.4994676
0
ARC
8
DEFAULT_255_1_234
10
20.1440255
20
94.8354746
40
0.2808655
50
36.3142134
51
47.6305865
0
ARC
8
DEFAULT_255_1_234
10
20.0571562
20
94.7769515
40
0.3855453
50
18.2931786
51
35.6769206
0
ARC
8
DEFAULT_255_1_234
10
19.8028321
20
94.6896593
40
0.654423
50
8.024666
51
18.5605216
0
ARC
8
DEFAULT_255_1_234
10
19.3865241
20
94.6281792
40
1.0752407
50
1.1274072
51
8.1718305
0
ARC
8
DEFAULT_255_1_234
10
19.0629431
20
94.6154885
40
1.3990231
50
0.5424119
51
1.3863029
0
ARC
8
DEFAULT_255_1_234
10
19.2450809
20
94.6427342
40
1.0682415
50
359.8090433
51
4.9407866
0
ARC
8
DEFAULT_255_1_234
10
19.6660823
20
94.6803113
40
0.6455691
50
4.8362157
51
12.2904523
0
ARC
8
DEFAULT_255_1_234
10
19.9415938
20
94.7416965
40
0.3633074
50
12.0805627
51
23.8173984
0
ARC
8
DEFAULT_255_1_234
10
20.0589643
20
94.7913919
40
0.2358723
50
24.2871213
51
31.3935614
0
ARC
8
DEFAULT_255_1_234
10
20.111434
20
94.8257233
40
0.1732111
50
30.7407893
51
82.4657128
0
ARC
8
DEFAULT_255_1_234
10
20.0934475
20
94.7373691
40
0.263235
50
81.1060089
51
90.2184952
0
ARC
8
DEFAULT_255_1_234
10
20.0898774
20
94.7631924
40
0.2374236
50
89.3806855
51
105.6762551
0
ARC
8
DEFAULT_255_1_234
10
20.0715404
20
94.8298567
40
0.1682847
50
105.7981136
51
149.7388061
0
ARC
8
DEFAULT_255_1_234
10
20.1779483
20
94.765895
40
0.2924306
50
149.4208916
51
163.6286378
0
ARC
8
DEFAULT_255_1_234
10
20.3870371
20
94.702125
40
0.5110213
50
163.3763315
51
172.1410975
0
ARC
8
DEFAULT_255_1_234
10
20.717109
20
94.6548518
40
0.8444586
50
172.0259487
51
178.0703232
0
ARC
8
DEFAULT_255_1_234
10
21.0201179
20
94.6404906
40
1.1477868
50
177.8631668
51
179.5044149
0
ARC
8
DEFAULT_255_1_234
10
20.9128584
20
94.4090389
40
1.0404907
50
179.7995573
51
185.2460446
0
ARC
8
DEFAULT_255_1_234
10
20.5085623
20
94.3707513
40
0.6343885
50
185.1411642
51
193.0079639
0
ARC
8
DEFAULT_255_1_234
10
20.2442095
20
94.3082641
40
0.3627568
50
192.7897626
51
205.2507664
0
ARC
8
DEFAULT_255_1_234
10
20.1395642
20
94.2615415
40
0.2481908
50
205.8005384
51
211.2537509
0
ARC
8
DEFAULT_255_1_234
10
20.0872083
20
94.226458
40
0.1852521
50
210.3789793
51
238.4008143
0
ARC
8
DEFAULT_255_1_234
10
20.0852605
20
94.2311376
40
0.1882621
50
239.6520629
51
265.9793761
0
ARC
8
DEFAULT_255_1_234
10
20.0937805
20
94.2983427
40
0.2559272
50
265.1315437
51
270.060332
0
ARC
8
DEFAULT_255_1_234
10
20.0966584
20
94.2659534
40
0.2235528
50
269.3314664
51
287.2178029
0
ARC
8
DEFAULT_255_1_234
10
20.1104436
20
94.2156279
40
0.1714108
50
287.7958004
51
329.080874
0
ARC
8
DEFAULT_255_1_234
10
20.0146893
20
94.275393
40
0.2842745
50
328.6634704
51
343.3325132
0
ARC
8
DEFAULT_255_1_234
10
19.7973913
20
94.3430863
40
0.5118644
50
343.0499468
51
351.9393422
0
ARC
8
DEFAULT_255_1_234
10
19.4507213
20
94.3941949
40
0.8622784
50
351.8069023
51
357.7959224
0
ARC
8
DEFAULT_255_1_234
10
19.1271769
20
94.4109721
40
1.1862365
50
357.5871873
51
359.2677531
0
LINE
8
DEFAULT_255_2_778
10
19.9760417
20
84.534349
11
18.6531417
21
84.534349
0
LINE
8
DEFAULT_255_2_778
10
18.6531417
20
84.534349
11
18.6531417
21
51.461449
0
LINE
8
DEFAULT_255_2_778
10
18.6531417
20
46.169749
11
18.6531417
21
13.096849
0
LINE
8
DEFAULT_255_2_778
10
18.6531417
20
13.096849
11
19.9760417
21
13.096849
0
LINE
8
DEFAULT_255_2_778
10
17.3301834
20
51.4614333
11
19.9759834
21
51.4614333
0
LINE
8
DEFAULT_255_2_778
10
19.9759834
20
51.4614333
11
19.9759834
21
46.1697333
0
LINE
8
DEFAULT_255_2_778
10
19.9759834
20
46.1697333
11
17.3301834
21
46.1697333
0
LINE
8
DEFAULT_255_2_778
10
17.3301834
20
46.1697333
11
17.3301834
21
51.4614333
0
LINE
8
DEFAULT_255_2_778
10
18.124
20
50.6676833
11
18.124
21
46.9634833
0
ARC
8
DEFAULT_255_2_778
10
19.0491335
20
50.2716666
40
0.3960095
50
89.8710075
51
180.1289967
0
ARC
8
DEFAULT_255_2_778
10
19.050838
20
50.2716878
40
0.395988
50
359.8679252
51
90.1176342
0
ARC
8
DEFAULT_255_2_778
10
19.0508595
20
50.2699405
40
0.3959664
50
269.8792548
51
0.1207452
0
ARC
8
DEFAULT_255_2_778
10
19.0491123
20
50.2699621
40
0.3959881
50
179.8823802
51
270.1320647
0
LINE
8
DEFAULT_255_2_778
10
18.653125
20
50.270775
11
18.653125
21
50.270775
0
ARC
8
DEFAULT_255_2_778
10
19.0491335
20
47.3612666
40
0.3960095
50
89.8710075
51
180.1289967
0
ARC
8
DEFAULT_255_2_778
10
19.050838
20
47.3612878
40
0.395988
50
359.8679252
51
90.1176342
0
ARC
8
DEFAULT_255_2_778
10
19.0508595
20
47.3595405
40
0.3959664
50
269.8792548
51
0.1207452
0
ARC
8
DEFAULT_255_2_778
10
19.0491123
20
47.3595621
40
0.3959881
50
179.8823802
51
270.1320647
0
LINE
8
DEFAULT_255_2_778
10
18.653125
20
47.360375
11
18.653125
21
47.360375
0
LINE
8
DEFAULT_255_1_234
10
4.0998364
20
93.1223211
11
4.2990235
21
93.1223211
0
LINE
8
DEFAULT_255_1_234
10
4.2990235
20
93.1223211
11
4.6813342
21
92.1681506
0
LINE
8
DEFAULT_255_1_234
10
4.6813342
20
92.1681506
11
5.063645
21
93.1223211
0
LINE
8
DEFAULT_255_1_234
10
5.063645
20
93.1223211
11
5.2636353
21
93.1223211
0
LINE
8
DEFAULT_255_1_234
10
5.2636353
20
93.1223211
11
5.2636353
21
91.9529
0
LINE
8
DEFAULT_255_1_234
10
5.2636353
20
91.9529
11
5.1094259
21
91.9529
0
LINE
8
DEFAULT_255_1_234
10
5.1094259
20
91.9529
11
5.1094259
21
92.4082996
0
LINE
8
DEFAULT_255_1_234
10
5.1094259
20
92.4082996
11
5.123883
21
92.8998419
0
LINE
8
DEFAULT_255_1_234
10
5.123883
20
92.8998419
11
4.7399659
21
91.9529
0
LINE
8
DEFAULT_255_1_234
10
4.7399659
20
91.9529
11
4.6218994
21
91.9529
0
LINE
8
DEFAULT_255_1_234
10
4.6218994
20
91.9529
11
4.2387854
21
92.8974324
0
LINE
8
DEFAULT_255_1_234
10
4.2387854
20
92.8974324
11
4.2540458
21
92.4082996
0
LINE
8
DEFAULT_255_1_234
10
4.2540458
20
92.4082996
11
4.2540458
21
91.9529
0
LINE
8
DEFAULT_255_1_234
10
4.2540458
20
91.9529
11
4.0998364
21
91.9529
0
LINE
8
DEFAULT_255_1_234
10
4.0998364
20
91.9529
11
4.0998364
21
93.1223211
0
LINE
8
DEFAULT_255_1_234
10
22.8274489
20
93.1223211
11
22.8274489
21
92.0789983
0
LINE
8
DEFAULT_255_1_234
10
22.8274489
20
92.0789983
11
23.3816389
21
92.0789983
0
LINE
8
DEFAULT_255_1_234
10
23.3816389
20
92.0789983
11
23.3816389
21
91.9529
0
LINE
8
DEFAULT_255_1_234
10
23.3816389
20
91.9529
11
22.6724364
21
91.9529
0
LINE
8
DEFAULT_255_1_234
10
22.6724364
20
91.9529
11
22.6724364
21
93.1223211
0
LINE
8
DEFAULT_255_1_234
10
22.6724364
20
93.1223211
11
22.8274489
21
93.1223211
0
LINE
8
DEFAULT_255_1_234
10
23.959924
20
92.9215276
11
23.959924
21
92.5801788
0
LINE
8
DEFAULT_255_1_234
10
23.959924
20
92.5801788
11
24.2860126
21
92.5801788
0
LINE
8
DEFAULT_255_1_234
10
24.2860126
20
92.5801788
11
24.2860126
21
92.4396233
0
LINE
8
DEFAULT_255_1_234
10
24.2860126
20
92.4396233
11
23.959924
21
92.4396233
0
LINE
8
DEFAULT_255_1_234
10
23.959924
20
92.4396233
11
23.959924
21
92.0701634
0
LINE
8
DEFAULT_255_1_234
10
23.959924
20
92.0701634
11
23.8105337
21
92.0701634
0
LINE
8
DEFAULT_255_1_234
10
23.8105337
20
92.0701634
11
23.8105337
21
92.4396233
0
LINE
8
DEFAULT_255_1_234
10
23.8105337
20
92.4396233
11
23.4844451
21
92.4396233
0
LINE
8
DEFAULT_255_1_234
10
23.4844451
20
92.4396233
11
23.4844451
21
92.5801788
0
LINE
8
DEFAULT_255_1_234
10
23.4844451
20
92.5801788
11
23.8105337
21
92.5801788
0
LINE
8
DEFAULT_255_1_234
10
23.8105337
20
92.5801788
11
23.8105337
21
92.9215276
0
LINE
8
DEFAULT_255_1_234
10
23.8105337
20
92.9215276
11
23.959924
21
92.9215276
0
LINE
8
DEFAULT_255_1_234
10
21.8601482
20
5.222701
11
21.8601482
21
4.7938062
0
LINE
8
DEFAULT_255_1_234
10
20.9589872
20
5.1688884
11
20.9589872
21
5.2708915
0
LINE
8
DEFAULT_255_1_234
10
21.8601482
20
5.4668659
11
21.7059389
21
5.4668659
0
LINE
8
DEFAULT_255_1_234
10
21.1139998
20
5.2749073
11
21.1139998
21
5.1793296
0
LINE
8
DEFAULT_255_1_234
10
21.706742
20
4.8347681
11
21.706742
21
5.0974059
0
LINE
8
DEFAULT_255_1_234
10
21.706742
20
5.0974059
11
21.4360725
21
5.0974059
0
LINE
8
DEFAULT_255_1_234
10
21.4360725
20
5.0974059
11
21.4360725
21
5.222701
0
LINE
8
DEFAULT_255_1_234
10
21.4360725
20
5.222701
11
21.8601482
21
5.222701
0
ARC
8
DEFAULT_255_1_234
10
21.5769989
20
4.9931396
40
0.3462765
50
295.8437914
51
324.8549609
0
ARC
8
DEFAULT_255_1_234
10
21.5353956
20
5.0684567
40
0.4322211
50
291.5695085
51
296.4549398
0
ARC
8
DEFAULT_255_1_234
10
21.4843207
20
5.2049275
40
0.5779178
50
278.6622409
51
291.3045483
0
ARC
8
DEFAULT_255_1_234
10
21.4503699
20
5.4197408
40
0.7953952
50
270.020006
51
278.7494541
0
ARC
8
DEFAULT_255_1_234
10
21.4465623
20
5.5514036
40
0.927067
50
269.9969998
51
270.2524872
0
ARC
8
DEFAULT_255_1_234
10
21.4427336
20
5.1430589
40
0.5187361
50
253.5786322
51
270.4175299
0
ARC
8
DEFAULT_255_1_234
10
21.4253992
20
5.0759236
40
0.4494451
50
238.8203306
51
253.2788235
0
ARC
8
DEFAULT_255_1_234
10
21.4234365
20
5.0708231
40
0.4440665
50
206.7883783
51
238.6962764
0
ARC
8
DEFAULT_255_1_234
10
21.5008275
20
5.1172405
40
0.5341121
50
206.1129412
51
207.4916643
0
ARC
8
DEFAULT_255_1_234
10
21.560519
20
5.1426488
40
0.5989041
50
188.6921119
51
205.7821245
0
ARC
8
DEFAULT_255_1_234
10
21.7461552
20
5.174223
40
0.7871862
50
180.3882829
51
188.9219216
0
ARC
8
DEFAULT_255_1_234
10
21.8689366
20
5.2765464
40
0.909967
50
170.2024264
51
180.3560651
0
ARC
8
DEFAULT_255_1_234
10
21.5525884
20
5.3331237
40
0.5886083
50
154.2857445
51
170.3893044
0
ARC
8
DEFAULT_255_1_234
10
21.4244087
20
5.391795
40
0.4476743
50
139.8401567
51
153.9332699
0
ARC
8
DEFAULT_255_1_234
10
21.3884823
20
5.4205577
40
0.4016697
50
98.4190291
51
139.6707122
0
ARC
8
DEFAULT_255_1_234
10
21.4264341
20
5.2360328
40
0.5898566
50
89.7659205
51
99.4415478
0
ARC
8
DEFAULT_255_1_234
10
21.432959
20
5.2425844
40
0.5833147
50
78.0551672
51
90.4042112
0
ARC
8
DEFAULT_255_1_234
10
21.47341
20
5.4244644
40
0.3970055
50
54.6380464
51
78.3339173
0
ARC
8
DEFAULT_255_1_234
10
21.4924156
20
5.4564795
40
0.3599102
50
50.031736
51
54.1558201
0
ARC
8
DEFAULT_255_1_234
10
21.4816944
20
5.4468766
40
0.3741624
50
18.1092409
51
49.7180913
0
ARC
8
DEFAULT_255_1_234
10
21.3360144
20
5.3935089
40
0.5292424
50
7.9672797
51
18.6984571
0
ARC
8
DEFAULT_255_1_234
10
21.3510622
20
5.4058504
40
0.3600838
50
9.7557294
51
27.3215714
0
ARC
8
DEFAULT_255_1_234
10
21.4638094
20
5.4621912
40
0.2340608
50
27.7361077
51
84.5257964
0
ARC
8
DEFAULT_255_1_234
10
21.4310481
20
5.297864
40
0.4011215
50
82.106034
51
90.2001166
0
ARC
8
DEFAULT_255_1_234
10
21.4260698
20
5.3486215
40
0.3503799
50
89.4150119
51
105.5823402
0
ARC
8
DEFAULT_255_1_234
10
21.4003696
20
5.4421867
40
0.2533503
50
105.6678618
51
144.2648758
0
ARC
8
DEFAULT_255_1_234
10
21.4896951
20
5.3786289
40
0.3629787
50
144.3561283
51
162.8564086
0
ARC
8
DEFAULT_255_1_234
10
21.698086
20
5.3117017
40
0.5818441
50
162.6076014
51
173.6780284
0
ARC
8
DEFAULT_255_1_234
10
22.0042004
20
5.274489
40
0.8902007
50
173.4670142
51
179.9730753
0
ARC
8
DEFAULT_255_1_234
10
21.8133675
20
5.175126
40
0.6993804
50
179.6556203
51
190.0080463
0
ARC
8
DEFAULT_255_1_234
10
21.5817504
20
5.1326375
40
0.4639066
50
189.8116607
51
206.6796816
0
ARC
8
DEFAULT_255_1_234
10
21.4972656
20
5.0932503
40
0.3707421
50
207.1031645
51
217.7074368
0
ARC
8
DEFAULT_255_1_234
10
21.4338345
20
5.0380559
40
0.2868417
50
216.7345547
51
265.6812148
0
ARC
8
DEFAULT_255_1_234
10
21.4469136
20
5.1284855
40
0.3780509
50
264.7366618
51
270.0611241
0
ARC
8
DEFAULT_255_1_234
10
21.4492399
20
5.4125111
40
0.662079
50
269.8335834
51
276.0539546
0
ARC
8
DEFAULT_255_1_234
10
21.4699404
20
5.222356
40
0.4708016
50
275.9894168
51
284.4615085
0
ARC
8
DEFAULT_255_1_234
10
21.4897411
20
5.1390663
40
0.3852094
50
284.7034461
51
286.4953897
0
ARC
8
DEFAULT_255_1_234
10
21.5304424
20
5.0079965
40
0.2479842
50
286.0770838
51
304.2625829
0
ARC
8
DEFAULT_255_1_234
10
21.5437838
20
4.9861594
40
0.2224291
50
304.5891602
51
317.1073298
0
LINE
8
DEFAULT_255_1_234
10
23.0159154
20
5.8098211
11
23.0159154
21
4.6404
0
LINE
8
DEFAULT_255_1_234
10
23.0159154
20
4.6404
11
22.8609028
21
4.6404
0
LINE
8
DEFAULT_255_1_234
10
22.8609028
20
4.6404
11
22.2721764
21
5.541561
0
LINE
8
DEFAULT_255_1_234
10
22.2721764
20
5.541561
11
22.2721764
21
4.6404
0
LINE
8
DEFAULT_255_1_234
10
22.2721764
20
4.6404
11
22.1171639
21
4.6404
0
LINE
8
DEFAULT_255_1_234
10
22.1171639
20
4.6404
11
22.1171639
21
5.8098211
0
LINE
8
DEFAULT_255_1_234
10
22.1171639
20
5.8098211
11
22.2721764
21
5.8098211
0
LINE
8
DEFAULT_255_1_234
10
22.2721764
20
5.8098211
11
22.8625092
21
4.9046442
0
LINE
8
DEFAULT_255_1_234
10
22.8625092
20
4.9046442
11
22.8625092
21
5.8098211
0
LINE
8
DEFAULT_255_1_234
10
22.8625092
20
5.8098211
11
23.0159154
21
5.8098211
0
LINE
8
DEFAULT_255_1_234
10
23.6134767
20
4.6404
11
23.2897977
21
4.6404
0
LINE
8
DEFAULT_255_1_234
10
23.2897977
20
4.6404
11
23.2897977
21
5.8098211
0
LINE
8
DEFAULT_255_1_234
10
23.2897977
20
5.8098211
11
23.6199021
21
5.8098211
0
LINE
8
DEFAULT_255_1_234
10
24.1355397
20
5.2644661
11
24.1355397
21
5.1897709
0
LINE
8
DEFAULT_255_1_234
10
23.623918
20
5.6829196
11
23.444007
21
5.6829196
0
LINE
8
DEFAULT_255_1_234
10
23.444007
20
5.6829196
11
23.444007
21
4.7664983
0
LINE
8
DEFAULT_255_1_234
10
23.444007
20
4.7664983
11
23.6062481
21
4.7664983
0
LINE
8
DEFAULT_255_1_234
10
23.9829367
20
5.1929836
11
23.9829367
21
5.2612534
0
ARC
8
DEFAULT_255_1_234
10
23.6237963
20
5.2232894
40
0.5865446
50
75.4101064
51
90.3804066
0
ARC
8
DEFAULT_255_1_234
10
23.6467477
20
5.3189492
40
0.4881916
50
60.145586
51
75.1888407
0
ARC
8
DEFAULT_255_1_234
10
23.6626252
20
5.3466199
40
0.4562893
50
26.5253612
51
60.1450928
0
ARC
8
DEFAULT_255_1_234
10
23.5506002
20
5.2872158
40
0.5830602
50
7.4030428
51
26.8320788
0
ARC
8
DEFAULT_255_1_234
10
23.3911758
20
5.2623804
40
0.7443669
50
0.1605367
51
7.7176192
0
ARC
8
DEFAULT_255_1_234
10
23.4075663
20
5.1859434
40
0.7279835
50
348.7289388
51
0.3012466
0
ARC
8
DEFAULT_255_1_234
10
23.5732093
20
5.1530386
40
0.559104
50
333.0706509
51
348.7181832
0
ARC
8
DEFAULT_255_1_234
10
23.6698851
20
5.1005319
40
0.4491417
50
299.2531685
51
333.4571258
0
ARC
8
DEFAULT_255_1_234
10
23.6337991
20
5.1690828
40
0.5265881
50
278.107187
51
299.0339503
0
ARC
8
DEFAULT_255_1_234
10
23.608207
20
5.3198216
40
0.679442
50
270.4443897
51
278.4511052
0
ARC
8
DEFAULT_255_1_234
10
23.61029
20
5.2269213
40
0.4604407
50
269.4970433
51
284.0205042
0
ARC
8
DEFAULT_255_1_234
10
23.6458201
20
5.0903978
40
0.3193797
50
283.7700273
51
318.1555492
0
ARC
8
DEFAULT_255_1_234
10
23.6120959
20
5.1156367
40
0.3613588
50
318.7415601
51
343.6873628
0
ARC
8
DEFAULT_255_1_234
10
23.4316982
20
5.1719832
40
0.5503313
50
343.3325091
51
355.8548958
0
ARC
8
DEFAULT_255_1_234
10
23.2218666
20
5.1919319
40
0.7610708
50
355.4988528
51
0.0791727
0
ARC
8
DEFAULT_255_1_234
10
23.3001289
20
5.265478
40
0.6828208
50
359.6455037
51
9.8607896
0
ARC
8
DEFAULT_255_1_234
10
23.5361987
20
5.3081099
40
0.4429406
50
9.6571907
51
26.1932807
0
ARC
8
DEFAULT_255_1_234
10
23.6289975
20
5.3512118
40
0.3406537
50
26.5777228
51
40.1532208
0
ARC
8
DEFAULT_255_1_234
10
23.6545702
20
5.3711619
40
0.308246
50
40.3840491
51
80.1431104
0
ARC
8
DEFAULT_255_1_234
10
23.621882
20
5.2262333
40
0.4566909
50
79.2152159
51
89.7445637
0
LINE
8
DEFAULT_255_1_234
10
22.8757802
20
12.5779
11
22.7199645
21
12.5779
0
LINE
8
DEFAULT_255_1_234
10
22.5521011
20
13.104782
11
22.6966724
21
13.104782
0
LINE
8
DEFAULT_255_1_234
10
22.6966724
20
13.104782
11
22.6966724
21
13.1730518
0
LINE
8
DEFAULT_255_1_234
10
22.3256061
20
13.2059819
11
22.1762158
21
13.2059819
0
LINE
8
DEFAULT_255_1_234
10
22.8452596
20
13.1810835
11
22.8452596
21
12.781103
0
LINE
8
DEFAULT_255_1_234
10
22.8757802
20
12.5907508
11
22.8757802
21
12.5779
0
LINE
8
DEFAULT_255_1_234
10
22.6966724
20
12.8212617
11
22.6966724
21
12.9995663
0
LINE
8
DEFAULT_255_1_234
10
22.6966724
20
12.9995663
11
22.5802122
21
12.9995663
0
ARC
8
DEFAULT_255_1_234
10
22.8239183
20
12.6283194
40
0.1155358
50
197.0791116
51
205.8741701
0
ARC
8
DEFAULT_255_1_234
10
22.9477782
20
12.6675654
40
0.2454626
50
192.2918602
51
197.3448991
0
ARC
8
DEFAULT_255_1_234
10
23.1431231
20
12.7109663
40
0.4455697
50
189.1576348
51
192.3971359
0
ARC
8
DEFAULT_255_1_234
10
23.4245512
20
12.7568549
40
0.7307142
50
186.8689952
51
189.1979448
0
ARC
8
DEFAULT_255_1_234
10
22.4416666
20
12.9115258
40
0.353352
50
294.0080019
51
316.7604136
0
ARC
8
DEFAULT_255_1_234
10
22.454573
20
12.8933572
40
0.3315331
50
269.5042461
51
293.2479736
0
ARC
8
DEFAULT_255_1_234
10
22.4486215
20
12.9334491
40
0.3716254
50
255.403374
51
270.4753162
0
ARC
8
DEFAULT_255_1_234
10
22.4256187
20
12.8441825
40
0.2794431
50
228.6140946
51
255.354999
0
ARC
8
DEFAULT_255_1_234
10
22.392371
20
12.8123491
40
0.2336109
50
181.8953303
51
229.5703879
0
ARC
8
DEFAULT_255_1_234
10
22.4515216
20
12.8187708
40
0.2929755
50
179.984097
51
182.7679515
0
ARC
8
DEFAULT_255_1_234
10
22.4432158
20
12.8222413
40
0.28469
50
161.0341165
51
180.6820968
0
ARC
8
DEFAULT_255_1_234
10
22.3992704
20
12.8336729
40
0.2394402
50
125.0523775
51
160.2033967
0
ARC
8
DEFAULT_255_1_234
10
22.4654713
20
12.7433431
40
0.3514152
50
106.2671988
51
125.4298572
0
ARC
8
DEFAULT_255_1_234
10
22.5227169
20
12.5562842
40
0.5470269
50
95.4857064
51
106.534858
0
ARC
8
DEFAULT_255_1_234
10
22.5500322
20
12.3063758
40
0.7984089
50
89.8515322
51
95.7224983
0
ARC
8
DEFAULT_255_1_234
10
22.4860918
20
13.1748759
40
0.2105886
50
359.503704
51
14.3184734
0
ARC
8
DEFAULT_255_1_234
10
22.5435042
20
13.1898017
40
0.1512684
50
14.2187004
51
45.2025693
0
ARC
8
DEFAULT_255_1_234
10
22.5471238
20
13.1912251
40
0.1477163
50
45.8098026
51
73.0032427
0
ARC
8
DEFAULT_255_1_234
10
22.5222206
20
13.1150896
40
0.2278113
50
72.610967
51
85.7232876
0
ARC
8
DEFAULT_255_1_234
10
22.51322
20
13.0237569
40
0.3195681
50
85.3352114
51
90.0850615
0
ARC
8
DEFAULT_255_1_234
10
22.5108603
20
13.0828391
40
0.2604924
50
89.5853149
51
103.4592217
0
ARC
8
DEFAULT_255_1_234
10
22.4956206
20
13.1463597
40
0.1951693
50
103.44851
51
126.5404292
0
ARC
8
DEFAULT_255_1_234
10
22.4717086
20
13.176943
40
0.1563639
50
126.1729825
51
141.5004088
0
ARC
8
DEFAULT_255_1_234
10
22.4338687
20
13.2066385
40
0.1082645
50
141.3333588
51
180.3474677
0
ARC
8
DEFAULT_255_1_234
10
22.3664397
20
13.2049174
40
0.1902269
50
151.6374668
51
179.6793754
0
ARC
8
DEFAULT_255_1_234
10
22.4266639
20
13.1749334
40
0.2574753
50
142.4988163
51
152.1325379
0
ARC
8
DEFAULT_255_1_234
10
22.4584599
20
13.1499735
40
0.2978957
50
120.8284787
51
142.4132259
0
ARC
8
DEFAULT_255_1_234
10
22.5000708
20
13.0848301
40
0.3751664
50
113.9638113
51
121.1869885
0
ARC
8
DEFAULT_255_1_234
10
22.513686
20
13.0516544
40
0.4110136
50
93.3784663
51
113.8198047
0
ARC
8
DEFAULT_255_1_234
10
22.5213641
20
12.9751446
40
0.487853
50
89.9745882
51
93.7491274
0
ARC
8
DEFAULT_255_1_234
10
22.5248528
20
12.9787605
40
0.4842481
50
79.1325877
51
90.3871757
0
ARC
8
DEFAULT_255_1_234
10
22.5573648
20
13.1412435
40
0.3185522
50
60.1435559
51
79.3654871
0
ARC
8
DEFAULT_255_1_234
10
22.5830337
20
13.190543
40
0.2630271
50
48.6192091
51
59.646742
0
ARC
8
DEFAULT_255_1_234
10
22.5878075
20
13.1968691
40
0.2551253
50
9.0349315
51
48.4844544
0
ARC
8
DEFAULT_255_1_234
10
22.4801918
20
13.1733793
40
0.3651489
50
1.2089744
51
10.0233366
0
ARC
8
DEFAULT_255_1_234
10
23.6088664
20
12.7786518
40
0.7636108
50
179.8160804
51
185.3206488
0
ARC
8
DEFAULT_255_1_234
10
23.3393146
20
12.7529155
40
0.4928344
50
185.2474014
51
192.7953707
0
ARC
8
DEFAULT_255_1_234
10
23.1631403
20
12.7124824
40
0.3120807
50
192.7197759
51
202.9585048
0
ARC
8
DEFAULT_255_1_234
10
22.4733586
20
12.9522928
40
0.2611453
50
270.0069004
51
300.5035019
0
ARC
8
DEFAULT_255_1_234
10
22.4856194
20
12.9394927
40
0.2439274
50
299.5482464
51
315.6095048
0
ARC
8
DEFAULT_255_1_234
10
22.5146291
20
12.9098155
40
0.2024389
50
315.868035
51
334.0596869
0
ARC
8
DEFAULT_255_1_234
10
22.5758651
20
12.3021943
40
0.6973855
50
89.6428514
51
97.2870891
0
ARC
8
DEFAULT_255_1_234
10
22.5317414
20
12.6325571
40
0.3640992
50
96.9938028
51
109.7781797
0
ARC
8
DEFAULT_255_1_234
10
22.4652039
20
12.8106891
40
0.1739759
50
109.0087453
51
135.326626
0
ARC
8
DEFAULT_255_1_234
10
22.4378643
20
12.8445473
40
0.1308198
50
137.4539381
51
182.1082805
0
ARC
8
DEFAULT_255_1_234
10
22.4752634
20
12.8380893
40
0.1681384
50
179.4392907
51
195.7200177
0
ARC
8
DEFAULT_255_1_234
10
22.4341062
20
12.8268426
40
0.1254738
50
195.8684065
51
230.1572205
0
ARC
8
DEFAULT_255_1_234
10
22.4583489
20
12.8558769
40
0.1632985
50
230.1530708
51
259.7485588
0
ARC
8
DEFAULT_255_1_234
10
22.4722193
20
12.9212386
40
0.230094
50
259.2463819
51
270.291543
0
ARC
8
DEFAULT_255_1_234
10
23.1884241
20
12.6567565
40
0.1070357
50
163.5417914
51
180.5078233
0
ARC
8
DEFAULT_255_1_234
10
23.169206
20
12.6619421
40
0.0871371
50
138.1647447
51
163.2316401
0
ARC
8
DEFAULT_255_1_234
10
23.1579838
20
12.6714534
40
0.0724329
50
105.6856465
51
137.8494928
0
ARC
8
DEFAULT_255_1_234
10
23.169827
20
12.6330129
40
0.1126485
50
92.6088068
51
106.1990587
0
ARC
8
DEFAULT_255_1_234
10
23.1728643
20
12.5934774
40
0.1522861
50
89.9660831
51
93.0733434
0
ARC
8
DEFAULT_255_1_234
10
23.1739338
20
12.615632
40
0.130135
50
78.4379222
51
90.4311858
0
ARC
8
DEFAULT_255_1_234
10
23.1835919
20
12.6606588
40
0.0840873
50
56.8960528
51
78.7359558
0
ARC
8
DEFAULT_255_1_234
10
23.1899145
20
12.6716877
40
0.0713991
50
42.6499553
51
56.3125067
0
ARC
8
DEFAULT_255_1_234
10
23.1771032
20
12.6599146
40
0.0887984
50
3.8142714
51
42.6365749
0
ARC
8
DEFAULT_255_1_234
10
23.1484834
20
12.6559153
40
0.1176392
50
359.9476902
51
4.8305927
0
ARC
8
DEFAULT_255_1_234
10
23.1710993
20
12.6548541
40
0.0950282
50
340.9376387
51
0.5750546
0
ARC
8
DEFAULT_255_1_234
10
23.1823489
20
12.6518192
40
0.0834082
50
316.0805399
51
340.3842391
0
ARC
8
DEFAULT_255_1_234
10
23.1881567
20
12.6464809
40
0.0755219
50
285.8514865
51
315.9414755
0
ARC
8
DEFAULT_255_1_234
10
23.1764138
20
12.6844349
40
0.115244
50
273.1292529
51
286.3135479
0
ARC
8
DEFAULT_255_1_234
10
23.1730837
20
12.7246049
40
0.1555398
50
269.9524064
51
273.5463789
0
ARC
8
DEFAULT_255_1_234
10
23.1719789
20
12.7027792
40
0.1337177
50
259.0490813
51
270.4180302
0
ARC
8
DEFAULT_255_1_234
10
23.1623452
20
12.6550393
40
0.0850178
50
239.7587791
51
259.311372
0
ARC
8
DEFAULT_255_1_234
10
23.1542484
20
12.6399482
40
0.0679053
50
222.6244131
51
239.247817
0
ARC
8
DEFAULT_255_1_234
10
23.1676859
20
12.6522619
40
0.0861314
50
182.9227855
51
222.598345
0
ARC
8
DEFAULT_255_1_234
10
23.1945477
20
12.6557373
40
0.113155
50
179.9642935
51
183.9868025
0
LINE
8
DEFAULT_255_1_234
10
24.2508138
20
13.7473211
11
24.2508138
21
13.663791
0
LINE
8
DEFAULT_255_1_234
10
24.2508138
20
13.663791
11
23.7665
21
12.5779
0
LINE
8
DEFAULT_255_1_234
10
23.7665
20
12.5779
11
23.6106842
21
12.5779
0
LINE
8
DEFAULT_255_1_234
10
23.6106842
20
12.5779
11
24.0933917
21
13.6252387
0
LINE
8
DEFAULT_255_1_234
10
24.0933917
20
13.6252387
11
23.4604907
21
13.6252387
0
LINE
8
DEFAULT_255_1_234
10
23.4604907
20
13.6252387
11
23.4604907
21
13.7473211
0
LINE
8
DEFAULT_255_1_234
10
23.4604907
20
13.7473211
11
24.2508138
21
13.7473211
0
LINE
8
DEFAULT_255_1_234
10
22.8757802
20
20.5154
11
22.7199645
21
20.5154
0
LINE
8
DEFAULT_255_1_234
10
22.5521011
20
21.042282
11
22.6966724
21
21.042282
0
LINE
8
DEFAULT_255_1_234
10
22.6966724
20
21.042282
11
22.6966724
21
21.1105518
0
LINE
8
DEFAULT_255_1_234
10
22.3256061
20
21.1434819
11
22.1762158
21
21.1434819
0
LINE
8
DEFAULT_255_1_234
10
22.8452596
20
21.1185835
11
22.8452596
21
20.718603
0
LINE
8
DEFAULT_255_1_234
10
22.8757802
20
20.5282508
11
22.8757802
21
20.5154
0
LINE
8
DEFAULT_255_1_234
10
22.6966724
20
20.7587617
11
22.6966724
21
20.9370663
0
LINE
8
DEFAULT_255_1_234
10
22.6966724
20
20.9370663
11
22.5802122
21
20.9370663
0
ARC
8
DEFAULT_255_1_234
10
22.8239183
20
20.5658194
40
0.1155358
50
197.0791116
51
205.8741701
0
ARC
8
DEFAULT_255_1_234
10
22.9477782
20
20.6050654
40
0.2454626
50
192.2918602
51
197.3448991
0
ARC
8
DEFAULT_255_1_234
10
23.1431231
20
20.6484663
40
0.4455697
50
189.1576348
51
192.3971359
0
ARC
8
DEFAULT_255_1_234
10
23.4245512
20
20.6943549
40
0.7307142
50
186.8689952
51
189.1979448
0
ARC
8
DEFAULT_255_1_234
10
22.4416666
20
20.8490258
40
0.353352
50
294.0080019
51
316.7604136
0
ARC
8
DEFAULT_255_1_234
10
22.454573
20
20.8308572
40
0.3315331
50
269.5042461
51
293.2479736
0
ARC
8
DEFAULT_255_1_234
10
22.4486215
20
20.8709491
40
0.3716254
50
255.403374
51
270.4753162
0
ARC
8
DEFAULT_255_1_234
10
22.4256187
20
20.7816825
40
0.2794431
50
228.6140946
51
255.354999
0
ARC
8
DEFAULT_255_1_234
10
22.392371
20
20.7498491
40
0.2336109
50
181.8953303
51
229.5703879
0
ARC
8
DEFAULT_255_1_234
10
22.4515216
20
20.7562708
40
0.2929755
50
179.984097
51
182.7679515
0
ARC
8
DEFAULT_255_1_234
10
22.4432158
20
20.7597413
40
0.28469
50
161.0341165
51
180.6820968
0
ARC
8
DEFAULT_255_1_234
10
22.3992704
20
20.7711729
40
0.2394402
50
125.0523775
51
160.2033967
0
ARC
8
DEFAULT_255_1_234
10
22.4654713
20
20.6808431
40
0.3514152
50
106.2671988
51
125.4298572
0
ARC
8
DEFAULT_255_1_234
10
22.5227169
20
20.4937842
40
0.5470269
50
95.4857064
51
106.534858
0
ARC
8
DEFAULT_255_1_234
10
22.5500322
20
20.2438758
40
0.7984089
50
89.8515322
51
95.7224983
0
ARC
8
DEFAULT_255_1_234
10
22.4860918
20
21.1123759
40
0.2105886
50
359.503704
51
14.3184734
0
ARC
8
DEFAULT_255_1_234
10
22.5435042
20
21.1273017
40
0.1512684
50
14.2187004
51
45.2025693
0
ARC
8
DEFAULT_255_1_234
10
22.5471238
20
21.1287251
40
0.1477163
50
45.8098026
51
73.0032427
0
ARC
8
DEFAULT_255_1_234
10
22.5222206
20
21.0525896
40
0.2278113
50
72.610967
51
85.7232876
0
ARC
8
DEFAULT_255_1_234
10
22.51322
20
20.9612569
40
0.3195681
50
85.3352114
51
90.0850615
0
ARC
8
DEFAULT_255_1_234
10
22.5108603
20
21.0203391
40
0.2604924
50
89.5853149
51
103.4592217
0
ARC
8
DEFAULT_255_1_234
10
22.4956206
20
21.0838597
40
0.1951693
50
103.44851
51
126.5404292
0
ARC
8
DEFAULT_255_1_234
10
22.4717086
20
21.114443
40
0.1563639
50
126.1729825
51
141.5004088
0
ARC
8
DEFAULT_255_1_234
10
22.4338687
20
21.1441385
40
0.1082645
50
141.3333588
51
180.3474677
0
ARC
8
DEFAULT_255_1_234
10
22.3664397
20
21.1424174
40
0.1902269
50
151.6374668
51
179.6793754
0
ARC
8
DEFAULT_255_1_234
10
22.4266639
20
21.1124334
40
0.2574753
50
142.4988163
51
152.1325379
0
ARC
8
DEFAULT_255_1_234
10
22.4584599
20
21.0874735
40
0.2978957
50
120.8284787
51
142.4132259
0
ARC
8
DEFAULT_255_1_234
10
22.5000708
20
21.0223301
40
0.3751664
50
113.9638113
51
121.1869885
0
ARC
8
DEFAULT_255_1_234
10
22.513686
20
20.9891544
40
0.4110136
50
93.3784663
51
113.8198047
0
ARC
8
DEFAULT_255_1_234
10
22.5213641
20
20.9126446
40
0.487853
50
89.9745882
51
93.7491274
0
ARC
8
DEFAULT_255_1_234
10
22.5248528
20
20.9162605
40
0.4842481
50
79.1325877
51
90.3871757
0
ARC
8
DEFAULT_255_1_234
10
22.5573648
20
21.0787435
40
0.3185522
50
60.1435559
51
79.3654871
0
ARC
8
DEFAULT_255_1_234
10
22.5830337
20
21.128043
40
0.2630271
50
48.6192091
51
59.646742
0
ARC
8
DEFAULT_255_1_234
10
22.5878075
20
21.1343691
40
0.2551253
50
9.0349315
51
48.4844544
0
ARC
8
DEFAULT_255_1_234
10
22.4801918
20
21.1108793
40
0.3651489
50
1.2089744
51
10.0233366
0
ARC
8
DEFAULT_255_1_234
10
23.6088664
20
20.7161518
40
0.7636108
50
179.8160804
51
185.3206488
0
ARC
8
DEFAULT_255_1_234
10
23.3393146
20
20.6904155
40
0.4928344
50
185.2474014
51
192.7953707
0
ARC
8
DEFAULT_255_1_234
10
23.1631403
20
20.6499824
40
0.3120807
50
192.7197759
51
202.9585048
0
ARC
8
DEFAULT_255_1_234
10
22.4733586
20
20.8897928
40
0.2611453
50
270.0069004
51
300.5035019
0
ARC
8
DEFAULT_255_1_234
10
22.4856194
20
20.8769927
40
0.2439274
50
299.5482464
51
315.6095048
0
ARC
8
DEFAULT_255_1_234
10
22.5146291
20
20.8473155
40
0.2024389
50
315.868035
51
334.0596869
0
ARC
8
DEFAULT_255_1_234
10
22.5758651
20
20.2396943
40
0.6973855
50
89.6428514
51
97.2870891
0
ARC
8
DEFAULT_255_1_234
10
22.5317414
20
20.5700571
40
0.3640992
50
96.9938028
51
109.7781797
0
ARC
8
DEFAULT_255_1_234
10
22.4652039
20
20.7481891
40
0.1739759
50
109.0087453
51
135.326626
0
ARC
8
DEFAULT_255_1_234
10
22.4378643
20
20.7820473
40
0.1308198
50
137.4539381
51
182.1082805
0
ARC
8
DEFAULT_255_1_234
10
22.4752634
20
20.7755893
40
0.1681384
50
179.4392907
51
195.7200177
0
ARC
8
DEFAULT_255_1_234
10
22.4341062
20
20.7643426
40
0.1254738
50
195.8684065
51
230.1572205
0
ARC
8
DEFAULT_255_1_234
10
22.4583489
20
20.7933769
40
0.1632985
50
230.1530708
51
259.7485588
0
ARC
8
DEFAULT_255_1_234
10
22.4722193
20
20.8587386
40
0.230094
50
259.2463819
51
270.291543
0
ARC
8
DEFAULT_255_1_234
10
23.1884241
20
20.5942565
40
0.1070357
50
163.5417914
51
180.5078233
0
ARC
8
DEFAULT_255_1_234
10
23.169206
20
20.5994421
40
0.0871371
50
138.1647447
51
163.2316401
0
ARC
8
DEFAULT_255_1_234
10
23.1579838
20
20.6089534
40
0.0724329
50
105.6856465
51
137.8494928
0
ARC
8
DEFAULT_255_1_234
10
23.169827
20
20.5705129
40
0.1126485
50
92.6088068
51
106.1990587
0
ARC
8
DEFAULT_255_1_234
10
23.1728643
20
20.5309774
40
0.1522861
50
89.9660831
51
93.0733434
0
ARC
8
DEFAULT_255_1_234
10
23.1739338
20
20.553132
40
0.130135
50
78.4379222
51
90.4311858
0
ARC
8
DEFAULT_255_1_234
10
23.1835919
20
20.5981588
40
0.0840873
50
56.8960528
51
78.7359558
0
ARC
8
DEFAULT_255_1_234
10
23.1899145
20
20.6091877
40
0.0713991
50
42.6499553
51
56.3125067
0
ARC
8
DEFAULT_255_1_234
10
23.1771032
20
20.5974146
40
0.0887984
50
3.8142714
51
42.6365749
0
ARC
8
DEFAULT_255_1_234
10
23.1484834
20
20.5934153
40
0.1176392
50
359.9476902
51
4.8305927
0
ARC
8
DEFAULT_255_1_234
10
23.1710993
20
20.5923541
40
0.0950282
50
340.9376387
51
0.5750546
0
ARC
8
DEFAULT_255_1_234
10
23.1823489
20
20.5893192
40
0.0834082
50
316.0805399
51
340.3842391
0
ARC
8
DEFAULT_255_1_234
10
23.1881567
20
20.5839809
40
0.0755219
50
285.8514865
51
315.9414755
0
ARC
8
DEFAULT_255_1_234
10
23.1764138
20
20.6219349
40
0.115244
50
273.1292529
51
286.3135479
0
ARC
8
DEFAULT_255_1_234
10
23.1730837
20
20.6621049
40
0.1555398
50
269.9524064
51
273.5463789
0
ARC
8
DEFAULT_255_1_234
10
23.1719789
20
20.6402792
40
0.1337177
50
259.0490813
51
270.4180302
0
ARC
8
DEFAULT_255_1_234
10
23.1623452
20
20.5925393
40
0.0850178
50
239.7587791
51
259.311372
0
ARC
8
DEFAULT_255_1_234
10
23.1542484
20
20.5774482
40
0.0679053
50
222.6244131
51
239.247817
0
ARC
8
DEFAULT_255_1_234
10
23.1676859
20
20.5897619
40
0.0861314
50
182.9227855
51
222.598345
0
ARC
8
DEFAULT_255_1_234
10
23.1945477
20
20.5932373
40
0.113155
50
179.9642935
51
183.9868025
0
LINE
8
DEFAULT_255_1_234
10
24.0524298
20
21.6856243
11
24.0789346
21
21.6856243
0
LINE
8
DEFAULT_255_1_234
10
24.0789346
20
21.6856243
11
24.0789346
21
21.559526
0
LINE
8
DEFAULT_255_1_234
10
24.0789346
20
21.559526
11
24.0516267
21
21.559526
0
LINE
8
DEFAULT_255_1_234
10
23.5046653
20
20.9603583
11
23.5046653
21
21.0173836
0
LINE
8
DEFAULT_255_1_234
10
23.6540556
20
20.9981075
11
23.6540556
21
20.9434917
0
ARC
8
DEFAULT_255_1_234
10
24.0568614
20
21.0597455
40
0.4998079
50
90.6001036
51
104.514704
0
ARC
8
DEFAULT_255_1_234
10
24.018013
20
21.2042131
40
0.3502176
50
104.2855254
51
133.862935
0
ARC
8
DEFAULT_255_1_234
10
24.0343887
20
21.193383
40
0.3693984
50
134.5302688
51
161.6210873
0
ARC
8
DEFAULT_255_1_234
10
24.1997076
20
21.1350895
40
0.5446739
50
161.2849839
51
174.2076652
0
ARC
8
DEFAULT_255_1_234
10
24.3404013
20
21.1156787
40
0.6866274
50
173.7810589
51
174.9254635
0
ARC
8
DEFAULT_255_1_234
10
23.8853845
20
20.9773839
40
0.3033419
50
95.8330959
51
138.9954921
0
ARC
8
DEFAULT_255_1_234
10
23.9077201
20
20.8495375
40
0.4328947
50
89.8753725
51
97.0544009
0
ARC
8
DEFAULT_255_1_234
10
23.9124667
20
20.9330748
40
0.3493769
50
71.6407809
51
90.6240094
0
ARC
8
DEFAULT_255_1_234
10
23.9275241
20
20.9885082
40
0.2920396
50
39.6367836
51
71.019018
0
ARC
8
DEFAULT_255_1_234
10
23.8638714
20
20.9334998
40
0.3761538
50
10.658731
51
39.9043955
0
ARC
8
DEFAULT_255_1_234
10
23.7090797
20
20.8998686
40
0.5345136
50
359.682601
51
11.132623
0
ARC
8
DEFAULT_255_1_234
10
23.7050927
20
20.892801
40
0.5385081
50
347.2486944
51
0.4369317
0
ARC
8
DEFAULT_255_1_234
10
23.8718404
20
20.8526807
40
0.3670249
50
318.1409698
51
347.6118597
0
ARC
8
DEFAULT_255_1_234
10
23.9043397
20
20.8259702
40
0.3250007
50
275.6342139
51
317.8248465
0
ARC
8
DEFAULT_255_1_234
10
23.8822509
20
20.9559219
40
0.4565864
50
269.8874292
51
276.7917694
0
ARC
8
DEFAULT_255_1_234
10
23.8767579
20
20.8533743
40
0.3540676
50
246.9140195
51
270.7437342
0
ARC
8
DEFAULT_255_1_234
10
23.877397
20
20.8391384
40
0.3412781
50
218.1665114
51
245.878116
0
ARC
8
DEFAULT_255_1_234
10
23.965343
20
20.9127279
40
0.455911
50
191.4115814
51
218.6077802
0
ARC
8
DEFAULT_255_1_234
10
24.159152
20
20.9561833
40
0.6545001
50
179.6345085
51
191.7836486
0
ARC
8
DEFAULT_255_1_234
10
24.7173856
20
21.0240697
40
1.2127388
50
171.4525249
51
180.3158839
0
ARC
8
DEFAULT_255_1_234
10
24.2778732
20
21.0924608
40
0.7679464
50
157.9802646
51
171.6246686
0
ARC
8
DEFAULT_255_1_234
10
24.0564753
20
21.1807421
40
0.5296008
50
141.4298019
51
157.854097
0
ARC
8
DEFAULT_255_1_234
10
23.9923074
20
21.2261381
40
0.4511509
50
102.8715806
51
140.8564722
0
ARC
8
DEFAULT_255_1_234
10
24.0570689
20
20.9821552
40
0.7034845
50
90.3778349
51
103.5869322
0
ARC
8
DEFAULT_255_1_234
10
23.8832465
20
20.921673
40
0.2370698
50
89.8751008
51
126.2071704
0
ARC
8
DEFAULT_255_1_234
10
23.8878255
20
20.9062303
40
0.2522934
50
124.9745049
51
144.895901
0
ARC
8
DEFAULT_255_1_234
10
23.8702446
20
20.920556
40
0.2296779
50
145.2974905
51
160.2660252
0
ARC
8
DEFAULT_255_1_234
10
24.1774985
20
20.9403071
40
0.5234525
50
179.6514266
51
190.2855912
0
ARC
8
DEFAULT_255_1_234
10
24.0081122
20
20.9083786
40
0.3510893
50
190.0945431
51
207.5098196
0
ARC
8
DEFAULT_255_1_234
10
23.9515392
20
20.8814623
40
0.288489
50
207.9583163
51
216.3251085
0
ARC
8
DEFAULT_255_1_234
10
23.9175499
20
20.8535105
40
0.2445587
50
215.7661442
51
232.5456785
0
ARC
8
DEFAULT_255_1_234
10
23.8792482
20
20.8048482
40
0.1826382
50
232.8005391
51
270.6605633
0
ARC
8
DEFAULT_255_1_234
10
23.8838183
20
20.8412612
40
0.2190529
50
269.35537
51
288.4744281
0
ARC
8
DEFAULT_255_1_234
10
23.893108
20
20.8063118
40
0.1829749
50
289.1833337
51
322.9683818
0
ARC
8
DEFAULT_255_1_234
10
23.8319603
20
20.8545391
40
0.2608399
50
322.6007884
51
346.5182367
0
ARC
8
DEFAULT_255_1_234
10
23.7162199
20
20.8840616
40
0.3802777
50
346.2582162
51
358.7741648
0
ARC
8
DEFAULT_255_1_234
10
23.6143867
20
20.8895965
40
0.4822176
50
358.3755224
51
0.0098023
0
ARC
8
DEFAULT_255_1_234
10
23.6900055
20
20.8923657
40
0.4066078
50
359.6214041
51
11.2839074
0
ARC
8
DEFAULT_255_1_234
10
23.8177201
20
20.9190066
40
0.2761514
50
11.0482309
51
31.8146458
0
ARC
8
DEFAULT_255_1_234
10
23.8486244
20
20.9357584
40
0.2410679
50
32.3035391
51
38.082671
0
ARC
8
DEFAULT_255_1_234
10
23.8906904
20
20.9738662
40
0.1844966
50
36.825067
51
85.7415724
0
ARC
8
DEFAULT_255_1_234
10
23.8839738
20
20.9238301
40
0.2349122
50
85.0140713
51
90.0513278
0
LINE
8
DEFAULT_255_1_234
10
22.8757802
20
28.4529
11
22.7199645
21
28.4529
0
LINE
8
DEFAULT_255_1_234
10
22.5521011
20
28.979782
11
22.6966724
21
28.979782
0
LINE
8
DEFAULT_255_1_234
10
22.6966724
20
28.979782
11
22.6966724
21
29.0480518
0
LINE
8
DEFAULT_255_1_234
10
22.3256061
20
29.0809819
11
22.1762158
21
29.0809819
0
LINE
8
DEFAULT_255_1_234
10
22.8452596
20
29.0560835
11
22.8452596
21
28.656103
0
LINE
8
DEFAULT_255_1_234
10
22.8757802
20
28.4657508
11
22.8757802
21
28.4529
0
LINE
8
DEFAULT_255_1_234
10
22.6966724
20
28.6962617
11
22.6966724
21
28.8745663
0
LINE
8
DEFAULT_255_1_234
10
22.6966724
20
28.8745663
11
22.5802122
21
28.8745663
0
ARC
8
DEFAULT_255_1_234
10
22.8239183
20
28.5033194
40
0.1155358
50
197.0791116
51
205.8741701
0
ARC
8
DEFAULT_255_1_234
10
22.9477782
20
28.5425654
40
0.2454626
50
192.2918602
51
197.3448991
0
ARC
8
DEFAULT_255_1_234
10
23.1431231
20
28.5859663
40
0.4455697
50
189.1576348
51
192.3971359
0
ARC
8
DEFAULT_255_1_234
10
23.4245512
20
28.6318549
40
0.7307142
50
186.8689952
51
189.1979448
0
ARC
8
DEFAULT_255_1_234
10
22.4416666
20
28.7865258
40
0.353352
50
294.0080019
51
316.7604136
0
ARC
8
DEFAULT_255_1_234
10
22.454573
20
28.7683572
40
0.3315331
50
269.5042461
51
293.2479736
0
ARC
8
DEFAULT_255_1_234
10
22.4486215
20
28.8084491
40
0.3716254
50
255.403374
51
270.4753162
0
ARC
8
DEFAULT_255_1_234
10
22.4256187
20
28.7191825
40
0.2794431
50
228.6140946
51
255.354999
0
ARC
8
DEFAULT_255_1_234
10
22.392371
20
28.6873491
40
0.2336109
50
181.8953303
51
229.5703879
0
ARC
8
DEFAULT_255_1_234
10
22.4515216
20
28.6937708
40
0.2929755
50
179.984097
51
182.7679515
0
ARC
8
DEFAULT_255_1_234
10
22.4432158
20
28.6972413
40
0.28469
50
161.0341165
51
180.6820968
0
ARC
8
DEFAULT_255_1_234
10
22.3992704
20
28.7086729
40
0.2394402
50
125.0523775
51
160.2033967
0
ARC
8
DEFAULT_255_1_234
10
22.4654713
20
28.6183431
40
0.3514152
50
106.2671988
51
125.4298572
0
ARC
8
DEFAULT_255_1_234
10
22.5227169
20
28.4312842
40
0.5470269
50
95.4857064
51
106.534858
0
ARC
8
DEFAULT_255_1_234
10
22.5500322
20
28.1813758
40
0.7984089
50
89.8515322
51
95.7224983
0
ARC
8
DEFAULT_255_1_234
10
22.4860918
20
29.0498759
40
0.2105886
50
359.503704
51
14.3184734
0
ARC
8
DEFAULT_255_1_234
10
22.5435042
20
29.0648017
40
0.1512684
50
14.2187004
51
45.2025693
0
ARC
8
DEFAULT_255_1_234
10
22.5471238
20
29.0662251
40
0.1477163
50
45.8098026
51
73.0032427
0
ARC
8
DEFAULT_255_1_234
10
22.5222206
20
28.9900896
40
0.2278113
50
72.610967
51
85.7232876
0
ARC
8
DEFAULT_255_1_234
10
22.51322
20
28.8987569
40
0.3195681
50
85.3352114
51
90.0850615
0
ARC
8
DEFAULT_255_1_234
10
22.5108603
20
28.9578391
40
0.2604924
50
89.5853149
51
103.4592217
0
ARC
8
DEFAULT_255_1_234
10
22.4956206
20
29.0213597
40
0.1951693
50
103.44851
51
126.5404292
0
ARC
8
DEFAULT_255_1_234
10
22.4717086
20
29.051943
40
0.1563639
50
126.1729825
51
141.5004088
0
ARC
8
DEFAULT_255_1_234
10
22.4338687
20
29.0816385
40
0.1082645
50
141.3333588
51
180.3474677
0
ARC
8
DEFAULT_255_1_234
10
22.3664397
20
29.0799174
40
0.1902269
50
151.6374668
51
179.6793754
0
ARC
8
DEFAULT_255_1_234
10
22.4266639
20
29.0499334
40
0.2574753
50
142.4988163
51
152.1325379
0
ARC
8
DEFAULT_255_1_234
10
22.4584599
20
29.0249735
40
0.2978957
50
120.8284787
51
142.4132259
0
ARC
8
DEFAULT_255_1_234
10
22.5000708
20
28.9598301
40
0.3751664
50
113.9638113
51
121.1869885
0
ARC
8
DEFAULT_255_1_234
10
22.513686
20
28.9266544
40
0.4110136
50
93.3784663
51
113.8198047
0
ARC
8
DEFAULT_255_1_234
10
22.5213641
20
28.8501446
40
0.487853
50
89.9745882
51
93.7491274
0
ARC
8
DEFAULT_255_1_234
10
22.5248528
20
28.8537605
40
0.4842481
50
79.1325877
51
90.3871757
0
ARC
8
DEFAULT_255_1_234
10
22.5573648
20
29.0162435
40
0.3185522
50
60.1435559
51
79.3654871
0
ARC
8
DEFAULT_255_1_234
10
22.5830337
20
29.065543
40
0.2630271
50
48.6192091
51
59.646742
0
ARC
8
DEFAULT_255_1_234
10
22.5878075
20
29.0718691
40
0.2551253
50
9.0349315
51
48.4844544
0
ARC
8
DEFAULT_255_1_234
10
22.4801918
20
29.0483793
40
0.3651489
50
1.2089744
51
10.0233366
0
ARC
8
DEFAULT_255_1_234
10
23.6088664
20
28.6536518
40
0.7636108
50
179.8160804
51
185.3206488
0
ARC
8
DEFAULT_255_1_234
10
23.3393146
20
28.6279155
40
0.4928344
50
185.2474014
51
192.7953707
0
ARC
8
DEFAULT_255_1_234
10
23.1631403
20
28.5874824
40
0.3120807
50
192.7197759
51
202.9585048
0
ARC
8
DEFAULT_255_1_234
10
22.4733586
20
28.8272928
40
0.2611453
50
270.0069004
51
300.5035019
0
ARC
8
DEFAULT_255_1_234
10
22.4856194
20
28.8144927
40
0.2439274
50
299.5482464
51
315.6095048
0
ARC
8
DEFAULT_255_1_234
10
22.5146291
20
28.7848155
40
0.2024389
50
315.868035
51
334.0596869
0
ARC
8
DEFAULT_255_1_234
10
22.5758651
20
28.1771943
40
0.6973855
50
89.6428514
51
97.2870891
0
ARC
8
DEFAULT_255_1_234
10
22.5317414
20
28.5075571
40
0.3640992
50
96.9938028
51
109.7781797
0
ARC
8
DEFAULT_255_1_234
10
22.4652039
20
28.6856891
40
0.1739759
50
109.0087453
51
135.326626
0
ARC
8
DEFAULT_255_1_234
10
22.4378643
20
28.7195473
40
0.1308198
50
137.4539381
51
182.1082805
0
ARC
8
DEFAULT_255_1_234
10
22.4752634
20
28.7130893
40
0.1681384
50
179.4392907
51
195.7200177
0
ARC
8
DEFAULT_255_1_234
10
22.4341062
20
28.7018426
40
0.1254738
50
195.8684065
51
230.1572205
0
ARC
8
DEFAULT_255_1_234
10
22.4583489
20
28.7308769
40
0.1632985
50
230.1530708
51
259.7485588
0
ARC
8
DEFAULT_255_1_234
10
22.4722193
20
28.7962386
40
0.230094
50
259.2463819
51
270.291543
0
ARC
8
DEFAULT_255_1_234
10
23.1884241
20
28.5317565
40
0.1070357
50
163.5417914
51
180.5078233
0
ARC
8
DEFAULT_255_1_234
10
23.169206
20
28.5369421
40
0.0871371
50
138.1647447
51
163.2316401
0
ARC
8
DEFAULT_255_1_234
10
23.1579838
20
28.5464534
40
0.0724329
50
105.6856465
51
137.8494928
0
ARC
8
DEFAULT_255_1_234
10
23.169827
20
28.5080129
40
0.1126485
50
92.6088068
51
106.1990587
0
ARC
8
DEFAULT_255_1_234
10
23.1728643
20
28.4684774
40
0.1522861
50
89.9660831
51
93.0733434
0
ARC
8
DEFAULT_255_1_234
10
23.1739338
20
28.490632
40
0.130135
50
78.4379222
51
90.4311858
0
ARC
8
DEFAULT_255_1_234
10
23.1835919
20
28.5356588
40
0.0840873
50
56.8960528
51
78.7359558
0
ARC
8
DEFAULT_255_1_234
10
23.1899145
20
28.5466877
40
0.0713991
50
42.6499553
51
56.3125067
0
ARC
8
DEFAULT_255_1_234
10
23.1771032
20
28.5349146
40
0.0887984
50
3.8142714
51
42.6365749
0
ARC
8
DEFAULT_255_1_234
10
23.1484834
20
28.5309153
40
0.1176392
50
359.9476902
51
4.8305927
0
ARC
8
DEFAULT_255_1_234
10
23.1710993
20
28.5298541
40
0.0950282
50
340.9376387
51
0.5750546
0
ARC
8
DEFAULT_255_1_234
10
23.1823489
20
28.5268192
40
0.0834082
50
316.0805399
51
340.3842391
0
ARC
8
DEFAULT_255_1_234
10
23.1881567
20
28.5214809
40
0.0755219
50
285.8514865
51
315.9414755
0
ARC
8
DEFAULT_255_1_234
10
23.1764138
20
28.5594349
40
0.115244
50
273.1292529
51
286.3135479
0
ARC
8
DEFAULT_255_1_234
10
23.1730837
20
28.5996049
40
0.1555398
50
269.9524064
51
273.5463789
0
ARC
8
DEFAULT_255_1_234
10
23.1719789
20
28.5777792
40
0.1337177
50
259.0490813
51
270.4180302
0
ARC
8
DEFAULT_255_1_234
10
23.1623452
20
28.5300393
40
0.0850178
50
239.7587791
51
259.311372
0
ARC
8
DEFAULT_255_1_234
10
23.1542484
20
28.5149482
40
0.0679053
50
222.6244131
51
239.247817
0
ARC
8
DEFAULT_255_1_234
10
23.1676859
20
28.5272619
40
0.0861314
50
182.9227855
51
222.598345
0
ARC
8
DEFAULT_255_1_234
10
23.1945477
20
28.5307373
40
0.113155
50
179.9642935
51
183.9868025
0
LINE
8
DEFAULT_255_1_234
10
23.6829699
20
29.0086963
11
23.5641001
21
29.0392169
0
LINE
8
DEFAULT_255_1_234
10
23.5641001
20
29.0392169
11
23.623535
21
29.6223211
0
LINE
8
DEFAULT_255_1_234
10
23.623535
20
29.6223211
11
24.2227027
21
29.6223211
0
LINE
8
DEFAULT_255_1_234
10
24.2227027
20
29.6223211
11
24.2227027
21
29.4849784
0
LINE
8
DEFAULT_255_1_234
10
24.2227027
20
29.4849784
11
23.7496333
21
29.4849784
0
LINE
8
DEFAULT_255_1_234
10
23.7496333
20
29.4849784
11
23.7142937
21
29.1661184
0
LINE
8
DEFAULT_255_1_234
10
23.5223351
20
28.7605156
11
23.6628905
21
28.7605156
0
LINE
8
DEFAULT_255_1_234
10
23.7223254
20
29.0408232
11
23.6829699
21
29.0086963
0
ARC
8
DEFAULT_255_1_234
10
23.899772
20
28.848123
40
0.3681349
50
93.7182161
51
120.2538958
0
ARC
8
DEFAULT_255_1_234
10
23.9091983
20
28.7673394
40
0.449379
50
89.9660152
51
94.2496022
0
ARC
8
DEFAULT_255_1_234
10
23.9132717
20
28.8262549
40
0.390482
50
73.8043271
51
90.5585896
0
ARC
8
DEFAULT_255_1_234
10
23.9367614
20
28.9120602
40
0.3015334
50
41.3071453
51
73.5430202
0
ARC
8
DEFAULT_255_1_234
10
23.8951442
20
28.8762324
40
0.3564457
50
13.5075983
51
41.2174222
0
ARC
8
DEFAULT_255_1_234
10
23.7309645
20
28.8332486
40
0.5261351
50
1.1331335
51
13.8829381
0
ARC
8
DEFAULT_255_1_234
10
23.5898014
20
28.8256665
40
0.6674378
50
359.9919444
51
1.544251
0
ARC
8
DEFAULT_255_1_234
10
23.7174841
20
28.821528
40
0.5397702
50
347.8572367
51
0.4293338
0
ARC
8
DEFAULT_255_1_234
10
23.8925158
20
28.7818736
40
0.3603188
50
323.673004
51
348.1672506
0
ARC
8
DEFAULT_255_1_234
10
23.9219666
20
28.7639168
40
0.3259678
50
316.8171152
51
323.1492751
0
ARC
8
DEFAULT_255_1_234
10
23.9280855
20
28.760246
40
0.3189975
50
281.8396411
51
316.5457803
0
ARC
8
DEFAULT_255_1_234
10
23.8905119
20
28.9157762
40
0.4789527
50
269.5770101
51
282.4214771
0
ARC
8
DEFAULT_255_1_234
10
23.8833931
20
28.8944125
40
0.45759
50
256.2427136
51
270.4486331
0
ARC
8
DEFAULT_255_1_234
10
23.8534833
20
28.7744229
40
0.3339303
50
228.9023911
51
256.3314342
0
ARC
8
DEFAULT_255_1_234
10
23.8461066
20
28.7627746
40
0.32031
50
193.753695
51
228.5271154
0
ARC
8
DEFAULT_255_1_234
10
23.969902
20
28.79908
40
0.4492253
50
184.924711
51
194.497588
0
ARC
8
DEFAULT_255_1_234
10
23.9891586
20
28.8026591
40
0.3289787
50
187.3600538
51
198.6732863
0
ARC
8
DEFAULT_255_1_234
10
23.884188
20
28.7662674
40
0.217884
50
198.4451669
51
217.794479
0
ARC
8
DEFAULT_255_1_234
10
23.8546056
20
28.7453085
40
0.1816698
50
218.2887171
51
228.5612368
0
ARC
8
DEFAULT_255_1_234
10
23.8643843
20
28.7584963
40
0.1980329
50
228.9654866
51
258.1234728
0
ARC
8
DEFAULT_255_1_234
10
23.8849553
20
28.8465833
40
0.2884748
50
257.7258293
51
270.401361
0
ARC
8
DEFAULT_255_1_234
10
23.8894439
20
28.8020821
40
0.2439788
50
269.4204404
51
286.4209037
0
ARC
8
DEFAULT_255_1_234
10
23.9042926
20
28.7481657
40
0.1880666
50
286.7251356
51
320.600362
0
ARC
8
DEFAULT_255_1_234
10
23.8659751
20
28.7792595
40
0.2374121
50
320.6712579
51
344.5441685
0
ARC
8
DEFAULT_255_1_234
10
23.7503078
20
28.8132045
40
0.3579479
50
344.2412205
51
356.7357071
0
ARC
8
DEFAULT_255_1_234
10
23.6254226
20
28.8235444
40
0.4832297
50
356.3548756
51
0.0500261
0
ARC
8
DEFAULT_255_1_234
10
23.7590735
20
28.826665
40
0.3495889
50
359.5576869
51
12.953486
0
ARC
8
DEFAULT_255_1_234
10
23.8645633
20
28.8522434
40
0.2410532
50
12.6490276
51
41.6081334
0
ARC
8
DEFAULT_255_1_234
10
23.8876004
20
28.8718321
40
0.2108218
50
41.7850273
51
85.9892764
0
ARC
8
DEFAULT_255_1_234
10
23.875274
20
28.7905462
40
0.2928454
50
84.6957577
51
90.0676183
0
ARC
8
DEFAULT_255_1_234
10
23.8729224
20
28.7236716
40
0.3597255
50
89.6804936
51
99.1614436
0
ARC
8
DEFAULT_255_1_234
10
23.8523856
20
28.8464131
40
0.235281
50
98.9830931
51
113.8908934
0
ARC
8
DEFAULT_255_1_234
10
23.8294266
20
28.9005587
40
0.176479
50
114.1950727
51
127.3641004
0
LINE
8
DEFAULT_255_1_234
10
22.7698802
20
36.3904
11
22.6140645
21
36.3904
0
LINE
8
DEFAULT_255_1_234
10
22.4462011
20
36.917282
11
22.5907724
21
36.917282
0
LINE
8
DEFAULT_255_1_234
10
22.5907724
20
36.917282
11
22.5907724
21
36.9855518
0
LINE
8
DEFAULT_255_1_234
10
22.2197061
20
37.0184819
11
22.0703158
21
37.0184819
0
LINE
8
DEFAULT_255_1_234
10
22.7393596
20
36.9935835
11
22.7393596
21
36.593603
0
LINE
8
DEFAULT_255_1_234
10
22.7698802
20
36.4032508
11
22.7698802
21
36.3904
0
LINE
8
DEFAULT_255_1_234
10
22.5907724
20
36.6337617
11
22.5907724
21
36.8120663
0
LINE
8
DEFAULT_255_1_234
10
22.5907724
20
36.8120663
11
22.4743122
21
36.8120663
0
ARC
8
DEFAULT_255_1_234
10
22.7180183
20
36.4408194
40
0.1155358
50
197.0791116
51
205.8741701
0
ARC
8
DEFAULT_255_1_234
10
22.8418782
20
36.4800654
40
0.2454626
50
192.2918602
51
197.3448991
0
ARC
8
DEFAULT_255_1_234
10
23.0372231
20
36.5234663
40
0.4455697
50
189.1576348
51
192.3971359
0
ARC
8
DEFAULT_255_1_234
10
23.3186512
20
36.5693549
40
0.7307142
50
186.8689952
51
189.1979448
0
ARC
8
DEFAULT_255_1_234
10
22.3357666
20
36.7240258
40
0.353352
50
294.0080019
51
316.7604136
0
ARC
8
DEFAULT_255_1_234
10
22.348673
20
36.7058572
40
0.3315331
50
269.5042461
51
293.2479736
0
ARC
8
DEFAULT_255_1_234
10
22.3427215
20
36.7459491
40
0.3716254
50
255.403374
51
270.4753162
0
ARC
8
DEFAULT_255_1_234
10
22.3197187
20
36.6566825
40
0.2794431
50
228.6140946
51
255.354999
0
ARC
8
DEFAULT_255_1_234
10
22.286471
20
36.6248491
40
0.2336109
50
181.8953303
51
229.5703879
0
ARC
8
DEFAULT_255_1_234
10
22.3456216
20
36.6312708
40
0.2929755
50
179.984097
51
182.7679515
0
ARC
8
DEFAULT_255_1_234
10
22.3373158
20
36.6347413
40
0.28469
50
161.0341165
51
180.6820968
0
ARC
8
DEFAULT_255_1_234
10
22.2933704
20
36.6461729
40
0.2394402
50
125.0523775
51
160.2033967
0
ARC
8
DEFAULT_255_1_234
10
22.3595713
20
36.5558431
40
0.3514152
50
106.2671988
51
125.4298572
0
ARC
8
DEFAULT_255_1_234
10
22.4168169
20
36.3687842
40
0.5470269
50
95.4857064
51
106.534858
0
ARC
8
DEFAULT_255_1_234
10
22.4441322
20
36.1188758
40
0.7984089
50
89.8515322
51
95.7224983
0
ARC
8
DEFAULT_255_1_234
10
22.3801918
20
36.9873759
40
0.2105886
50
359.503704
51
14.3184734
0
ARC
8
DEFAULT_255_1_234
10
22.4376042
20
37.0023017
40
0.1512684
50
14.2187004
51
45.2025693
0
ARC
8
DEFAULT_255_1_234
10
22.4412238
20
37.0037251
40
0.1477163
50
45.8098026
51
73.0032427
0
ARC
8
DEFAULT_255_1_234
10
22.4163206
20
36.9275896
40
0.2278113
50
72.610967
51
85.7232876
0
ARC
8
DEFAULT_255_1_234
10
22.40732
20
36.8362569
40
0.3195681
50
85.3352114
51
90.0850615
0
ARC
8
DEFAULT_255_1_234
10
22.4049603
20
36.8953391
40
0.2604924
50
89.5853149
51
103.4592217
0
ARC
8
DEFAULT_255_1_234
10
22.3897206
20
36.9588597
40
0.1951693
50
103.44851
51
126.5404292
0
ARC
8
DEFAULT_255_1_234
10
22.3658086
20
36.989443
40
0.1563639
50
126.1729825
51
141.5004088
0
ARC
8
DEFAULT_255_1_234
10
22.3279687
20
37.0191385
40
0.1082645
50
141.3333588
51
180.3474677
0
ARC
8
DEFAULT_255_1_234
10
22.2605397
20
37.0174174
40
0.1902269
50
151.6374668
51
179.6793754
0
ARC
8
DEFAULT_255_1_234
10
22.3207639
20
36.9874334
40
0.2574753
50
142.4988163
51
152.1325379
0
ARC
8
DEFAULT_255_1_234
10
22.3525599
20
36.9624735
40
0.2978957
50
120.8284787
51
142.4132259
0
ARC
8
DEFAULT_255_1_234
10
22.3941708
20
36.8973301
40
0.3751664
50
113.9638113
51
121.1869885
0
ARC
8
DEFAULT_255_1_234
10
22.407786
20
36.8641544
40
0.4110136
50
93.3784663
51
113.8198047
0
ARC
8
DEFAULT_255_1_234
10
22.4154641
20
36.7876446
40
0.487853
50
89.9745882
51
93.7491274
0
ARC
8
DEFAULT_255_1_234
10
22.4189528
20
36.7912605
40
0.4842481
50
79.1325877
51
90.3871757
0
ARC
8
DEFAULT_255_1_234
10
22.4514648
20
36.9537435
40
0.3185522
50
60.1435559
51
79.3654871
0
ARC
8
DEFAULT_255_1_234
10
22.4771337
20
37.003043
40
0.2630271
50
48.6192091
51
59.646742
0
ARC
8
DEFAULT_255_1_234
10
22.4819075
20
37.0093691
40
0.2551253
50
9.0349315
51
48.4844544
0
ARC
8
DEFAULT_255_1_234
10
22.3742918
20
36.9858793
40
0.3651489
50
1.2089744
51
10.0233366
0
ARC
8
DEFAULT_255_1_234
10
23.5029664
20
36.5911518
40
0.7636108
50
179.8160804
51
185.3206488
0
ARC
8
DEFAULT_255_1_234
10
23.2334146
20
36.5654155
40
0.4928344
50
185.2474014
51
192.7953707
0
ARC
8
DEFAULT_255_1_234
10
23.0572403
20
36.5249824
40
0.3120807
50
192.7197759
51
202.9585048
0
ARC
8
DEFAULT_255_1_234
10
22.3674586
20
36.7647928
40
0.2611453
50
270.0069004
51
300.5035019
0
ARC
8
DEFAULT_255_1_234
10
22.3797194
20
36.7519927
40
0.2439274
50
299.5482464
51
315.6095048
0
ARC
8
DEFAULT_255_1_234
10
22.4087291
20
36.7223155
40
0.2024389
50
315.868035
51
334.0596869
0
ARC
8
DEFAULT_255_1_234
10
22.4699651
20
36.1146943
40
0.6973855
50
89.6428514
51
97.2870891
0
ARC
8
DEFAULT_255_1_234
10
22.4258414
20
36.4450571
40
0.3640992
50
96.9938028
51
109.7781797
0
ARC
8
DEFAULT_255_1_234
10
22.3593039
20
36.6231891
40
0.1739759
50
109.0087453
51
135.326626
0
ARC
8
DEFAULT_255_1_234
10
22.3319643
20
36.6570473
40
0.1308198
50
137.4539381
51
182.1082805
0
ARC
8
DEFAULT_255_1_234
10
22.3693634
20
36.6505893
40
0.1681384
50
179.4392907
51
195.7200177
0
ARC
8
DEFAULT_255_1_234
10
22.3282062
20
36.6393426
40
0.1254738
50
195.8684065
51
230.1572205
0
ARC
8
DEFAULT_255_1_234
10
22.3524489
20
36.6683769
40
0.1632985
50
230.1530708
51
259.7485588
0
ARC
8
DEFAULT_255_1_234
10
22.3663193
20
36.7337386
40
0.230094
50
259.2463819
51
270.291543
0
ARC
8
DEFAULT_255_1_234
10
23.0825241
20
36.4692565
40
0.1070357
50
163.5417914
51
180.5078233
0
ARC
8
DEFAULT_255_1_234
10
23.063306
20
36.4744421
40
0.0871371
50
138.1647447
51
163.2316401
0
ARC
8
DEFAULT_255_1_234
10
23.0520838
20
36.4839534
40
0.0724329
50
105.6856465
51
137.8494928
0
ARC
8
DEFAULT_255_1_234
10
23.063927
20
36.4455129
40
0.1126485
50
92.6088068
51
106.1990587
0
ARC
8
DEFAULT_255_1_234
10
23.0669643
20
36.4059774
40
0.1522861
50
89.9660831
51
93.0733434
0
ARC
8
DEFAULT_255_1_234
10
23.0680338
20
36.428132
40
0.130135
50
78.4379222
51
90.4311858
0
ARC
8
DEFAULT_255_1_234
10
23.0776919
20
36.4731588
40
0.0840873
50
56.8960528
51
78.7359558
0
ARC
8
DEFAULT_255_1_234
10
23.0840145
20
36.4841877
40
0.0713991
50
42.6499553
51
56.3125067
0
ARC
8
DEFAULT_255_1_234
10
23.0712032
20
36.4724146
40
0.0887984
50
3.8142714
51
42.6365749
0
ARC
8
DEFAULT_255_1_234
10
23.0425834
20
36.4684153
40
0.1176392
50
359.9476902
51
4.8305927
0
ARC
8
DEFAULT_255_1_234
10
23.0651993
20
36.4673541
40
0.0950282
50
340.9376387
51
0.5750546
0
ARC
8
DEFAULT_255_1_234
10
23.0764489
20
36.4643192
40
0.0834082
50
316.0805399
51
340.3842391
0
ARC
8
DEFAULT_255_1_234
10
23.0822567
20
36.4589809
40
0.0755219
50
285.8514865
51
315.9414755
0
ARC
8
DEFAULT_255_1_234
10
23.0705138
20
36.4969349
40
0.115244
50
273.1292529
51
286.3135479
0
ARC
8
DEFAULT_255_1_234
10
23.0671837
20
36.5371049
40
0.1555398
50
269.9524064
51
273.5463789
0
ARC
8
DEFAULT_255_1_234
10
23.0660789
20
36.5152792
40
0.1337177
50
259.0490813
51
270.4180302
0
ARC
8
DEFAULT_255_1_234
10
23.0564452
20
36.4675393
40
0.0850178
50
239.7587791
51
259.311372
0
ARC
8
DEFAULT_255_1_234
10
23.0483484
20
36.4524482
40
0.0679053
50
222.6244131
51
239.247817
0
ARC
8
DEFAULT_255_1_234
10
23.0617859
20
36.4647619
40
0.0861314
50
182.9227855
51
222.598345
0
ARC
8
DEFAULT_255_1_234
10
23.0886477
20
36.4682373
40
0.113155
50
179.9642935
51
183.9868025
0
LINE
8
DEFAULT_255_1_234
10
24.0172091
20
37.5598211
11
24.0172091
21
36.783152
0
LINE
8
DEFAULT_255_1_234
10
24.0172091
20
36.783152
11
24.1794502
21
36.783152
0
LINE
8
DEFAULT_255_1_234
10
24.1794502
20
36.783152
11
24.1794502
21
36.6618728
0
LINE
8
DEFAULT_255_1_234
10
24.1794502
20
36.6618728
11
24.0172091
21
36.6618728
0
LINE
8
DEFAULT_255_1_234
10
24.0172091
20
36.6618728
11
24.0172091
21
36.3904
0
LINE
8
DEFAULT_255_1_234
10
24.0172091
20
36.3904
11
23.8678188
21
36.3904
0
LINE
8
DEFAULT_255_1_234
10
23.8678188
20
36.3904
11
23.8678188
21
36.6618728
0
LINE
8
DEFAULT_255_1_234
10
23.8678188
20
36.6618728
11
23.3353146
21
36.6618728
0
LINE
8
DEFAULT_255_1_234
10
23.3353146
20
36.6618728
11
23.3353146
21
36.7494187
0
LINE
8
DEFAULT_255_1_234
10
23.3353146
20
36.7494187
11
23.8589839
21
37.5598211
0
LINE
8
DEFAULT_255_1_234
10
23.8589839
20
37.5598211
11
24.0172091
21
37.5598211
0
LINE
8
DEFAULT_255_1_234
10
23.850149
20
37.3244912
11
23.5039811
21
36.783152
0
LINE
8
DEFAULT_255_1_234
10
23.5039811
20
36.783152
11
23.8678188
21
36.783152
0
LINE
8
DEFAULT_255_1_234
10
23.8678188
20
36.783152
11
23.8678188
21
37.3566181
0
LINE
8
DEFAULT_255_1_234
10
23.8678188
20
37.3566181
11
23.850149
21
37.3244912
0
LINE
8
DEFAULT_255_1_234
10
22.8757802
20
44.3279
11
22.7199645
21
44.3279
0
LINE
8
DEFAULT_255_1_234
10
22.5521011
20
44.854782
11
22.6966724
21
44.854782
0
LINE
8
DEFAULT_255_1_234
10
22.6966724
20
44.854782
11
22.6966724
21
44.9230518
0
LINE
8
DEFAULT_255_1_234
10
22.3256061
20
44.9559819
11
22.1762158
21
44.9559819
0
LINE
8
DEFAULT_255_1_234
10
22.8452596
20
44.9310835
11
22.8452596
21
44.531103
0
LINE
8
DEFAULT_255_1_234
10
22.8757802
20
44.3407508
11
22.8757802
21
44.3279
0
LINE
8
DEFAULT_255_1_234
10
22.6966724
20
44.5712617
11
22.6966724
21
44.7495663
0
LINE
8
DEFAULT_255_1_234
10
22.6966724
20
44.7495663
11
22.5802122
21
44.7495663
0
ARC
8
DEFAULT_255_1_234
10
22.8239183
20
44.3783194
40
0.1155358
50
197.0791116
51
205.8741701
0
ARC
8
DEFAULT_255_1_234
10
22.9477782
20
44.4175654
40
0.2454626
50
192.2918602
51
197.3448991
0
ARC
8
DEFAULT_255_1_234
10
23.1431231
20
44.4609663
40
0.4455697
50
189.1576348
51
192.3971359
0
ARC
8
DEFAULT_255_1_234
10
23.4245512
20
44.5068549
40
0.7307142
50
186.8689952
51
189.1979448
0
ARC
8
DEFAULT_255_1_234
10
22.4416666
20
44.6615258
40
0.353352
50
294.0080019
51
316.7604136
0
ARC
8
DEFAULT_255_1_234
10
22.454573
20
44.6433572
40
0.3315331
50
269.5042461
51
293.2479736
0
ARC
8
DEFAULT_255_1_234
10
22.4486215
20
44.6834491
40
0.3716254
50
255.403374
51
270.4753162
0
ARC
8
DEFAULT_255_1_234
10
22.4256187
20
44.5941825
40
0.2794431
50
228.6140946
51
255.354999
0
ARC
8
DEFAULT_255_1_234
10
22.392371
20
44.5623491
40
0.2336109
50
181.8953303
51
229.5703879
0
ARC
8
DEFAULT_255_1_234
10
22.4515216
20
44.5687708
40
0.2929755
50
179.984097
51
182.7679515
0
ARC
8
DEFAULT_255_1_234
10
22.4432158
20
44.5722413
40
0.28469
50
161.0341165
51
180.6820968
0
ARC
8
DEFAULT_255_1_234
10
22.3992704
20
44.5836729
40
0.2394402
50
125.0523775
51
160.2033967
0
ARC
8
DEFAULT_255_1_234
10
22.4654713
20
44.4933431
40
0.3514152
50
106.2671988
51
125.4298572
0
ARC
8
DEFAULT_255_1_234
10
22.5227169
20
44.3062842
40
0.5470269
50
95.4857064
51
106.534858
0
ARC
8
DEFAULT_255_1_234
10
22.5500322
20
44.0563758
40
0.7984089
50
89.8515322
51
95.7224983
0
ARC
8
DEFAULT_255_1_234
10
22.4860918
20
44.9248759
40
0.2105886
50
359.503704
51
14.3184734
0
ARC
8
DEFAULT_255_1_234
10
22.5435042
20
44.9398017
40
0.1512684
50
14.2187004
51
45.2025693
0
ARC
8
DEFAULT_255_1_234
10
22.5471238
20
44.9412251
40
0.1477163
50
45.8098026
51
73.0032427
0
ARC
8
DEFAULT_255_1_234
10
22.5222206
20
44.8650896
40
0.2278113
50
72.610967
51
85.7232876
0
ARC
8
DEFAULT_255_1_234
10
22.51322
20
44.7737569
40
0.3195681
50
85.3352114
51
90.0850615
0
ARC
8
DEFAULT_255_1_234
10
22.5108603
20
44.8328391
40
0.2604924
50
89.5853149
51
103.4592217
0
ARC
8
DEFAULT_255_1_234
10
22.4956206
20
44.8963597
40
0.1951693
50
103.44851
51
126.5404292
0
ARC
8
DEFAULT_255_1_234
10
22.4717086
20
44.926943
40
0.1563639
50
126.1729825
51
141.5004088
0
ARC
8
DEFAULT_255_1_234
10
22.4338687
20
44.9566385
40
0.1082645
50
141.3333588
51
180.3474677
0
ARC
8
DEFAULT_255_1_234
10
22.3664397
20
44.9549174
40
0.1902269
50
151.6374668
51
179.6793754
0
ARC
8
DEFAULT_255_1_234
10
22.4266639
20
44.9249334
40
0.2574753
50
142.4988163
51
152.1325379
0
ARC
8
DEFAULT_255_1_234
10
22.4584599
20
44.8999735
40
0.2978957
50
120.8284787
51
142.4132259
0
ARC
8
DEFAULT_255_1_234
10
22.5000708
20
44.8348301
40
0.3751664
50
113.9638113
51
121.1869885
0
ARC
8
DEFAULT_255_1_234
10
22.513686
20
44.8016544
40
0.4110136
50
93.3784663
51
113.8198047
0
ARC
8
DEFAULT_255_1_234
10
22.5213641
20
44.7251446
40
0.487853
50
89.9745882
51
93.7491274
0
ARC
8
DEFAULT_255_1_234
10
22.5248528
20
44.7287605
40
0.4842481
50
79.1325877
51
90.3871757
0
ARC
8
DEFAULT_255_1_234
10
22.5573648
20
44.8912435
40
0.3185522
50
60.1435559
51
79.3654871
0
ARC
8
DEFAULT_255_1_234
10
22.5830337
20
44.940543
40
0.2630271
50
48.6192091
51
59.646742
0
ARC
8
DEFAULT_255_1_234
10
22.5878075
20
44.9468691
40
0.2551253
50
9.0349315
51
48.4844544
0
ARC
8
DEFAULT_255_1_234
10
22.4801918
20
44.9233793
40
0.3651489
50
1.2089744
51
10.0233366
0
ARC
8
DEFAULT_255_1_234
10
23.6088664
20
44.5286518
40
0.7636108
50
179.8160804
51
185.3206488
0
ARC
8
DEFAULT_255_1_234
10
23.3393146
20
44.5029155
40
0.4928344
50
185.2474014
51
192.7953707
0
ARC
8
DEFAULT_255_1_234
10
23.1631403
20
44.4624824
40
0.3120807
50
192.7197759
51
202.9585048
0
ARC
8
DEFAULT_255_1_234
10
22.4733586
20
44.7022928
40
0.2611453
50
270.0069004
51
300.5035019
0
ARC
8
DEFAULT_255_1_234
10
22.4856194
20
44.6894927
40
0.2439274
50
299.5482464
51
315.6095048
0
ARC
8
DEFAULT_255_1_234
10
22.5146291
20
44.6598155
40
0.2024389
50
315.868035
51
334.0596869
0
ARC
8
DEFAULT_255_1_234
10
22.5758651
20
44.0521943
40
0.6973855
50
89.6428514
51
97.2870891
0
ARC
8
DEFAULT_255_1_234
10
22.5317414
20
44.3825571
40
0.3640992
50
96.9938028
51
109.7781797
0
ARC
8
DEFAULT_255_1_234
10
22.4652039
20
44.5606891
40
0.1739759
50
109.0087453
51
135.326626
0
ARC
8
DEFAULT_255_1_234
10
22.4378643
20
44.5945473
40
0.1308198
50
137.4539381
51
182.1082805
0
ARC
8
DEFAULT_255_1_234
10
22.4752634
20
44.5880893
40
0.1681384
50
179.4392907
51
195.7200177
0
ARC
8
DEFAULT_255_1_234
10
22.4341062
20
44.5768426
40
0.1254738
50
195.8684065
51
230.1572205
0
ARC
8
DEFAULT_255_1_234
10
22.4583489
20
44.6058769
40
0.1632985
50
230.1530708
51
259.7485588
0
ARC
8
DEFAULT_255_1_234
10
22.4722193
20
44.6712386
40
0.230094
50
259.2463819
51
270.291543
0
ARC
8
DEFAULT_255_1_234
10
23.1884241
20
44.4067565
40
0.1070357
50
163.5417914
51
180.5078233
0
ARC
8
DEFAULT_255_1_234
10
23.169206
20
44.4119421
40
0.0871371
50
138.1647447
51
163.2316401
0
ARC
8
DEFAULT_255_1_234
10
23.1579838
20
44.4214534
40
0.0724329
50
105.6856465
51
137.8494928
0
ARC
8
DEFAULT_255_1_234
10
23.169827
20
44.3830129
40
0.1126485
50
92.6088068
51
106.1990587
0
ARC
8
DEFAULT_255_1_234
10
23.1728643
20
44.3434774
40
0.1522861
50
89.9660831
51
93.0733434
0
ARC
8
DEFAULT_255_1_234
10
23.1739338
20
44.365632
40
0.130135
50
78.4379222
51
90.4311858
0
ARC
8
DEFAULT_255_1_234
10
23.1835919
20
44.4106588
40
0.0840873
50
56.8960528
51
78.7359558
0
ARC
8
DEFAULT_255_1_234
10
23.1899145
20
44.4216877
40
0.0713991
50
42.6499553
51
56.3125067
0
ARC
8
DEFAULT_255_1_234
10
23.1771032
20
44.4099146
40
0.0887984
50
3.8142714
51
42.6365749
0
ARC
8
DEFAULT_255_1_234
10
23.1484834
20
44.4059153
40
0.1176392
50
359.9476902
51
4.8305927
0
ARC
8
DEFAULT_255_1_234
10
23.1710993
20
44.4048541
40
0.0950282
50
340.9376387
51
0.5750546
0
ARC
8
DEFAULT_255_1_234
10
23.1823489
20
44.4018192
40
0.0834082
50
316.0805399
51
340.3842391
0
ARC
8
DEFAULT_255_1_234
10
23.1881567
20
44.3964809
40
0.0755219
50
285.8514865
51
315.9414755
0
ARC
8
DEFAULT_255_1_234
10
23.1764138
20
44.4344349
40
0.115244
50
273.1292529
51
286.3135479
0
ARC
8
DEFAULT_255_1_234
10
23.1730837
20
44.4746049
40
0.1555398
50
269.9524064
51
273.5463789
0
ARC
8
DEFAULT_255_1_234
10
23.1719789
20
44.4527792
40
0.1337177
50
259.0490813
51
270.4180302
0
ARC
8
DEFAULT_255_1_234
10
23.1623452
20
44.4050393
40
0.0850178
50
239.7587791
51
259.311372
0
ARC
8
DEFAULT_255_1_234
10
23.1542484
20
44.3899482
40
0.0679053
50
222.6244131
51
239.247817
0
ARC
8
DEFAULT_255_1_234
10
23.1676859
20
44.4022619
40
0.0861314
50
182.9227855
51
222.598345
0
ARC
8
DEFAULT_255_1_234
10
23.1945477
20
44.4057373
40
0.113155
50
179.9642935
51
183.9868025
0
LINE
8
DEFAULT_255_1_234
10
23.7118841
20
44.8636169
11
23.7118841
21
44.9848962
0
LINE
8
DEFAULT_255_1_234
10
23.7118841
20
44.9848962
11
23.8235253
21
44.9848962
0
LINE
8
DEFAULT_255_1_234
10
23.6331731
20
45.1905087
11
23.4845859
21
45.1905087
0
LINE
8
DEFAULT_255_1_234
10
23.4741447
20
44.6363188
11
23.623535
21
44.6363188
0
LINE
8
DEFAULT_255_1_234
10
23.8235253
20
44.8636169
11
23.7118841
21
44.8636169
0
ARC
8
DEFAULT_255_1_234
10
23.8206119
20
45.3241713
40
0.3392876
50
270.4919872
51
281.8951556
0
ARC
8
DEFAULT_255_1_234
10
23.8447381
20
45.2139702
40
0.2264817
50
281.6691735
51
301.2943132
0
ARC
8
DEFAULT_255_1_234
10
23.8617591
20
45.1828304
40
0.1910381
50
301.7833094
51
311.7545298
0
ARC
8
DEFAULT_255_1_234
10
23.8709167
20
45.1726748
40
0.1773635
50
311.7323931
51
354.2802411
0
ARC
8
DEFAULT_255_1_234
10
23.7982792
20
45.1851722
40
0.2509385
50
353.0937916
51
0.1181479
0
ARC
8
DEFAULT_255_1_234
10
23.7521577
20
45.1899386
40
0.2970898
50
359.1805295
51
15.0453146
0
ARC
8
DEFAULT_255_1_234
10
23.8867414
20
45.2291992
40
0.1569564
50
13.9577229
51
77.6713066
0
ARC
8
DEFAULT_255_1_234
10
23.8480943
20
45.0906949
40
0.3006298
50
76.1116566
51
90.7026153
0
ARC
8
DEFAULT_255_1_234
10
23.8421782
20
45.1180545
40
0.2732568
50
89.5324876
51
103.531937
0
ARC
8
DEFAULT_255_1_234
10
23.8221226
20
45.1979884
40
0.1908508
50
103.2931773
51
133.5619022
0
ARC
8
DEFAULT_255_1_234
10
23.8176714
20
45.2039375
40
0.1834746
50
133.8349307
51
173.5344437
0
ARC
8
DEFAULT_255_1_234
10
23.8899757
20
45.1911213
40
0.2568033
50
172.5096846
51
180.1366907
0
ARC
8
DEFAULT_255_1_234
10
23.7948651
20
45.1945622
40
0.3103056
50
155.3484492
51
180.7484736
0
ARC
8
DEFAULT_255_1_234
10
23.789974
20
45.1916846
40
0.3070957
50
131.5744599
51
154.4798489
0
ARC
8
DEFAULT_255_1_234
10
23.8212888
20
45.160031
40
0.3515643
50
96.9875458
51
131.9690667
0
ARC
8
DEFAULT_255_1_234
10
23.8432367
20
45.0354636
40
0.4779224
50
89.8596053
51
97.7825159
0
ARC
8
DEFAULT_255_1_234
10
23.8480431
20
45.0092616
40
0.5041361
50
78.3655447
51
90.4131539
0
ARC
8
DEFAULT_255_1_234
10
23.8838348
20
45.1751887
40
0.3344039
50
56.6229102
51
78.638727
0
ARC
8
DEFAULT_255_1_234
10
23.9053292
20
45.2127805
40
0.2912001
50
47.0253525
51
56.0854072
0
ARC
8
DEFAULT_255_1_234
10
23.9073072
20
45.2167223
40
0.2869704
50
10.9208013
51
46.7778124
0
ARC
8
DEFAULT_255_1_234
10
23.7709139
20
45.1851857
40
0.426899
50
359.6364486
51
11.6087304
0
ARC
8
DEFAULT_255_1_234
10
23.9543983
20
45.1836752
40
0.243409
50
332.3549906
51
359.7179418
0
ARC
8
DEFAULT_255_1_234
10
23.8893584
20
45.2145142
40
0.3153459
50
325.2333722
51
332.8745602
0
ARC
8
DEFAULT_255_1_234
10
23.9046208
20
45.2038828
40
0.2967456
50
292.9802137
51
325.2392345
0
ARC
8
DEFAULT_255_1_234
10
23.8771582
20
45.2572863
40
0.3566604
50
292.5402179
51
293.6924929
0
ARC
8
DEFAULT_255_1_234
10
23.9164178
20
44.6118091
40
0.3307468
50
57.6435486
51
72.8625112
0
ARC
8
DEFAULT_255_1_234
10
23.9518677
20
44.6692549
40
0.2632492
50
36.7248896
51
57.4697979
0
ARC
8
DEFAULT_255_1_234
10
23.950731
20
44.670522
40
0.2634081
50
8.0545065
51
36.356114
0
ARC
8
DEFAULT_255_1_234
10
23.8644495
20
44.6550174
40
0.3510261
50
359.8320645
51
8.5869982
0
ARC
8
DEFAULT_255_1_234
10
23.8269272
20
44.6502101
40
0.3885653
50
343.9829931
51
0.5571613
0
ARC
8
DEFAULT_255_1_234
10
23.9155469
20
44.6259438
40
0.2966924
50
311.6359546
51
343.7651759
0
ARC
8
DEFAULT_255_1_234
10
23.8777038
20
44.6686102
40
0.3537231
50
279.7829875
51
311.6255694
0
ARC
8
DEFAULT_255_1_234
10
23.8475814
20
44.812328
40
0.5004971
50
269.7286406
51
280.3856417
0
ARC
8
DEFAULT_255_1_234
10
23.8413887
20
44.8081996
40
0.4963778
50
256.6828919
51
270.4412052
0
ARC
8
DEFAULT_255_1_234
10
23.8075183
20
44.6697394
40
0.3538406
50
229.4223008
51
256.8556159
0
ARC
8
DEFAULT_255_1_234
10
23.7660575
20
44.6230736
40
0.2914296
50
181.818294
51
229.6455059
0
ARC
8
DEFAULT_255_1_234
10
23.8700532
20
44.6361496
40
0.3959084
50
179.9755256
51
183.2323064
0
ARC
8
DEFAULT_255_1_234
10
23.8528277
20
44.6341037
40
0.2293034
50
179.4465117
51
196.2869258
0
ARC
8
DEFAULT_255_1_234
10
23.8040685
20
44.6207651
40
0.1787621
50
196.5661473
51
227.705904
0
ARC
8
DEFAULT_255_1_234
10
23.820478
20
44.6391155
40
0.2033784
50
227.7652068
51
257.8762805
0
ARC
8
DEFAULT_255_1_234
10
23.842975
20
44.7334156
40
0.3003081
50
257.4584385
51
270.426602
0
ARC
8
DEFAULT_255_1_234
10
23.8475317
20
44.7623996
40
0.329292
50
269.5962073
51
280.8789248
0
ARC
8
DEFAULT_255_1_234
10
23.8704845
20
44.6477685
40
0.2123908
50
280.6346389
51
299.8595945
0
ARC
8
DEFAULT_255_1_234
10
23.8895752
20
44.6115212
40
0.171457
50
300.3576302
51
314.5517981
0
ARC
8
DEFAULT_255_1_234
10
23.8812812
20
44.6175919
40
0.1816095
50
315.0728369
51
345.0431014
0
ARC
8
DEFAULT_255_1_234
10
23.7889627
20
44.6444841
40
0.2777492
50
344.5986631
51
357.9269593
0
ARC
8
DEFAULT_255_1_234
10
23.6993953
20
44.6506276
40
0.3674917
50
357.4748886
51
0.0231117
0
ARC
8
DEFAULT_255_1_234
10
23.8017062
20
44.6530679
40
0.2651907
50
359.5047933
51
13.4239635
0
ARC
8
DEFAULT_255_1_234
10
23.8883706
20
44.6752478
40
0.1757509
50
12.9498199
51
48.7551375
0
ARC
8
DEFAULT_255_1_234
10
23.870144
20
44.65034
40
0.2065134
50
49.5088623
51
72.1836453
0
ARC
8
DEFAULT_255_1_234
10
23.8343592
20
44.5441291
40
0.3185836
50
71.9010081
51
84.3554254
0
ARC
8
DEFAULT_255_1_234
10
23.8182224
20
44.4080326
40
0.4556151
50
84.0193428
51
89.333121
0
LINE
8
DEFAULT_255_1_234
10
23.3834119
20
52.3866792
11
23.3834119
21
52.2654
0
LINE
8
DEFAULT_255_1_234
10
23.3834119
20
52.2654
11
22.617184
21
52.2654
0
LINE
8
DEFAULT_255_1_234
10
22.617184
20
52.2654
11
22.617184
21
52.3722221
0
LINE
8
DEFAULT_255_1_234
10
22.617184
20
52.3722221
11
23.0219836
21
52.8219995
0
LINE
8
DEFAULT_255_1_234
10
22.7432823
20
53.0902595
11
22.5946952
21
53.0902595
0
LINE
8
DEFAULT_255_1_234
10
23.1095296
20
52.7264218
11
22.7962918
21
52.3866792
0
LINE
8
DEFAULT_255_1_234
10
22.7962918
20
52.3866792
11
23.3834119
21
52.3866792
0
ARC
8
DEFAULT_255_1_234
10
21.672967
20
54.0149527
40
1.8008286
50
318.5132453
51
320.7828378
0
ARC
8
DEFAULT_255_1_234
10
22.2016644
20
53.5846426
40
1.1191493
50
320.7372736
51
323.9737074
0
ARC
8
DEFAULT_255_1_234
10
22.5936501
20
53.3006361
40
0.6350923
50
323.8961724
51
328.6421089
0
ARC
8
DEFAULT_255_1_234
10
22.7983096
20
53.1744031
40
0.3946393
50
328.8299013
51
331.789948
0
ARC
8
DEFAULT_255_1_234
10
22.8980274
20
53.1229509
40
0.2824501
50
331.4255242
51
352.9364833
0
ARC
8
DEFAULT_255_1_234
10
22.9116775
20
53.1198976
40
0.2685315
50
353.2248685
51
0.0169286
0
ARC
8
DEFAULT_255_1_234
10
22.9326652
20
53.122195
40
0.2475536
50
359.4866256
51
15.9339782
0
ARC
8
DEFAULT_255_1_234
10
22.9833637
20
53.1358286
40
0.1950618
50
16.1714718
51
43.5284424
0
ARC
8
DEFAULT_255_1_234
10
22.9910946
20
53.1435573
40
0.184134
50
43.4415429
51
83.1661404
0
ARC
8
DEFAULT_255_1_234
10
22.9776864
20
53.0698771
40
0.258926
50
82.160215
51
90.1505798
0
ARC
8
DEFAULT_255_1_234
10
22.9745291
20
53.0161865
40
0.3126255
50
89.5460705
51
102.5418777
0
ARC
8
DEFAULT_255_1_234
10
22.9502377
20
53.1192665
40
0.2067346
50
102.1739365
51
129.2061916
0
ARC
8
DEFAULT_255_1_234
10
22.9423449
20
53.1317094
40
0.1921118
50
129.7279328
51
135.7542026
0
ARC
8
DEFAULT_255_1_234
10
22.9544977
20
53.1220045
40
0.2075944
50
136.175737
51
166.3674722
0
ARC
8
DEFAULT_255_1_234
10
23.0551896
20
53.0950182
40
0.3118201
50
165.9092917
51
178.8683903
0
ARC
8
DEFAULT_255_1_234
10
23.1416757
20
53.0903179
40
0.3983935
50
178.438168
51
180.0083905
0
ARC
8
DEFAULT_255_1_234
10
23.0015359
20
53.0942231
40
0.4068601
50
163.2878735
51
180.5581814
0
ARC
8
DEFAULT_255_1_234
10
22.9213621
20
53.116284
40
0.3237344
50
133.454115
51
162.9470031
0
ARC
8
DEFAULT_255_1_234
10
22.9392162
20
53.0973
40
0.349795
50
100.7869394
51
133.4384016
0
ARC
8
DEFAULT_255_1_234
10
22.9739934
20
52.9424319
40
0.5084616
50
89.6605301
51
101.3704185
0
ARC
8
DEFAULT_255_1_234
10
22.9806273
20
52.9485496
40
0.502348
50
78.2171172
51
90.4130393
0
ARC
8
DEFAULT_255_1_234
10
23.0161351
20
53.1109637
40
0.3361092
50
55.9268222
51
78.4888551
0
ARC
8
DEFAULT_255_1_234
10
23.0357791
20
53.1448324
40
0.2970617
50
47.9292255
51
55.4054003
0
ARC
8
DEFAULT_255_1_234
10
23.0459352
20
53.1551502
40
0.2825983
50
4.3347696
51
48.0560701
0
ARC
8
DEFAULT_255_1_234
10
22.9363745
20
53.1381601
40
0.393225
50
359.925209
51
5.5967654
0
ARC
8
DEFAULT_255_1_234
10
22.9792637
20
53.1437816
40
0.3503892
50
337.8914096
51
358.9967724
0
ARC
8
DEFAULT_255_1_234
10
22.7079049
20
53.2484706
40
0.6412172
50
326.9135351
51
338.3505194
0
ARC
8
DEFAULT_255_1_234
10
22.3093353
20
53.5039284
40
1.1146189
50
319.6472867
51
327.095818
0
ARC
8
DEFAULT_255_1_234
10
21.9260356
20
53.8201
40
1.6114559
50
317.2586784
51
319.9046139
0
LINE
8
DEFAULT_255_1_234
10
23.7343988
20
53.4348211
11
23.7343988
21
52.3914983
0
LINE
8
DEFAULT_255_1_234
10
23.7343988
20
52.3914983
11
24.2885888
21
52.3914983
0
LINE
8
DEFAULT_255_1_234
10
24.2885888
20
52.3914983
11
24.2885888
21
52.2654
0
LINE
8
DEFAULT_255_1_234
10
24.2885888
20
52.2654
11
23.5793863
21
52.2654
0
LINE
8
DEFAULT_255_1_234
10
23.5793863
20
52.2654
11
23.5793863
21
53.4348211
0
LINE
8
DEFAULT_255_1_234
10
23.5793863
20
53.4348211
11
23.7343988
21
53.4348211
0
LINE
8
DEFAULT_255_1_234
10
22.8757802
20
60.2029
11
22.7199645
21
60.2029
0
LINE
8
DEFAULT_255_1_234
10
22.5521011
20
60.729782
11
22.6966724
21
60.729782
0
LINE
8
DEFAULT_255_1_234
10
22.6966724
20
60.729782
11
22.6966724
21
60.7980518
0
LINE
8
DEFAULT_255_1_234
10
22.3256061
20
60.8309819
11
22.1762158
21
60.8309819
0
LINE
8
DEFAULT_255_1_234
10
22.8452596
20
60.8060835
11
22.8452596
21
60.406103
0
LINE
8
DEFAULT_255_1_234
10
22.8757802
20
60.2157508
11
22.8757802
21
60.2029
0
LINE
8
DEFAULT_255_1_234
10
22.6966724
20
60.4462617
11
22.6966724
21
60.6245663
0
LINE
8
DEFAULT_255_1_234
10
22.6966724
20
60.6245663
11
22.5802122
21
60.6245663
0
ARC
8
DEFAULT_255_1_234
10
22.8239183
20
60.2533194
40
0.1155358
50
197.0791116
51
205.8741701
0
ARC
8
DEFAULT_255_1_234
10
22.9477782
20
60.2925654
40
0.2454626
50
192.2918602
51
197.3448991
0
ARC
8
DEFAULT_255_1_234
10
23.1431231
20
60.3359663
40
0.4455697
50
189.1576348
51
192.3971359
0
ARC
8
DEFAULT_255_1_234
10
23.4245512
20
60.3818549
40
0.7307142
50
186.8689952
51
189.1979448
0
ARC
8
DEFAULT_255_1_234
10
22.4416666
20
60.5365258
40
0.353352
50
294.0080019
51
316.7604136
0
ARC
8
DEFAULT_255_1_234
10
22.454573
20
60.5183572
40
0.3315331
50
269.5042461
51
293.2479736
0
ARC
8
DEFAULT_255_1_234
10
22.4486215
20
60.5584491
40
0.3716254
50
255.403374
51
270.4753162
0
ARC
8
DEFAULT_255_1_234
10
22.4256187
20
60.4691825
40
0.2794431
50
228.6140946
51
255.354999
0
ARC
8
DEFAULT_255_1_234
10
22.392371
20
60.4373491
40
0.2336109
50
181.8953303
51
229.5703879
0
ARC
8
DEFAULT_255_1_234
10
22.4515216
20
60.4437708
40
0.2929755
50
179.984097
51
182.7679515
0
ARC
8
DEFAULT_255_1_234
10
22.4432158
20
60.4472413
40
0.28469
50
161.0341165
51
180.6820968
0
ARC
8
DEFAULT_255_1_234
10
22.3992704
20
60.4586729
40
0.2394402
50
125.0523775
51
160.2033967
0
ARC
8
DEFAULT_255_1_234
10
22.4654713
20
60.3683431
40
0.3514152
50
106.2671988
51
125.4298572
0
ARC
8
DEFAULT_255_1_234
10
22.5227169
20
60.1812842
40
0.5470269
50
95.4857064
51
106.534858
0
ARC
8
DEFAULT_255_1_234
10
22.5500322
20
59.9313758
40
0.7984089
50
89.8515322
51
95.7224983
0
ARC
8
DEFAULT_255_1_234
10
22.4860918
20
60.7998759
40
0.2105886
50
359.503704
51
14.3184734
0
ARC
8
DEFAULT_255_1_234
10
22.5435042
20
60.8148017
40
0.1512684
50
14.2187004
51
45.2025693
0
ARC
8
DEFAULT_255_1_234
10
22.5471238
20
60.8162251
40
0.1477163
50
45.8098026
51
73.0032427
0
ARC
8
DEFAULT_255_1_234
10
22.5222206
20
60.7400896
40
0.2278113
50
72.610967
51
85.7232876
0
ARC
8
DEFAULT_255_1_234
10
22.51322
20
60.6487569
40
0.3195681
50
85.3352114
51
90.0850615
0
ARC
8
DEFAULT_255_1_234
10
22.5108603
20
60.7078391
40
0.2604924
50
89.5853149
51
103.4592217
0
ARC
8
DEFAULT_255_1_234
10
22.4956206
20
60.7713597
40
0.1951693
50
103.44851
51
126.5404292
0
ARC
8
DEFAULT_255_1_234
10
22.4717086
20
60.801943
40
0.1563639
50
126.1729825
51
141.5004088
0
ARC
8
DEFAULT_255_1_234
10
22.4338687
20
60.8316385
40
0.1082645
50
141.3333588
51
180.3474677
0
ARC
8
DEFAULT_255_1_234
10
22.3664397
20
60.8299174
40
0.1902269
50
151.6374668
51
179.6793754
0
ARC
8
DEFAULT_255_1_234
10
22.4266639
20
60.7999334
40
0.2574753
50
142.4988163
51
152.1325379
0
ARC
8
DEFAULT_255_1_234
10
22.4584599
20
60.7749735
40
0.2978957
50
120.8284787
51
142.4132259
0
ARC
8
DEFAULT_255_1_234
10
22.5000708
20
60.7098301
40
0.3751664
50
113.9638113
51
121.1869885
0
ARC
8
DEFAULT_255_1_234
10
22.513686
20
60.6766544
40
0.4110136
50
93.3784663
51
113.8198047
0
ARC
8
DEFAULT_255_1_234
10
22.5213641
20
60.6001446
40
0.487853
50
89.9745882
51
93.7491274
0
ARC
8
DEFAULT_255_1_234
10
22.5248528
20
60.6037605
40
0.4842481
50
79.1325877
51
90.3871757
0
ARC
8
DEFAULT_255_1_234
10
22.5573648
20
60.7662435
40
0.3185522
50
60.1435559
51
79.3654871
0
ARC
8
DEFAULT_255_1_234
10
22.5830337
20
60.815543
40
0.2630271
50
48.6192091
51
59.646742
0
ARC
8
DEFAULT_255_1_234
10
22.5878075
20
60.8218691
40
0.2551253
50
9.0349315
51
48.4844544
0
ARC
8
DEFAULT_255_1_234
10
22.4801918
20
60.7983793
40
0.3651489
50
1.2089744
51
10.0233366
0
ARC
8
DEFAULT_255_1_234
10
23.6088664
20
60.4036518
40
0.7636108
50
179.8160804
51
185.3206488
0
ARC
8
DEFAULT_255_1_234
10
23.3393146
20
60.3779155
40
0.4928344
50
185.2474014
51
192.7953707
0
ARC
8
DEFAULT_255_1_234
10
23.1631403
20
60.3374824
40
0.3120807
50
192.7197759
51
202.9585048
0
ARC
8
DEFAULT_255_1_234
10
22.4733586
20
60.5772928
40
0.2611453
50
270.0069004
51
300.5035019
0
ARC
8
DEFAULT_255_1_234
10
22.4856194
20
60.5644927
40
0.2439274
50
299.5482464
51
315.6095048
0
ARC
8
DEFAULT_255_1_234
10
22.5146291
20
60.5348155
40
0.2024389
50
315.868035
51
334.0596869
0
ARC
8
DEFAULT_255_1_234
10
22.5758651
20
59.9271943
40
0.6973855
50
89.6428514
51
97.2870891
0
ARC
8
DEFAULT_255_1_234
10
22.5317414
20
60.2575571
40
0.3640992
50
96.9938028
51
109.7781797
0
ARC
8
DEFAULT_255_1_234
10
22.4652039
20
60.4356891
40
0.1739759
50
109.0087453
51
135.326626
0
ARC
8
DEFAULT_255_1_234
10
22.4378643
20
60.4695473
40
0.1308198
50
137.4539381
51
182.1082805
0
ARC
8
DEFAULT_255_1_234
10
22.4752634
20
60.4630893
40
0.1681384
50
179.4392907
51
195.7200177
0
ARC
8
DEFAULT_255_1_234
10
22.4341062
20
60.4518426
40
0.1254738
50
195.8684065
51
230.1572205
0
ARC
8
DEFAULT_255_1_234
10
22.4583489
20
60.4808769
40
0.1632985
50
230.1530708
51
259.7485588
0
ARC
8
DEFAULT_255_1_234
10
22.4722193
20
60.5462386
40
0.230094
50
259.2463819
51
270.291543
0
ARC
8
DEFAULT_255_1_234
10
23.1884241
20
60.2817565
40
0.1070357
50
163.5417914
51
180.5078233
0
ARC
8
DEFAULT_255_1_234
10
23.169206
20
60.2869421
40
0.0871371
50
138.1647447
51
163.2316401
0
ARC
8
DEFAULT_255_1_234
10
23.1579838
20
60.2964534
40
0.0724329
50
105.6856465
51
137.8494928
0
ARC
8
DEFAULT_255_1_234
10
23.169827
20
60.2580129
40
0.1126485
50
92.6088068
51
106.1990587
0
ARC
8
DEFAULT_255_1_234
10
23.1728643
20
60.2184774
40
0.1522861
50
89.9660831
51
93.0733434
0
ARC
8
DEFAULT_255_1_234
10
23.1739338
20
60.240632
40
0.130135
50
78.4379222
51
90.4311858
0
ARC
8
DEFAULT_255_1_234
10
23.1835919
20
60.2856588
40
0.0840873
50
56.8960528
51
78.7359558
0
ARC
8
DEFAULT_255_1_234
10
23.1899145
20
60.2966877
40
0.0713991
50
42.6499553
51
56.3125067
0
ARC
8
DEFAULT_255_1_234
10
23.1771032
20
60.2849146
40
0.0887984
50
3.8142714
51
42.6365749
0
ARC
8
DEFAULT_255_1_234
10
23.1484834
20
60.2809153
40
0.1176392
50
359.9476902
51
4.8305927
0
ARC
8
DEFAULT_255_1_234
10
23.1710993
20
60.2798541
40
0.0950282
50
340.9376387
51
0.5750546
0
ARC
8
DEFAULT_255_1_234
10
23.1823489
20
60.2768192
40
0.0834082
50
316.0805399
51
340.3842391
0
ARC
8
DEFAULT_255_1_234
10
23.1881567
20
60.2714809
40
0.0755219
50
285.8514865
51
315.9414755
0
ARC
8
DEFAULT_255_1_234
10
23.1764138
20
60.3094349
40
0.115244
50
273.1292529
51
286.3135479
0
ARC
8
DEFAULT_255_1_234
10
23.1730837
20
60.3496049
40
0.1555398
50
269.9524064
51
273.5463789
0
ARC
8
DEFAULT_255_1_234
10
23.1719789
20
60.3277792
40
0.1337177
50
259.0490813
51
270.4180302
0
ARC
8
DEFAULT_255_1_234
10
23.1623452
20
60.2800393
40
0.0850178
50
239.7587791
51
259.311372
0
ARC
8
DEFAULT_255_1_234
10
23.1542484
20
60.2649482
40
0.0679053
50
222.6244131
51
239.247817
0
ARC
8
DEFAULT_255_1_234
10
23.1676859
20
60.2772619
40
0.0861314
50
182.9227855
51
222.598345
0
ARC
8
DEFAULT_255_1_234
10
23.1945477
20
60.2807373
40
0.113155
50
179.9642935
51
183.9868025
0
LINE
8
DEFAULT_255_1_234
10
24.2620582
20
60.3241792
11
24.2620582
21
60.2029
0
LINE
8
DEFAULT_255_1_234
10
24.2620582
20
60.2029
11
23.4958304
21
60.2029
0
LINE
8
DEFAULT_255_1_234
10
23.4958304
20
60.2029
11
23.4958304
21
60.3097221
0
LINE
8
DEFAULT_255_1_234
10
23.4958304
20
60.3097221
11
23.90063
21
60.7594995
0
LINE
8
DEFAULT_255_1_234
10
23.6219287
20
61.0277595
11
23.4733415
21
61.0277595
0
LINE
8
DEFAULT_255_1_234
10
23.9881759
20
60.6639218
11
23.6749381
21
60.3241792
0
LINE
8
DEFAULT_255_1_234
10
23.6749381
20
60.3241792
11
24.2620582
21
60.3241792
0
ARC
8
DEFAULT_255_1_234
10
22.5516133
20
61.9524527
40
1.8008286
50
318.5132453
51
320.7828378
0
ARC
8
DEFAULT_255_1_234
10
23.0803108
20
61.5221426
40
1.1191493
50
320.7372736
51
323.9737074
0
ARC
8
DEFAULT_255_1_234
10
23.4722964
20
61.2381361
40
0.6350923
50
323.8961724
51
328.6421089
0
ARC
8
DEFAULT_255_1_234
10
23.6769559
20
61.1119031
40
0.3946393
50
328.8299013
51
331.789948
0
ARC
8
DEFAULT_255_1_234
10
23.7766738
20
61.0604509
40
0.2824501
50
331.4255242
51
352.9364833
0
ARC
8
DEFAULT_255_1_234
10
23.7903239
20
61.0573976
40
0.2685315
50
353.2248685
51
0.0169286
0
ARC
8
DEFAULT_255_1_234
10
23.8113115
20
61.059695
40
0.2475536
50
359.4866256
51
15.9339782
0
ARC
8
DEFAULT_255_1_234
10
23.8620101
20
61.0733286
40
0.1950618
50
16.1714718
51
43.5284424
0
ARC
8
DEFAULT_255_1_234
10
23.8697409
20
61.0810573
40
0.184134
50
43.4415429
51
83.1661404
0
ARC
8
DEFAULT_255_1_234
10
23.8563327
20
61.0073771
40
0.258926
50
82.160215
51
90.1505798
0
ARC
8
DEFAULT_255_1_234
10
23.8531755
20
60.9536865
40
0.3126255
50
89.5460705
51
102.5418777
0
ARC
8
DEFAULT_255_1_234
10
23.8288841
20
61.0567665
40
0.2067346
50
102.1739365
51
129.2061916
0
ARC
8
DEFAULT_255_1_234
10
23.8209913
20
61.0692094
40
0.1921118
50
129.7279328
51
135.7542026
0
ARC
8
DEFAULT_255_1_234
10
23.833144
20
61.0595045
40
0.2075944
50
136.175737
51
166.3674722
0
ARC
8
DEFAULT_255_1_234
10
23.9338359
20
61.0325182
40
0.3118201
50
165.9092917
51
178.8683903
0
ARC
8
DEFAULT_255_1_234
10
24.0203221
20
61.0278179
40
0.3983935
50
178.438168
51
180.0083905
0
ARC
8
DEFAULT_255_1_234
10
23.8801823
20
61.0317231
40
0.4068601
50
163.2878735
51
180.5581814
0
ARC
8
DEFAULT_255_1_234
10
23.8000084
20
61.053784
40
0.3237344
50
133.454115
51
162.9470031
0
ARC
8
DEFAULT_255_1_234
10
23.8178626
20
61.0348
40
0.349795
50
100.7869394
51
133.4384016
0
ARC
8
DEFAULT_255_1_234
10
23.8526397
20
60.8799319
40
0.5084616
50
89.6605301
51
101.3704185
0
ARC
8
DEFAULT_255_1_234
10
23.8592736
20
60.8860496
40
0.502348
50
78.2171172
51
90.4130393
0
ARC
8
DEFAULT_255_1_234
10
23.8947814
20
61.0484637
40
0.3361092
50
55.9268222
51
78.4888551
0
ARC
8
DEFAULT_255_1_234
10
23.9144254
20
61.0823324
40
0.2970617
50
47.9292255
51
55.4054003
0
ARC
8
DEFAULT_255_1_234
10
23.9245815
20
61.0926502
40
0.2825983
50
4.3347696
51
48.0560701
0
ARC
8
DEFAULT_255_1_234
10
23.8150209
20
61.0756601
40
0.393225
50
359.925209
51
5.5967654
0
ARC
8
DEFAULT_255_1_234
10
23.85791
20
61.0812816
40
0.3503892
50
337.8914096
51
358.9967724
0
ARC
8
DEFAULT_255_1_234
10
23.5865513
20
61.1859706
40
0.6412172
50
326.9135351
51
338.3505194
0
ARC
8
DEFAULT_255_1_234
10
23.1879816
20
61.4414284
40
1.1146189
50
319.6472867
51
327.095818
0
ARC
8
DEFAULT_255_1_234
10
22.8046819
20
61.7576
40
1.6114559
50
317.2586784
51
319.9046139
0
LINE
8
DEFAULT_255_1_234
10
22.8839802
20
68.1404
11
22.7281645
21
68.1404
0
LINE
8
DEFAULT_255_1_234
10
22.5603011
20
68.667282
11
22.7048724
21
68.667282
0
LINE
8
DEFAULT_255_1_234
10
22.7048724
20
68.667282
11
22.7048724
21
68.7355518
0
LINE
8
DEFAULT_255_1_234
10
22.3338061
20
68.7684819
11
22.1844158
21
68.7684819
0
LINE
8
DEFAULT_255_1_234
10
22.8534596
20
68.7435835
11
22.8534596
21
68.343603
0
LINE
8
DEFAULT_255_1_234
10
22.8839802
20
68.1532508
11
22.8839802
21
68.1404
0
LINE
8
DEFAULT_255_1_234
10
22.7048724
20
68.3837617
11
22.7048724
21
68.5620663
0
LINE
8
DEFAULT_255_1_234
10
22.7048724
20
68.5620663
11
22.5884122
21
68.5620663
0
ARC
8
DEFAULT_255_1_234
10
22.8321183
20
68.1908194
40
0.1155358
50
197.0791116
51
205.8741701
0
ARC
8
DEFAULT_255_1_234
10
22.9559782
20
68.2300654
40
0.2454626
50
192.2918602
51
197.3448991
0
ARC
8
DEFAULT_255_1_234
10
23.1513231
20
68.2734663
40
0.4455697
50
189.1576348
51
192.3971359
0
ARC
8
DEFAULT_255_1_234
10
23.4327512
20
68.3193549
40
0.7307142
50
186.8689952
51
189.1979448
0
ARC
8
DEFAULT_255_1_234
10
22.4498666
20
68.4740258
40
0.353352
50
294.0080019
51
316.7604136
0
ARC
8
DEFAULT_255_1_234
10
22.462773
20
68.4558572
40
0.3315331
50
269.5042461
51
293.2479736
0
ARC
8
DEFAULT_255_1_234
10
22.4568215
20
68.4959491
40
0.3716254
50
255.403374
51
270.4753162
0
ARC
8
DEFAULT_255_1_234
10
22.4338187
20
68.4066825
40
0.2794431
50
228.6140946
51
255.354999
0
ARC
8
DEFAULT_255_1_234
10
22.400571
20
68.3748491
40
0.2336109
50
181.8953303
51
229.5703879
0
ARC
8
DEFAULT_255_1_234
10
22.4597216
20
68.3812708
40
0.2929755
50
179.984097
51
182.7679515
0
ARC
8
DEFAULT_255_1_234
10
22.4514158
20
68.3847413
40
0.28469
50
161.0341165
51
180.6820968
0
ARC
8
DEFAULT_255_1_234
10
22.4074704
20
68.3961729
40
0.2394402
50
125.0523775
51
160.2033967
0
ARC
8
DEFAULT_255_1_234
10
22.4736713
20
68.3058431
40
0.3514152
50
106.2671988
51
125.4298572
0
ARC
8
DEFAULT_255_1_234
10
22.5309169
20
68.1187842
40
0.5470269
50
95.4857064
51
106.534858
0
ARC
8
DEFAULT_255_1_234
10
22.5582322
20
67.8688758
40
0.7984089
50
89.8515322
51
95.7224983
0
ARC
8
DEFAULT_255_1_234
10
22.4942918
20
68.7373759
40
0.2105886
50
359.503704
51
14.3184734
0
ARC
8
DEFAULT_255_1_234
10
22.5517042
20
68.7523017
40
0.1512684
50
14.2187004
51
45.2025693
0
ARC
8
DEFAULT_255_1_234
10
22.5553238
20
68.7537251
40
0.1477163
50
45.8098026
51
73.0032427
0
ARC
8
DEFAULT_255_1_234
10
22.5304206
20
68.6775896
40
0.2278113
50
72.610967
51
85.7232876
0
ARC
8
DEFAULT_255_1_234
10
22.52142
20
68.5862569
40
0.3195681
50
85.3352114
51
90.0850615
0
ARC
8
DEFAULT_255_1_234
10
22.5190603
20
68.6453391
40
0.2604924
50
89.5853149
51
103.4592217
0
ARC
8
DEFAULT_255_1_234
10
22.5038206
20
68.7088597
40
0.1951693
50
103.44851
51
126.5404292
0
ARC
8
DEFAULT_255_1_234
10
22.4799086
20
68.739443
40
0.1563639
50
126.1729825
51
141.5004088
0
ARC
8
DEFAULT_255_1_234
10
22.4420687
20
68.7691385
40
0.1082645
50
141.3333588
51
180.3474677
0
ARC
8
DEFAULT_255_1_234
10
22.3746397
20
68.7674174
40
0.1902269
50
151.6374668
51
179.6793754
0
ARC
8
DEFAULT_255_1_234
10
22.4348639
20
68.7374334
40
0.2574753
50
142.4988163
51
152.1325379
0
ARC
8
DEFAULT_255_1_234
10
22.4666599
20
68.7124735
40
0.2978957
50
120.8284787
51
142.4132259
0
ARC
8
DEFAULT_255_1_234
10
22.5082708
20
68.6473301
40
0.3751664
50
113.9638113
51
121.1869885
0
ARC
8
DEFAULT_255_1_234
10
22.521886
20
68.6141544
40
0.4110136
50
93.3784663
51
113.8198047
0
ARC
8
DEFAULT_255_1_234
10
22.5295641
20
68.5376446
40
0.487853
50
89.9745882
51
93.7491274
0
ARC
8
DEFAULT_255_1_234
10
22.5330528
20
68.5412605
40
0.4842481
50
79.1325877
51
90.3871757
0
ARC
8
DEFAULT_255_1_234
10
22.5655648
20
68.7037435
40
0.3185522
50
60.1435559
51
79.3654871
0
ARC
8
DEFAULT_255_1_234
10
22.5912337
20
68.753043
40
0.2630271
50
48.6192091
51
59.646742
0
ARC
8
DEFAULT_255_1_234
10
22.5960075
20
68.7593691
40
0.2551253
50
9.0349315
51
48.4844544
0
ARC
8
DEFAULT_255_1_234
10
22.4883918
20
68.7358793
40
0.3651489
50
1.2089744
51
10.0233366
0
ARC
8
DEFAULT_255_1_234
10
23.6170664
20
68.3411518
40
0.7636108
50
179.8160804
51
185.3206488
0
ARC
8
DEFAULT_255_1_234
10
23.3475146
20
68.3154155
40
0.4928344
50
185.2474014
51
192.7953707
0
ARC
8
DEFAULT_255_1_234
10
23.1713403
20
68.2749824
40
0.3120807
50
192.7197759
51
202.9585048
0
ARC
8
DEFAULT_255_1_234
10
22.4815586
20
68.5147928
40
0.2611453
50
270.0069004
51
300.5035019
0
ARC
8
DEFAULT_255_1_234
10
22.4938194
20
68.5019927
40
0.2439274
50
299.5482464
51
315.6095048
0
ARC
8
DEFAULT_255_1_234
10
22.5228291
20
68.4723155
40
0.2024389
50
315.868035
51
334.0596869
0
ARC
8
DEFAULT_255_1_234
10
22.5840651
20
67.8646943
40
0.6973855
50
89.6428514
51
97.2870891
0
ARC
8
DEFAULT_255_1_234
10
22.5399414
20
68.1950571
40
0.3640992
50
96.9938028
51
109.7781797
0
ARC
8
DEFAULT_255_1_234
10
22.4734039
20
68.3731891
40
0.1739759
50
109.0087453
51
135.326626
0
ARC
8
DEFAULT_255_1_234
10
22.4460643
20
68.4070473
40
0.1308198
50
137.4539381
51
182.1082805
0
ARC
8
DEFAULT_255_1_234
10
22.4834634
20
68.4005893
40
0.1681384
50
179.4392907
51
195.7200177
0
ARC
8
DEFAULT_255_1_234
10
22.4423062
20
68.3893426
40
0.1254738
50
195.8684065
51
230.1572205
0
ARC
8
DEFAULT_255_1_234
10
22.4665489
20
68.4183769
40
0.1632985
50
230.1530708
51
259.7485588
0
ARC
8
DEFAULT_255_1_234
10
22.4804193
20
68.4837386
40
0.230094
50
259.2463819
51
270.291543
0
ARC
8
DEFAULT_255_1_234
10
23.1966241
20
68.2192565
40
0.1070357
50
163.5417914
51
180.5078233
0
ARC
8
DEFAULT_255_1_234
10
23.177406
20
68.2244421
40
0.0871371
50
138.1647447
51
163.2316401
0
ARC
8
DEFAULT_255_1_234
10
23.1661838
20
68.2339534
40
0.0724329
50
105.6856465
51
137.8494928
0
ARC
8
DEFAULT_255_1_234
10
23.178027
20
68.1955129
40
0.1126485
50
92.6088068
51
106.1990587
0
ARC
8
DEFAULT_255_1_234
10
23.1810643
20
68.1559774
40
0.1522861
50
89.9660831
51
93.0733434
0
ARC
8
DEFAULT_255_1_234
10
23.1821338
20
68.178132
40
0.130135
50
78.4379222
51
90.4311858
0
ARC
8
DEFAULT_255_1_234
10
23.1917919
20
68.2231588
40
0.0840873
50
56.8960528
51
78.7359558
0
ARC
8
DEFAULT_255_1_234
10
23.1981145
20
68.2341877
40
0.0713991
50
42.6499553
51
56.3125067
0
ARC
8
DEFAULT_255_1_234
10
23.1853032
20
68.2224146
40
0.0887984
50
3.8142714
51
42.6365749
0
ARC
8
DEFAULT_255_1_234
10
23.1566834
20
68.2184153
40
0.1176392
50
359.9476902
51
4.8305927
0
ARC
8
DEFAULT_255_1_234
10
23.1792993
20
68.2173541
40
0.0950282
50
340.9376387
51
0.5750546
0
ARC
8
DEFAULT_255_1_234
10
23.1905489
20
68.2143192
40
0.0834082
50
316.0805399
51
340.3842391
0
ARC
8
DEFAULT_255_1_234
10
23.1963567
20
68.2089809
40
0.0755219
50
285.8514865
51
315.9414755
0
ARC
8
DEFAULT_255_1_234
10
23.1846138
20
68.2469349
40
0.115244
50
273.1292529
51
286.3135479
0
ARC
8
DEFAULT_255_1_234
10
23.1812837
20
68.2871049
40
0.1555398
50
269.9524064
51
273.5463789
0
ARC
8
DEFAULT_255_1_234
10
23.1801789
20
68.2652792
40
0.1337177
50
259.0490813
51
270.4180302
0
ARC
8
DEFAULT_255_1_234
10
23.1705452
20
68.2175393
40
0.0850178
50
239.7587791
51
259.311372
0
ARC
8
DEFAULT_255_1_234
10
23.1624484
20
68.2024482
40
0.0679053
50
222.6244131
51
239.247817
0
ARC
8
DEFAULT_255_1_234
10
23.1758859
20
68.2147619
40
0.0861314
50
182.9227855
51
222.598345
0
ARC
8
DEFAULT_255_1_234
10
23.2027477
20
68.2182373
40
0.113155
50
179.9642935
51
183.9868025
0
LINE
8
DEFAULT_255_1_234
10
23.9923601
20
69.3154433
11
23.9923601
21
68.1404
0
LINE
8
DEFAULT_255_1_234
10
23.9923601
20
68.1404
11
23.8429697
21
68.1404
0
LINE
8
DEFAULT_255_1_234
10
23.8429697
20
68.1404
11
23.8429697
21
69.1307133
0
LINE
8
DEFAULT_255_1_234
10
23.8429697
20
69.1307133
11
23.5433859
21
69.0206785
0
LINE
8
DEFAULT_255_1_234
10
23.5433859
20
69.0206785
11
23.5433859
21
69.1556117
0
LINE
8
DEFAULT_255_1_234
10
23.5433859
20
69.1556117
11
23.969068
21
69.3154433
0
LINE
8
DEFAULT_255_1_234
10
23.969068
20
69.3154433
11
23.9923601
21
69.3154433
0
LINE
8
DEFAULT_255_1_234
10
22.8757802
20
76.0779
11
22.7199645
21
76.0779
0
LINE
8
DEFAULT_255_1_234
10
22.5521011
20
76.604782
11
22.6966724
21
76.604782
0
LINE
8
DEFAULT_255_1_234
10
22.6966724
20
76.604782
11
22.6966724
21
76.6730518
0
LINE
8
DEFAULT_255_1_234
10
22.3256061
20
76.7059819
11
22.1762158
21
76.7059819
0
LINE
8
DEFAULT_255_1_234
10
22.8452596
20
76.6810835
11
22.8452596
21
76.281103
0
LINE
8
DEFAULT_255_1_234
10
22.8757802
20
76.0907508
11
22.8757802
21
76.0779
0
LINE
8
DEFAULT_255_1_234
10
22.6966724
20
76.3212617
11
22.6966724
21
76.4995663
0
LINE
8
DEFAULT_255_1_234
10
22.6966724
20
76.4995663
11
22.5802122
21
76.4995663
0
ARC
8
DEFAULT_255_1_234
10
22.8239183
20
76.1283194
40
0.1155358
50
197.0791116
51
205.8741701
0
ARC
8
DEFAULT_255_1_234
10
22.9477782
20
76.1675654
40
0.2454626
50
192.2918602
51
197.3448991
0
ARC
8
DEFAULT_255_1_234
10
23.1431231
20
76.2109663
40
0.4455697
50
189.1576348
51
192.3971359
0
ARC
8
DEFAULT_255_1_234
10
23.4245512
20
76.2568549
40
0.7307142
50
186.8689952
51
189.1979448
0
ARC
8
DEFAULT_255_1_234
10
22.4416666
20
76.4115258
40
0.353352
50
294.0080019
51
316.7604136
0
ARC
8
DEFAULT_255_1_234
10
22.454573
20
76.3933572
40
0.3315331
50
269.5042461
51
293.2479736
0
ARC
8
DEFAULT_255_1_234
10
22.4486215
20
76.4334491
40
0.3716254
50
255.403374
51
270.4753162
0
ARC
8
DEFAULT_255_1_234
10
22.4256187
20
76.3441825
40
0.2794431
50
228.6140946
51
255.354999
0
ARC
8
DEFAULT_255_1_234
10
22.392371
20
76.3123491
40
0.2336109
50
181.8953303
51
229.5703879
0
ARC
8
DEFAULT_255_1_234
10
22.4515216
20
76.3187708
40
0.2929755
50
179.984097
51
182.7679515
0
ARC
8
DEFAULT_255_1_234
10
22.4432158
20
76.3222413
40
0.28469
50
161.0341165
51
180.6820968
0
ARC
8
DEFAULT_255_1_234
10
22.3992704
20
76.3336729
40
0.2394402
50
125.0523775
51
160.2033967
0
ARC
8
DEFAULT_255_1_234
10
22.4654713
20
76.2433431
40
0.3514152
50
106.2671988
51
125.4298572
0
ARC
8
DEFAULT_255_1_234
10
22.5227169
20
76.0562842
40
0.5470269
50
95.4857064
51
106.534858
0
ARC
8
DEFAULT_255_1_234
10
22.5500322
20
75.8063758
40
0.7984089
50
89.8515322
51
95.7224983
0
ARC
8
DEFAULT_255_1_234
10
22.4860918
20
76.6748759
40
0.2105886
50
359.503704
51
14.3184734
0
ARC
8
DEFAULT_255_1_234
10
22.5435042
20
76.6898017
40
0.1512684
50
14.2187004
51
45.2025693
0
ARC
8
DEFAULT_255_1_234
10
22.5471238
20
76.6912251
40
0.1477163
50
45.8098026
51
73.0032427
0
ARC
8
DEFAULT_255_1_234
10
22.5222206
20
76.6150896
40
0.2278113
50
72.610967
51
85.7232876
0
ARC
8
DEFAULT_255_1_234
10
22.51322
20
76.5237569
40
0.3195681
50
85.3352114
51
90.0850615
0
ARC
8
DEFAULT_255_1_234
10
22.5108603
20
76.5828391
40
0.2604924
50
89.5853149
51
103.4592217
0
ARC
8
DEFAULT_255_1_234
10
22.4956206
20
76.6463597
40
0.1951693
50
103.44851
51
126.5404292
0
ARC
8
DEFAULT_255_1_234
10
22.4717086
20
76.676943
40
0.1563639
50
126.1729825
51
141.5004088
0
ARC
8
DEFAULT_255_1_234
10
22.4338687
20
76.7066385
40
0.1082645
50
141.3333588
51
180.3474677
0
ARC
8
DEFAULT_255_1_234
10
22.3664397
20
76.7049174
40
0.1902269
50
151.6374668
51
179.6793754
0
ARC
8
DEFAULT_255_1_234
10
22.4266639
20
76.6749334
40
0.2574753
50
142.4988163
51
152.1325379
0
ARC
8
DEFAULT_255_1_234
10
22.4584599
20
76.6499735
40
0.2978957
50
120.8284787
51
142.4132259
0
ARC
8
DEFAULT_255_1_234
10
22.5000708
20
76.5848301
40
0.3751664
50
113.9638113
51
121.1869885
0
ARC
8
DEFAULT_255_1_234
10
22.513686
20
76.5516544
40
0.4110136
50
93.3784663
51
113.8198047
0
ARC
8
DEFAULT_255_1_234
10
22.5213641
20
76.4751446
40
0.487853
50
89.9745882
51
93.7491274
0
ARC
8
DEFAULT_255_1_234
10
22.5248528
20
76.4787605
40
0.4842481
50
79.1325877
51
90.3871757
0
ARC
8
DEFAULT_255_1_234
10
22.5573648
20
76.6412435
40
0.3185522
50
60.1435559
51
79.3654871
0
ARC
8
DEFAULT_255_1_234
10
22.5830337
20
76.690543
40
0.2630271
50
48.6192091
51
59.646742
0
ARC
8
DEFAULT_255_1_234
10
22.5878075
20
76.6968691
40
0.2551253
50
9.0349315
51
48.4844544
0
ARC
8
DEFAULT_255_1_234
10
22.4801918
20
76.6733793
40
0.3651489
50
1.2089744
51
10.0233366
0
ARC
8
DEFAULT_255_1_234
10
23.6088664
20
76.2786518
40
0.7636108
50
179.8160804
51
185.3206488
0
ARC
8
DEFAULT_255_1_234
10
23.3393146
20
76.2529155
40
0.4928344
50
185.2474014
51
192.7953707
0
ARC
8
DEFAULT_255_1_234
10
23.1631403
20
76.2124824
40
0.3120807
50
192.7197759
51
202.9585048
0
ARC
8
DEFAULT_255_1_234
10
22.4733586
20
76.4522928
40
0.2611453
50
270.0069004
51
300.5035019
0
ARC
8
DEFAULT_255_1_234
10
22.4856194
20
76.4394927
40
0.2439274
50
299.5482464
51
315.6095048
0
ARC
8
DEFAULT_255_1_234
10
22.5146291
20
76.4098155
40
0.2024389
50
315.868035
51
334.0596869
0
ARC
8
DEFAULT_255_1_234
10
22.5758651
20
75.8021943
40
0.6973855
50
89.6428514
51
97.2870891
0
ARC
8
DEFAULT_255_1_234
10
22.5317414
20
76.1325571
40
0.3640992
50
96.9938028
51
109.7781797
0
ARC
8
DEFAULT_255_1_234
10
22.4652039
20
76.3106891
40
0.1739759
50
109.0087453
51
135.326626
0
ARC
8
DEFAULT_255_1_234
10
22.4378643
20
76.3445473
40
0.1308198
50
137.4539381
51
182.1082805
0
ARC
8
DEFAULT_255_1_234
10
22.4752634
20
76.3380893
40
0.1681384
50
179.4392907
51
195.7200177
0
ARC
8
DEFAULT_255_1_234
10
22.4341062
20
76.3268426
40
0.1254738
50
195.8684065
51
230.1572205
0
ARC
8
DEFAULT_255_1_234
10
22.4583489
20
76.3558769
40
0.1632985
50
230.1530708
51
259.7485588
0
ARC
8
DEFAULT_255_1_234
10
22.4722193
20
76.4212386
40
0.230094
50
259.2463819
51
270.291543
0
ARC
8
DEFAULT_255_1_234
10
23.1884241
20
76.1567565
40
0.1070357
50
163.5417914
51
180.5078233
0
ARC
8
DEFAULT_255_1_234
10
23.169206
20
76.1619421
40
0.0871371
50
138.1647447
51
163.2316401
0
ARC
8
DEFAULT_255_1_234
10
23.1579838
20
76.1714534
40
0.0724329
50
105.6856465
51
137.8494928
0
ARC
8
DEFAULT_255_1_234
10
23.169827
20
76.1330129
40
0.1126485
50
92.6088068
51
106.1990587
0
ARC
8
DEFAULT_255_1_234
10
23.1728643
20
76.0934774
40
0.1522861
50
89.9660831
51
93.0733434
0
ARC
8
DEFAULT_255_1_234
10
23.1739338
20
76.115632
40
0.130135
50
78.4379222
51
90.4311858
0
ARC
8
DEFAULT_255_1_234
10
23.1835919
20
76.1606588
40
0.0840873
50
56.8960528
51
78.7359558
0
ARC
8
DEFAULT_255_1_234
10
23.1899145
20
76.1716877
40
0.0713991
50
42.6499553
51
56.3125067
0
ARC
8
DEFAULT_255_1_234
10
23.1771032
20
76.1599146
40
0.0887984
50
3.8142714
51
42.6365749
0
ARC
8
DEFAULT_255_1_234
10
23.1484834
20
76.1559153
40
0.1176392
50
359.9476902
51
4.8305927
0
ARC
8
DEFAULT_255_1_234
10
23.1710993
20
76.1548541
40
0.0950282
50
340.9376387
51
0.5750546
0
ARC
8
DEFAULT_255_1_234
10
23.1823489
20
76.1518192
40
0.0834082
50
316.0805399
51
340.3842391
0
ARC
8
DEFAULT_255_1_234
10
23.1881567
20
76.1464809
40
0.0755219
50
285.8514865
51
315.9414755
0
ARC
8
DEFAULT_255_1_234
10
23.1764138
20
76.1844349
40
0.115244
50
273.1292529
51
286.3135479
0
ARC
8
DEFAULT_255_1_234
10
23.1730837
20
76.2246049
40
0.1555398
50
269.9524064
51
273.5463789
0
ARC
8
DEFAULT_255_1_234
10
23.1719789
20
76.2027792
40
0.1337177
50
259.0490813
51
270.4180302
0
ARC
8
DEFAULT_255_1_234
10
23.1623452
20
76.1550393
40
0.0850178
50
239.7587791
51
259.311372
0
ARC
8
DEFAULT_255_1_234
10
23.1542484
20
76.1399482
40
0.0679053
50
222.6244131
51
239.247817
0
ARC
8
DEFAULT_255_1_234
10
23.1676859
20
76.1522619
40
0.0861314
50
182.9227855
51
222.598345
0
ARC
8
DEFAULT_255_1_234
10
23.1945477
20
76.1557373
40
0.113155
50
179.9642935
51
183.9868025
0
LINE
8
DEFAULT_255_1_234
10
24.2291281
20
76.7694327
11
24.2291281
21
76.5766709
0
LINE
8
DEFAULT_255_1_234
10
23.4910113
20
76.5565916
11
23.4910113
21
76.7549755
0
LINE
8
DEFAULT_255_1_234
10
24.0805409
20
76.5365123
11
24.0805409
21
76.7798739
0
LINE
8
DEFAULT_255_1_234
10
23.6395985
20
76.7911184
11
23.6395985
21
76.5533789
0
ARC
8
DEFAULT_255_1_234
10
23.004417
20
76.5717805
40
1.2247208
50
353.8441951
51
0.2287902
0
ARC
8
DEFAULT_255_1_234
10
23.4683674
20
76.5199806
40
0.7578929
50
344.4934747
51
353.9765454
0
ARC
8
DEFAULT_255_1_234
10
23.7676264
20
76.4348981
40
0.4467846
50
329.2803592
51
344.7472793
0
ARC
8
DEFAULT_255_1_234
10
23.8669089
20
76.3804018
40
0.3336173
50
324.9352394
51
328.6160465
0
ARC
8
DEFAULT_255_1_234
10
23.9046198
20
76.3540427
40
0.2876076
50
280.580143
51
324.9173126
0
ARC
8
DEFAULT_255_1_234
10
23.864499
20
76.5211099
40
0.4592847
50
269.5977311
51
281.6734359
0
ARC
8
DEFAULT_255_1_234
10
23.8572896
20
76.5091173
40
0.4472986
50
256.6228859
51
270.51044
0
ARC
8
DEFAULT_255_1_234
10
23.8170874
20
76.3542877
40
0.2873874
50
215.8618325
51
257.2788573
0
ARC
8
DEFAULT_255_1_234
10
23.9191905
20
76.4227977
40
0.4102928
50
197.9693508
51
215.2623606
0
ARC
8
DEFAULT_255_1_234
10
24.1677021
20
76.5066709
40
0.6725652
50
187.8816417
51
198.2346507
0
ARC
8
DEFAULT_255_1_234
10
24.5635229
20
76.5638079
40
1.0724845
50
180.8976217
51
188.0055519
0
ARC
8
DEFAULT_255_1_234
10
24.8435417
20
76.5741777
40
1.3526448
50
180.7449369
51
181.1510016
0
ARC
8
DEFAULT_255_1_234
10
24.6858146
20
76.7598042
40
1.1948131
50
173.7675579
51
180.231553
0
ARC
8
DEFAULT_255_1_234
10
24.2340293
20
76.8108666
40
0.7401564
50
164.3058563
51
173.9002247
0
ARC
8
DEFAULT_255_1_234
10
23.9428362
20
76.8947656
40
0.4371288
50
148.7922025
51
164.568378
0
ARC
8
DEFAULT_255_1_234
10
23.8476814
20
76.9478929
40
0.3282386
50
144.5883898
51
148.1176286
0
ARC
8
DEFAULT_255_1_234
10
23.8133712
20
76.9718315
40
0.2864044
50
101.6440918
51
144.514236
0
ARC
8
DEFAULT_255_1_234
10
23.8558779
20
76.8029069
40
0.4604934
50
89.5284041
51
102.5819763
0
ARC
8
DEFAULT_255_1_234
10
23.8637867
20
76.7990018
40
0.464401
50
77.0437873
51
90.5081339
0
ARC
8
DEFAULT_255_1_234
10
23.9039868
20
76.9632615
40
0.2953195
50
48.2778575
51
77.4994676
0
ARC
8
DEFAULT_255_1_234
10
23.91125
20
76.9761746
40
0.2808655
50
36.3142134
51
47.6305865
0
ARC
8
DEFAULT_255_1_234
10
23.8243807
20
76.9176515
40
0.3855453
50
18.2931786
51
35.6769206
0
ARC
8
DEFAULT_255_1_234
10
23.5700565
20
76.8303593
40
0.654423
50
8.024666
51
18.5605216
0
ARC
8
DEFAULT_255_1_234
10
23.1537485
20
76.7688792
40
1.0752407
50
1.1274072
51
8.1718305
0
ARC
8
DEFAULT_255_1_234
10
22.8301676
20
76.7561885
40
1.3990231
50
0.5424119
51
1.3863029
0
ARC
8
DEFAULT_255_1_234
10
23.0123054
20
76.7834342
40
1.0682415
50
359.8090433
51
4.9407866
0
ARC
8
DEFAULT_255_1_234
10
23.4333068
20
76.8210113
40
0.6455691
50
4.8362157
51
12.2904523
0
ARC
8
DEFAULT_255_1_234
10
23.7088183
20
76.8823965
40
0.3633074
50
12.0805627
51
23.8173984
0
ARC
8
DEFAULT_255_1_234
10
23.8261888
20
76.9320919
40
0.2358723
50
24.2871213
51
31.3935614
0
ARC
8
DEFAULT_255_1_234
10
23.8786585
20
76.9664233
40
0.1732111
50
30.7407893
51
82.4657128
0
ARC
8
DEFAULT_255_1_234
10
23.8606719
20
76.8780691
40
0.263235
50
81.1060089
51
90.2184952
0
ARC
8
DEFAULT_255_1_234
10
23.8571018
20
76.9038924
40
0.2374236
50
89.3806855
51
105.6762551
0
ARC
8
DEFAULT_255_1_234
10
23.8387649
20
76.9705567
40
0.1682847
50
105.7981136
51
149.7388061
0
ARC
8
DEFAULT_255_1_234
10
23.9451727
20
76.906595
40
0.2924306
50
149.4208916
51
163.6286378
0
ARC
8
DEFAULT_255_1_234
10
24.1542615
20
76.842825
40
0.5110213
50
163.3763315
51
172.1410975
0
ARC
8
DEFAULT_255_1_234
10
24.4843334
20
76.7955518
40
0.8444586
50
172.0259487
51
178.0703232
0
ARC
8
DEFAULT_255_1_234
10
24.7873424
20
76.7811906
40
1.1477868
50
177.8631668
51
179.5044149
0
ARC
8
DEFAULT_255_1_234
10
24.6800828
20
76.5497389
40
1.0404907
50
179.7995573
51
185.2460446
0
ARC
8
DEFAULT_255_1_234
10
24.2757868
20
76.5114513
40
0.6343885
50
185.1411642
51
193.0079639
0
ARC
8
DEFAULT_255_1_234
10
24.011434
20
76.4489641
40
0.3627568
50
192.7897626
51
205.2507664
0
ARC
8
DEFAULT_255_1_234
10
23.9067887
20
76.4022415
40
0.2481908
50
205.8005384
51
211.2537509
0
ARC
8
DEFAULT_255_1_234
10
23.8544328
20
76.367158
40
0.1852521
50
210.3789793
51
238.4008143
0
ARC
8
DEFAULT_255_1_234
10
23.8524849
20
76.3718376
40
0.1882621
50
239.6520629
51
265.9793761
0
ARC
8
DEFAULT_255_1_234
10
23.861005
20
76.4390427
40
0.2559272
50
265.1315437
51
270.060332
0
ARC
8
DEFAULT_255_1_234
10
23.8638828
20
76.4066534
40
0.2235528
50
269.3314664
51
287.2178029
0
ARC
8
DEFAULT_255_1_234
10
23.877668
20
76.3563279
40
0.1714108
50
287.7958004
51
329.080874
0
ARC
8
DEFAULT_255_1_234
10
23.7819137
20
76.416093
40
0.2842745
50
328.6634704
51
343.3325132
0
ARC
8
DEFAULT_255_1_234
10
23.5646157
20
76.4837863
40
0.5118644
50
343.0499468
51
351.9393422
0
ARC
8
DEFAULT_255_1_234
10
23.2179457
20
76.5348949
40
0.8622784
50
351.8069023
51
357.7959224
0
ARC
8
DEFAULT_255_1_234
10
22.8944013
20
76.5516721
40
1.1862365
50
357.5871873
51
359.2677531
0
LINE
8
DEFAULT_255_1_234
10
23.1055137
20
85.1904433
11
23.1055137
21
84.0154
0
LINE
8
DEFAULT_255_1_234
10
23.1055137
20
84.0154
11
22.9561234
21
84.0154
0
LINE
8
DEFAULT_255_1_234
10
22.9561234
20
84.0154
11
22.9561234
21
85.0057133
0
LINE
8
DEFAULT_255_1_234
10
22.9561234
20
85.0057133
11
22.6565396
21
84.8956785
0
LINE
8
DEFAULT_255_1_234
10
22.6565396
20
84.8956785
11
22.6565396
21
85.0306117
0
LINE
8
DEFAULT_255_1_234
10
22.6565396
20
85.0306117
11
23.0822217
21
85.1904433
0
LINE
8
DEFAULT_255_1_234
10
23.0822217
20
85.1904433
11
23.1055137
21
85.1904433
0
LINE
8
DEFAULT_255_1_234
10
23.7343988
20
85.1848211
11
23.7343988
21
84.1414983
0
LINE
8
DEFAULT_255_1_234
10
23.7343988
20
84.1414983
11
24.2885888
21
84.1414983
0
LINE
8
DEFAULT_255_1_234
10
24.2885888
20
84.1414983
11
24.2885888
21
84.0154
0
LINE
8
DEFAULT_255_1_234
10
24.2885888
20
84.0154
11
23.5793863
21
84.0154
0
LINE
8
DEFAULT_255_1_234
10
23.5793863
20
84.0154
11
23.5793863
21
85.1848211
0
LINE
8
DEFAULT_255_1_234
10
23.5793863
20
85.1848211
11
23.7343988
21
85.1848211
0
ENDSEC
0
EOF