0
SECTION
2
HEADER
9
$MEASUREMENT
70
1
0
ENDSEC
0
SECTION
2
TABLES
0
TABLE
2
LTYPE
0
LTYPE
72
65
70
64
2
CONTINUOUS
3
______
73
0
40
0
0
ENDTAB
0
TABLE
2
LAYER
0
LAYER
2
DEFAULT_255_2_778
70
0
62
255
6
CONTINUOUS
0
ENDTAB
0
ENDSEC
0
SECTION
2
ENTITIES
0
ARC
8
DEFAULT_255_2_778
10
0.4122426
20
60.7584947
40
0.1998171
50
89.947541
51
180.052459
0
ARC
8
DEFAULT_255_2_778
10
37.7123806
20
60.7583669
40
0.1999449
50
359.9842058
51
90.0157942
0
ARC
8
DEFAULT_255_2_778
10
37.7123165
20
10.1583207
40
0.200009
50
270.0025728
51
359.9974618
0
ARC
8
DEFAULT_255_2_778
10
0.4124344
20
10.1583205
40
0.2000087
50
180.0025037
51
269.9974617
0
LINE
8
DEFAULT_255_2_778
10
0.4124255
20
60.9583118
11
37.7123255
21
60.9583118
0
LINE
8
DEFAULT_255_2_778
10
37.9123255
20
60.7583118
11
37.9123255
21
10.1583118
0
LINE
8
DEFAULT_255_2_778
10
37.7123255
20
9.9583118
11
0.4124255
21
9.9583118
0
LINE
8
DEFAULT_255_2_778
10
0.2124255
20
10.1583118
11
0.2124255
21
60.7583118
0
LINE
8
DEFAULT_255_2_778
10
0.2127074
20
18.1691447
11
0.2294074
21
18.0895447
0
LINE
8
DEFAULT_255_2_778
10
0.2294074
20
18.0895447
11
0.2394074
21
18.0694447
0
LINE
8
DEFAULT_255_2_778
10
2.2325074
20
16.9584447
11
8.2325074
21
16.9584447
0
LINE
8
DEFAULT_255_2_778
10
8.2325074
20
16.9584447
11
8.2325074
21
10.9584447
0
LINE
8
DEFAULT_255_2_778
10
8.2325074
20
10.9584447
11
2.2325074
21
10.9584447
0
LINE
8
DEFAULT_255_2_778
10
2.2325074
20
10.9584447
11
2.2325074
21
16.9584447
0
LINE
8
DEFAULT_255_2_778
10
30.2857834
20
47.7352166
11
31.8393834
21
47.7352166
0
LINE
8
DEFAULT_255_2_778
10
31.8393834
20
47.7352166
11
31.8393834
21
46.1816166
0
LINE
8
DEFAULT_255_2_778
10
31.8393834
20
46.1816166
11
30.2857834
21
46.1816166
0
LINE
8
DEFAULT_255_2_778
10
30.2857834
20
46.1816166
11
30.2857834
21
47.7352166
0
LINE
8
DEFAULT_255_2_778
10
27.2856966
20
47.7352166
11
28.8392966
21
47.7352166
0
LINE
8
DEFAULT_255_2_778
10
28.8392966
20
47.7352166
11
28.8392966
21
46.1816166
0
LINE
8
DEFAULT_255_2_778
10
28.8392966
20
46.1816166
11
27.2856966
21
46.1816166
0
LINE
8
DEFAULT_255_2_778
10
27.2856966
20
46.1816166
11
27.2856966
21
47.7352166
0
LINE
8
DEFAULT_255_2_778
10
24.2858834
20
47.7352166
11
25.8394834
21
47.7352166
0
LINE
8
DEFAULT_255_2_778
10
25.8394834
20
47.7352166
11
25.8394834
21
46.1816166
0
LINE
8
DEFAULT_255_2_778
10
25.8394834
20
46.1816166
11
24.2858834
21
46.1816166
0
LINE
8
DEFAULT_255_2_778
10
24.2858834
20
46.1816166
11
24.2858834
21
47.7352166
0
LINE
8
DEFAULT_255_2_778
10
21.2856966
20
47.7352166
11
22.8392966
21
47.7352166
0
LINE
8
DEFAULT_255_2_778
10
22.8392966
20
47.7352166
11
22.8392966
21
46.1816166
0
LINE
8
DEFAULT_255_2_778
10
22.8392966
20
46.1816166
11
21.2856966
21
46.1816166
0
LINE
8
DEFAULT_255_2_778
10
21.2856966
20
46.1816166
11
21.2856966
21
47.7352166
0
LINE
8
DEFAULT_255_2_778
10
37.9123932
20
18.1170285
11
37.9102932
21
18.0887285
0
LINE
8
DEFAULT_255_2_778
10
37.9102932
20
18.0887285
11
37.8853932
21
18.0172285
0
LINE
8
DEFAULT_255_2_778
10
37.8853932
20
18.0172285
11
37.7168932
21
17.9177285
0
LINE
8
DEFAULT_255_2_778
10
37.7168932
20
17.9177285
11
0.2999932
21
17.9519285
0
LINE
8
DEFAULT_255_2_778
10
0.2999932
20
17.9519285
11
0.2203932
21
18.0609285
0
LINE
8
DEFAULT_255_2_778
10
0.2203932
20
18.0609285
11
0.2126932
21
18.1027285
0
LINE
8
DEFAULT_255_2_778
10
0.2126932
20
18.1027285
11
0.2121932
21
18.1167285
0
LINE
8
DEFAULT_255_2_778
10
0.2124932
20
22.8490285
11
0.2171932
21
22.8771285
0
LINE
8
DEFAULT_255_2_778
10
0.2171932
20
22.8771285
11
0.3124932
21
22.9660285
0
LINE
8
DEFAULT_255_2_778
10
0.3124932
20
22.9660285
11
0.4124932
21
22.9840285
0
LINE
8
DEFAULT_255_2_778
10
0.4124932
20
22.9840285
11
37.8642932
21
22.9372285
0
LINE
8
DEFAULT_255_2_778
10
37.8642932
20
22.9372285
11
37.9120932
21
22.8551285
0
LINE
8
DEFAULT_255_2_778
10
37.9120932
20
22.8551285
11
37.9123932
21
22.8488285
0
LINE
8
DEFAULT_255_2_778
10
37.9123932
20
45.0674285
11
37.9076932
21
45.0394285
0
LINE
8
DEFAULT_255_2_778
10
37.9076932
20
45.0394285
11
37.8123932
21
44.9505285
0
LINE
8
DEFAULT_255_2_778
10
37.8123932
20
44.9505285
11
37.7123932
21
44.9325285
0
LINE
8
DEFAULT_255_2_778
10
37.7123932
20
44.9325285
11
0.2605932
21
44.9793285
0
LINE
8
DEFAULT_255_2_778
10
0.2605932
20
44.9793285
11
0.2126932
21
45.0613285
0
LINE
8
DEFAULT_255_2_778
10
0.2126932
20
45.0613285
11
0.2124932
21
45.0677285
0
LINE
8
DEFAULT_255_2_778
10
0.2124932
20
49.7998285
11
0.2290932
21
49.8794285
0
LINE
8
DEFAULT_255_2_778
10
0.2290932
20
49.8794285
11
0.4124932
21
49.9990285
0
LINE
8
DEFAULT_255_2_778
10
0.4124932
20
49.9990285
11
37.8451932
21
49.9487285
0
LINE
8
DEFAULT_255_2_778
10
37.8451932
20
49.9487285
11
37.9123932
21
49.8053285
0
LINE
8
DEFAULT_255_2_778
10
37.9123932
20
49.8053285
11
37.9123932
21
49.7998285
0
LINE
8
DEFAULT_255_2_778
10
33.6324932
20
9.9583285
11
33.6324932
21
8.7584285
0
LINE
8
DEFAULT_255_2_778
10
33.6324932
20
8.7584285
11
33.5824932
21
8.7584285
0
LINE
8
DEFAULT_255_2_778
10
33.5824932
20
8.7584285
11
33.5824932
21
-0.1416715
0
LINE
8
DEFAULT_255_2_778
10
33.5824932
20
-0.1416715
11
11.0825932
21
-0.1416715
0
LINE
8
DEFAULT_255_2_778
10
11.0825932
20
-0.1416715
11
11.0825932
21
8.7584285
0
LINE
8
DEFAULT_255_2_778
10
11.0825932
20
8.7584285
11
11.0325932
21
8.7584285
0
LINE
8
DEFAULT_255_2_778
10
11.0325932
20
8.7584285
11
11.0325932
21
9.9583285
0
LINE
8
DEFAULT_255_2_778
10
11.282642
20
9.9582427
11
11.282642
21
8.7583427
0
LINE
8
DEFAULT_255_2_778
10
11.282642
20
8.7583427
11
33.382742
21
8.7583427
0
LINE
8
DEFAULT_255_2_778
10
33.382742
20
8.7583427
11
33.382742
21
9.9582427
0
ARC
8
DEFAULT_255_2_778
10
20.5805903
20
4.2615633
40
1.4980165
50
151.5794485
51
180.1201144
0
ARC
8
DEFAULT_255_2_778
10
20.5788083
20
4.2618486
40
1.4963136
50
98.4345278
51
151.556579
0
ARC
8
DEFAULT_255_2_778
10
20.581928
20
4.234377
40
1.523946
50
89.9793545
51
98.3990533
0
ARC
8
DEFAULT_255_2_778
10
20.5855732
20
4.2604841
40
1.497842
50
61.5777617
51
90.1184315
0
ARC
8
DEFAULT_255_2_778
10
20.5857573
20
4.2619384
40
1.4964755
50
8.4395422
51
61.5574586
0
ARC
8
DEFAULT_255_2_778
10
20.5588386
20
4.2589708
40
1.5235387
50
359.9793954
51
8.4013619
0
ARC
8
DEFAULT_255_2_778
10
20.5845384
20
4.2553268
40
1.497842
50
331.5777617
51
0.1184315
0
ARC
8
DEFAULT_255_2_778
10
20.5859927
20
4.2551427
40
1.4964755
50
278.4395422
51
331.5574586
0
ARC
8
DEFAULT_255_2_778
10
20.583025
20
4.2820614
40
1.5235387
50
269.9793954
51
278.4013619
0
ARC
8
DEFAULT_255_2_778
10
20.5793811
20
4.2563616
40
1.497842
50
241.5777617
51
270.1184315
0
ARC
8
DEFAULT_255_2_778
10
20.579197
20
4.2549073
40
1.4964755
50
188.4395422
51
241.5574586
0
ARC
8
DEFAULT_255_2_778
10
20.6061157
20
4.257875
40
1.5235387
50
179.9793954
51
188.4013619
0
LINE
8
DEFAULT_255_2_778
10
19.0825771
20
4.2584229
11
19.0825771
21
4.2584229
0
LINE
8
DEFAULT_255_2_778
10
20.8325688
20
5.7374208
11
20.8325688
21
2.7794208
0
LINE
8
DEFAULT_255_2_778
10
20.3324688
20
2.7794208
11
20.3324688
21
5.7374208
0
LINE
8
DEFAULT_255_2_778
10
21.3322386
20
2.2584187
11
19.8323386
21
2.2584187
0
LINE
8
DEFAULT_255_2_778
10
19.8323386
20
2.2584187
11
19.8323386
21
1.9584187
0
LINE
8
DEFAULT_255_2_778
10
19.8323386
20
1.9584187
11
21.3322386
21
1.9584187
0
LINE
8
DEFAULT_255_2_778
10
21.3322386
20
1.9584187
11
21.3322386
21
2.2584187
0
ARC
8
DEFAULT_255_2_778
10
17.0803903
20
4.2615633
40
1.4980165
50
151.5794485
51
180.1201144
0
ARC
8
DEFAULT_255_2_778
10
17.0786083
20
4.2618486
40
1.4963136
50
98.4345278
51
151.556579
0
ARC
8
DEFAULT_255_2_778
10
17.081728
20
4.234377
40
1.523946
50
89.9793545
51
98.3990533
0
ARC
8
DEFAULT_255_2_778
10
17.0853732
20
4.2604841
40
1.497842
50
61.5777617
51
90.1184315
0
ARC
8
DEFAULT_255_2_778
10
17.0855573
20
4.2619384
40
1.4964755
50
8.4395422
51
61.5574586
0
ARC
8
DEFAULT_255_2_778
10
17.0586386
20
4.2589708
40
1.5235387
50
359.9793954
51
8.4013619
0
ARC
8
DEFAULT_255_2_778
10
17.0843384
20
4.2553268
40
1.497842
50
331.5777617
51
0.1184315
0
ARC
8
DEFAULT_255_2_778
10
17.0857927
20
4.2551427
40
1.4964755
50
278.4395422
51
331.5574586
0
ARC
8
DEFAULT_255_2_778
10
17.082825
20
4.2820614
40
1.5235387
50
269.9793954
51
278.4013619
0
ARC
8
DEFAULT_255_2_778
10
17.0791811
20
4.2563616
40
1.497842
50
241.5777617
51
270.1184315
0
ARC
8
DEFAULT_255_2_778
10
17.078997
20
4.2549073
40
1.4964755
50
188.4395422
51
241.5574586
0
ARC
8
DEFAULT_255_2_778
10
17.1059157
20
4.257875
40
1.5235387
50
179.9793954
51
188.4013619
0
LINE
8
DEFAULT_255_2_778
10
15.5823771
20
4.2584229
11
15.5823771
21
4.2584229
0
LINE
8
DEFAULT_255_2_778
10
17.3325386
20
5.7374218
11
17.3325386
21
2.7794218
0
LINE
8
DEFAULT_255_2_778
10
16.8325386
20
2.7794218
11
16.8325386
21
5.7374218
0
LINE
8
DEFAULT_255_2_778
10
17.8323386
20
2.2584218
11
16.3324386
21
2.2584218
0
LINE
8
DEFAULT_255_2_778
10
16.3324386
20
2.2584218
11
16.3324386
21
1.9584218
0
LINE
8
DEFAULT_255_2_778
10
16.3324386
20
1.9584218
11
17.8323386
21
1.9584218
0
LINE
8
DEFAULT_255_2_778
10
17.8323386
20
1.9584218
11
17.8323386
21
2.2584218
0
ARC
8
DEFAULT_255_2_778
10
13.5804903
20
4.2615633
40
1.4980165
50
151.5794485
51
180.1201144
0
ARC
8
DEFAULT_255_2_778
10
13.5787083
20
4.2618486
40
1.4963136
50
98.4345278
51
151.556579
0
ARC
8
DEFAULT_255_2_778
10
13.581828
20
4.234377
40
1.523946
50
89.9793545
51
98.3990533
0
ARC
8
DEFAULT_255_2_778
10
13.5854732
20
4.2604841
40
1.497842
50
61.5777617
51
90.1184315
0
ARC
8
DEFAULT_255_2_778
10
13.5856573
20
4.2619384
40
1.4964755
50
8.4395422
51
61.5574586
0
ARC
8
DEFAULT_255_2_778
10
13.5587386
20
4.2589708
40
1.5235387
50
359.9793954
51
8.4013619
0
ARC
8
DEFAULT_255_2_778
10
13.5844384
20
4.2553268
40
1.497842
50
331.5777617
51
0.1184315
0
ARC
8
DEFAULT_255_2_778
10
13.5858927
20
4.2551427
40
1.4964755
50
278.4395422
51
331.5574586
0
ARC
8
DEFAULT_255_2_778
10
13.582925
20
4.2820614
40
1.5235387
50
269.9793954
51
278.4013619
0
ARC
8
DEFAULT_255_2_778
10
13.5792811
20
4.2563616
40
1.497842
50
241.5777617
51
270.1184315
0
ARC
8
DEFAULT_255_2_778
10
13.579097
20
4.2549073
40
1.4964755
50
188.4395422
51
241.5574586
0
ARC
8
DEFAULT_255_2_778
10
13.6060157
20
4.257875
40
1.5235387
50
179.9793954
51
188.4013619
0
LINE
8
DEFAULT_255_2_778
10
12.0824771
20
4.2584229
11
12.0824771
21
4.2584229
0
LINE
8
DEFAULT_255_2_778
10
13.8324688
20
5.7374208
11
13.8324688
21
2.7794208
0
LINE
8
DEFAULT_255_2_778
10
13.3323688
20
2.7794208
11
13.3323688
21
5.7374208
0
LINE
8
DEFAULT_255_2_778
10
14.3324386
20
2.2584187
11
12.8325386
21
2.2584187
0
LINE
8
DEFAULT_255_2_778
10
12.8325386
20
2.2584187
11
12.8325386
21
1.9584187
0
LINE
8
DEFAULT_255_2_778
10
12.8325386
20
1.9584187
11
14.3324386
21
1.9584187
0
LINE
8
DEFAULT_255_2_778
10
14.3324386
20
1.9584187
11
14.3324386
21
2.2584187
0
ARC
8
DEFAULT_255_2_778
10
27.5803903
20
4.2615633
40
1.4980165
50
151.5794485
51
180.1201144
0
ARC
8
DEFAULT_255_2_778
10
27.5786083
20
4.2618486
40
1.4963136
50
98.4345278
51
151.556579
0
ARC
8
DEFAULT_255_2_778
10
27.581728
20
4.234377
40
1.523946
50
89.9793545
51
98.3990533
0
ARC
8
DEFAULT_255_2_778
10
27.5853732
20
4.2604841
40
1.497842
50
61.5777617
51
90.1184315
0
ARC
8
DEFAULT_255_2_778
10
27.5855573
20
4.2619384
40
1.4964755
50
8.4395422
51
61.5574586
0
ARC
8
DEFAULT_255_2_778
10
27.5586386
20
4.2589708
40
1.5235387
50
359.9793954
51
8.4013619
0
ARC
8
DEFAULT_255_2_778
10
27.5843384
20
4.2553268
40
1.497842
50
331.5777617
51
0.1184315
0
ARC
8
DEFAULT_255_2_778
10
27.5857927
20
4.2551427
40
1.4964755
50
278.4395422
51
331.5574586
0
ARC
8
DEFAULT_255_2_778
10
27.582825
20
4.2820614
40
1.5235387
50
269.9793954
51
278.4013619
0
ARC
8
DEFAULT_255_2_778
10
27.5791811
20
4.2563616
40
1.497842
50
241.5777617
51
270.1184315
0
ARC
8
DEFAULT_255_2_778
10
27.578997
20
4.2549073
40
1.4964755
50
188.4395422
51
241.5574586
0
ARC
8
DEFAULT_255_2_778
10
27.6059157
20
4.257875
40
1.5235387
50
179.9793954
51
188.4013619
0
LINE
8
DEFAULT_255_2_778
10
26.0823771
20
4.2584229
11
26.0823771
21
4.2584229
0
LINE
8
DEFAULT_255_2_778
10
27.8325688
20
5.7374208
11
27.8325688
21
2.7794208
0
LINE
8
DEFAULT_255_2_778
10
27.3324688
20
2.7794208
11
27.3324688
21
5.7374208
0
LINE
8
DEFAULT_255_2_778
10
28.3323386
20
2.2584187
11
26.8324386
21
2.2584187
0
LINE
8
DEFAULT_255_2_778
10
26.8324386
20
2.2584187
11
26.8324386
21
1.9584187
0
LINE
8
DEFAULT_255_2_778
10
26.8324386
20
1.9584187
11
28.3323386
21
1.9584187
0
LINE
8
DEFAULT_255_2_778
10
28.3323386
20
1.9584187
11
28.3323386
21
2.2584187
0
ARC
8
DEFAULT_255_2_778
10
31.0805903
20
4.2615633
40
1.4980165
50
151.5794485
51
180.1201144
0
ARC
8
DEFAULT_255_2_778
10
31.0788083
20
4.2618486
40
1.4963136
50
98.4345278
51
151.556579
0
ARC
8
DEFAULT_255_2_778
10
31.081928
20
4.234377
40
1.523946
50
89.9793545
51
98.3990533
0
ARC
8
DEFAULT_255_2_778
10
31.0855732
20
4.2604841
40
1.497842
50
61.5777617
51
90.1184315
0
ARC
8
DEFAULT_255_2_778
10
31.0857573
20
4.2619384
40
1.4964755
50
8.4395422
51
61.5574586
0
ARC
8
DEFAULT_255_2_778
10
31.0588386
20
4.2589708
40
1.5235387
50
359.9793954
51
8.4013619
0
ARC
8
DEFAULT_255_2_778
10
31.0845384
20
4.2553268
40
1.497842
50
331.5777617
51
0.1184315
0
ARC
8
DEFAULT_255_2_778
10
31.0859927
20
4.2551427
40
1.4964755
50
278.4395422
51
331.5574586
0
ARC
8
DEFAULT_255_2_778
10
31.083025
20
4.2820614
40
1.5235387
50
269.9793954
51
278.4013619
0
ARC
8
DEFAULT_255_2_778
10
31.0793811
20
4.2563616
40
1.497842
50
241.5777617
51
270.1184315
0
ARC
8
DEFAULT_255_2_778
10
31.079197
20
4.2549073
40
1.4964755
50
188.4395422
51
241.5574586
0
ARC
8
DEFAULT_255_2_778
10
31.1061157
20
4.257875
40
1.5235387
50
179.9793954
51
188.4013619
0
LINE
8
DEFAULT_255_2_778
10
29.5825771
20
4.2584229
11
29.5825771
21
4.2584229
0
LINE
8
DEFAULT_255_2_778
10
31.3325688
20
5.7374208
11
31.3325688
21
2.7794208
0
LINE
8
DEFAULT_255_2_778
10
30.8324688
20
2.7794208
11
30.8324688
21
5.7374208
0
LINE
8
DEFAULT_255_2_778
10
31.8322386
20
2.2584187
11
30.3323386
21
2.2584187
0
LINE
8
DEFAULT_255_2_778
10
30.3323386
20
2.2584187
11
30.3323386
21
1.9584187
0
LINE
8
DEFAULT_255_2_778
10
30.3323386
20
1.9584187
11
31.8322386
21
1.9584187
0
LINE
8
DEFAULT_255_2_778
10
31.8322386
20
1.9584187
11
31.8322386
21
2.2584187
0
ARC
8
DEFAULT_255_2_778
10
24.0804903
20
4.2615633
40
1.4980165
50
151.5794485
51
180.1201144
0
ARC
8
DEFAULT_255_2_778
10
24.0787083
20
4.2618486
40
1.4963136
50
98.4345278
51
151.556579
0
ARC
8
DEFAULT_255_2_778
10
24.081828
20
4.234377
40
1.523946
50
89.9793545
51
98.3990533
0
ARC
8
DEFAULT_255_2_778
10
24.0854732
20
4.2604841
40
1.497842
50
61.5777617
51
90.1184315
0
ARC
8
DEFAULT_255_2_778
10
24.0856573
20
4.2619384
40
1.4964755
50
8.4395422
51
61.5574586
0
ARC
8
DEFAULT_255_2_778
10
24.0587386
20
4.2589708
40
1.5235387
50
359.9793954
51
8.4013619
0
ARC
8
DEFAULT_255_2_778
10
24.0844384
20
4.2553268
40
1.497842
50
331.5777617
51
0.1184315
0
ARC
8
DEFAULT_255_2_778
10
24.0858927
20
4.2551427
40
1.4964755
50
278.4395422
51
331.5574586
0
ARC
8
DEFAULT_255_2_778
10
24.082925
20
4.2820614
40
1.5235387
50
269.9793954
51
278.4013619
0
ARC
8
DEFAULT_255_2_778
10
24.0792811
20
4.2563616
40
1.497842
50
241.5777617
51
270.1184315
0
ARC
8
DEFAULT_255_2_778
10
24.079097
20
4.2549073
40
1.4964755
50
188.4395422
51
241.5574586
0
ARC
8
DEFAULT_255_2_778
10
24.1060157
20
4.257875
40
1.5235387
50
179.9793954
51
188.4013619
0
LINE
8
DEFAULT_255_2_778
10
22.5824771
20
4.2584229
11
22.5824771
21
4.2584229
0
LINE
8
DEFAULT_255_2_778
10
24.3324688
20
5.7374208
11
24.3324688
21
2.7794208
0
LINE
8
DEFAULT_255_2_778
10
23.8323688
20
2.7794208
11
23.8323688
21
5.7374208
0
LINE
8
DEFAULT_255_2_778
10
24.8324386
20
2.2584187
11
23.3325386
21
2.2584187
0
LINE
8
DEFAULT_255_2_778
10
23.3325386
20
2.2584187
11
23.3325386
21
1.9584187
0
LINE
8
DEFAULT_255_2_778
10
23.3325386
20
1.9584187
11
24.8324386
21
1.9584187
0
LINE
8
DEFAULT_255_2_778
10
24.8324386
20
1.9584187
11
24.8324386
21
2.2584187
0
LINE
8
DEFAULT_255_2_778
10
33.5825255
20
7.3256368
11
11.0826255
21
7.3256368
0
LINE
8
DEFAULT_255_2_778
10
33.5825255
20
1.1460368
11
11.0826255
21
1.1460368
0
LINE
8
DEFAULT_255_2_778
10
33.5825255
20
0.3509368
11
11.0826255
21
0.3509368
0
LINE
8
DEFAULT_255_2_778
10
0.1876255
20
49.8243368
11
0.1876255
21
49.8272368
0
LINE
8
DEFAULT_255_2_778
10
0.1876255
20
49.8272368
11
0.1876255
21
49.8301368
0
LINE
8
DEFAULT_255_2_778
10
0.1876255
20
49.8301368
11
0.1876255
21
49.8330368
0
LINE
8
DEFAULT_255_2_778
10
0.1876255
20
49.8330368
11
0.1879255
21
49.8359368
0
LINE
8
DEFAULT_255_2_778
10
0.1879255
20
49.8359368
11
0.1881255
21
49.8389368
0
LINE
8
DEFAULT_255_2_778
10
0.1881255
20
49.8389368
11
0.1884255
21
49.8418368
0
LINE
8
DEFAULT_255_2_778
10
0.1884255
20
49.8418368
11
0.1887255
21
49.8447368
0
LINE
8
DEFAULT_255_2_778
10
0.1887255
20
49.8447368
11
0.1889255
21
49.8476368
0
LINE
8
DEFAULT_255_2_778
10
0.1889255
20
49.8476368
11
0.1892255
21
49.8505368
0
LINE
8
DEFAULT_255_2_778
10
0.1892255
20
49.8505368
11
0.1897255
21
49.8534368
0
LINE
8
DEFAULT_255_2_778
10
0.1897255
20
49.8534368
11
0.1902255
21
49.8563368
0
LINE
8
DEFAULT_255_2_778
10
0.1902255
20
49.8563368
11
0.1908255
21
49.8592368
0
LINE
8
DEFAULT_255_2_778
10
0.1908255
20
49.8592368
11
0.1913255
21
49.8621368
0
LINE
8
DEFAULT_255_2_778
10
0.1913255
20
49.8621368
11
0.1918255
21
49.8648368
0
LINE
8
DEFAULT_255_2_778
10
0.1918255
20
49.8648368
11
0.1924255
21
49.8677368
0
LINE
8
DEFAULT_255_2_778
10
0.1924255
20
49.8677368
11
0.1932255
21
49.8703368
0
LINE
8
DEFAULT_255_2_778
10
0.1932255
20
49.8703368
11
0.1939255
21
49.8730368
0
LINE
8
DEFAULT_255_2_778
10
0.1939255
20
49.8730368
11
0.1947255
21
49.8756368
0
LINE
8
DEFAULT_255_2_778
10
0.1947255
20
49.8756368
11
0.1955255
21
49.8783368
0
LINE
8
DEFAULT_255_2_778
10
0.1955255
20
49.8783368
11
0.1963255
21
49.8809368
0
LINE
8
DEFAULT_255_2_778
10
0.1963255
20
49.8809368
11
0.1971255
21
49.8836368
0
LINE
8
DEFAULT_255_2_778
10
0.1971255
20
49.8836368
11
0.1979255
21
49.8862368
0
LINE
8
DEFAULT_255_2_778
10
0.1979255
20
49.8862368
11
0.1990255
21
49.8889368
0
LINE
8
DEFAULT_255_2_778
10
0.1990255
20
49.8889368
11
0.2000255
21
49.8915368
0
LINE
8
DEFAULT_255_2_778
10
0.2000255
20
49.8915368
11
0.2011255
21
49.8942368
0
LINE
8
DEFAULT_255_2_778
10
0.2011255
20
49.8942368
11
0.2022255
21
49.8968368
0
LINE
8
DEFAULT_255_2_778
10
0.2022255
20
49.8968368
11
0.2032255
21
49.8994368
0
LINE
8
DEFAULT_255_2_778
10
0.2032255
20
49.8994368
11
0.2043255
21
49.9021368
0
LINE
8
DEFAULT_255_2_778
10
0.2043255
20
49.9021368
11
0.2053255
21
49.9047368
0
LINE
8
DEFAULT_255_2_778
10
0.2053255
20
49.9047368
11
0.2064255
21
49.9074368
0
LINE
8
DEFAULT_255_2_778
10
0.2064255
20
49.9074368
11
0.2077255
21
49.9100368
0
LINE
8
DEFAULT_255_2_778
10
0.2077255
20
49.9100368
11
0.2090255
21
49.9127368
0
LINE
8
DEFAULT_255_2_778
10
0.2090255
20
49.9127368
11
0.2104255
21
49.9151368
0
LINE
8
DEFAULT_255_2_778
10
0.2104255
20
49.9151368
11
0.2117255
21
49.9174368
0
LINE
8
DEFAULT_255_2_778
10
0.2117255
20
49.9174368
11
0.2130255
21
49.9198368
0
LINE
8
DEFAULT_255_2_778
10
0.2130255
20
49.9198368
11
0.2143255
21
49.9222368
0
LINE
8
DEFAULT_255_2_778
10
37.8875255
20
49.8243368
11
37.8875255
21
49.8272368
0
LINE
8
DEFAULT_255_2_778
10
37.8875255
20
49.8272368
11
37.8875255
21
49.8301368
0
LINE
8
DEFAULT_255_2_778
10
37.8875255
20
49.8301368
11
37.8873255
21
49.8330368
0
LINE
8
DEFAULT_255_2_778
10
37.8873255
20
49.8330368
11
37.8870255
21
49.8359368
0
LINE
8
DEFAULT_255_2_778
10
37.8870255
20
49.8359368
11
37.8868255
21
49.8389368
0
LINE
8
DEFAULT_255_2_778
10
37.8868255
20
49.8389368
11
37.8865255
21
49.8418368
0
LINE
8
DEFAULT_255_2_778
10
37.8865255
20
49.8418368
11
37.8862255
21
49.8447368
0
LINE
8
DEFAULT_255_2_778
10
37.8862255
20
49.8447368
11
37.8860255
21
49.8476368
0
LINE
8
DEFAULT_255_2_778
10
37.8860255
20
49.8476368
11
37.8857255
21
49.8505368
0
LINE
8
DEFAULT_255_2_778
10
37.8857255
20
49.8505368
11
37.8852255
21
49.8534368
0
LINE
8
DEFAULT_255_2_778
10
37.8852255
20
49.8534368
11
37.8846255
21
49.8563368
0
LINE
8
DEFAULT_255_2_778
10
37.8846255
20
49.8563368
11
37.8841255
21
49.8592368
0
LINE
8
DEFAULT_255_2_778
10
37.8841255
20
49.8592368
11
37.8836255
21
49.8621368
0
LINE
8
DEFAULT_255_2_778
10
37.8836255
20
49.8621368
11
37.8831255
21
49.8648368
0
LINE
8
DEFAULT_255_2_778
10
37.8831255
20
49.8648368
11
37.8825255
21
49.8677368
0
LINE
8
DEFAULT_255_2_778
10
37.8825255
20
49.8677368
11
37.8820255
21
49.8703368
0
LINE
8
DEFAULT_255_2_778
10
37.8820255
20
49.8703368
11
37.8812255
21
49.8730368
0
LINE
8
DEFAULT_255_2_778
10
37.8812255
20
49.8730368
11
37.8804255
21
49.8756368
0
LINE
8
DEFAULT_255_2_778
10
37.8804255
20
49.8756368
11
37.8796255
21
49.8783368
0
LINE
8
DEFAULT_255_2_778
10
37.8796255
20
49.8783368
11
37.8788255
21
49.8809368
0
LINE
8
DEFAULT_255_2_778
10
37.8788255
20
49.8809368
11
37.8780255
21
49.8836368
0
LINE
8
DEFAULT_255_2_778
10
37.8780255
20
49.8836368
11
37.8772255
21
49.8862368
0
LINE
8
DEFAULT_255_2_778
10
37.8772255
20
49.8862368
11
37.8762255
21
49.8889368
0
LINE
8
DEFAULT_255_2_778
10
37.8762255
20
49.8889368
11
37.8751255
21
49.8915368
0
LINE
8
DEFAULT_255_2_778
10
37.8751255
20
49.8915368
11
37.8741255
21
49.8942368
0
LINE
8
DEFAULT_255_2_778
10
37.8741255
20
49.8942368
11
37.8730255
21
49.8968368
0
LINE
8
DEFAULT_255_2_778
10
37.8730255
20
49.8968368
11
37.8719255
21
49.8994368
0
LINE
8
DEFAULT_255_2_778
10
37.8719255
20
49.8994368
11
37.8709255
21
49.9021368
0
LINE
8
DEFAULT_255_2_778
10
37.8709255
20
49.9021368
11
37.8698255
21
49.9047368
0
LINE
8
DEFAULT_255_2_778
10
37.8698255
20
49.9047368
11
37.8688255
21
49.9074368
0
LINE
8
DEFAULT_255_2_778
10
37.8688255
20
49.9074368
11
37.8674255
21
49.9100368
0
LINE
8
DEFAULT_255_2_778
10
37.8674255
20
49.9100368
11
37.8661255
21
49.9127368
0
LINE
8
DEFAULT_255_2_778
10
37.8661255
20
49.9127368
11
37.8648255
21
49.9151368
0
LINE
8
DEFAULT_255_2_778
10
37.8648255
20
49.9151368
11
37.8608255
21
49.9222368
0
LINE
8
DEFAULT_255_2_778
10
32.6374502
20
24.1532135
11
32.6374502
21
26.4442135
0
LINE
8
DEFAULT_255_2_778
10
32.6374502
20
26.4442135
11
20.4073502
21
26.4442135
0
LINE
8
DEFAULT_255_2_778
10
20.4073502
20
26.4442135
11
20.4073502
21
24.1532135
0
LINE
8
DEFAULT_255_2_778
10
32.5273502
20
24.1532135
11
32.5273502
21
26.3341135
0
LINE
8
DEFAULT_255_2_778
10
32.5273502
20
26.3341135
11
20.5174502
21
26.3341135
0
LINE
8
DEFAULT_255_2_778
10
20.5174502
20
26.3341135
11
20.5174502
21
24.1532135
0
LINE
8
DEFAULT_255_2_778
10
20.7999729
20
28.4545677
11
20.9171729
21
28.4373677
0
LINE
8
DEFAULT_255_2_778
10
20.9171729
20
28.4373677
11
21.0243729
21
28.3867677
0
LINE
8
DEFAULT_255_2_778
10
21.0243729
20
28.3867677
11
21.0962729
21
28.3156677
0
LINE
8
DEFAULT_255_2_778
10
21.0962729
20
28.3156677
11
21.1436729
21
28.2388677
0
LINE
8
DEFAULT_255_2_778
10
21.1436729
20
28.2388677
11
21.1753729
21
28.1613677
0
LINE
8
DEFAULT_255_2_778
10
21.1753729
20
28.1613677
11
21.1880729
21
28.1174677
0
LINE
8
DEFAULT_255_2_778
10
21.1880729
20
28.1174677
11
21.1978729
21
28.0727677
0
LINE
8
DEFAULT_255_2_778
10
21.1978729
20
28.0727677
11
21.2052729
21
28.0274677
0
LINE
8
DEFAULT_255_2_778
10
21.2052729
20
28.0274677
11
21.2063729
21
27.6567677
0
LINE
8
DEFAULT_255_2_778
10
21.2063729
20
27.6567677
11
21.2007729
21
27.6128677
0
LINE
8
DEFAULT_255_2_778
10
21.2007729
20
27.6128677
11
21.1933729
21
27.5692677
0
LINE
8
DEFAULT_255_2_778
10
21.1933729
20
27.5692677
11
21.1782729
21
27.5046677
0
LINE
8
DEFAULT_255_2_778
10
21.1782729
20
27.5046677
11
21.1616729
21
27.4527677
0
LINE
8
DEFAULT_255_2_778
10
21.1616729
20
27.4527677
11
21.1317729
21
27.3874677
0
LINE
8
DEFAULT_255_2_778
10
21.1317729
20
27.3874677
11
21.0925729
21
27.3310677
0
LINE
8
DEFAULT_255_2_778
10
21.0925729
20
27.3310677
11
21.0216729
21
27.2694677
0
LINE
8
DEFAULT_255_2_778
10
21.0216729
20
27.2694677
11
20.9010729
21
27.2241677
0
LINE
8
DEFAULT_255_2_778
10
20.9010729
20
27.2241677
11
20.5745729
21
27.2173677
0
LINE
8
DEFAULT_255_2_778
10
20.5745729
20
27.2173677
11
20.5745729
21
28.4545677
0
LINE
8
DEFAULT_255_2_778
10
20.5745729
20
28.4545677
11
20.7856729
21
28.4545677
0
LINE
8
DEFAULT_255_2_778
10
20.8171729
20
27.0358677
11
20.4136729
21
27.0358677
0
LINE
8
DEFAULT_255_2_778
10
20.4136729
20
27.0358677
11
20.4136729
21
28.6357677
0
LINE
8
DEFAULT_255_2_778
10
20.4136729
20
28.6357677
11
20.7853729
21
28.6357677
0
LINE
8
DEFAULT_255_2_778
10
20.7853729
20
28.6357677
11
20.8803729
21
28.6296677
0
LINE
8
DEFAULT_255_2_778
10
20.8803729
20
28.6296677
11
21.0467729
21
28.5828677
0
LINE
8
DEFAULT_255_2_778
10
21.0467729
20
28.5828677
11
21.1438729
21
28.5201677
0
LINE
8
DEFAULT_255_2_778
10
21.1438729
20
28.5201677
11
21.2118729
21
28.4481677
0
LINE
8
DEFAULT_255_2_778
10
21.2118729
20
28.4481677
11
21.2674729
21
28.3629677
0
LINE
8
DEFAULT_255_2_778
10
21.2674729
20
28.3629677
11
21.3026729
21
28.2886677
0
LINE
8
DEFAULT_255_2_778
10
21.3026729
20
28.2886677
11
21.3288729
21
28.2147677
0
LINE
8
DEFAULT_255_2_778
10
21.3288729
20
28.2147677
11
21.3436729
21
28.1589677
0
LINE
8
DEFAULT_255_2_778
10
21.3436729
20
28.1589677
11
21.3550729
21
28.1023677
0
LINE
8
DEFAULT_255_2_778
10
21.3550729
20
28.1023677
11
21.3635729
21
28.0452677
0
LINE
8
DEFAULT_255_2_778
10
21.3635729
20
28.0452677
11
21.3621729
21
27.5776677
0
LINE
8
DEFAULT_255_2_778
10
21.3621729
20
27.5776677
11
21.3579729
21
27.5488677
0
LINE
8
DEFAULT_255_2_778
10
21.3579729
20
27.5488677
11
21.3468729
21
27.4916677
0
LINE
8
DEFAULT_255_2_778
10
21.3468729
20
27.4916677
11
21.3322729
21
27.4356677
0
LINE
8
DEFAULT_255_2_778
10
21.3322729
20
27.4356677
11
21.3137729
21
27.3805677
0
LINE
8
DEFAULT_255_2_778
10
21.3137729
20
27.3805677
11
21.2910729
21
27.3268677
0
LINE
8
DEFAULT_255_2_778
10
21.2910729
20
27.3268677
11
21.2431729
21
27.2427677
0
LINE
8
DEFAULT_255_2_778
10
21.2431729
20
27.2427677
11
21.1835729
21
27.1694677
0
LINE
8
DEFAULT_255_2_778
10
21.1835729
20
27.1694677
11
21.1116729
21
27.1106677
0
LINE
8
DEFAULT_255_2_778
10
21.1116729
20
27.1106677
11
21.0068729
21
27.0625677
0
LINE
8
DEFAULT_255_2_778
10
21.0068729
20
27.0625677
11
20.8171729
21
27.0358677
0
ARC
8
DEFAULT_255_2_778
10
22.4124583
20
27.190936
40
0.0146631
50
153.1946706
51
157.9174199
0
ARC
8
DEFAULT_255_2_778
10
21.2583396
20
27.771091
40
1.2770682
50
333.3134821
51
351.625942
0
ARC
8
DEFAULT_255_2_778
10
20.7884448
20
27.8494698
40
1.7533916
50
351.3282524
51
0.2078978
0
ARC
8
DEFAULT_255_2_778
10
20.3311854
20
27.853407
40
2.2106408
50
0.0628521
51
4.3530706
0
ARC
8
DEFAULT_255_2_778
10
20.0831213
20
27.837094
40
2.459229
50
4.2933635
51
4.5585588
0
ARC
8
DEFAULT_255_2_778
10
20.784707
20
27.7558036
40
1.7716126
50
8.9870216
51
16.5405017
0
ARC
8
DEFAULT_255_2_778
10
21.584433
20
27.9978784
40
0.9360736
50
16.2723443
51
28.6810079
0
ARC
8
DEFAULT_255_2_778
10
22.0045462
20
28.2341658
40
0.4541393
50
27.9656243
51
53.0228509
0
ARC
8
DEFAULT_255_2_778
10
22.093528
20
28.3403033
40
0.3159096
50
54.3367983
51
90.7722971
0
ARC
8
DEFAULT_255_2_778
10
22.0908891
20
28.2300531
40
0.4261341
50
90.2176991
51
100.3437717
0
ARC
8
DEFAULT_255_2_778
10
22.1050283
20
28.1427359
40
0.514574
50
100.1468338
51
103.1833064
0
ARC
8
DEFAULT_255_2_778
10
22.2817638
20
28.1184691
40
0.6020042
50
119.2435543
51
156.7972255
0
ARC
8
DEFAULT_255_2_778
10
22.713003
20
27.915941
40
1.0782789
50
155.9340217
51
170.6584624
0
ARC
8
DEFAULT_255_2_778
10
23.5072892
20
27.7762305
40
1.8847304
50
170.3869955
51
179.3268003
0
ARC
8
DEFAULT_255_2_778
10
24.15867
20
27.7523167
40
2.5363994
50
178.9595178
51
180.0060588
0
ARC
8
DEFAULT_255_2_778
10
23.4312823
20
27.7395237
40
1.8090548
50
179.6033182
51
188.1729985
0
ARC
8
DEFAULT_255_2_778
10
22.5973984
20
27.6149283
40
0.9659394
50
187.8892925
51
201.9649315
0
ARC
8
DEFAULT_255_2_778
10
22.1577867
20
27.4295618
40
0.4889607
50
201.0884705
51
232.8457311
0
ARC
8
DEFAULT_255_2_778
10
22.0977241
20
27.3652802
40
0.4015539
50
234.1366951
51
237.5171657
0
ARC
8
DEFAULT_255_2_778
10
21.8750633
20
27.0161132
40
0.0125698
50
35.7012901
51
56.1174708
0
ARC
8
DEFAULT_255_2_778
10
20.606063
20
27.7680789
40
1.7718109
50
352.6167694
51
0.1057307
0
ARC
8
DEFAULT_255_2_778
10
21.5340189
20
27.6425476
40
0.8354339
50
339.9550043
51
352.9763575
0
ARC
8
DEFAULT_255_2_778
10
21.9971382
20
27.4658306
40
0.3398753
50
311.2017759
51
341.1813946
0
ARC
8
DEFAULT_255_2_778
10
22.0765868
20
27.3898931
40
0.230613
50
268.6045863
51
308.7772592
0
ARC
8
DEFAULT_255_2_778
10
22.0416606
20
27.3758042
40
0.2184312
50
270.1141617
51
277.7115144
0
ARC
8
DEFAULT_255_2_778
10
22.0459046
20
27.3467555
40
0.1894202
50
204.9316087
51
268.847855
0
ARC
8
DEFAULT_255_2_778
10
22.3648438
20
27.5354047
40
0.5593607
50
192.9781043
51
208.6858143
0
ARC
8
DEFAULT_255_2_778
10
23.0821412
20
27.7130737
40
1.2982918
50
185.1240137
51
193.5094969
0
ARC
8
DEFAULT_255_2_778
10
24.2014426
20
27.8259761
40
2.4232358
50
181.1214656
51
185.419201
0
ARC
8
DEFAULT_255_2_778
10
24.4934855
20
27.7341067
40
2.7151784
50
174.2006385
51
179.0621463
0
ARC
8
DEFAULT_255_2_778
10
23.1551753
20
27.8752883
40
1.369462
50
166.2309375
51
174.4194173
0
ARC
8
DEFAULT_255_2_778
10
22.3849036
20
28.0700326
40
0.5750041
50
151.0520954
51
166.8105045
0
ARC
8
DEFAULT_255_2_778
10
22.0579829
20
28.2611602
40
0.1966271
50
104.7307056
51
153.6796073
0
ARC
8
DEFAULT_255_2_778
10
22.0436542
20
28.2836973
40
0.1713802
50
89.8320163
51
102.0126501
0
ARC
8
DEFAULT_255_2_778
10
22.0437799
20
28.2520392
40
0.2030381
50
82.303801
51
89.8936678
0
ARC
8
DEFAULT_255_2_778
10
22.0701171
20
28.2159363
40
0.2373137
50
22.923326
51
89.7938803
0
ARC
8
DEFAULT_255_2_778
10
21.6967234
20
28.0127702
40
0.6616666
50
10.9099596
51
26.5353489
0
ARC
8
DEFAULT_255_2_778
10
20.9061237
20
27.847009
40
1.4694085
50
3.0509139
51
11.4219929
0
ARC
8
DEFAULT_255_2_778
10
19.8598952
20
27.7759913
40
2.5179801
50
359.8943533
51
3.3975446
0
LINE
8
DEFAULT_255_2_778
10
22.3985708
20
27.1975485
11
22.3993708
21
27.1975485
0
LINE
8
DEFAULT_255_2_778
10
21.8852708
20
27.0234485
11
21.9876708
21
26.9908485
0
LINE
8
DEFAULT_255_2_778
10
21.9876708
20
26.9908485
11
22.6139708
21
27.0072485
0
LINE
8
DEFAULT_255_2_778
10
22.6139708
20
27.0072485
11
22.6139708
21
27.1975485
0
LINE
8
DEFAULT_255_2_778
10
22.6139708
20
27.1975485
11
22.3993708
21
27.1975485
0
LINE
8
DEFAULT_255_2_778
10
22.3778708
20
27.7713485
11
22.3778708
21
27.7713485
0
ARC
8
DEFAULT_255_2_778
10
22.7621674
20
27.6932895
40
1.3156603
50
359.9917989
51
0.7064748
0
ARC
8
DEFAULT_255_2_778
10
23.6073059
20
27.7362045
40
0.4711785
50
356.7523806
51
29.7373008
0
ARC
8
DEFAULT_255_2_778
10
23.8334177
20
27.8406575
40
0.2240624
50
35.2331927
51
82.4495529
0
ARC
8
DEFAULT_255_2_778
10
23.7982706
20
27.6777217
40
0.3904348
50
80.4779267
51
90.3076426
0
ARC
8
DEFAULT_255_2_778
10
23.7962498
20
27.5776251
40
0.4905259
50
90.0088212
51
91.4160601
0
ARC
8
DEFAULT_255_2_778
10
23.7734112
20
27.8269761
40
0.2412632
50
87.4541803
51
152.128074
0
ARC
8
DEFAULT_255_2_778
10
23.9336497
20
27.7457472
40
0.4208991
50
152.5507638
51
173.7985243
0
ARC
8
DEFAULT_255_2_778
10
24.2639383
20
27.696295
40
0.7547175
50
172.7748531
51
180.242465
0
ARC
8
DEFAULT_255_2_778
10
23.1449846
20
27.6555169
40
1.0480241
50
355.9008426
51
359.990313
0
ARC
8
DEFAULT_255_2_778
10
23.2013697
20
27.6558281
40
0.9916391
50
359.9717828
51
4.2245799
0
ARC
8
DEFAULT_255_2_778
10
23.5922693
20
27.709976
40
0.5983439
50
1.810324
51
35.6643024
0
ARC
8
DEFAULT_255_2_778
10
23.8284646
20
27.8596506
40
0.3195884
50
38.5532825
51
83.6368791
0
ARC
8
DEFAULT_255_2_778
10
23.8098699
20
27.7539374
40
0.4267647
50
82.728722
51
90.1130696
0
ARC
8
DEFAULT_255_2_778
10
23.8272307
20
27.5713844
40
0.6095886
50
91.7111687
51
107.4193652
0
ARC
8
DEFAULT_255_2_778
10
23.7399023
20
27.8395172
40
0.327624
50
106.8852069
51
140.6215601
0
ARC
8
DEFAULT_255_2_778
10
23.8957403
20
27.7631801
40
0.4981114
50
145.2117953
51
180.3865999
0
ARC
8
DEFAULT_255_2_778
10
24.9785803
20
27.6722752
40
1.583362
50
176.8305055
51
180.184429
0
ARC
8
DEFAULT_255_2_778
10
26.0562553
20
27.6677531
40
2.6610291
50
180.0123703
51
180.5572635
0
ARC
8
DEFAULT_255_2_778
10
28.6302
20
27.6995226
40
5.2351653
50
180.6309634
51
181.3684154
0
ARC
8
DEFAULT_255_2_778
10
24.8679639
20
27.56341
40
1.471478
50
179.568131
51
179.9997395
0
ARC
8
DEFAULT_255_2_778
10
24.591589
20
27.5588233
40
1.195112
50
179.7797849
51
186.6733125
0
ARC
8
DEFAULT_255_2_778
10
24.1843198
20
27.5094877
40
0.7848707
50
186.5511536
51
196.4504511
0
ARC
8
DEFAULT_255_2_778
10
23.9115924
20
27.4273906
40
0.500061
50
196.2781422
51
210.9845642
0
ARC
8
DEFAULT_255_2_778
10
23.7694522
20
27.340862
40
0.3336592
50
210.8116967
51
235.0044571
0
ARC
8
DEFAULT_255_2_778
10
23.7556434
20
27.3319087
40
0.3184652
50
236.1159047
51
270.9656584
0
ARC
8
DEFAULT_255_2_778
10
23.7609696
20
27.406586
40
0.3930972
50
270.0059555
51
272.2452996
0
ARC
8
DEFAULT_255_2_778
10
23.7476261
20
27.5117546
40
0.4987927
50
273.3036485
51
305.8683383
0
ARC
8
DEFAULT_255_2_778
10
23.8320052
20
27.4040745
40
0.3621313
50
305.0320411
51
323.6225321
0
ARC
8
DEFAULT_255_2_778
10
23.9417659
20
27.3185617
40
0.2230736
50
324.5855996
51
331.9949834
0
ARC
8
DEFAULT_255_2_778
10
23.9922917
20
27.2920902
40
0.1660347
50
331.8733531
51
342.7556392
0
ARC
8
DEFAULT_255_2_778
10
24.0207604
20
27.2825388
40
0.1360158
50
343.0431494
51
345.9859118
0
ARC
8
DEFAULT_255_2_778
10
23.5553211
20
27.6619088
40
0.6139698
50
316.3988052
51
323.1037754
0
ARC
8
DEFAULT_255_2_778
10
23.6595429
20
27.5621873
40
0.4697257
50
308.0783519
51
316.4401691
0
ARC
8
DEFAULT_255_2_778
10
23.7121828
20
27.4966535
40
0.3856757
50
303.6794108
51
307.9269271
0
ARC
8
DEFAULT_255_2_778
10
23.7529478
20
27.4323836
40
0.3095921
50
290.0705082
51
303.9973361
0
ARC
8
DEFAULT_255_2_778
10
23.7786887
20
27.3612415
40
0.2339368
50
270.3383606
51
290.1284647
0
ARC
8
DEFAULT_255_2_778
10
23.7857885
20
27.3592041
40
0.2319659
50
214.3193241
51
268.5874178
0
ARC
8
DEFAULT_255_2_778
10
23.9305117
20
27.4726224
40
0.4156152
50
194.0417799
51
215.984545
0
ARC
8
DEFAULT_255_2_778
10
24.1411404
20
27.5297624
40
0.6338289
50
179.5779681
51
194.4330062
0
ARC
8
DEFAULT_255_2_778
10
24.2902639
20
27.5341166
40
0.7829353
50
176.5742292
51
179.9769919
0
LINE
8
DEFAULT_255_2_778
10
23.5092277
20
27.6931012
11
24.0778277
21
27.6931012
0
LINE
8
DEFAULT_255_2_778
10
23.5090277
20
27.5806012
11
24.1903277
21
27.5806012
0
LINE
8
DEFAULT_255_2_778
10
24.1527277
20
27.2496012
11
24.0463277
21
27.2933012
0
LINE
8
DEFAULT_255_2_778
10
23.5087277
20
27.5809012
11
23.5090277
21
27.5806012
0
LINE
8
DEFAULT_255_2_778
10
27.4873081
20
24.4214781
11
27.5961081
21
24.4214781
0
LINE
8
DEFAULT_255_2_778
10
27.5961081
20
24.4214781
11
27.5961081
21
24.1865781
0
LINE
8
DEFAULT_255_2_778
10
27.5961081
20
24.1865781
11
27.4871081
21
24.1865781
0
LINE
8
DEFAULT_255_2_778
10
27.4871081
20
24.1865781
11
27.4871081
21
24.4214781
0
LINE
8
DEFAULT_255_2_778
10
24.8253081
20
24.3714781
11
24.9375081
21
24.3714781
0
LINE
8
DEFAULT_255_2_778
10
24.9375081
20
24.3714781
11
24.9375081
21
24.1364781
0
LINE
8
DEFAULT_255_2_778
10
24.9375081
20
24.1364781
11
24.8253081
21
24.1364781
0
LINE
8
DEFAULT_255_2_778
10
24.8253081
20
24.1364781
11
24.8253081
21
24.3714781
0
LINE
8
DEFAULT_255_2_778
10
21.5289081
20
24.3714781
11
21.6376081
21
24.3714781
0
LINE
8
DEFAULT_255_2_778
10
21.6376081
20
24.3714781
11
21.6376081
21
24.1364781
0
LINE
8
DEFAULT_255_2_778
10
21.6376081
20
24.1364781
11
21.5289081
21
24.1364781
0
LINE
8
DEFAULT_255_2_778
10
21.5289081
20
24.1364781
11
21.5289081
21
24.3714781
0
LINE
8
DEFAULT_255_2_778
10
30.4874081
20
24.3814781
11
30.6123081
21
24.3814781
0
LINE
8
DEFAULT_255_2_778
10
30.6123081
20
24.3814781
11
30.6123081
21
24.1491781
0
LINE
8
DEFAULT_255_2_778
10
30.6123081
20
24.1491781
11
30.4874081
21
24.1491781
0
LINE
8
DEFAULT_255_2_778
10
30.4874081
20
24.1491781
11
30.4874081
21
24.3814781
0
ARC
8
DEFAULT_255_2_778
10
28.2312695
20
25.4256711
40
0.1952089
50
6.5153328
51
90.9318576
0
ARC
8
DEFAULT_255_2_778
10
27.9770645
20
25.3636553
40
0.4559881
50
359.5029304
51
10.636608
0
ARC
8
DEFAULT_255_2_778
10
27.7799037
20
25.3600815
40
0.6531319
50
357.4615307
51
359.966482
0
ARC
8
DEFAULT_255_2_778
10
27.76521
20
25.4558865
40
0.6787443
50
334.1913637
51
349.4106076
0
ARC
8
DEFAULT_255_2_778
10
27.0276607
20
25.7998073
40
1.4925012
50
326.1157222
51
334.6324122
0
ARC
8
DEFAULT_255_2_778
10
25.877793
20
26.5602903
40
2.8710803
50
321.0349894
51
326.3101861
0
ARC
8
DEFAULT_255_2_778
10
24.2484484
20
27.86908
40
4.9609765
50
317.4819335
51
321.1156365
0
ARC
8
DEFAULT_255_2_778
10
20.2140275
20
31.5338557
40
10.4113734
50
317.6067988
51
317.6215925
0
ARC
8
DEFAULT_255_2_778
10
24.8824937
20
27.4599694
40
4.3724066
50
315.0211798
51
320.1642516
0
ARC
8
DEFAULT_255_2_778
10
27.2898092
20
25.6241315
40
1.3543363
50
314.5545176
51
331.5763896
0
ARC
8
DEFAULT_255_2_778
10
27.5530687
20
25.474736
40
1.0517193
50
331.9075213
51
349.9638919
0
ARC
8
DEFAULT_255_2_778
10
27.7352456
20
25.4111393
40
0.8618005
50
352.0170726
51
357.2070665
0
ARC
8
DEFAULT_255_2_778
10
27.8842078
20
25.4027572
40
0.7126076
50
357.2966117
51
359.9739115
0
ARC
8
DEFAULT_255_2_778
10
28.133814
20
25.4139073
40
0.4631435
50
358.5803241
51
23.6852395
0
ARC
8
DEFAULT_255_2_778
10
28.2404625
20
25.4461995
40
0.352756
50
25.8410905
51
73.2881321
0
ARC
8
DEFAULT_255_2_778
10
28.143521
20
25.2093053
40
0.6080238
50
70.9574935
51
78.5621816
0
ARC
8
DEFAULT_255_2_778
10
28.2513476
20
25.2426709
40
0.5627276
50
88.7019927
51
109.9094108
0
ARC
8
DEFAULT_255_2_778
10
28.1841708
20
25.4516969
40
0.3434122
50
111.2473844
51
172.4345698
0
ARC
8
DEFAULT_255_2_778
10
28.5499222
20
25.3630453
40
0.7187501
50
169.2661834
51
180.4536785
0
ARC
8
DEFAULT_255_2_778
10
28.5436014
20
25.2505512
40
0.578157
50
154.0973978
51
169.3546101
0
ARC
8
DEFAULT_255_2_778
10
28.2147793
20
25.4194813
40
0.2087388
50
111.593824
51
156.380499
0
ARC
8
DEFAULT_255_2_778
10
28.1955115
20
25.4438516
40
0.1792113
50
89.5665854
51
108.7322791
0
ARC
8
DEFAULT_255_2_778
10
28.1963364
20
25.3931476
40
0.2299106
50
82.0601325
51
89.8677459
0
LINE
8
DEFAULT_255_2_778
10
27.9031948
20
24.5143541
11
27.7708948
21
24.3825541
0
LINE
8
DEFAULT_255_2_778
10
27.7708948
20
24.3825541
11
27.7708948
21
24.1849541
0
LINE
8
DEFAULT_255_2_778
10
27.7708948
20
24.1849541
11
28.6246948
21
24.1849541
0
LINE
8
DEFAULT_255_2_778
10
28.6246948
20
24.1849541
11
28.6246948
21
24.3693541
0
LINE
8
DEFAULT_255_2_778
10
28.6246948
20
24.3693541
11
27.9753948
21
24.3693541
0
LINE
8
DEFAULT_255_2_778
10
27.8311948
20
25.3573541
11
27.9753948
21
25.3573541
0
LINE
8
DEFAULT_255_2_778
10
28.2280948
20
25.6208541
11
28.2280948
21
25.6208541
0
ARC
8
DEFAULT_255_2_778
10
31.3969146
20
25.3255569
40
0.6706345
50
156.8324673
51
174.8544179
0
ARC
8
DEFAULT_255_2_778
10
31.125493
20
25.440503
40
0.3758801
50
89.9521425
51
156.6638356
0
ARC
8
DEFAULT_255_2_778
10
31.1694681
20
25.1501987
40
0.6676137
50
89.952787
51
93.7497496
0
ARC
8
DEFAULT_255_2_778
10
31.1691329
20
25.0282554
40
0.7895574
50
85.847104
51
89.9357573
0
ARC
8
DEFAULT_255_2_778
10
31.1583795
20
24.8666389
40
0.9515289
50
85.7930596
51
85.9060439
0
ARC
8
DEFAULT_255_2_778
10
31.1576015
20
25.3176435
40
0.5029376
50
58.7751054
51
81.9325893
0
ARC
8
DEFAULT_255_2_778
10
31.2251558
20
25.4509081
40
0.3541386
50
4.87156
51
56.9440249
0
ARC
8
DEFAULT_255_2_778
10
30.957997
20
25.3994994
40
0.6253495
50
359.8123918
51
7.4869265
0
ARC
8
DEFAULT_255_2_778
10
30.7643492
20
25.3988713
40
0.8189952
50
354.9899728
51
359.9006867
0
ARC
8
DEFAULT_255_2_778
10
30.6239359
20
25.4097319
40
0.9598217
50
353.60374
51
355.0761272
0
ARC
8
DEFAULT_255_2_778
10
31.2346883
20
25.3355133
40
0.3446501
50
295.6105641
51
354.5540771
0
ARC
8
DEFAULT_255_2_778
10
31.1113252
20
25.5138611
40
0.5598423
50
298.4445708
51
299.1079285
0
ARC
8
DEFAULT_255_2_778
10
31.2194569
20
24.6339
40
0.4188612
50
37.0645612
51
67.7611374
0
ARC
8
DEFAULT_255_2_778
10
31.2317081
20
24.6636111
40
0.3915184
50
358.6355114
51
34.6749374
0
ARC
8
DEFAULT_255_2_778
10
31.0692945
20
24.6499486
40
0.5538379
50
359.9968303
51
0.4489284
0
ARC
8
DEFAULT_255_2_778
10
30.9641862
20
24.6523359
40
0.6589506
50
351.7724404
51
359.7897607
0
ARC
8
DEFAULT_255_2_778
10
30.8104753
20
24.6719317
40
0.8138877
50
349.6353929
51
351.9556693
0
ARC
8
DEFAULT_255_2_778
10
31.0286767
20
24.6718248
40
0.6005053
50
325.9146877
51
345.8971634
0
ARC
8
DEFAULT_255_2_778
10
31.199058
20
24.5651138
40
0.3996543
50
269.9539052
51
324.8956514
0
ARC
8
DEFAULT_255_2_778
10
31.1698694
20
24.7908868
40
0.6260929
50
269.9795746
51
272.6426548
0
ARC
8
DEFAULT_255_2_778
10
31.1718086
20
24.9176543
40
0.7528636
50
262.9232449
51
269.8354308
0
ARC
8
DEFAULT_255_2_778
10
31.1924808
20
25.1000405
40
0.9364093
50
259.9134845
51
263.0428667
0
ARC
8
DEFAULT_255_2_778
10
31.1362383
20
24.5309279
40
0.368912
50
209.0401951
51
253.0168711
0
ARC
8
DEFAULT_255_2_778
10
31.4896071
20
24.7506321
40
0.7847736
50
195.1909469
51
210.5406669
0
ARC
8
DEFAULT_255_2_778
10
31.9452666
20
24.8922896
40
1.2617494
50
192.25793
51
195.9769328
0
ARC
8
DEFAULT_255_2_778
10
31.4258156
20
24.8054781
40
0.5763178
50
198.3120186
51
217.3531601
0
ARC
8
DEFAULT_255_2_778
10
31.1918838
20
24.6226375
40
0.2794497
50
216.6541016
51
270.614881
0
ARC
8
DEFAULT_255_2_778
10
31.1213084
20
24.8009654
40
0.4636365
50
279.1308528
51
296.8251637
0
ARC
8
DEFAULT_255_2_778
10
31.2350112
20
24.5853805
40
0.2199803
50
295.736353
51
2.564794
0
ARC
8
DEFAULT_255_2_778
10
31.0397498
20
24.5912586
40
0.4150404
50
0.5474822
51
13.051741
0
ARC
8
DEFAULT_255_2_778
10
30.7806176
20
24.5335369
40
0.6805176
50
12.8589772
51
20.8459993
0
ARC
8
DEFAULT_255_2_778
10
30.5881866
20
24.4651049
40
0.8847158
50
20.5529196
51
21.5104126
0
ARC
8
DEFAULT_255_2_778
10
31.1100712
20
24.5995064
40
0.3561284
50
32.2428052
51
59.2773272
0
ARC
8
DEFAULT_255_2_778
10
31.1667529
20
24.6822179
40
0.2561497
50
60.7248045
51
90.4338162
0
ARC
8
DEFAULT_255_2_778
10
31.1680238
20
24.5913839
40
0.3469911
50
90.5301053
51
106.5904914
0
ARC
8
DEFAULT_255_2_778
10
31.1900841
20
24.5025024
40
0.4384917
50
106.0369383
51
107.0134953
0
ARC
8
DEFAULT_255_2_778
10
31.0743523
20
25.5763038
40
0.472867
50
268.4768067
51
290.6824075
0
ARC
8
DEFAULT_255_2_778
10
31.1392052
20
25.3826552
40
0.2689042
50
292.3277549
51
357.8636505
0
ARC
8
DEFAULT_255_2_778
10
30.8705694
20
25.4328363
40
0.5407153
50
353.6072247
51
0.1555077
0
ARC
8
DEFAULT_255_2_778
10
31.102994
20
25.3513181
40
0.3192625
50
15.0658752
51
44.7154845
0
ARC
8
DEFAULT_255_2_778
10
31.1806543
20
25.4136241
40
0.2204824
50
47.4101191
51
92.0401604
0
ARC
8
DEFAULT_255_2_778
10
31.1731667
20
25.2967691
40
0.3371978
50
90.0614318
51
94.7604319
0
ARC
8
DEFAULT_255_2_778
10
31.1422116
20
25.4080101
40
0.2248134
50
89.2427548
51
171.1736973
0
ARC
8
DEFAULT_255_2_778
10
31.3341122
20
25.3559575
40
0.4230005
50
168.1936567
51
176.1168611
0
LINE
8
DEFAULT_255_2_778
10
30.9120828
20
25.3846039
11
30.7289828
21
25.3846039
0
LINE
8
DEFAULT_255_2_778
10
30.7122828
20
24.6244039
11
30.8786828
21
24.6244039
0
LINE
8
DEFAULT_255_2_778
10
31.0617828
20
24.9218039
11
31.0617828
21
25.1036039
0
LINE
8
DEFAULT_255_2_778
10
30.7289828
20
25.3846039
11
30.7289828
21
25.3857039
0
ARC
8
DEFAULT_255_2_778
10
20.1037708
20
24.9414752
40
2.3596376
50
359.7006937
51
5.6428816
0
ARC
8
DEFAULT_255_2_778
10
21.3083495
20
25.0657021
40
1.1486929
50
5.3844331
51
15.344166
0
ARC
8
DEFAULT_255_2_778
10
21.9583136
20
25.2507058
40
0.4729861
50
14.5667122
51
34.7545617
0
ARC
8
DEFAULT_255_2_778
10
22.177935
20
25.4065123
40
0.203745
50
33.9635005
51
90.522712
0
ARC
8
DEFAULT_255_2_778
10
22.150993
20
25.4404192
40
0.1716719
50
81.5983591
51
89.8841341
0
ARC
8
DEFAULT_255_2_778
10
22.156984
20
25.4488421
40
0.1633462
50
91.9800508
51
153.6144518
0
ARC
8
DEFAULT_255_2_778
10
22.4648342
20
25.2572547
40
0.5254238
50
149.8149738
51
166.000058
0
ARC
8
DEFAULT_255_2_778
10
23.1976149
20
25.0588457
40
1.2845275
50
165.3202486
51
173.2916485
0
ARC
8
DEFAULT_255_2_778
10
24.4763847
20
24.8993212
40
2.5731933
50
173.0900866
51
177.9236494
0
ARC
8
DEFAULT_255_2_778
10
25.7178345
20
24.8400481
40
3.8160021
50
177.7096164
51
178.9474064
0
ARC
8
DEFAULT_255_2_778
10
24.559883
20
24.953617
40
2.6577622
50
180.937126
51
185.673275
0
ARC
8
DEFAULT_255_2_778
10
23.2388761
20
24.816966
40
1.329728
50
185.4409116
51
193.5890783
0
ARC
8
DEFAULT_255_2_778
10
22.4773992
20
24.6268542
40
0.5449316
50
192.971288
51
208.9265517
0
ARC
8
DEFAULT_255_2_778
10
22.159623
20
24.4402867
40
0.1768206
50
205.8185478
51
259.3932956
0
ARC
8
DEFAULT_255_2_778
10
22.1491497
20
24.4242885
40
0.1593375
50
262.0370856
51
270.0794235
0
ARC
8
DEFAULT_255_2_778
10
22.1489659
20
24.4498543
40
0.1849038
50
270.1253798
51
278.4310095
0
ARC
8
DEFAULT_255_2_778
10
22.1740869
20
24.4868147
40
0.2198749
50
270.5183901
51
337.2378491
0
ARC
8
DEFAULT_255_2_778
10
21.8056089
20
24.6869029
40
0.63845
50
333.4714873
51
349.2566419
0
ARC
8
DEFAULT_255_2_778
10
21.0046236
20
24.8530872
40
1.4564409
50
348.7074681
51
357.013105
0
ARC
8
DEFAULT_255_2_778
10
19.9357189
20
24.9244767
40
2.5276616
50
356.6596119
51
0.1059029
0
ARC
8
DEFAULT_255_2_778
10
20.3272332
20
24.9604421
40
2.2729773
50
359.6850752
51
6.5385227
0
ARC
8
DEFAULT_255_2_778
10
21.3866312
20
25.0865089
40
1.2061238
50
6.3194389
51
17.2251044
0
ARC
8
DEFAULT_255_2_778
10
21.9826995
20
25.2777039
40
0.5802041
50
16.6219238
51
37.5227997
0
ARC
8
DEFAULT_255_2_778
10
22.1741805
20
25.4201463
40
0.3415995
50
38.1356907
51
91.9467379
0
ARC
8
DEFAULT_255_2_778
10
22.1983858
20
25.4105385
40
0.3528321
50
95.8250917
51
154.4667869
0
ARC
8
DEFAULT_255_2_778
10
22.5892145
20
25.184768
40
0.8035795
50
151.9519005
51
166.7997363
0
ARC
8
DEFAULT_255_2_778
10
23.3377784
20
24.9991964
40
1.574771
50
166.445728
51
175.0962277
0
ARC
8
DEFAULT_255_2_778
10
24.2958995
20
24.9032244
40
2.5376261
50
174.7864924
51
178.5587911
0
ARC
8
DEFAULT_255_2_778
10
24.7096178
20
25.023873
40
2.9510887
50
181.1033182
51
186.3199588
0
ARC
8
DEFAULT_255_2_778
10
23.3838034
20
24.8722699
40
1.61665
50
186.1521328
51
194.3691683
0
ARC
8
DEFAULT_255_2_778
10
22.5850491
20
24.6626645
40
0.7908804
50
194.0197973
51
208.0686005
0
ARC
8
DEFAULT_255_2_778
10
22.1979952
20
24.4479322
40
0.3483899
50
206.8586358
51
240.1651462
0
ARC
8
DEFAULT_255_2_778
10
22.1536333
20
24.3919019
40
0.2779181
50
242.3524464
51
270.7473556
0
ARC
8
DEFAULT_255_2_778
10
22.156904
20
24.471779
40
0.3577717
50
270.0567488
51
275.320057
0
ARC
8
DEFAULT_255_2_778
10
22.1935001
20
24.4403153
40
0.3247846
50
269.3959774
51
336.5073033
0
ARC
8
DEFAULT_255_2_778
10
21.7729105
20
24.6721302
40
0.8041773
50
333.303802
51
348.153058
0
ARC
8
DEFAULT_255_2_778
10
20.9835805
20
24.8500111
40
1.6132578
50
347.7253017
51
355.9055992
0
ARC
8
DEFAULT_255_2_778
10
19.8705431
20
24.9405854
40
2.7299431
50
355.6774117
51
0.1545419
0
LINE
8
DEFAULT_255_2_778
10
22.4633762
20
24.9291488
11
22.4633762
21
24.9291488
0
LINE
8
DEFAULT_255_2_778
10
22.6004762
20
24.9479488
11
22.6001762
21
24.9479488
0
LINE
8
DEFAULT_255_2_778
10
25.1451762
20
25.7194488
11
24.9216762
21
25.5112488
0
LINE
8
DEFAULT_255_2_778
10
24.9216762
20
25.5112488
11
24.8747762
21
25.4615488
0
LINE
8
DEFAULT_255_2_778
10
24.8747762
20
25.4615488
11
24.8747762
21
25.2842488
0
LINE
8
DEFAULT_255_2_778
10
24.8869762
20
25.2908488
11
25.0875762
21
25.4866488
0
LINE
8
DEFAULT_255_2_778
10
25.0875762
20
25.4866488
11
25.1875762
21
25.5866488
0
LINE
8
DEFAULT_255_2_778
10
25.1875762
20
25.5866488
11
25.1875762
21
24.1367488
0
LINE
8
DEFAULT_255_2_778
10
25.1875762
20
24.1367488
11
25.2848762
21
24.1391488
0
LINE
8
DEFAULT_255_2_778
10
25.2848762
20
24.1391488
11
25.2848762
21
25.7300488
0
LINE
8
DEFAULT_255_2_778
10
25.2848762
20
25.7300488
11
25.1531762
21
25.7300488
0
LINE
8
DEFAULT_255_2_778
10
17.7019762
20
11.2298488
11
17.6887762
21
12.5657488
0
LINE
8
DEFAULT_255_2_778
10
17.6887762
20
12.5657488
11
17.1886762
21
11.2282488
0
LINE
8
DEFAULT_255_2_778
10
17.1886762
20
11.2282488
11
17.0386762
21
11.2282488
0
LINE
8
DEFAULT_255_2_778
10
17.0386762
20
11.2282488
11
16.5385762
21
12.5532488
0
LINE
8
DEFAULT_255_2_778
10
16.5385762
20
12.5532488
11
16.5097762
21
11.2298488
0
LINE
8
DEFAULT_255_2_778
10
16.5097762
20
11.2298488
11
16.4126762
21
11.2282488
0
LINE
8
DEFAULT_255_2_778
10
16.4126762
20
11.2282488
11
16.4134762
21
12.8281488
0
LINE
8
DEFAULT_255_2_778
10
16.4134762
20
12.8281488
11
16.5634762
21
12.8281488
0
LINE
8
DEFAULT_255_2_778
10
16.5634762
20
12.8281488
11
17.1008762
21
11.3531488
0
LINE
8
DEFAULT_255_2_778
10
17.1008762
20
11.3531488
11
17.6633762
21
12.8281488
0
LINE
8
DEFAULT_255_2_778
10
17.6633762
20
12.8281488
11
17.8008762
21
12.8281488
0
LINE
8
DEFAULT_255_2_778
10
17.8008762
20
12.8281488
11
17.7995762
21
11.2282488
0
LINE
8
DEFAULT_255_2_778
10
17.7995762
20
11.2282488
11
17.6992762
21
11.2282488
0
LINE
8
DEFAULT_255_2_778
10
12.7010762
20
12.8281488
11
12.7010762
21
11.2282488
0
LINE
8
DEFAULT_255_2_778
10
12.7010762
20
11.2282488
11
13.4511762
21
11.2282488
0
LINE
8
DEFAULT_255_2_778
10
13.4511762
20
11.2282488
11
13.4511762
21
11.3430488
0
LINE
8
DEFAULT_255_2_778
10
13.4511762
20
11.3430488
11
12.8201762
21
11.3430488
0
LINE
8
DEFAULT_255_2_778
10
12.8201762
20
11.3430488
11
12.8201762
21
12.8281488
0
LINE
8
DEFAULT_255_2_778
10
12.8201762
20
12.8281488
11
12.7010762
21
12.8281488
0
LINE
8
DEFAULT_255_2_778
10
14.5137762
20
11.8680488
11
14.0893762
21
11.8680488
0
LINE
8
DEFAULT_255_2_778
10
14.0893762
20
11.8680488
11
14.0922762
21
12.3781488
0
LINE
8
DEFAULT_255_2_778
10
14.0922762
20
12.3781488
11
13.9882762
21
12.3770488
0
LINE
8
DEFAULT_255_2_778
10
13.9882762
20
12.3770488
11
13.9882762
21
11.8682488
0
LINE
8
DEFAULT_255_2_778
10
13.9882762
20
11.8682488
11
13.5638762
21
11.8682488
0
LINE
8
DEFAULT_255_2_778
10
13.5638762
20
11.8682488
11
13.5659762
21
11.7582488
0
LINE
8
DEFAULT_255_2_778
10
13.5659762
20
11.7582488
11
13.9832762
21
11.7537488
0
LINE
8
DEFAULT_255_2_778
10
13.9832762
20
11.7537488
11
13.9869762
21
11.2285488
0
LINE
8
DEFAULT_255_2_778
10
13.9869762
20
11.2285488
11
14.0922762
21
11.2285488
0
LINE
8
DEFAULT_255_2_778
10
14.0922762
20
11.2285488
11
14.0893762
21
11.7537488
0
LINE
8
DEFAULT_255_2_778
10
14.0893762
20
11.7537488
11
14.5137762
21
11.7537488
0
LINE
8
DEFAULT_255_2_778
10
14.5137762
20
11.7537488
11
14.5131762
21
11.8735488
0
LINE
8
DEFAULT_255_2_778
10
15.4272719
20
15.5214677
11
15.6167719
21
15.5214677
0
LINE
8
DEFAULT_255_2_778
10
15.6167719
20
15.5214677
11
15.1087719
21
13.9215677
0
LINE
8
DEFAULT_255_2_778
10
15.1087719
20
13.9215677
11
14.9126719
21
13.9215677
0
LINE
8
DEFAULT_255_2_778
10
14.9126719
20
13.9215677
11
14.4046719
21
15.5214677
0
LINE
8
DEFAULT_255_2_778
10
14.4046719
20
15.5214677
11
14.5943719
21
15.5214677
0
LINE
8
DEFAULT_255_2_778
10
14.5943719
20
15.5214677
11
15.0134719
21
14.1313677
0
LINE
8
DEFAULT_255_2_778
10
15.0134719
20
14.1313677
11
15.4269719
21
15.5214677
0
LINE
8
DEFAULT_255_2_778
10
17.7916391
20
15.086698
11
17.9464391
21
15.086698
0
ARC
8
DEFAULT_255_2_778
10
17.3372717
20
15.0758389
40
0.6092642
50
1.0212536
51
21.239404
0
ARC
8
DEFAULT_255_2_778
10
17.5647641
20
15.1571194
40
0.3678394
50
22.2757817
51
84.320363
0
ARC
8
DEFAULT_255_2_778
10
17.4905821
20
14.8335489
40
0.6984147
50
80.8895541
51
88.4200097
0
ARC
8
DEFAULT_255_2_778
10
17.5043018
20
15.113388
40
0.4183466
50
89.2415964
51
153.7630244
0
ARC
8
DEFAULT_255_2_778
10
17.8426646
20
14.8943836
40
0.8200075
50
150.4872992
51
159.7503086
0
ARC
8
DEFAULT_255_2_778
10
17.9813067
20
14.8234319
40
0.9748149
50
158.6581467
51
171.8907983
0
ARC
8
DEFAULT_255_2_778
10
18.8774089
20
14.6851185
40
1.8814969
50
171.5702551
51
179.3337061
0
ARC
8
DEFAULT_255_2_778
10
19.6573391
20
14.7917107
40
2.6626479
50
181.8231853
51
187.1128645
0
ARC
8
DEFAULT_255_2_778
10
18.3052003
20
14.6176596
40
1.299374
50
186.8798638
51
195.7299782
0
ARC
8
DEFAULT_255_2_778
10
17.5655741
20
14.4028434
40
0.5292464
50
195.0527371
51
212.5648319
0
ARC
8
DEFAULT_255_2_778
10
17.3649874
20
14.283958
40
0.2963066
50
214.0678282
51
218.8230851
0
ARC
8
DEFAULT_255_2_778
10
17.6966975
20
14.5056168
40
0.6945948
50
215.9129917
51
231.7177668
0
ARC
8
DEFAULT_255_2_778
10
17.4980381
20
14.2453937
40
0.3672893
50
230.8946822
51
269.1842714
0
ARC
8
DEFAULT_255_2_778
10
17.4905973
20
14.2596514
40
0.381516
50
270.3321692
51
287.2510103
0
ARC
8
DEFAULT_255_2_778
10
17.4210622
20
14.4840191
40
0.6164117
50
287.2388269
51
308.0275057
0
ARC
8
DEFAULT_255_2_778
10
17.5531442
20
14.3048332
40
0.3939475
50
308.9500299
51
2.2907598
0
ARC
8
DEFAULT_255_2_778
10
17.3649108
20
14.3204796
40
0.581866
50
0.0098376
51
1.9518792
0
LINE
8
DEFAULT_255_2_778
10
17.9464391
20
14.340298
11
17.7860391
21
14.340298
0
ARC
8
DEFAULT_255_2_778
10
17.4906143
20
14.3331872
40
0.2955104
50
327.4515723
51
1.3788253
0
ARC
8
DEFAULT_255_2_778
10
17.5443326
20
14.3211934
40
0.2444996
50
275.4544727
51
323.0437554
0
ARC
8
DEFAULT_255_2_778
10
17.4904335
20
14.5869769
40
0.5149863
50
269.6891002
51
278.6147726
0
ARC
8
DEFAULT_255_2_778
10
17.5470654
20
14.4017126
40
0.3350271
50
201.1031127
51
259.7829576
0
ARC
8
DEFAULT_255_2_778
10
17.9242214
20
14.5812834
40
0.7522124
50
188.6026966
51
203.5209696
0
ARC
8
DEFAULT_255_2_778
10
18.6120531
20
14.6952332
40
1.4493833
50
180.5701854
51
188.9893419
0
ARC
8
DEFAULT_255_2_778
10
19.1831854
20
14.7145326
40
2.0207252
50
179.9939633
51
180.9562238
0
ARC
8
DEFAULT_255_2_778
10
19.44105
20
14.7137578
40
2.2785901
50
178.1444471
51
179.9751639
0
ARC
8
DEFAULT_255_2_778
10
19.8312414
20
14.7012298
40
2.6689824
50
176.49934
51
178.1468718
0
ARC
8
DEFAULT_255_2_778
10
18.1700728
20
14.7853171
40
1.0059312
50
163.3238685
51
175.5024878
0
ARC
8
DEFAULT_255_2_778
10
17.6486396
20
14.9484498
40
0.4596636
50
138.8614657
51
164.1516103
0
ARC
8
DEFAULT_255_2_778
10
17.5212743
20
15.0507395
40
0.2965246
50
100.8141751
51
137.5561664
0
ARC
8
DEFAULT_255_2_778
10
17.5498113
20
14.8908497
40
0.4589333
50
92.6058391
51
100.5683502
0
ARC
8
DEFAULT_255_2_778
10
17.5441203
20
14.9835268
40
0.3660962
50
90.0168057
51
92.3755327
0
ARC
8
DEFAULT_255_2_778
10
17.5568246
20
15.1301071
40
0.2198894
50
15.1400103
51
93.3401683
0
ARC
8
DEFAULT_255_2_778
10
17.3018431
20
15.0300755
40
0.493058
50
6.594369
51
18.6241128
0
LINE
8
DEFAULT_255_2_778
10
17.7916391
20
15.086698
11
17.7916391
21
15.086698
0
LINE
8
DEFAULT_255_2_778
10
16.2482522
20
13.9563676
11
16.3718522
21
13.9725676
0
LINE
8
DEFAULT_255_2_778
10
16.3718522
20
13.9725676
11
16.4567522
21
14.0032676
0
LINE
8
DEFAULT_255_2_778
10
16.4567522
20
14.0032676
11
16.5327522
21
14.0527676
0
LINE
8
DEFAULT_255_2_778
10
16.5327522
20
14.0527676
11
16.5938522
21
14.1167676
0
LINE
8
DEFAULT_255_2_778
10
16.5938522
20
14.1167676
11
16.6356522
21
14.1778676
0
LINE
8
DEFAULT_255_2_778
10
16.6356522
20
14.1778676
11
16.6705522
21
14.2455676
0
LINE
8
DEFAULT_255_2_778
10
16.6705522
20
14.2455676
11
16.6922522
21
14.2992676
0
LINE
8
DEFAULT_255_2_778
10
16.6922522
20
14.2992676
11
16.7084522
21
14.3500676
0
LINE
8
DEFAULT_255_2_778
10
16.7084522
20
14.3500676
11
16.7213522
21
14.4019676
0
LINE
8
DEFAULT_255_2_778
10
16.7213522
20
14.4019676
11
16.7314522
21
14.4548676
0
LINE
8
DEFAULT_255_2_778
10
16.7314522
20
14.4548676
11
16.7353522
21
14.4815676
0
LINE
8
DEFAULT_255_2_778
10
16.7353522
20
14.4815676
11
16.7388522
21
14.5085676
0
LINE
8
DEFAULT_255_2_778
10
16.7388522
20
14.5085676
11
16.7417522
21
14.5358676
0
LINE
8
DEFAULT_255_2_778
10
16.7417522
20
14.5358676
11
16.7441522
21
14.5630676
0
LINE
8
DEFAULT_255_2_778
10
16.7441522
20
14.5630676
11
16.7459522
21
14.5903676
0
LINE
8
DEFAULT_255_2_778
10
16.7459522
20
14.5903676
11
16.7459522
21
14.8745676
0
LINE
8
DEFAULT_255_2_778
10
16.7459522
20
14.8745676
11
16.7438522
21
14.9036676
0
LINE
8
DEFAULT_255_2_778
10
16.7438522
20
14.9036676
11
16.7412522
21
14.9324676
0
LINE
8
DEFAULT_255_2_778
10
16.7412522
20
14.9324676
11
16.7380522
21
14.9610676
0
LINE
8
DEFAULT_255_2_778
10
16.7380522
20
14.9610676
11
16.7343522
21
14.9895676
0
LINE
8
DEFAULT_255_2_778
10
16.7343522
20
14.9895676
11
16.7300522
21
15.0179676
0
LINE
8
DEFAULT_255_2_778
10
16.7300522
20
15.0179676
11
16.7195522
21
15.0739676
0
LINE
8
DEFAULT_255_2_778
10
16.7195522
20
15.0739676
11
16.7057522
21
15.1290676
0
LINE
8
DEFAULT_255_2_778
10
16.7057522
20
15.1290676
11
16.6885522
21
15.1830676
0
LINE
8
DEFAULT_255_2_778
10
16.6885522
20
15.1830676
11
16.6591522
21
15.2544676
0
LINE
8
DEFAULT_255_2_778
10
16.6591522
20
15.2544676
11
16.6229522
21
15.3213676
0
LINE
8
DEFAULT_255_2_778
10
16.6229522
20
15.3213676
11
16.5689522
21
15.3957676
0
LINE
8
DEFAULT_255_2_778
10
16.5689522
20
15.3957676
11
16.5057522
21
15.4560676
0
LINE
8
DEFAULT_255_2_778
10
16.5057522
20
15.4560676
11
16.4271522
21
15.5028676
0
LINE
8
DEFAULT_255_2_778
10
16.4271522
20
15.5028676
11
16.3067522
21
15.5386676
0
LINE
8
DEFAULT_255_2_778
10
16.3067522
20
15.5386676
11
16.2011522
21
15.5470676
0
LINE
8
DEFAULT_255_2_778
10
16.2011522
20
15.5470676
11
15.8561522
21
15.5470676
0
LINE
8
DEFAULT_255_2_778
10
15.8561522
20
15.5470676
11
15.8561522
21
13.9561676
0
LINE
8
DEFAULT_255_2_778
10
15.8561522
20
13.9561676
11
16.2308522
21
13.9561676
0
LINE
8
DEFAULT_255_2_778
10
16.2014522
20
15.3666676
11
16.0051522
21
15.3666676
0
LINE
8
DEFAULT_255_2_778
10
16.0051522
20
15.3666676
11
16.0051522
21
14.1365676
0
LINE
8
DEFAULT_255_2_778
10
16.0051522
20
14.1365676
11
16.2930522
21
14.1408676
0
LINE
8
DEFAULT_255_2_778
10
16.2930522
20
14.1408676
11
16.3877522
21
14.1693676
0
LINE
8
DEFAULT_255_2_778
10
16.3877522
20
14.1693676
11
16.4506522
21
14.2117676
0
LINE
8
DEFAULT_255_2_778
10
16.4506522
20
14.2117676
11
16.5017522
21
14.2707676
0
LINE
8
DEFAULT_255_2_778
10
16.5017522
20
14.2707676
11
16.5295522
21
14.3191676
0
LINE
8
DEFAULT_255_2_778
10
16.5295522
20
14.3191676
11
16.5525522
21
14.3765676
0
LINE
8
DEFAULT_255_2_778
10
16.5525522
20
14.3765676
11
16.5660522
21
14.4218676
0
LINE
8
DEFAULT_255_2_778
10
16.5660522
20
14.4218676
11
16.5758522
21
14.4643676
0
LINE
8
DEFAULT_255_2_778
10
16.5758522
20
14.4643676
11
16.5835522
21
14.5075676
0
LINE
8
DEFAULT_255_2_778
10
16.5835522
20
14.5075676
11
16.5896522
21
14.5511676
0
LINE
8
DEFAULT_255_2_778
10
16.5896522
20
14.5511676
11
16.5919522
21
14.5731676
0
LINE
8
DEFAULT_255_2_778
10
16.5919522
20
14.5731676
11
16.5948522
21
14.6038676
0
LINE
8
DEFAULT_255_2_778
10
16.5948522
20
14.6038676
11
16.5948522
21
14.9094676
0
LINE
8
DEFAULT_255_2_778
10
16.5948522
20
14.9094676
11
16.5901522
21
14.9520676
0
LINE
8
DEFAULT_255_2_778
10
16.5901522
20
14.9520676
11
16.5832522
21
14.9940676
0
LINE
8
DEFAULT_255_2_778
10
16.5832522
20
14.9940676
11
16.5745522
21
15.0356676
0
LINE
8
DEFAULT_255_2_778
10
16.5745522
20
15.0356676
11
16.5634522
21
15.0763676
0
LINE
8
DEFAULT_255_2_778
10
16.5634522
20
15.0763676
11
16.5403522
21
15.1385676
0
LINE
8
DEFAULT_255_2_778
10
16.5403522
20
15.1385676
11
16.5059522
21
15.2044676
0
LINE
8
DEFAULT_255_2_778
10
16.5059522
20
15.2044676
11
16.4633522
21
15.2615676
0
LINE
8
DEFAULT_255_2_778
10
16.4633522
20
15.2615676
11
16.4017522
21
15.3145676
0
LINE
8
DEFAULT_255_2_778
10
16.4017522
20
15.3145676
11
16.3046522
21
15.3547676
0
LINE
8
DEFAULT_255_2_778
10
16.3046522
20
15.3547676
11
16.2146522
21
15.3660676
0
LINE
8
DEFAULT_255_2_778
10
14.0199522
20
16.7030676
11
14.6200522
21
16.7030676
0
LINE
8
DEFAULT_255_2_778
10
14.6200522
20
16.7030676
11
14.6200522
21
15.9029676
0
LINE
8
DEFAULT_255_2_778
10
14.6200522
20
15.9029676
11
15.6201522
21
15.9029676
0
LINE
8
DEFAULT_255_2_778
10
15.6201522
20
15.9029676
11
15.6201522
21
16.7030676
0
LINE
8
DEFAULT_255_2_778
10
15.6201522
20
16.7030676
11
16.2202522
21
16.7030676
0
LINE
8
DEFAULT_255_2_778
10
16.2202522
20
16.7030676
11
15.1203522
21
17.6031676
0
LINE
8
DEFAULT_255_2_778
10
15.1203522
20
17.6031676
11
14.0204522
21
16.7030676
0
LINE
8
DEFAULT_255_2_778
10
18.6332522
20
11.2280676
11
18.6332522
21
13.5280676
0
LINE
8
DEFAULT_255_2_778
10
18.6332522
20
13.5280676
11
11.6011522
21
13.5280676
0
LINE
8
DEFAULT_255_2_778
10
11.6011522
20
13.5280676
11
11.6011522
21
11.2280676
0
LINE
8
DEFAULT_255_2_778
10
18.5231522
20
11.2280676
11
18.5231522
21
13.4179676
0
LINE
8
DEFAULT_255_2_778
10
18.5231522
20
13.4179676
11
11.7112522
21
13.4179676
0
LINE
8
DEFAULT_255_2_778
10
11.7112522
20
13.4179676
11
11.7112522
21
11.2280676
0
LINE
8
DEFAULT_255_2_778
10
24.0543729
20
15.3457677
11
24.1715729
21
15.3285677
0
LINE
8
DEFAULT_255_2_778
10
24.1715729
20
15.3285677
11
24.2787729
21
15.2779677
0
LINE
8
DEFAULT_255_2_778
10
24.2787729
20
15.2779677
11
24.3506729
21
15.2068677
0
LINE
8
DEFAULT_255_2_778
10
24.3506729
20
15.2068677
11
24.3980729
21
15.1300677
0
LINE
8
DEFAULT_255_2_778
10
24.3980729
20
15.1300677
11
24.4297729
21
15.0525677
0
LINE
8
DEFAULT_255_2_778
10
24.4297729
20
15.0525677
11
24.4424729
21
15.0086677
0
LINE
8
DEFAULT_255_2_778
10
24.4424729
20
15.0086677
11
24.4522729
21
14.9639677
0
LINE
8
DEFAULT_255_2_778
10
24.4522729
20
14.9639677
11
24.4596729
21
14.9186677
0
LINE
8
DEFAULT_255_2_778
10
24.4596729
20
14.9186677
11
24.4607729
21
14.5479677
0
LINE
8
DEFAULT_255_2_778
10
24.4607729
20
14.5479677
11
24.4551729
21
14.5040677
0
LINE
8
DEFAULT_255_2_778
10
24.4551729
20
14.5040677
11
24.4477729
21
14.4604677
0
LINE
8
DEFAULT_255_2_778
10
24.4477729
20
14.4604677
11
24.4326729
21
14.3958677
0
LINE
8
DEFAULT_255_2_778
10
24.4326729
20
14.3958677
11
24.4160729
21
14.3439677
0
LINE
8
DEFAULT_255_2_778
10
24.4160729
20
14.3439677
11
24.3861729
21
14.2786677
0
LINE
8
DEFAULT_255_2_778
10
24.3861729
20
14.2786677
11
24.3469729
21
14.2222677
0
LINE
8
DEFAULT_255_2_778
10
24.3469729
20
14.2222677
11
24.2760729
21
14.1606677
0
LINE
8
DEFAULT_255_2_778
10
24.2760729
20
14.1606677
11
24.1554729
21
14.1153677
0
LINE
8
DEFAULT_255_2_778
10
24.1554729
20
14.1153677
11
23.8289729
21
14.1085677
0
LINE
8
DEFAULT_255_2_778
10
23.8289729
20
14.1085677
11
23.8289729
21
15.3457677
0
LINE
8
DEFAULT_255_2_778
10
23.8289729
20
15.3457677
11
24.0400729
21
15.3457677
0
LINE
8
DEFAULT_255_2_778
10
24.0715729
20
13.9270677
11
23.6680729
21
13.9270677
0
LINE
8
DEFAULT_255_2_778
10
23.6680729
20
13.9270677
11
23.6680729
21
15.5269677
0
LINE
8
DEFAULT_255_2_778
10
23.6680729
20
15.5269677
11
24.0397729
21
15.5269677
0
LINE
8
DEFAULT_255_2_778
10
24.0397729
20
15.5269677
11
24.1347729
21
15.5208677
0
LINE
8
DEFAULT_255_2_778
10
24.1347729
20
15.5208677
11
24.3011729
21
15.4740677
0
LINE
8
DEFAULT_255_2_778
10
24.3011729
20
15.4740677
11
24.3982729
21
15.4113677
0
LINE
8
DEFAULT_255_2_778
10
24.3982729
20
15.4113677
11
24.4662729
21
15.3393677
0
LINE
8
DEFAULT_255_2_778
10
24.4662729
20
15.3393677
11
24.5218729
21
15.2541677
0
LINE
8
DEFAULT_255_2_778
10
24.5218729
20
15.2541677
11
24.5570729
21
15.1798677
0
LINE
8
DEFAULT_255_2_778
10
24.5570729
20
15.1798677
11
24.5832729
21
15.1059677
0
LINE
8
DEFAULT_255_2_778
10
24.5832729
20
15.1059677
11
24.5980729
21
15.0501677
0
LINE
8
DEFAULT_255_2_778
10
24.5980729
20
15.0501677
11
24.6094729
21
14.9935677
0
LINE
8
DEFAULT_255_2_778
10
24.6094729
20
14.9935677
11
24.6179729
21
14.9364677
0
LINE
8
DEFAULT_255_2_778
10
24.6179729
20
14.9364677
11
24.6165729
21
14.4688677
0
LINE
8
DEFAULT_255_2_778
10
24.6165729
20
14.4688677
11
24.6123729
21
14.4400677
0
LINE
8
DEFAULT_255_2_778
10
24.6123729
20
14.4400677
11
24.6012729
21
14.3828677
0
LINE
8
DEFAULT_255_2_778
10
24.6012729
20
14.3828677
11
24.5866729
21
14.3268677
0
LINE
8
DEFAULT_255_2_778
10
24.5866729
20
14.3268677
11
24.5681729
21
14.2717677
0
LINE
8
DEFAULT_255_2_778
10
24.5681729
20
14.2717677
11
24.5454729
21
14.2180677
0
LINE
8
DEFAULT_255_2_778
10
24.5454729
20
14.2180677
11
24.4975729
21
14.1339677
0
LINE
8
DEFAULT_255_2_778
10
24.4975729
20
14.1339677
11
24.4379729
21
14.0606677
0
LINE
8
DEFAULT_255_2_778
10
24.4379729
20
14.0606677
11
24.3660729
21
14.0018677
0
LINE
8
DEFAULT_255_2_778
10
24.3660729
20
14.0018677
11
24.2612729
21
13.9537677
0
LINE
8
DEFAULT_255_2_778
10
24.2612729
20
13.9537677
11
24.0715729
21
13.9270677
0
ARC
8
DEFAULT_255_2_778
10
25.6667887
20
14.0821536
40
0.0146631
50
153.1946706
51
157.9174199
0
ARC
8
DEFAULT_255_2_778
10
24.51267
20
14.6623087
40
1.2770682
50
333.3134821
51
351.625942
0
ARC
8
DEFAULT_255_2_778
10
24.0427752
20
14.7406875
40
1.7533916
50
351.3282524
51
0.2078978
0
ARC
8
DEFAULT_255_2_778
10
23.5855158
20
14.7446246
40
2.2106408
50
0.0628521
51
4.3530706
0
ARC
8
DEFAULT_255_2_778
10
23.3374517
20
14.7283117
40
2.459229
50
4.2933635
51
4.5585588
0
ARC
8
DEFAULT_255_2_778
10
24.0390373
20
14.6470212
40
1.7716126
50
8.9870216
51
16.5405017
0
ARC
8
DEFAULT_255_2_778
10
24.8387634
20
14.8890961
40
0.9360736
50
16.2723443
51
28.6810079
0
ARC
8
DEFAULT_255_2_778
10
25.2588766
20
15.1253835
40
0.4541393
50
27.9656243
51
53.0228509
0
ARC
8
DEFAULT_255_2_778
10
25.3478583
20
15.231521
40
0.3159096
50
54.3367983
51
90.7722971
0
ARC
8
DEFAULT_255_2_778
10
25.3452194
20
15.1212708
40
0.4261341
50
90.2176991
51
100.3437717
0
ARC
8
DEFAULT_255_2_778
10
25.3593586
20
15.0339536
40
0.514574
50
100.1468338
51
103.1833064
0
ARC
8
DEFAULT_255_2_778
10
25.5360941
20
15.0096868
40
0.6020042
50
119.2435543
51
156.7972255
0
ARC
8
DEFAULT_255_2_778
10
25.9673333
20
14.8071587
40
1.0782789
50
155.9340217
51
170.6584624
0
ARC
8
DEFAULT_255_2_778
10
26.7616195
20
14.6674482
40
1.8847304
50
170.3869955
51
179.3268003
0
ARC
8
DEFAULT_255_2_778
10
27.4130004
20
14.6435344
40
2.5363994
50
178.9595178
51
180.0060588
0
ARC
8
DEFAULT_255_2_778
10
26.6852388
20
14.630749
40
1.8086809
50
179.603476
51
188.1753939
0
ARC
8
DEFAULT_255_2_778
10
25.851998
20
14.5062202
40
0.9662113
50
187.8923463
51
201.9670753
0
ARC
8
DEFAULT_255_2_778
10
25.4126455
20
14.3209532
40
0.4895099
50
201.0931372
51
232.8304034
0
ARC
8
DEFAULT_255_2_778
10
25.3525806
20
14.2566963
40
0.4021186
50
234.1186081
51
237.496427
0
ARC
8
DEFAULT_255_2_778
10
25.1267721
20
13.9050395
40
0.0158611
50
36.0168049
51
52.1644342
0
ARC
8
DEFAULT_255_2_778
10
23.8604475
20
14.6595893
40
1.7718562
50
352.6086424
51
0.0962604
0
ARC
8
DEFAULT_255_2_778
10
24.7883804
20
14.5339258
40
0.8354842
50
339.9495002
51
352.9683008
0
ARC
8
DEFAULT_255_2_778
10
25.251507
20
14.3571537
40
0.3398991
50
311.2028463
51
341.1760655
0
ARC
8
DEFAULT_255_2_778
10
25.3310097
20
14.2811452
40
0.2305474
50
268.6060332
51
308.7796617
0
ARC
8
DEFAULT_255_2_778
10
25.2960061
20
14.2672316
40
0.2185513
50
270.1147475
51
277.7297009
0
ARC
8
DEFAULT_255_2_778
10
25.3002427
20
14.2380789
40
0.1894362
50
204.9400167
51
268.8509224
0
ARC
8
DEFAULT_255_2_778
10
25.6190212
20
14.4266679
40
0.5592086
50
192.9808914
51
208.6910397
0
ARC
8
DEFAULT_255_2_778
10
26.3359874
20
14.6042913
40
1.2978073
50
185.1247677
51
193.5122168
0
ARC
8
DEFAULT_255_2_778
10
27.4547931
20
14.7171709
40
2.4222558
50
181.1213797
51
185.4202358
0
ARC
8
DEFAULT_255_2_778
10
27.7479411
20
14.6249339
40
2.71531
50
174.1926402
51
179.0539525
0
ARC
8
DEFAULT_255_2_778
10
26.4095884
20
14.7663055
40
1.3695315
50
166.2230196
51
174.4112772
0
ARC
8
DEFAULT_255_2_778
10
25.6393445
20
14.9611569
40
0.5750745
50
151.0453491
51
166.8026015
0
ARC
8
DEFAULT_255_2_778
10
25.3124211
20
15.1523377
40
0.1966683
50
104.7303427
51
153.6724928
0
ARC
8
DEFAULT_255_2_778
10
25.2980847
20
15.1749
40
0.1713952
50
89.8321446
51
102.0121069
0
ARC
8
DEFAULT_255_2_778
10
25.2982102
20
15.1432567
40
0.2030383
50
82.3037948
51
89.8937212
0
ARC
8
DEFAULT_255_2_778
10
25.3245475
20
15.107154
40
0.2373137
50
22.923326
51
89.7938803
0
ARC
8
DEFAULT_255_2_778
10
24.9511537
20
14.9039879
40
0.6616666
50
10.9099596
51
26.5353489
0
ARC
8
DEFAULT_255_2_778
10
24.160554
20
14.7382267
40
1.4694085
50
3.0509139
51
11.4219929
0
ARC
8
DEFAULT_255_2_778
10
23.1143256
20
14.667209
40
2.5179801
50
359.8943533
51
3.3975446
0
LINE
8
DEFAULT_255_2_778
10
25.6529012
20
14.0887661
11
25.6537012
21
14.0887661
0
LINE
8
DEFAULT_255_2_778
10
25.1396012
20
13.9143661
11
25.2420012
21
13.8817661
0
LINE
8
DEFAULT_255_2_778
10
25.2420012
20
13.8817661
11
25.8683012
21
13.8982661
0
LINE
8
DEFAULT_255_2_778
10
25.8683012
20
13.8982661
11
25.8683012
21
14.0884661
0
LINE
8
DEFAULT_255_2_778
10
25.8683012
20
14.0884661
11
25.6537012
21
14.0887661
0
LINE
8
DEFAULT_255_2_778
10
25.6323012
20
14.6625661
11
25.6323012
21
14.6625661
0
LINE
8
DEFAULT_255_2_778
10
27.0385012
20
11.4629661
11
27.1473012
21
11.4629661
0
LINE
8
DEFAULT_255_2_778
10
27.1473012
20
11.4629661
11
27.1473012
21
11.2280661
0
LINE
8
DEFAULT_255_2_778
10
27.1473012
20
11.2280661
11
27.0385012
21
11.2280661
0
LINE
8
DEFAULT_255_2_778
10
27.0385012
20
11.2280661
11
27.0385012
21
11.4629661
0
LINE
8
DEFAULT_255_2_778
10
23.8765012
20
11.4629661
11
23.9887012
21
11.4629661
0
LINE
8
DEFAULT_255_2_778
10
23.9887012
20
11.4629661
11
23.9887012
21
11.2280661
0
LINE
8
DEFAULT_255_2_778
10
23.9887012
20
11.2280661
11
23.8765012
21
11.2280661
0
LINE
8
DEFAULT_255_2_778
10
23.8765012
20
11.2280661
11
23.8765012
21
11.4629661
0
LINE
8
DEFAULT_255_2_778
10
20.0800012
20
11.4629661
11
20.1887012
21
11.4629661
0
LINE
8
DEFAULT_255_2_778
10
20.1887012
20
11.4629661
11
20.1887012
21
11.2280661
0
LINE
8
DEFAULT_255_2_778
10
20.1887012
20
11.2280661
11
20.0800012
21
11.2280661
0
LINE
8
DEFAULT_255_2_778
10
20.0800012
20
11.2280661
11
20.0800012
21
11.4629661
0
LINE
8
DEFAULT_255_2_778
10
30.5387012
20
11.4730661
11
30.6636012
21
11.4730661
0
LINE
8
DEFAULT_255_2_778
10
30.6636012
20
11.4730661
11
30.6636012
21
11.2407661
0
LINE
8
DEFAULT_255_2_778
10
30.6636012
20
11.2407661
11
30.5387012
21
11.2407661
0
LINE
8
DEFAULT_255_2_778
10
30.5387012
20
11.2407661
11
30.5387012
21
11.4730661
0
ARC
8
DEFAULT_255_2_778
10
27.7825563
20
12.4671711
40
0.1952089
50
6.5153328
51
90.9318576
0
ARC
8
DEFAULT_255_2_778
10
27.5283513
20
12.4051553
40
0.4559881
50
359.5029304
51
10.636608
0
ARC
8
DEFAULT_255_2_778
10
27.3311905
20
12.4015815
40
0.6531319
50
357.4615307
51
359.966482
0
ARC
8
DEFAULT_255_2_778
10
27.3164968
20
12.4973865
40
0.6787443
50
334.1913637
51
349.4106076
0
ARC
8
DEFAULT_255_2_778
10
26.5789474
20
12.8413073
40
1.4925012
50
326.1157222
51
334.6324122
0
ARC
8
DEFAULT_255_2_778
10
25.4290798
20
13.6017903
40
2.8710803
50
321.0349894
51
326.3101861
0
ARC
8
DEFAULT_255_2_778
10
23.7997352
20
14.91058
40
4.9609765
50
317.4819335
51
321.1156365
0
ARC
8
DEFAULT_255_2_778
10
19.7653143
20
18.5753557
40
10.4113734
50
317.6067988
51
317.6215925
0
ARC
8
DEFAULT_255_2_778
10
24.4337805
20
14.5014694
40
4.3724066
50
315.0211798
51
320.1642516
0
ARC
8
DEFAULT_255_2_778
10
26.841096
20
12.6656315
40
1.3543363
50
314.5545176
51
331.5763896
0
ARC
8
DEFAULT_255_2_778
10
27.1043555
20
12.516236
40
1.0517193
50
331.9075213
51
349.9638919
0
ARC
8
DEFAULT_255_2_778
10
27.2865324
20
12.4526393
40
0.8618005
50
352.0170726
51
357.2070665
0
ARC
8
DEFAULT_255_2_778
10
27.4354946
20
12.4442572
40
0.7126076
50
357.2966117
51
359.9739115
0
ARC
8
DEFAULT_255_2_778
10
27.6851008
20
12.4554073
40
0.4631435
50
358.5803241
51
23.6852395
0
ARC
8
DEFAULT_255_2_778
10
27.7917493
20
12.4876995
40
0.352756
50
25.8410905
51
73.2881321
0
ARC
8
DEFAULT_255_2_778
10
27.6948078
20
12.2508053
40
0.6080238
50
70.9574935
51
78.5621816
0
ARC
8
DEFAULT_255_2_778
10
27.8026344
20
12.2841709
40
0.5627276
50
88.7019927
51
109.9094108
0
ARC
8
DEFAULT_255_2_778
10
27.7354575
20
12.4931969
40
0.3434122
50
111.2473844
51
172.4345698
0
ARC
8
DEFAULT_255_2_778
10
28.101209
20
12.4045453
40
0.7187501
50
169.2661834
51
180.4536785
0
ARC
8
DEFAULT_255_2_778
10
28.0948881
20
12.2920512
40
0.578157
50
154.0973978
51
169.3546101
0
ARC
8
DEFAULT_255_2_778
10
27.7660661
20
12.4609813
40
0.2087388
50
111.593824
51
156.380499
0
ARC
8
DEFAULT_255_2_778
10
27.7467982
20
12.4853516
40
0.1792113
50
89.5665854
51
108.7322791
0
ARC
8
DEFAULT_255_2_778
10
27.7476232
20
12.4346476
40
0.2299106
50
82.0601325
51
89.8677459
0
LINE
8
DEFAULT_255_2_778
10
27.4544816
20
11.5558541
11
27.3221816
21
11.4240541
0
LINE
8
DEFAULT_255_2_778
10
27.3221816
20
11.4240541
11
27.3221816
21
11.2264541
0
LINE
8
DEFAULT_255_2_778
10
27.3221816
20
11.2264541
11
28.1759816
21
11.2264541
0
LINE
8
DEFAULT_255_2_778
10
28.1759816
20
11.2264541
11
28.1759816
21
11.4108541
0
LINE
8
DEFAULT_255_2_778
10
28.1759816
20
11.4108541
11
27.5266816
21
11.4108541
0
LINE
8
DEFAULT_255_2_778
10
27.3824816
20
12.3988541
11
27.5266816
21
12.3988541
0
LINE
8
DEFAULT_255_2_778
10
27.7793816
20
12.6623541
11
27.7793816
21
12.6623541
0
ARC
8
DEFAULT_255_2_778
10
31.4483107
20
12.4173569
40
0.6706345
50
156.8324673
51
174.8544179
0
ARC
8
DEFAULT_255_2_778
10
31.1768891
20
12.532303
40
0.3758801
50
89.9521425
51
156.6638356
0
ARC
8
DEFAULT_255_2_778
10
31.2208642
20
12.2419987
40
0.6676137
50
89.952787
51
93.7497496
0
ARC
8
DEFAULT_255_2_778
10
31.220529
20
12.1200554
40
0.7895574
50
85.847104
51
89.9357573
0
ARC
8
DEFAULT_255_2_778
10
31.2097756
20
11.9584389
40
0.9515289
50
85.7930596
51
85.9060439
0
ARC
8
DEFAULT_255_2_778
10
31.2089975
20
12.4094435
40
0.5029376
50
58.7751054
51
81.9325893
0
ARC
8
DEFAULT_255_2_778
10
31.2765519
20
12.5427081
40
0.3541386
50
4.87156
51
56.9440249
0
ARC
8
DEFAULT_255_2_778
10
31.0093931
20
12.4912994
40
0.6253495
50
359.8123918
51
7.4869265
0
ARC
8
DEFAULT_255_2_778
10
30.8157453
20
12.4906713
40
0.8189952
50
354.9899728
51
359.9006867
0
ARC
8
DEFAULT_255_2_778
10
30.675332
20
12.5015319
40
0.9598217
50
353.60374
51
355.0761272
0
ARC
8
DEFAULT_255_2_778
10
31.2860844
20
12.4273133
40
0.3446501
50
295.6105641
51
354.5540771
0
ARC
8
DEFAULT_255_2_778
10
31.1627213
20
12.6056611
40
0.5598423
50
298.4445708
51
299.1079285
0
ARC
8
DEFAULT_255_2_778
10
31.270853
20
11.7257
40
0.4188612
50
37.0645612
51
67.7611374
0
ARC
8
DEFAULT_255_2_778
10
31.2831041
20
11.7554111
40
0.3915184
50
358.6355114
51
34.6749374
0
ARC
8
DEFAULT_255_2_778
10
31.1206906
20
11.7417486
40
0.5538379
50
359.9968303
51
0.4489284
0
ARC
8
DEFAULT_255_2_778
10
31.0155823
20
11.7441359
40
0.6589506
50
351.7724404
51
359.7897607
0
ARC
8
DEFAULT_255_2_778
10
30.8618714
20
11.7637317
40
0.8138877
50
349.6353929
51
351.9556693
0
ARC
8
DEFAULT_255_2_778
10
31.0800728
20
11.7636248
40
0.6005053
50
325.9146877
51
345.8971634
0
ARC
8
DEFAULT_255_2_778
10
31.250454
20
11.6569138
40
0.3996543
50
269.9539052
51
324.8956514
0
ARC
8
DEFAULT_255_2_778
10
31.2212654
20
11.8826868
40
0.6260929
50
269.9795746
51
272.6426548
0
ARC
8
DEFAULT_255_2_778
10
31.2232047
20
12.0094543
40
0.7528636
50
262.9232449
51
269.8354308
0
ARC
8
DEFAULT_255_2_778
10
31.2438769
20
12.1918405
40
0.9364093
50
259.9134845
51
263.0428667
0
ARC
8
DEFAULT_255_2_778
10
31.1876344
20
11.6227279
40
0.368912
50
209.0401951
51
253.0168711
0
ARC
8
DEFAULT_255_2_778
10
31.5410032
20
11.8424321
40
0.7847736
50
195.1909469
51
210.5406669
0
ARC
8
DEFAULT_255_2_778
10
31.9966627
20
11.9840896
40
1.2617494
50
192.25793
51
195.9769328
0
ARC
8
DEFAULT_255_2_778
10
31.4772117
20
11.8972781
40
0.5763178
50
198.3120186
51
217.3531601
0
ARC
8
DEFAULT_255_2_778
10
31.2432799
20
11.7144375
40
0.2794497
50
216.6541016
51
270.614881
0
ARC
8
DEFAULT_255_2_778
10
31.1727045
20
11.8927654
40
0.4636365
50
279.1308528
51
296.8251637
0
ARC
8
DEFAULT_255_2_778
10
31.2864073
20
11.6771805
40
0.2199803
50
295.736353
51
2.564794
0
ARC
8
DEFAULT_255_2_778
10
31.0911458
20
11.6830586
40
0.4150404
50
0.5474822
51
13.051741
0
ARC
8
DEFAULT_255_2_778
10
30.8320137
20
11.6253369
40
0.6805176
50
12.8589772
51
20.8459993
0
ARC
8
DEFAULT_255_2_778
10
30.6395827
20
11.5569049
40
0.8847158
50
20.5529196
51
21.5104126
0
ARC
8
DEFAULT_255_2_778
10
31.1614672
20
11.6913064
40
0.3561284
50
32.2428052
51
59.2773272
0
ARC
8
DEFAULT_255_2_778
10
31.2181489
20
11.7740179
40
0.2561497
50
60.7248045
51
90.4338162
0
ARC
8
DEFAULT_255_2_778
10
31.2194198
20
11.6831839
40
0.3469911
50
90.5301053
51
106.5904914
0
ARC
8
DEFAULT_255_2_778
10
31.2414801
20
11.5943024
40
0.4384917
50
106.0369383
51
107.0134953
0
ARC
8
DEFAULT_255_2_778
10
31.1257484
20
12.6681038
40
0.472867
50
268.4768067
51
290.6824075
0
ARC
8
DEFAULT_255_2_778
10
31.1906013
20
12.4744552
40
0.2689042
50
292.3277549
51
357.8636505
0
ARC
8
DEFAULT_255_2_778
10
30.9219655
20
12.5246363
40
0.5407153
50
353.6072247
51
0.1555077
0
ARC
8
DEFAULT_255_2_778
10
31.1543901
20
12.4431181
40
0.3192625
50
15.0658752
51
44.7154845
0
ARC
8
DEFAULT_255_2_778
10
31.2320504
20
12.5054241
40
0.2204824
50
47.4101191
51
92.0401604
0
ARC
8
DEFAULT_255_2_778
10
31.2245628
20
12.3885691
40
0.3371978
50
90.0614318
51
94.7604319
0
ARC
8
DEFAULT_255_2_778
10
31.1936077
20
12.4998101
40
0.2248134
50
89.2427548
51
171.1736973
0
ARC
8
DEFAULT_255_2_778
10
31.3855083
20
12.4477575
40
0.4230005
50
168.1936567
51
176.1168611
0
LINE
8
DEFAULT_255_2_778
10
30.9634788
20
12.4764039
11
30.7803788
21
12.4764039
0
LINE
8
DEFAULT_255_2_778
10
30.7636788
20
11.7162039
11
30.9300788
21
11.7162039
0
LINE
8
DEFAULT_255_2_778
10
31.1131788
20
12.0136039
11
31.1131788
21
12.1954039
0
LINE
8
DEFAULT_255_2_778
10
30.7803788
20
12.4764039
11
30.7803788
21
12.4775039
0
ARC
8
DEFAULT_255_2_778
10
18.6556202
20
12.0331268
40
2.3589465
50
359.7006513
51
5.64371
0
ARC
8
DEFAULT_255_2_778
10
19.8598311
20
12.1573342
40
1.1483697
50
5.385228
51
15.3463519
0
ARC
8
DEFAULT_255_2_778
10
20.5095723
20
12.3423013
40
0.4728872
50
14.5689846
51
34.7586277
0
ARC
8
DEFAULT_255_2_778
10
20.7290972
20
12.4980565
40
0.2037542
50
33.9693452
51
90.5237895
0
ARC
8
DEFAULT_255_2_778
10
20.7021514
20
12.5319727
40
0.1716719
50
81.5983591
51
89.8841341
0
ARC
8
DEFAULT_255_2_778
10
20.7081424
20
12.5403956
40
0.1633462
50
91.9800508
51
153.6144518
0
ARC
8
DEFAULT_255_2_778
10
21.0159926
20
12.3488082
40
0.5254238
50
149.8149738
51
166.000058
0
ARC
8
DEFAULT_255_2_778
10
21.7487733
20
12.1503992
40
1.2845275
50
165.3202486
51
173.2916485
0
ARC
8
DEFAULT_255_2_778
10
23.027543
20
11.9908746
40
2.5731933
50
173.0900866
51
177.9236494
0
ARC
8
DEFAULT_255_2_778
10
24.2689929
20
11.9316015
40
3.8160021
50
177.7096164
51
178.9474064
0
ARC
8
DEFAULT_255_2_778
10
23.110413
20
12.045172
40
2.6571341
50
180.9373809
51
185.6745806
0
ARC
8
DEFAULT_255_2_778
10
21.7896765
20
11.9085199
40
1.3293687
50
185.4422586
51
193.5925619
0
ARC
8
DEFAULT_255_2_778
10
21.0284633
20
11.7184233
40
0.5448319
50
192.9747113
51
208.9332072
0
ARC
8
DEFAULT_255_2_778
10
20.7108274
20
11.5318916
40
0.1768595
50
205.82794
51
259.3988745
0
ARC
8
DEFAULT_255_2_778
10
20.7003694
20
11.5159329
40
0.1594185
50
262.0391017
51
270.0793939
0
ARC
8
DEFAULT_255_2_778
10
20.700185
20
11.5415096
40
0.1849957
50
270.1255477
51
278.4077815
0
ARC
8
DEFAULT_255_2_778
10
20.7252375
20
11.5783671
40
0.2198739
50
270.5204159
51
337.2437826
0
ARC
8
DEFAULT_255_2_778
10
20.3566027
20
11.778514
40
0.6386139
50
333.4750828
51
349.2583121
0
ARC
8
DEFAULT_255_2_778
10
19.5553512
20
11.9447285
40
1.4568716
50
348.7091469
51
357.0135609
0
ARC
8
DEFAULT_255_2_778
10
18.4861092
20
12.0161296
40
2.5284297
50
356.6601209
51
0.1058848
0
ARC
8
DEFAULT_255_2_778
10
18.8783916
20
12.0522955
40
2.2729773
50
359.6850752
51
6.5385227
0
ARC
8
DEFAULT_255_2_778
10
19.9377895
20
12.1783623
40
1.2061238
50
6.3194389
51
17.2251044
0
ARC
8
DEFAULT_255_2_778
10
20.5338578
20
12.3695573
40
0.5802041
50
16.6219238
51
37.5227997
0
ARC
8
DEFAULT_255_2_778
10
20.7253389
20
12.5119998
40
0.3415995
50
38.1356907
51
91.9467379
0
ARC
8
DEFAULT_255_2_778
10
20.7495442
20
12.502392
40
0.3528321
50
95.8250917
51
154.4667869
0
ARC
8
DEFAULT_255_2_778
10
21.1403729
20
12.2766215
40
0.8035795
50
151.9519005
51
166.7997363
0
ARC
8
DEFAULT_255_2_778
10
21.8889367
20
12.0910499
40
1.574771
50
166.445728
51
175.0962277
0
ARC
8
DEFAULT_255_2_778
10
22.8470579
20
11.9950779
40
2.5376261
50
174.7864924
51
178.5587911
0
ARC
8
DEFAULT_255_2_778
10
23.2607761
20
12.1157265
40
2.9510887
50
181.1033182
51
186.3199588
0
ARC
8
DEFAULT_255_2_778
10
21.9349618
20
11.9641234
40
1.61665
50
186.1521328
51
194.3691683
0
ARC
8
DEFAULT_255_2_778
10
21.1362074
20
11.754518
40
0.7908804
50
194.0197973
51
208.0686005
0
ARC
8
DEFAULT_255_2_778
10
20.7491535
20
11.5397857
40
0.3483899
50
206.8586358
51
240.1651462
0
ARC
8
DEFAULT_255_2_778
10
20.7047916
20
11.4837554
40
0.2779181
50
242.3524464
51
270.7473556
0
ARC
8
DEFAULT_255_2_778
10
20.7080623
20
11.5636325
40
0.3577717
50
270.0567488
51
275.320057
0
ARC
8
DEFAULT_255_2_778
10
20.7446584
20
11.5321688
40
0.3247846
50
269.3959774
51
336.5073033
0
ARC
8
DEFAULT_255_2_778
10
20.3240689
20
11.7639837
40
0.8041773
50
333.303802
51
348.153058
0
ARC
8
DEFAULT_255_2_778
10
19.5347388
20
11.9418645
40
1.6132578
50
347.7253017
51
355.9055992
0
ARC
8
DEFAULT_255_2_778
10
18.4217015
20
12.0324388
40
2.7299431
50
355.6774117
51
0.1545419
0
LINE
8
DEFAULT_255_2_778
10
21.0145346
20
12.0208022
11
21.0145346
21
12.0208022
0
LINE
8
DEFAULT_255_2_778
10
21.1516346
20
12.0398022
11
21.1513346
21
12.0398022
0
LINE
8
DEFAULT_255_2_778
10
24.1964346
20
12.8111022
11
23.9728346
21
12.6029022
0
LINE
8
DEFAULT_255_2_778
10
23.9728346
20
12.6029022
11
23.9260346
21
12.5531022
0
LINE
8
DEFAULT_255_2_778
10
23.9260346
20
12.5531022
11
23.9260346
21
12.3758022
0
LINE
8
DEFAULT_255_2_778
10
23.9379346
20
12.3825022
11
24.1385346
21
12.5782022
0
LINE
8
DEFAULT_255_2_778
10
24.1385346
20
12.5782022
11
24.2385346
21
12.6783022
0
LINE
8
DEFAULT_255_2_778
10
24.2385346
20
12.6783022
11
24.2385346
21
11.2283022
0
LINE
8
DEFAULT_255_2_778
10
24.2385346
20
11.2283022
11
24.3358346
21
11.2307022
0
LINE
8
DEFAULT_255_2_778
10
24.3358346
20
11.2307022
11
24.3358346
21
12.8217022
0
LINE
8
DEFAULT_255_2_778
10
24.3358346
20
12.8217022
11
24.2041346
21
12.8217022
0
LINE
8
DEFAULT_255_2_778
10
32.7612346
20
11.2281022
11
32.7612346
21
13.5281022
0
LINE
8
DEFAULT_255_2_778
10
32.7612346
20
13.5281022
11
19.0111346
21
13.5281022
0
LINE
8
DEFAULT_255_2_778
10
19.0111346
20
13.5281022
11
19.0111346
21
11.2281022
0
LINE
8
DEFAULT_255_2_778
10
32.6512346
20
11.2281022
11
32.6512346
21
13.4180022
0
LINE
8
DEFAULT_255_2_778
10
32.6512346
20
13.4180022
11
19.1212346
21
13.4180022
0
LINE
8
DEFAULT_255_2_778
10
19.1212346
20
13.4180022
11
19.1212346
21
11.2281022
0
ARC
8
DEFAULT_255_2_778
10
26.0168635
20
14.5844895
40
1.3156603
50
359.9917989
51
0.7064748
0
ARC
8
DEFAULT_255_2_778
10
26.862002
20
14.6274045
40
0.4711785
50
356.7523806
51
29.7373008
0
ARC
8
DEFAULT_255_2_778
10
27.0881138
20
14.7318575
40
0.2240624
50
35.2331927
51
82.4495529
0
ARC
8
DEFAULT_255_2_778
10
27.0529667
20
14.5689217
40
0.3904348
50
80.4779267
51
90.3076426
0
ARC
8
DEFAULT_255_2_778
10
27.0509459
20
14.4688251
40
0.4905259
50
90.0088212
51
91.4160601
0
ARC
8
DEFAULT_255_2_778
10
27.0281073
20
14.7181761
40
0.2412632
50
87.4541803
51
152.128074
0
ARC
8
DEFAULT_255_2_778
10
27.1883459
20
14.6369472
40
0.4208991
50
152.5507638
51
173.7985243
0
ARC
8
DEFAULT_255_2_778
10
27.5186345
20
14.587495
40
0.7547175
50
172.7748531
51
180.242465
0
ARC
8
DEFAULT_255_2_778
10
26.3996807
20
14.5467169
40
1.0480241
50
355.9008426
51
359.990313
0
ARC
8
DEFAULT_255_2_778
10
26.4560658
20
14.5470281
40
0.9916391
50
359.9717828
51
4.2245799
0
ARC
8
DEFAULT_255_2_778
10
26.8469654
20
14.601176
40
0.5983439
50
1.810324
51
35.6643024
0
ARC
8
DEFAULT_255_2_778
10
27.0831607
20
14.7508506
40
0.3195884
50
38.5532825
51
83.6368791
0
ARC
8
DEFAULT_255_2_778
10
27.064566
20
14.6451374
40
0.4267647
50
82.728722
51
90.1130696
0
ARC
8
DEFAULT_255_2_778
10
27.0819405
20
14.4622216
40
0.6099517
50
91.7114369
51
107.4071255
0
ARC
8
DEFAULT_255_2_778
10
26.9945919
20
14.7305888
40
0.3277581
50
106.871548
51
140.5731039
0
ARC
8
DEFAULT_255_2_778
10
27.1493853
20
14.6547542
40
0.4970784
50
145.1575844
51
180.3677202
0
ARC
8
DEFAULT_255_2_778
10
28.2244174
20
14.5640825
40
1.5745325
50
176.8149872
51
180.1841775
0
ARC
8
DEFAULT_255_2_778
10
29.2982462
20
14.5596407
40
2.6483531
50
180.0134034
51
180.5748073
0
ARC
8
DEFAULT_255_2_778
10
31.8600088
20
14.5919742
40
5.2103154
50
180.6477368
51
181.3887102
0
ARC
8
DEFAULT_255_2_778
10
28.1267574
20
14.45441
40
1.4755768
50
179.561565
51
179.9986634
0
ARC
8
DEFAULT_255_2_778
10
27.8456391
20
14.4498498
40
1.1944674
50
179.7796055
51
186.6746297
0
ARC
8
DEFAULT_255_2_778
10
27.4386667
20
14.4005438
40
0.7845241
50
186.5527396
51
196.4533348
0
ARC
8
DEFAULT_255_2_778
10
27.1660804
20
14.3184777
40
0.4998583
50
196.2814185
51
210.9896774
0
ARC
8
DEFAULT_255_2_778
10
27.0240556
20
14.2320042
40
0.333584
50
210.8172347
51
235.0103304
0
ARC
8
DEFAULT_255_2_778
10
27.0103003
20
14.2231269
40
0.3184834
50
236.1219429
51
270.9660352
0
ARC
8
DEFAULT_255_2_778
10
27.0156239
20
14.2980461
40
0.3933573
50
270.0066903
51
272.2497783
0
ARC
8
DEFAULT_255_2_778
10
27.0022794
20
14.4030493
40
0.4988884
50
273.3078242
51
305.8663318
0
ARC
8
DEFAULT_255_2_778
10
27.0867043
20
14.2952912
40
0.3621369
50
305.0306605
51
323.6202762
0
ARC
8
DEFAULT_255_2_778
10
27.1965029
20
14.2097455
40
0.2230292
50
324.5831629
51
331.9936357
0
ARC
8
DEFAULT_255_2_778
10
27.2470036
20
14.1832865
40
0.1660183
50
331.8717558
51
342.7552156
0
ARC
8
DEFAULT_255_2_778
10
27.2754563
20
14.1737389
40
0.1360159
50
343.0431488
51
345.9859114
0
ARC
8
DEFAULT_255_2_778
10
26.8100172
20
14.5531088
40
0.6139698
50
316.3988052
51
323.1037754
0
ARC
8
DEFAULT_255_2_778
10
26.914239
20
14.4533873
40
0.4697257
50
308.0783519
51
316.4401691
0
ARC
8
DEFAULT_255_2_778
10
26.966879
20
14.3878535
40
0.3856757
50
303.6794108
51
307.9269271
0
ARC
8
DEFAULT_255_2_778
10
27.0076439
20
14.3235836
40
0.3095921
50
290.0705082
51
303.9973361
0
ARC
8
DEFAULT_255_2_778
10
27.0333848
20
14.2524415
40
0.2339368
50
270.3383606
51
290.1284647
0
ARC
8
DEFAULT_255_2_778
10
27.0404847
20
14.2504041
40
0.2319659
50
214.3193241
51
268.5874178
0
ARC
8
DEFAULT_255_2_778
10
27.1852078
20
14.3638224
40
0.4156152
50
194.0417799
51
215.984545
0
ARC
8
DEFAULT_255_2_778
10
27.3958365
20
14.4209624
40
0.6338289
50
179.5779681
51
194.4330062
0
ARC
8
DEFAULT_255_2_778
10
27.54496
20
14.4253166
40
0.7829353
50
176.5742292
51
179.9769919
0
LINE
8
DEFAULT_255_2_778
10
26.7639238
20
14.5843012
11
27.3325238
21
14.5843012
0
LINE
8
DEFAULT_255_2_778
10
26.7637238
20
14.4718012
11
27.4450238
21
14.4718012
0
LINE
8
DEFAULT_255_2_778
10
27.4074238
20
14.1408012
11
27.3010238
21
14.1845012
0
LINE
8
DEFAULT_255_2_778
10
26.7634238
20
14.4721012
11
26.7637238
21
14.4718012
0
LINE
8
DEFAULT_255_2_778
10
30.2857834
20
21.7351166
11
31.8393834
21
21.7351166
0
LINE
8
DEFAULT_255_2_778
10
31.8393834
20
21.7351166
11
31.8393834
21
20.1815166
0
LINE
8
DEFAULT_255_2_778
10
31.8393834
20
20.1815166
11
30.2857834
21
20.1815166
0
LINE
8
DEFAULT_255_2_778
10
30.2857834
20
20.1815166
11
30.2857834
21
21.7351166
0
LINE
8
DEFAULT_255_2_778
10
27.2856966
20
21.7351166
11
28.8392966
21
21.7351166
0
LINE
8
DEFAULT_255_2_778
10
28.8392966
20
21.7351166
11
28.8392966
21
20.1815166
0
LINE
8
DEFAULT_255_2_778
10
28.8392966
20
20.1815166
11
27.2856966
21
20.1815166
0
LINE
8
DEFAULT_255_2_778
10
27.2856966
20
20.1815166
11
27.2856966
21
21.7351166
0
LINE
8
DEFAULT_255_2_778
10
24.2858834
20
21.7351166
11
25.8394834
21
21.7351166
0
LINE
8
DEFAULT_255_2_778
10
25.8394834
20
21.7351166
11
25.8394834
21
20.1815166
0
LINE
8
DEFAULT_255_2_778
10
25.8394834
20
20.1815166
11
24.2858834
21
20.1815166
0
LINE
8
DEFAULT_255_2_778
10
24.2858834
20
20.1815166
11
24.2858834
21
21.7351166
0
LINE
8
DEFAULT_255_2_778
10
21.2856966
20
21.7351166
11
22.8392966
21
21.7351166
0
LINE
8
DEFAULT_255_2_778
10
22.8392966
20
21.7351166
11
22.8392966
21
20.1815166
0
LINE
8
DEFAULT_255_2_778
10
22.8392966
20
20.1815166
11
21.2856966
21
20.1815166
0
LINE
8
DEFAULT_255_2_778
10
21.2856966
20
20.1815166
11
21.2856966
21
21.7351166
0
ARC
8
DEFAULT_255_2_778
10
36.3667445
20
13.6468402
40
0.3753829
50
295.9929413
51
326.1778486
0
ARC
8
DEFAULT_255_2_778
10
36.4232001
20
13.5502365
40
0.2639424
50
269.7831458
51
294.1675886
0
ARC
8
DEFAULT_255_2_778
10
36.4196032
20
13.5840434
40
0.2977589
50
209.6380672
51
270.4999068
0
ARC
8
DEFAULT_255_2_778
10
36.6859603
20
13.7608985
40
0.6171181
50
186.8001314
51
211.68086
0
ARC
8
DEFAULT_255_2_778
10
37.0870862
20
13.8268794
40
1.0233934
50
179.7695394
51
187.8091077
0
ARC
8
DEFAULT_255_2_778
10
36.9666897
20
13.8435599
40
0.903076
50
164.7597771
51
180.7971577
0
ARC
8
DEFAULT_255_2_778
10
36.6320966
20
13.9315831
40
0.5571197
50
146.1146308
51
164.4486019
0
ARC
8
DEFAULT_255_2_778
10
36.4505723
20
14.0652379
40
0.3320526
50
88.6317556
51
147.7969467
0
ARC
8
DEFAULT_255_2_778
10
36.4616892
20
14.0665123
40
0.3306988
50
27.2821805
51
90.5523769
0
ARC
8
DEFAULT_255_2_778
10
36.1331651
20
13.8617587
40
0.7172188
50
10.2162802
51
29.79062
0
ARC
8
DEFAULT_255_2_778
10
35.500882
20
13.7372073
40
1.3616078
50
359.7617153
51
10.655263
0
ARC
8
DEFAULT_255_2_778
10
34.9926398
20
13.7222702
40
1.8698613
50
0.0007836
51
0.2841838
0
ARC
8
DEFAULT_255_2_778
10
33.9508112
20
13.6485473
40
2.911714
50
355.3889424
51
0.2331526
0
ARC
8
DEFAULT_255_2_778
10
35.3781789
20
13.5292199
40
1.4793792
50
347.9388628
51
355.5513429
0
ARC
8
DEFAULT_255_2_778
10
35.9848876
20
13.396011
40
0.8582359
50
333.3912668
51
348.1720802
0
ARC
8
DEFAULT_255_2_778
10
36.2736684
20
13.2591993
40
0.5388094
50
324.7718432
51
332.6445254
0
ARC
8
DEFAULT_255_2_778
10
36.3299059
20
13.2169897
40
0.4685277
50
294.8364149
51
325.0212768
0
ARC
8
DEFAULT_255_2_778
10
36.2824839
20
13.341739
40
0.6017304
50
273.0407763
51
293.9449076
0
ARC
8
DEFAULT_255_2_778
10
36.2438831
20
13.710574
40
0.972279
50
269.924451
51
274.159387
0
ARC
8
DEFAULT_255_2_778
10
36.278728
20
13.3271569
40
0.4136817
50
269.4284091
51
301.2597441
0
ARC
8
DEFAULT_255_2_778
10
36.3172508
20
13.2459421
40
0.324398
50
302.8872872
51
321.0690282
0
ARC
8
DEFAULT_255_2_778
10
36.2152596
20
13.3130859
40
0.4460869
50
322.5922878
51
347.3194964
0
ARC
8
DEFAULT_255_2_778
10
35.6704936
20
13.4510529
40
1.0079632
50
346.4657939
51
358.3519649
0
ARC
8
DEFAULT_255_2_778
10
35.1935763
20
13.4826113
40
1.4856978
50
357.6643603
51
358.2752897
0
ARC
8
DEFAULT_255_2_778
10
36.444812
20
13.6455819
40
0.1877872
50
272.6520676
51
317.2017964
0
ARC
8
DEFAULT_255_2_778
10
36.2989922
20
13.803782
40
0.402626
50
314.7809081
51
341.450314
0
ARC
8
DEFAULT_255_2_778
10
35.7831431
20
13.7756576
40
0.8976431
50
359.2109312
51
13.6935251
0
ARC
8
DEFAULT_255_2_778
10
36.1386886
20
13.8573542
40
0.5328853
50
14.2089034
51
26.4963225
0
ARC
8
DEFAULT_255_2_778
10
36.3643035
20
13.9817554
40
0.2756747
50
24.2763533
51
52.0121208
0
ARC
8
DEFAULT_255_2_778
10
36.4581461
20
14.0948088
40
0.1288874
50
53.9584653
51
89.8422176
0
ARC
8
DEFAULT_255_2_778
10
36.4625595
20
14.0474162
40
0.1763263
50
91.3188778
51
156.5461742
0
ARC
8
DEFAULT_255_2_778
10
36.743505
20
13.8878493
40
0.4987687
50
152.5723973
51
175.9901597
0
ARC
8
DEFAULT_255_2_778
10
37.0965684
20
13.8437534
40
0.8542693
50
174.6956715
51
180.1245916
0
ARC
8
DEFAULT_255_2_778
10
36.9349303
20
13.8297114
40
0.6927364
50
178.9921815
51
196.0497185
0
ARC
8
DEFAULT_255_2_778
10
36.6705226
20
13.7602331
40
0.4194739
50
196.9145041
51
207.7228744
0
ARC
8
DEFAULT_255_2_778
10
36.4662643
20
13.6375106
40
0.1820825
50
203.4346809
51
255.4947599
0
ARC
8
DEFAULT_255_2_778
10
36.4527255
20
13.6184529
40
0.1604579
50
258.4719492
51
270.1698264
0
LINE
8
DEFAULT_255_2_778
10
34.1899011
20
12.7559958
11
34.1021011
21
12.8115958
0
LINE
8
DEFAULT_255_2_778
10
34.1021011
20
12.8115958
11
34.5074011
21
13.6037958
0
LINE
8
DEFAULT_255_2_778
10
34.5074011
20
13.6037958
11
34.1179011
21
14.3516958
0
LINE
8
DEFAULT_255_2_778
10
34.1179011
20
14.3516958
11
34.2039011
21
14.4072958
0
LINE
8
DEFAULT_255_2_778
10
34.2039011
20
14.4072958
11
34.5635011
21
13.7148958
0
LINE
8
DEFAULT_255_2_778
10
34.5635011
20
13.7148958
11
34.9170011
21
14.4072958
0
LINE
8
DEFAULT_255_2_778
10
34.9170011
20
14.4072958
11
35.0070011
21
14.3516958
0
LINE
8
DEFAULT_255_2_778
10
35.0070011
20
14.3516958
11
34.6236011
21
13.6015958
0
LINE
8
DEFAULT_255_2_778
10
34.6236011
20
13.6015958
11
35.0371011
21
12.8115958
0
LINE
8
DEFAULT_255_2_778
10
35.0371011
20
12.8115958
11
34.9493011
21
12.7559958
0
LINE
8
DEFAULT_255_2_778
10
34.9493011
20
12.7559958
11
34.5659011
21
13.4904958
0
LINE
8
DEFAULT_255_2_778
10
34.5659011
20
13.4904958
11
34.1905011
21
12.7559958
0
LINE
8
DEFAULT_255_2_778
10
36.8625011
20
13.7222958
11
36.8625011
21
13.6603958
0
LINE
8
DEFAULT_255_2_778
10
36.2426011
20
12.7382958
11
36.2426011
21
12.9134958
0
LINE
8
DEFAULT_255_2_778
10
36.2426011
20
12.9134958
11
36.2746011
21
12.9134958
0
LINE
8
DEFAULT_255_2_778
10
36.6786011
20
13.4378958
11
36.6786011
21
13.4378958
0
LINE
8
DEFAULT_255_2_778
10
36.6807011
20
13.6756958
11
36.6807011
21
13.7632958
0
LINE
8
DEFAULT_255_2_778
10
36.4532011
20
13.4579958
11
36.4535011
21
13.4579958
0
ARC
8
DEFAULT_255_2_778
10
1.9304884
20
52.9545901
40
0.6269209
50
4.0234265
51
19.3933965
0
ARC
8
DEFAULT_255_2_778
10
2.2989193
20
53.1000718
40
0.2315658
50
15.7069502
51
92.0757199
0
ARC
8
DEFAULT_255_2_778
10
2.2920743
20
52.9400166
40
0.3914721
50
90.2257349
51
98.5722291
0
ARC
8
DEFAULT_255_2_778
10
2.3022312
20
52.8607757
40
0.471345
50
98.3573293
51
99.4103665
0
ARC
8
DEFAULT_255_2_778
10
2.3315215
20
53.020117
40
0.323636
50
109.1857925
51
178.4561378
0
ARC
8
DEFAULT_255_2_778
10
2.5427581
20
52.9872306
40
0.5363711
50
175.5511419
51
180.0614025
0
ARC
8
DEFAULT_255_2_778
10
2.6721292
20
52.9882433
40
0.6657437
50
180.1366296
51
186.1636635
0
ARC
8
DEFAULT_255_2_778
10
2.1133413
20
52.9275216
40
0.103667
50
185.9567982
51
186.1155158
0
ARC
8
DEFAULT_255_2_778
10
2.6504501
20
53.0066482
40
0.646505
50
188.0174049
51
203.4661054
0
ARC
8
DEFAULT_255_2_778
10
2.2772115
20
52.8349165
40
0.2359182
50
201.3034521
51
245.6665227
0
ARC
8
DEFAULT_255_2_778
10
2.2561445
20
52.8141811
40
0.2086164
50
248.5932024
51
270.6371261
0
ARC
8
DEFAULT_255_2_778
10
2.2734396
20
52.8789595
40
0.2737917
50
266.8645747
51
311.9589599
0
ARC
8
DEFAULT_255_2_778
10
2.2272706
20
52.8965825
40
0.3185642
50
316.0180421
51
349.9206469
0
ARC
8
DEFAULT_255_2_778
10
1.8226654
20
52.9898591
40
0.7335506
50
348.2781128
51
0.6809963
0
ARC
8
DEFAULT_255_2_778
10
2.0605474
20
53.6199363
40
0.6453616
50
3.6995232
51
22.2797465
0
ARC
8
DEFAULT_255_2_778
10
2.3376124
20
53.7329613
40
0.3461305
50
22.3552886
51
89.4782621
0
ARC
8
DEFAULT_255_2_778
10
2.3225608
20
53.4946096
40
0.5847514
50
88.2160827
51
89.9926819
0
ARC
8
DEFAULT_255_2_778
10
2.3088747
20
53.6680159
40
0.4115752
50
88.0839934
51
152.4815682
0
ARC
8
DEFAULT_255_2_778
10
2.66218
20
53.458621
40
0.821963
50
150.9154
51
166.4060214
0
ARC
8
DEFAULT_255_2_778
10
3.4101347
20
53.2682019
40
1.5937472
50
166.0722047
51
175.271176
0
ARC
8
DEFAULT_255_2_778
10
4.5385412
20
53.1632292
40
2.7269913
50
175.02767
51
180.1859781
0
ARC
8
DEFAULT_255_2_778
10
3.1021562
20
53.1211137
40
1.2910206
50
178.5235762
51
179.9950754
0
ARC
8
DEFAULT_255_2_778
10
2.8326536
20
53.1061499
40
1.0216291
50
179.154537
51
206.5239317
0
ARC
8
DEFAULT_255_2_778
10
2.7622752
20
53.0806384
40
0.9473047
50
207.0442517
51
211.209292
0
ARC
8
DEFAULT_255_2_778
10
2.3622397
20
52.9449888
40
0.5426038
50
220.8925014
51
243.4490545
0
ARC
8
DEFAULT_255_2_778
10
2.2673094
20
52.7667044
40
0.3407287
50
244.3279958
51
269.8074273
0
ARC
8
DEFAULT_255_2_778
10
2.208148
20
53.0289581
40
0.6057651
50
275.4958425
51
298.0841317
0
ARC
8
DEFAULT_255_2_778
10
2.2862253
20
52.8622624
40
0.4220493
50
299.3862232
51
346.1843449
0
ARC
8
DEFAULT_255_2_778
10
1.9573418
20
52.9726629
40
0.7683164
50
344.0458778
51
359.8031541
0
ARC
8
DEFAULT_255_2_778
10
1.9627639
20
52.9644197
40
0.7629102
50
0.4208362
51
28.5458148
0
ARC
8
DEFAULT_255_2_778
10
1.811752
20
52.8969299
40
0.9279045
50
27.7506476
51
28.1415646
0
ARC
8
DEFAULT_255_2_778
10
2.235979
20
53.0854367
40
0.4661497
50
32.3076656
51
53.7050904
0
ARC
8
DEFAULT_255_2_778
10
2.3426913
20
53.2259874
40
0.2897147
50
54.2608837
51
90.1505448
0
ARC
8
DEFAULT_255_2_778
10
2.3449251
20
53.1498292
40
0.3658841
50
90.4690101
51
106.6420077
0
ARC
8
DEFAULT_255_2_778
10
2.366373
20
53.064199
40
0.4540874
50
106.1405436
51
107.0721151
0
ARC
8
DEFAULT_255_2_778
10
2.3722599
20
53.0807544
40
0.4401149
50
108.4375772
51
149.2194229
0
ARC
8
DEFAULT_255_2_778
10
2.5580719
20
52.9417841
40
0.6713105
50
147.1446073
51
150.006087
0
ARC
8
DEFAULT_255_2_778
10
3.9984831
20
53.1182133
40
2.0280742
50
168.9037233
51
175.4987688
0
ARC
8
DEFAULT_255_2_778
10
2.9827843
20
53.3227424
40
0.9920141
50
157.9306815
51
169.2055544
0
ARC
8
DEFAULT_255_2_778
10
2.4486796
20
53.5466392
40
0.4129752
50
134.8462174
51
158.8760666
0
ARC
8
DEFAULT_255_2_778
10
2.3110484
20
53.6797289
40
0.2215871
50
97.3855841
51
133.88296
0
ARC
8
DEFAULT_255_2_778
10
2.3202347
20
53.5646375
40
0.3369524
50
90.1358208
51
96.418949
0
ARC
8
DEFAULT_255_2_778
10
2.3286454
20
53.7109356
40
0.1908758
50
8.885635
51
92.7655149
0
ARC
8
DEFAULT_255_2_778
10
2.0532104
20
53.6199176
40
0.4794113
50
5.0451822
51
14.5575627
0
LINE
8
DEFAULT_255_2_778
10
35.6538642
20
14.3584776
11
35.7658642
21
14.3584776
0
LINE
8
DEFAULT_255_2_778
10
35.7658642
20
14.3584776
11
35.7658642
21
12.7709776
0
LINE
8
DEFAULT_255_2_778
10
35.7658642
20
12.7709776
11
35.6258642
21
12.7709776
0
LINE
8
DEFAULT_255_2_778
10
35.6258642
20
12.7709776
11
35.6258642
21
14.1269776
0
LINE
8
DEFAULT_255_2_778
10
35.6258642
20
14.1269776
11
35.4020642
21
13.8954776
0
LINE
8
DEFAULT_255_2_778
10
35.4020642
20
13.8954776
11
35.4020642
21
14.1269776
0
LINE
8
DEFAULT_255_2_778
10
35.4020642
20
14.1269776
11
35.6538642
21
14.3584776
0
LINE
8
DEFAULT_255_2_778
10
9.6784642
20
53.0799776
11
10.1192642
21
53.0799776
0
LINE
8
DEFAULT_255_2_778
10
10.1192642
20
53.0799776
11
10.1192642
21
52.9291776
0
LINE
8
DEFAULT_255_2_778
10
10.1192642
20
52.9291776
11
9.6784642
21
52.9291776
0
LINE
8
DEFAULT_255_2_778
10
9.6784642
20
52.9291776
11
9.6784642
21
53.0799776
0
LINE
8
DEFAULT_255_2_778
10
16.0966642
20
53.0299776
11
16.5374642
21
53.0299776
0
LINE
8
DEFAULT_255_2_778
10
16.5374642
20
53.0299776
11
16.5374642
21
52.8791776
0
LINE
8
DEFAULT_255_2_778
10
16.5374642
20
52.8791776
11
16.0966642
21
52.8791776
0
LINE
8
DEFAULT_255_2_778
10
16.0966642
20
52.8791776
11
16.0966642
21
53.0299776
0
LINE
8
DEFAULT_255_2_778
10
3.0236642
20
54.0790776
11
3.8038642
21
54.0790776
0
LINE
8
DEFAULT_255_2_778
10
3.8038642
20
54.0790776
11
3.8038642
21
53.8914776
0
LINE
8
DEFAULT_255_2_778
10
3.8038642
20
53.8914776
11
3.1987642
21
53.8914776
0
LINE
8
DEFAULT_255_2_778
10
3.1987642
20
53.8914776
11
3.1987642
21
53.3699776
0
LINE
8
DEFAULT_255_2_778
10
3.1987642
20
53.3699776
11
3.7803642
21
53.3699776
0
LINE
8
DEFAULT_255_2_778
10
3.7803642
20
53.3699776
11
3.7803642
21
53.1823776
0
LINE
8
DEFAULT_255_2_778
10
3.7803642
20
53.1823776
11
3.1987642
21
53.1823776
0
LINE
8
DEFAULT_255_2_778
10
3.1987642
20
53.1823776
11
3.1987642
21
52.6127776
0
LINE
8
DEFAULT_255_2_778
10
3.1987642
20
52.6127776
11
3.8202642
21
52.6127776
0
LINE
8
DEFAULT_255_2_778
10
3.8202642
20
52.6127776
11
3.8202642
21
52.4251776
0
LINE
8
DEFAULT_255_2_778
10
3.8202642
20
52.4251776
11
3.0238642
21
52.4251776
0
LINE
8
DEFAULT_255_2_778
10
3.0238642
20
52.4251776
11
3.0238642
21
54.0790776
0
LINE
8
DEFAULT_255_2_778
10
5.2670642
20
54.0790776
11
6.1369642
21
54.0790776
0
LINE
8
DEFAULT_255_2_778
10
6.1369642
20
54.0790776
11
6.1369642
21
53.8763776
0
LINE
8
DEFAULT_255_2_778
10
6.1369642
20
53.8763776
11
5.6461642
21
52.4254776
0
LINE
8
DEFAULT_255_2_778
10
5.6461642
20
52.4254776
11
5.4403642
21
52.4254776
0
LINE
8
DEFAULT_255_2_778
10
5.4403642
20
52.4254776
11
5.9565642
21
53.8938776
0
LINE
8
DEFAULT_255_2_778
10
5.9565642
20
53.8938776
11
5.2670642
21
53.8938776
0
LINE
8
DEFAULT_255_2_778
10
5.2670642
20
53.8938776
11
5.2670642
21
54.0790776
0
LINE
8
DEFAULT_255_2_778
10
18.8081642
20
54.0790776
11
19.0166642
21
54.0790776
0
LINE
8
DEFAULT_255_2_778
10
19.0166642
20
54.0790776
11
18.5702642
21
53.2868776
0
LINE
8
DEFAULT_255_2_778
10
18.5702642
20
53.2868776
11
19.0610642
21
52.4254776
0
LINE
8
DEFAULT_255_2_778
10
19.0610642
20
52.4254776
11
18.8369642
21
52.4254776
0
LINE
8
DEFAULT_255_2_778
10
18.8369642
20
52.4254776
11
18.4549642
21
53.1297776
0
LINE
8
DEFAULT_255_2_778
10
18.4549642
20
53.1297776
11
18.0821642
21
52.4254776
0
LINE
8
DEFAULT_255_2_778
10
18.0821642
20
52.4254776
11
17.8680642
21
52.4254776
0
LINE
8
DEFAULT_255_2_778
10
17.8680642
20
52.4254776
11
18.3517642
21
53.2913776
0
LINE
8
DEFAULT_255_2_778
10
18.3517642
20
53.2913776
11
17.9109642
21
54.0790776
0
LINE
8
DEFAULT_255_2_778
10
17.9109642
20
54.0790776
11
18.1294642
21
54.0790776
0
LINE
8
DEFAULT_255_2_778
10
18.1294642
20
54.0790776
11
18.4697642
21
53.4369776
0
LINE
8
DEFAULT_255_2_778
10
18.4697642
20
53.4369776
11
18.8081642
21
54.0790776
0
LINE
8
DEFAULT_255_2_778
10
2.5561642
20
52.9985776
11
2.5558642
21
52.9985776
0
LINE
8
DEFAULT_255_2_778
10
2.5309642
20
53.6615776
11
2.7045642
21
53.6615776
0
LINE
8
DEFAULT_255_2_778
10
2.5307642
20
53.6620776
11
2.5309642
21
53.6615776
0
ARC
8
DEFAULT_255_2_778
10
4.5348666
20
53.6704323
40
0.4746709
50
358.4309118
51
24.3301637
0
ARC
8
DEFAULT_255_2_778
10
4.6514548
20
53.7065054
40
0.3539006
50
26.7859919
51
76.3413935
0
ARC
8
DEFAULT_255_2_778
10
4.5247437
20
53.292385
40
0.7866389
50
74.4954867
51
90.111011
0
ARC
8
DEFAULT_255_2_778
10
4.5070399
20
52.9125202
40
1.1666145
50
89.2053438
51
90.0039464
0
ARC
8
DEFAULT_255_2_778
10
4.5244545
20
53.4930739
40
0.5863218
50
91.7098793
51
113.1080374
0
ARC
8
DEFAULT_255_2_778
10
4.4497075
20
53.6917776
40
0.3743391
50
114.5216286
51
172.8360706
0
ARC
8
DEFAULT_255_2_778
10
4.6856812
20
53.6261958
40
0.6176783
50
169.528096
51
171.5806354
0
ARC
8
DEFAULT_255_2_778
10
4.7149657
20
53.5992535
40
0.6509765
50
169.6118603
51
176.3749657
0
ARC
8
DEFAULT_255_2_778
10
4.6054284
20
53.6073022
40
0.5411505
50
176.4921601
51
179.9683194
0
ARC
8
DEFAULT_255_2_778
10
4.4319732
20
53.5950609
40
0.3679091
50
178.0466401
51
243.9797316
0
ARC
8
DEFAULT_255_2_778
10
4.6258089
20
53.9358587
40
0.759598
50
242.117515
51
257.2877083
0
ARC
8
DEFAULT_255_2_778
10
4.7162816
20
54.2671125
40
1.1027479
50
256.4895773
51
257.7104605
0
ARC
8
DEFAULT_255_2_778
10
4.3339116
20
52.4368398
40
0.7671376
50
64.9352819
51
78.9032645
0
ARC
8
DEFAULT_255_2_778
10
4.5179088
20
52.8144152
40
0.3472344
50
33.7022914
51
66.0431177
0
ARC
8
DEFAULT_255_2_778
10
4.5638014
20
52.8587506
40
0.2846832
50
358.856279
51
31.4034203
0
ARC
8
DEFAULT_255_2_778
10
4.4347321
20
52.854307
40
0.4136974
50
351.664662
51
359.8284416
0
ARC
8
DEFAULT_255_2_778
10
4.5883422
20
52.8838641
40
0.270937
50
271.6633373
51
340.7042878
0
ARC
8
DEFAULT_255_2_778
10
4.5366662
20
53.1473081
40
0.5375744
50
271.5662385
51
276.3589822
0
ARC
8
DEFAULT_255_2_778
10
4.5390028
20
53.0472503
40
0.4374901
50
248.73626
51
271.6185128
0
ARC
8
DEFAULT_255_2_778
10
4.4789352
20
52.8690492
40
0.2497864
50
180.6427181
51
246.7520986
0
ARC
8
DEFAULT_255_2_778
10
4.7297561
20
52.9122122
40
0.5026974
50
179.8948608
51
185.2462607
0
LINE
8
DEFAULT_255_2_778
10
4.2270595
20
52.9131347
11
4.0489595
21
52.9131347
0
ARC
8
DEFAULT_255_2_778
10
4.668049
20
52.9351944
40
0.6194824
50
182.0407284
51
204.0100494
0
ARC
8
DEFAULT_255_2_778
10
4.4909438
20
52.8689279
40
0.4308921
50
205.5434874
51
258.0473856
0
ARC
8
DEFAULT_255_2_778
10
4.5956491
20
53.2057751
40
0.7828031
50
255.6552366
51
265.3625805
0
ARC
8
DEFAULT_255_2_778
10
4.5452228
20
53.0913816
40
0.6659711
50
268.8932604
51
288.4962768
0
ARC
8
DEFAULT_255_2_778
10
4.6217627
20
52.8435533
40
0.4067075
50
289.3465833
51
350.4467337
0
ARC
8
DEFAULT_255_2_778
10
4.2447737
20
52.9498583
40
0.7972321
50
347.407865
51
357.3597984
0
ARC
8
DEFAULT_255_2_778
10
4.5860282
20
52.9272958
40
0.4553516
50
358.2178601
51
30.5434206
0
ARC
8
DEFAULT_255_2_778
10
4.6169695
20
52.9219153
40
0.4319179
50
33.2449939
51
69.9194691
0
ARC
8
DEFAULT_255_2_778
10
4.4870871
20
52.6329294
40
0.7482771
50
68.1759739
51
76.6660484
0
ARC
8
DEFAULT_255_2_778
10
4.8693805
20
54.4840002
40
1.142381
50
249.9792887
51
259.4215104
0
ARC
8
DEFAULT_255_2_778
10
4.6483392
20
53.8933104
40
0.5117408
50
232.4085631
51
250.590064
0
ARC
8
DEFAULT_255_2_778
10
4.4678255
20
53.6675038
40
0.2227606
50
180.2238885
51
233.7686844
0
ARC
8
DEFAULT_255_2_778
10
4.5240125
20
53.6651555
40
0.2789498
50
167.4381956
51
179.6964588
0
ARC
8
DEFAULT_255_2_778
10
4.5773242
20
53.6551272
40
0.3331714
50
167.0246802
51
167.7488891
0
ARC
8
DEFAULT_255_2_778
10
4.5129479
20
53.5968837
40
0.2923228
50
87.3073481
51
152.9253613
0
ARC
8
DEFAULT_255_2_778
10
4.5392452
20
53.3810445
40
0.5079946
50
89.9925497
51
91.4172713
0
ARC
8
DEFAULT_255_2_778
10
4.5389471
20
53.3292768
40
0.5597624
50
86.7420103
51
89.9627205
0
ARC
8
DEFAULT_255_2_778
10
4.5472896
20
53.5837257
40
0.3053124
50
48.8833992
51
85.5912223
0
ARC
8
DEFAULT_255_2_778
10
4.5592662
20
53.621627
40
0.2693527
50
9.0585022
51
45.4990567
0
ARC
8
DEFAULT_255_2_778
10
14.2977424
20
53.6451326
40
0.2578234
50
11.47222
51
89.2628283
0
ARC
8
DEFAULT_255_2_778
10
14.0635802
20
53.5480697
40
0.5089336
50
14.6091239
51
16.9463711
0
ARC
8
DEFAULT_255_2_778
10
14.2507248
20
53.6701067
40
0.3054003
50
315.3444837
51
1.1872666
0
ARC
8
DEFAULT_255_2_778
10
14.2200512
20
53.7315415
40
0.3710601
50
281.0070743
51
311.9233752
0
ARC
8
DEFAULT_255_2_778
10
14.1242255
20
54.1169855
40
0.767982
50
271.9202594
51
282.5344307
0
LINE
8
DEFAULT_255_2_778
10
14.1499595
20
53.3494347
11
14.1499595
21
53.1816347
0
ARC
8
DEFAULT_255_2_778
10
14.2701237
20
52.4415644
40
0.7497623
50
93.2980854
51
99.2225545
0
ARC
8
DEFAULT_255_2_778
10
14.2599983
20
52.5948343
40
0.5961651
50
90.0375443
51
93.1740131
0
ARC
8
DEFAULT_255_2_778
10
14.270815
20
52.8236752
40
0.3674951
50
63.5689039
51
91.7475989
0
ARC
8
DEFAULT_255_2_778
10
14.2927336
20
52.8997183
40
0.2899933
50
14.2424043
51
60.7580476
0
ARC
8
DEFAULT_255_2_778
10
14.1036395
20
52.828342
40
0.4913586
50
11.9443912
51
16.8857219
0
ARC
8
DEFAULT_255_2_778
10
14.0384666
20
52.9114985
40
0.5462075
50
0.013391
51
1.9447759
0
ARC
8
DEFAULT_255_2_778
10
14.255454
20
52.8986403
40
0.3294761
50
329.2338118
51
2.2588179
0
ARC
8
DEFAULT_255_2_778
10
14.3053437
20
52.8904952
40
0.2830479
50
281.1136779
51
325.4819088
0
ARC
8
DEFAULT_255_2_778
10
14.2360218
20
53.1114987
40
0.5138983
50
278.3398057
51
283.9492014
0
ARC
8
DEFAULT_255_2_778
10
14.3108246
20
53.0877244
40
0.4846897
50
245.475556
51
269.9686662
0
ARC
8
DEFAULT_255_2_778
10
14.2576535
20
52.9424911
40
0.3307031
50
190.9391684
51
243.4117506
0
LINE
8
DEFAULT_255_2_778
10
13.9329595
20
52.8797347
11
13.7631595
21
52.8797347
0
LINE
8
DEFAULT_255_2_778
10
13.7631595
20
52.8797347
11
13.7631595
21
52.8379347
0
ARC
8
DEFAULT_255_2_778
10
14.307473
20
52.9122642
40
0.5493652
50
187.7760088
51
211.0050145
0
ARC
8
DEFAULT_255_2_778
10
14.1896528
20
52.855948
40
0.4195536
50
212.7015006
51
258.9319444
0
ARC
8
DEFAULT_255_2_778
10
14.2802077
20
53.2059634
40
0.780744
50
257.3409919
51
270.5685758
0
ARC
8
DEFAULT_255_2_778
10
14.2861113
20
53.5807289
40
1.1554725
50
270.0914395
51
274.5393492
0
ARC
8
DEFAULT_255_2_778
10
14.2668572
20
53.8390173
40
1.4144752
50
274.4887867
51
277.1478053
0
ARC
8
DEFAULT_255_2_778
10
14.4135474
20
52.7789186
40
0.3446327
50
274.8790897
51
345.6296505
0
ARC
8
DEFAULT_255_2_778
10
13.988045
20
52.937146
40
0.7975181
50
342.2027347
51
355.2809795
0
ARC
8
DEFAULT_255_2_778
10
13.9858801
20
52.8020944
40
0.7999988
50
4.9795656
51
19.2013928
0
ARC
8
DEFAULT_255_2_778
10
14.4204178
20
52.9613903
40
0.3373282
50
17.9241584
51
51.7187287
0
ARC
8
DEFAULT_255_2_778
10
14.4753026
20
53.0138104
40
0.2623918
50
54.0357022
51
82.6303712
0
ARC
8
DEFAULT_255_2_778
10
14.4625518
20
53.5589101
40
0.2886307
50
279.2525022
51
354.1956226
0
ARC
8
DEFAULT_255_2_778
10
14.2560164
20
53.5991649
40
0.4985466
50
351.9929949
51
0.2148903
0
ARC
8
DEFAULT_255_2_778
10
14.0636551
20
53.6136503
40
0.6910196
50
358.953918
51
16.7556236
0
ARC
8
DEFAULT_255_2_778
10
14.3763315
20
53.708986
40
0.3641358
50
16.5752334
51
86.0569535
0
ARC
8
DEFAULT_255_2_778
10
14.3040874
20
53.3564487
40
0.7223917
50
82.2605121
51
90.2242874
0
ARC
8
DEFAULT_255_2_778
10
14.288763
20
53.2166743
40
0.8622509
50
89.1695904
51
103.787815
0
ARC
8
DEFAULT_255_2_778
10
14.171977
20
53.6600322
40
0.4039097
50
102.6874349
51
137.3990417
0
ARC
8
DEFAULT_255_2_778
10
14.1792625
20
53.6816514
40
0.3951889
50
140.4226285
51
176.7784321
0
ARC
8
DEFAULT_255_2_778
10
14.4392767
20
53.6439107
40
0.657318
50
174.7671895
51
180.093788
0
ARC
8
DEFAULT_255_2_778
10
14.2935793
20
53.633497
40
0.3228549
50
148.9990229
51
178.3426442
0
ARC
8
DEFAULT_255_2_778
10
14.2113327
20
53.6657705
40
0.2361917
50
93.2465461
51
145.4312926
0
ARC
8
DEFAULT_255_2_778
10
14.2512186
20
53.445663
40
0.4590207
50
89.8320139
51
96.6632766
0
ARC
8
DEFAULT_255_2_778
10
14.2515347
20
53.30003
40
0.6046528
50
85.2828381
51
89.9024227
0
LINE
8
DEFAULT_255_2_778
10
4.8249595
20
53.6574347
11
5.0093595
21
53.6574347
0
LINE
8
DEFAULT_255_2_778
10
10.8699595
20
54.0791347
11
11.0021595
21
54.0791347
0
LINE
8
DEFAULT_255_2_778
10
11.0021595
20
54.0791347
11
11.0021595
21
52.4255347
0
LINE
8
DEFAULT_255_2_778
10
11.0021595
20
52.4255347
11
10.8368595
21
52.4255347
0
LINE
8
DEFAULT_255_2_778
10
10.8368595
20
52.4255347
11
10.8368595
21
53.8378347
0
LINE
8
DEFAULT_255_2_778
10
10.8368595
20
53.8378347
11
10.5722595
21
53.5968347
0
LINE
8
DEFAULT_255_2_778
10
10.5722595
20
53.5968347
11
10.5722595
21
53.8378347
0
LINE
8
DEFAULT_255_2_778
10
10.5722595
20
53.8378347
11
10.8699595
21
54.0791347
0
LINE
8
DEFAULT_255_2_778
10
13.7819595
20
53.6428347
11
13.9708595
21
53.6428347
0
LINE
8
DEFAULT_255_2_778
10
14.3012595
20
53.9026347
11
14.3010595
21
53.9029347
0
ARC
8
DEFAULT_255_2_778
10
13.7881666
20
53.2558979
40
2.0030441
50
359.6481837
51
6.6792928
0
ARC
8
DEFAULT_255_2_778
10
14.7985564
20
53.3795905
40
0.9851396
50
6.3691318
51
18.341529
0
ARC
8
DEFAULT_255_2_778
10
15.3292927
20
53.5624949
40
0.4238607
50
17.449326
51
42.512843
0
ARC
8
DEFAULT_255_2_778
10
15.456708
20
53.6700448
40
0.2573527
50
44.0322345
51
91.5887225
0
ARC
8
DEFAULT_255_2_778
10
15.4196401
20
53.6879115
40
0.2412512
50
82.8727572
51
89.9041955
0
ARC
8
DEFAULT_255_2_778
10
15.4236109
20
53.7197336
40
0.209459
50
90.9758884
51
153.5953394
0
ARC
8
DEFAULT_255_2_778
10
15.7537723
20
53.5163993
40
0.5966459
50
150.2038806
51
166.2066489
0
ARC
8
DEFAULT_255_2_778
10
16.4860947
20
53.3224264
40
1.3541668
50
165.6236731
51
173.8666369
0
ARC
8
DEFAULT_255_2_778
10
17.759178
20
53.1778651
40
2.6354195
50
173.6989343
51
178.9839302
0
ARC
8
DEFAULT_255_2_778
10
17.3379261
20
53.2660947
40
2.2141421
50
181.0738659
51
187.1040413
0
ARC
8
DEFAULT_255_2_778
10
16.2229551
20
53.1223042
40
1.0899582
50
186.8519027
51
196.8840229
0
ARC
8
DEFAULT_255_2_778
10
15.6197156
20
52.93293
40
0.45776
50
196.1318742
51
216.2996143
0
ARC
8
DEFAULT_255_2_778
10
15.4161921
20
52.7804739
40
0.2034925
50
215.6289669
51
270.4435134
0
ARC
8
DEFAULT_255_2_778
10
15.4173026
20
52.8368315
40
0.2598445
50
270.1024427
51
277.1340231
0
ARC
8
DEFAULT_255_2_778
10
15.4524145
20
52.8573272
40
0.2783432
50
269.4150629
51
339.7724502
0
ARC
8
DEFAULT_255_2_778
10
15.0299997
20
53.0653287
40
0.7482372
50
336.0081321
51
350.9654639
0
ARC
8
DEFAULT_255_2_778
10
14.1988915
20
53.2095504
40
1.5917264
50
350.5362515
51
358.9016073
0
ARC
8
DEFAULT_255_2_778
10
13.3933125
20
53.2427862
40
2.3978604
50
358.4765856
51
0.0194106
0
ARC
8
DEFAULT_255_2_778
10
14.0247066
20
53.2751284
40
1.9292064
50
359.6308426
51
7.7410683
0
ARC
8
DEFAULT_255_2_778
10
14.9074375
20
53.3999792
40
1.0377141
50
7.4753623
51
20.6930937
0
ARC
8
DEFAULT_255_2_778
10
15.3849858
20
53.58758
40
0.5247267
50
19.9559709
51
47.5473488
0
ARC
8
DEFAULT_255_2_778
10
15.4533393
20
53.6358099
40
0.4433644
50
49.8585215
51
91.072411
0
ARC
8
DEFAULT_255_2_778
10
15.4334937
20
53.426757
40
0.6524418
50
88.985861
51
90.0018213
0
ARC
8
DEFAULT_255_2_778
10
15.4634429
20
53.6402578
40
0.4399627
50
93.9059799
51
158.5313842
0
ARC
8
DEFAULT_255_2_778
10
15.9421999
20
53.401936
40
0.9738403
50
155.7906573
51
169.7747357
0
ARC
8
DEFAULT_255_2_778
10
16.7475258
20
53.2462935
40
1.7940339
50
169.448658
51
177.5820283
0
ARC
8
DEFAULT_255_2_778
10
17.401285
20
53.203653
40
2.4490561
50
177.2306076
51
178.1738121
0
ARC
8
DEFAULT_255_2_778
10
17.4578596
20
53.3384343
40
2.5050292
50
181.2977887
51
187.4716137
0
ARC
8
DEFAULT_255_2_778
10
16.3586814
20
53.1898772
40
1.3958729
50
187.2924808
51
196.9075284
0
ARC
8
DEFAULT_255_2_778
10
15.6997074
20
52.9837585
40
0.7054596
50
196.4558446
51
213.819586
0
ARC
8
DEFAULT_255_2_778
10
15.4181885
20
52.7882692
40
0.3628151
50
212.9156619
51
271.4013775
0
ARC
8
DEFAULT_255_2_778
10
15.4266496
20
52.929636
40
0.5040737
50
270.0468266
51
274.4742485
0
ARC
8
DEFAULT_255_2_778
10
15.4811051
20
52.8278889
40
0.401076
50
267.8377741
51
335.1708674
0
ARC
8
DEFAULT_255_2_778
10
15.0896109
20
53.0394863
40
0.8456865
50
333.2976059
51
348.7969822
0
ARC
8
DEFAULT_255_2_778
10
14.3146493
20
53.2037242
40
1.6378243
50
348.4281166
51
357.3756641
0
ARC
8
DEFAULT_255_2_778
10
13.4363148
20
53.2598938
40
2.5178597
50
357.0139791
51
0.0638244
0
LINE
8
DEFAULT_255_2_778
10
15.7911729
20
53.2435985
11
15.7911729
21
53.2435985
0
LINE
8
DEFAULT_255_2_778
10
15.9541729
20
53.2626985
11
15.9538729
21
53.2626985
0
ARC
8
DEFAULT_255_2_778
10
15.5740666
20
53.2558979
40
2.0030441
50
359.6481837
51
6.6792928
0
ARC
8
DEFAULT_255_2_778
10
16.5844564
20
53.3795905
40
0.9851396
50
6.3691318
51
18.341529
0
ARC
8
DEFAULT_255_2_778
10
17.1151927
20
53.5624949
40
0.4238607
50
17.449326
51
42.512843
0
ARC
8
DEFAULT_255_2_778
10
17.242608
20
53.6700448
40
0.2573527
50
44.0322345
51
91.5887225
0
ARC
8
DEFAULT_255_2_778
10
17.2055401
20
53.6879115
40
0.2412512
50
82.8727572
51
89.9041955
0
ARC
8
DEFAULT_255_2_778
10
17.2095109
20
53.7197336
40
0.209459
50
90.9758884
51
153.5953394
0
ARC
8
DEFAULT_255_2_778
10
17.5396723
20
53.5163993
40
0.5966459
50
150.2038806
51
166.2066489
0
ARC
8
DEFAULT_255_2_778
10
18.2719947
20
53.3224264
40
1.3541668
50
165.6236731
51
173.8666369
0
ARC
8
DEFAULT_255_2_778
10
19.545078
20
53.1778651
40
2.6354195
50
173.6989343
51
178.9839302
0
ARC
8
DEFAULT_255_2_778
10
19.1238261
20
53.2660947
40
2.2141421
50
181.0738659
51
187.1040413
0
ARC
8
DEFAULT_255_2_778
10
18.0088551
20
53.1223042
40
1.0899582
50
186.8519027
51
196.8840229
0
ARC
8
DEFAULT_255_2_778
10
17.4056156
20
52.93293
40
0.45776
50
196.1318742
51
216.2996143
0
ARC
8
DEFAULT_255_2_778
10
17.2020921
20
52.7804739
40
0.2034925
50
215.6289669
51
270.4435134
0
ARC
8
DEFAULT_255_2_778
10
17.2032026
20
52.8368315
40
0.2598445
50
270.1024427
51
277.1340231
0
ARC
8
DEFAULT_255_2_778
10
17.2383145
20
52.8573272
40
0.2783432
50
269.4150629
51
339.7724502
0
ARC
8
DEFAULT_255_2_778
10
16.8158997
20
53.0653287
40
0.7482372
50
336.0081321
51
350.9654639
0
ARC
8
DEFAULT_255_2_778
10
15.9847915
20
53.2095504
40
1.5917264
50
350.5362515
51
358.9016073
0
ARC
8
DEFAULT_255_2_778
10
15.1792125
20
53.2427862
40
2.3978604
50
358.4765856
51
0.0194106
0
ARC
8
DEFAULT_255_2_778
10
15.8106066
20
53.2751284
40
1.9292064
50
359.6308426
51
7.7410683
0
ARC
8
DEFAULT_255_2_778
10
16.6933375
20
53.3999792
40
1.0377141
50
7.4753623
51
20.6930937
0
ARC
8
DEFAULT_255_2_778
10
17.1708858
20
53.58758
40
0.5247267
50
19.9559709
51
47.5473488
0
ARC
8
DEFAULT_255_2_778
10
17.2392393
20
53.6358099
40
0.4433644
50
49.8585215
51
91.072411
0
ARC
8
DEFAULT_255_2_778
10
17.2193937
20
53.426757
40
0.6524418
50
88.985861
51
90.0018213
0
ARC
8
DEFAULT_255_2_778
10
17.2493429
20
53.6402578
40
0.4399627
50
93.9059799
51
158.5313842
0
ARC
8
DEFAULT_255_2_778
10
17.7280999
20
53.401936
40
0.9738403
50
155.7906573
51
169.7747357
0
ARC
8
DEFAULT_255_2_778
10
18.5334258
20
53.2462935
40
1.7940339
50
169.448658
51
177.5820283
0
ARC
8
DEFAULT_255_2_778
10
19.187185
20
53.203653
40
2.4490561
50
177.2306076
51
178.1738121
0
ARC
8
DEFAULT_255_2_778
10
19.2437596
20
53.3384343
40
2.5050292
50
181.2977887
51
187.4716137
0
ARC
8
DEFAULT_255_2_778
10
18.1445814
20
53.1898772
40
1.3958729
50
187.2924808
51
196.9075284
0
ARC
8
DEFAULT_255_2_778
10
17.4856074
20
52.9837585
40
0.7054596
50
196.4558446
51
213.819586
0
ARC
8
DEFAULT_255_2_778
10
17.2040885
20
52.7882692
40
0.3628151
50
212.9156619
51
271.4013775
0
ARC
8
DEFAULT_255_2_778
10
17.2125496
20
52.929636
40
0.5040737
50
270.0468266
51
274.4742485
0
ARC
8
DEFAULT_255_2_778
10
17.2670051
20
52.8278889
40
0.401076
50
267.8377741
51
335.1708674
0
ARC
8
DEFAULT_255_2_778
10
16.8755109
20
53.0394863
40
0.8456865
50
333.2976059
51
348.7969822
0
ARC
8
DEFAULT_255_2_778
10
16.1005493
20
53.2037242
40
1.6378243
50
348.4281166
51
357.3756641
0
ARC
8
DEFAULT_255_2_778
10
15.2222148
20
53.2598938
40
2.5178597
50
357.0139791
51
0.0638244
0
LINE
8
DEFAULT_255_2_778
10
17.5770729
20
53.2435985
11
17.5770729
21
53.2435985
0
LINE
8
DEFAULT_255_2_778
10
17.7400729
20
53.2626985
11
17.7397729
21
53.2626985
0
ARC
8
DEFAULT_255_2_778
10
19.7901481
20
52.9227593
40
0.2165466
50
2.3458642
51
77.5762694
0
ARC
8
DEFAULT_255_2_778
10
19.6587964
20
52.5432838
40
0.6171595
50
73.2425836
51
88.049295
0
ARC
8
DEFAULT_255_2_778
10
19.6277185
20
52.1170142
40
1.044371
50
87.141313
51
90.0525059
0
ARC
8
DEFAULT_255_2_778
10
19.6288291
20
51.8076008
40
1.3537855
50
90.0875055
51
93.5188704
0
ARC
8
DEFAULT_255_2_778
10
19.6517906
20
51.4145596
40
1.7474954
50
93.4793435
51
95.730201
0
LINE
8
DEFAULT_255_2_778
10
19.4773133
20
53.1533229
11
19.4773133
21
52.6760229
0
ARC
8
DEFAULT_255_2_778
10
19.6824404
20
54.3002444
40
1.6371232
50
262.8020751
51
265.9926659
0
ARC
8
DEFAULT_255_2_778
10
19.652493
20
53.8672081
40
1.2030528
50
265.9741749
51
269.8924551
0
ARC
8
DEFAULT_255_2_778
10
19.6598314
20
53.3595796
40
0.6954883
50
269.2093945
51
282.1593958
0
ARC
8
DEFAULT_255_2_778
10
19.7498635
20
52.968478
40
0.2942513
50
281.0623509
51
310.0051485
0
ARC
8
DEFAULT_255_2_778
10
19.7908192
20
52.9009236
40
0.2165127
50
313.197236
51
3.1298952
0
ARC
8
DEFAULT_255_2_778
10
19.6403692
20
52.9125612
40
0.3666398
50
0.0287485
51
2.9801605
0
ARC
8
DEFAULT_255_2_778
10
19.773745
20
53.6440137
40
0.2165516
50
2.3578724
51
77.5975755
0
ARC
8
DEFAULT_255_2_778
10
19.642231
20
53.2639113
40
0.6178055
50
73.252418
51
88.0506127
0
ARC
8
DEFAULT_255_2_778
10
19.6111315
20
52.8369433
40
1.0457152
50
87.1433736
51
90.0522537
0
ARC
8
DEFAULT_255_2_778
10
19.6122326
20
52.5279238
40
1.3547359
50
90.0869064
51
93.5118259
0
ARC
8
DEFAULT_255_2_778
10
19.6351087
20
52.1353574
40
1.7479668
50
93.4720539
51
95.7193636
0
LINE
8
DEFAULT_255_2_778
10
19.4609133
20
53.8746229
11
19.4609133
21
53.3973229
0
ARC
8
DEFAULT_255_2_778
10
19.6662801
20
55.0211256
40
1.6367379
50
262.7919137
51
265.986208
0
ARC
8
DEFAULT_255_2_778
10
19.6362464
20
54.5875818
40
1.2021553
50
265.9677832
51
269.8921626
0
ARC
8
DEFAULT_255_2_778
10
19.6435751
20
54.080227
40
0.6948644
50
269.209118
51
282.165428
0
ARC
8
DEFAULT_255_2_778
10
19.7335479
20
53.6895627
40
0.2940666
50
281.0692526
51
310.0210645
0
ARC
8
DEFAULT_255_2_778
10
19.7743438
20
53.6222088
40
0.2165886
50
313.2160451
51
3.1311922
0
ARC
8
DEFAULT_255_2_778
10
19.6237392
20
53.6338553
40
0.3668698
50
0.0287581
51
2.9792185
0
ARC
8
DEFAULT_255_2_778
10
19.6894924
20
53.2566044
40
0.8339261
50
274.733794
51
289.0247531
0
ARC
8
DEFAULT_255_2_778
10
19.8337727
20
52.8582617
40
0.4103619
50
288.110331
51
320.3771397
0
ARC
8
DEFAULT_255_2_778
10
19.8398237
20
52.8301886
40
0.3882047
50
322.9999657
51
359.1048104
0
ARC
8
DEFAULT_255_2_778
10
19.6383332
20
52.8527164
40
0.5903407
50
357.2238232
51
0.0231545
0
ARC
8
DEFAULT_255_2_778
10
19.5279673
20
52.8514744
40
0.700708
50
0.1210639
51
5.9728792
0
ARC
8
DEFAULT_255_2_778
10
19.3970706
20
52.839257
40
0.8321667
50
5.8716848
51
7.9131454
0
ARC
8
DEFAULT_255_2_778
10
19.6104174
20
52.8679914
40
0.6168961
50
7.9977629
51
25.7405388
0
ARC
8
DEFAULT_255_2_778
10
19.9150576
20
53.0227352
40
0.275372
50
24.2663464
51
81.2783807
0
ARC
8
DEFAULT_255_2_778
10
19.7144327
20
53.7100599
40
0.4807152
50
300.2788155
51
327.9536149
0
ARC
8
DEFAULT_255_2_778
10
19.7855859
20
53.6529443
40
0.3902441
50
329.5186046
51
0.8476085
0
ARC
8
DEFAULT_255_2_778
10
19.6561928
20
53.6577834
40
0.5195954
50
0.1029753
51
7.0018593
0
ARC
8
DEFAULT_255_2_778
10
19.6607728
20
53.659919
40
0.5147917
50
6.8280757
51
30.0007116
0
ARC
8
DEFAULT_255_2_778
10
19.8172688
20
53.7370057
40
0.3409125
50
31.9323469
51
88.3225092
0
ARC
8
DEFAULT_255_2_778
10
19.777861
20
53.5144499
40
0.565483
50
84.9895831
51
86.9333245
0
LINE
8
DEFAULT_255_2_778
10
19.8081133
20
54.0791229
11
19.2956133
21
54.0791229
0
ARC
8
DEFAULT_255_2_778
10
19.2121069
20
53.2558222
40
2.0030441
50
359.6481837
51
6.6792928
0
ARC
8
DEFAULT_255_2_778
10
20.2224967
20
53.3795148
40
0.9851396
50
6.3691318
51
18.341529
0
ARC
8
DEFAULT_255_2_778
10
20.7532331
20
53.5624193
40
0.4238607
50
17.449326
51
42.512843
0
ARC
8
DEFAULT_255_2_778
10
20.8806483
20
53.6699691
40
0.2573527
50
44.0322345
51
91.5887225
0
ARC
8
DEFAULT_255_2_778
10
20.8435804
20
53.6878358
40
0.2412512
50
82.8727572
51
89.9041955
0
ARC
8
DEFAULT_255_2_778
10
20.8475513
20
53.7196579
40
0.209459
50
90.9758884
51
153.5953394
0
ARC
8
DEFAULT_255_2_778
10
21.1777127
20
53.5163237
40
0.5966459
50
150.2038806
51
166.2066489
0
ARC
8
DEFAULT_255_2_778
10
21.9100351
20
53.3223508
40
1.3541668
50
165.6236731
51
173.8666369
0
ARC
8
DEFAULT_255_2_778
10
23.1831184
20
53.1777894
40
2.6354195
50
173.6989343
51
178.9839302
0
ARC
8
DEFAULT_255_2_778
10
22.7595627
20
53.2649871
40
2.2118196
50
181.0482569
51
187.0846006
0
ARC
8
DEFAULT_255_2_778
10
21.6456987
20
53.121716
40
1.0888002
50
186.8320576
51
196.8743314
0
ARC
8
DEFAULT_255_2_778
10
21.0431345
20
52.932664
40
0.4573427
50
196.1221692
51
216.3084167
0
ARC
8
DEFAULT_255_2_778
10
20.8400619
20
52.7805398
40
0.2036343
50
215.6493859
51
270.4545911
0
ARC
8
DEFAULT_255_2_778
10
20.8412122
20
52.8372498
40
0.2603384
50
270.1024218
51
277.1272468
0
ARC
8
DEFAULT_255_2_778
10
20.8763548
20
52.8572516
40
0.2783432
50
269.4150629
51
339.7724502
0
ARC
8
DEFAULT_255_2_778
10
20.45394
20
53.065253
40
0.7482372
50
336.0081321
51
350.9654639
0
ARC
8
DEFAULT_255_2_778
10
19.6228318
20
53.2094747
40
1.5917264
50
350.5362515
51
358.9016073
0
ARC
8
DEFAULT_255_2_778
10
18.8172529
20
53.2427105
40
2.3978604
50
358.4765856
51
0.0194106
0
ARC
8
DEFAULT_255_2_778
10
19.4486469
20
53.2750527
40
1.9292064
50
359.6308426
51
7.7410683
0
ARC
8
DEFAULT_255_2_778
10
20.3313778
20
53.3999035
40
1.0377141
50
7.4753623
51
20.6930937
0
ARC
8
DEFAULT_255_2_778
10
20.8089261
20
53.5875043
40
0.5247267
50
19.9559709
51
47.5473488
0
ARC
8
DEFAULT_255_2_778
10
20.8772797
20
53.6357342
40
0.4433644
50
49.8585215
51
91.072411
0
ARC
8
DEFAULT_255_2_778
10
20.857434
20
53.4266813
40
0.6524418
50
88.985861
51
90.0018213
0
ARC
8
DEFAULT_255_2_778
10
20.887423
20
53.6402002
40
0.4399474
50
93.911306
51
158.5331406
0
ARC
8
DEFAULT_255_2_778
10
21.3664319
20
53.4017216
40
0.9741185
50
155.7890676
51
169.7693992
0
ARC
8
DEFAULT_255_2_778
10
22.171957
20
53.2459645
40
1.7945297
50
169.4433782
51
177.5746002
0
ARC
8
DEFAULT_255_2_778
10
22.8247582
20
53.2032804
40
2.4485986
50
177.2231329
51
178.1665186
0
ARC
8
DEFAULT_255_2_778
10
22.8823691
20
53.3386572
40
2.5056051
50
181.3043189
51
187.4767718
0
ARC
8
DEFAULT_255_2_778
10
21.7829923
20
53.1899756
40
1.3962353
50
187.2977756
51
196.9104712
0
ARC
8
DEFAULT_255_2_778
10
21.1238341
20
52.9837638
40
0.7056183
50
196.4588956
51
213.818875
0
ARC
8
DEFAULT_255_2_778
10
20.8421553
20
52.7881518
40
0.3627729
50
212.9121262
51
271.3985862
0
ARC
8
DEFAULT_255_2_778
10
20.8505979
20
52.9293557
40
0.503869
50
270.0468238
51
274.4751588
0
ARC
8
DEFAULT_255_2_778
10
20.9050455
20
52.8278133
40
0.401076
50
267.8377741
51
335.1708674
0
ARC
8
DEFAULT_255_2_778
10
20.5135512
20
53.0394107
40
0.8456865
50
333.2976059
51
348.7969822
0
ARC
8
DEFAULT_255_2_778
10
19.7385896
20
53.2036485
40
1.6378243
50
348.4281166
51
357.3756641
0
ARC
8
DEFAULT_255_2_778
10
18.8602551
20
53.2598181
40
2.5178597
50
357.0139791
51
0.0638244
0
LINE
8
DEFAULT_255_2_778
10
20.0065133
20
52.9316229
11
20.0065133
21
52.9316229
0
LINE
8
DEFAULT_255_2_778
10
19.9901133
20
53.6529229
11
19.9901133
21
53.6529229
0
LINE
8
DEFAULT_255_2_778
10
19.2953133
20
54.0791229
11
19.2953133
21
52.4255229
0
LINE
8
DEFAULT_255_2_778
10
19.2953133
20
52.4255229
11
19.5599133
21
52.4255229
0
LINE
8
DEFAULT_255_2_778
10
19.5599133
20
52.4255229
11
19.7583133
21
52.4255229
0
LINE
8
DEFAULT_255_2_778
10
19.2956133
20
54.0791229
11
19.2953133
21
54.0791229
0
LINE
8
DEFAULT_255_2_778
10
21.2151133
20
53.2435229
11
21.2151133
21
53.2435229
0
LINE
8
DEFAULT_255_2_778
10
21.3781133
20
53.2626229
11
21.3778133
21
53.2626229
0
LINE
8
DEFAULT_255_2_778
10
13.1730708
20
52.4257229
11
13.2965708
21
52.4427229
0
LINE
8
DEFAULT_255_2_778
10
13.2965708
20
52.4427229
11
13.3815708
21
52.4747229
0
LINE
8
DEFAULT_255_2_778
10
13.3815708
20
52.4747229
11
13.4574708
21
52.5263229
0
LINE
8
DEFAULT_255_2_778
10
13.4574708
20
52.5263229
11
13.5185708
21
52.5927229
0
LINE
8
DEFAULT_255_2_778
10
13.5185708
20
52.5927229
11
13.5603708
21
52.6564229
0
LINE
8
DEFAULT_255_2_778
10
13.5603708
20
52.6564229
11
13.5953708
21
52.7268229
0
LINE
8
DEFAULT_255_2_778
10
13.5953708
20
52.7268229
11
13.6169708
21
52.7826229
0
LINE
8
DEFAULT_255_2_778
10
13.6169708
20
52.7826229
11
13.6331708
21
52.8356229
0
LINE
8
DEFAULT_255_2_778
10
13.6331708
20
52.8356229
11
13.6461708
21
52.8895229
0
LINE
8
DEFAULT_255_2_778
10
13.6461708
20
52.8895229
11
13.6561708
21
52.9446229
0
LINE
8
DEFAULT_255_2_778
10
13.6561708
20
52.9446229
11
13.6601708
21
52.9723229
0
LINE
8
DEFAULT_255_2_778
10
13.6601708
20
52.9723229
11
13.6635708
21
53.0004229
0
LINE
8
DEFAULT_255_2_778
10
13.6635708
20
53.0004229
11
13.6664708
21
53.0287229
0
LINE
8
DEFAULT_255_2_778
10
13.6664708
20
53.0287229
11
13.6688708
21
53.0570229
0
LINE
8
DEFAULT_255_2_778
10
13.6688708
20
53.0570229
11
13.6707708
21
53.0853229
0
LINE
8
DEFAULT_255_2_778
10
13.6707708
20
53.0853229
11
13.6707708
21
53.3806229
0
LINE
8
DEFAULT_255_2_778
10
13.6707708
20
53.3806229
11
13.6685708
21
53.4108229
0
LINE
8
DEFAULT_255_2_778
10
13.6685708
20
53.4108229
11
13.6659708
21
53.4407229
0
LINE
8
DEFAULT_255_2_778
10
13.6659708
20
53.4407229
11
13.6627708
21
53.4706229
0
LINE
8
DEFAULT_255_2_778
10
13.6627708
20
53.4706229
11
13.6590708
21
53.5002229
0
LINE
8
DEFAULT_255_2_778
10
13.6590708
20
53.5002229
11
13.6548708
21
53.5296229
0
LINE
8
DEFAULT_255_2_778
10
13.6548708
20
53.5296229
11
13.6442708
21
53.5878229
0
LINE
8
DEFAULT_255_2_778
10
13.6442708
20
53.5878229
11
13.6304708
21
53.6449229
0
LINE
8
DEFAULT_255_2_778
10
13.6304708
20
53.6449229
11
13.6132708
21
53.7010229
0
LINE
8
DEFAULT_255_2_778
10
13.6132708
20
53.7010229
11
13.5839708
21
53.7751229
0
LINE
8
DEFAULT_255_2_778
10
13.5839708
20
53.7751229
11
13.5476708
21
53.8447229
0
LINE
8
DEFAULT_255_2_778
10
13.5476708
20
53.8447229
11
13.4937708
21
53.9219229
0
LINE
8
DEFAULT_255_2_778
10
13.4937708
20
53.9219229
11
13.4304708
21
53.9846229
0
LINE
8
DEFAULT_255_2_778
10
13.4304708
20
53.9846229
11
13.3518708
21
54.0333229
0
LINE
8
DEFAULT_255_2_778
10
13.3518708
20
54.0333229
11
13.2314708
21
54.0704229
0
LINE
8
DEFAULT_255_2_778
10
13.2314708
20
54.0704229
11
13.1259708
21
54.0791229
0
LINE
8
DEFAULT_255_2_778
10
13.1259708
20
54.0791229
11
12.7806708
21
54.0791229
0
LINE
8
DEFAULT_255_2_778
10
12.7806708
20
54.0791229
11
12.7806708
21
52.4255229
0
LINE
8
DEFAULT_255_2_778
10
12.7806708
20
52.4255229
11
13.1552708
21
52.4255229
0
LINE
8
DEFAULT_255_2_778
10
13.1259708
20
53.8915229
11
12.9296708
21
53.8915229
0
LINE
8
DEFAULT_255_2_778
10
12.9296708
20
53.8915229
11
12.9296708
21
52.6128229
0
LINE
8
DEFAULT_255_2_778
10
12.9296708
20
52.6128229
11
13.2174708
21
52.6173229
0
LINE
8
DEFAULT_255_2_778
10
13.2174708
20
52.6173229
11
13.3121708
21
52.6472229
0
LINE
8
DEFAULT_255_2_778
10
13.3121708
20
52.6472229
11
13.3751708
21
52.6911229
0
LINE
8
DEFAULT_255_2_778
10
13.3751708
20
52.6911229
11
13.4262708
21
52.7525229
0
LINE
8
DEFAULT_255_2_778
10
13.4262708
20
52.7525229
11
13.4540708
21
52.8030229
0
LINE
8
DEFAULT_255_2_778
10
13.4540708
20
52.8030229
11
13.4770708
21
52.8628229
0
LINE
8
DEFAULT_255_2_778
10
13.4770708
20
52.8628229
11
13.4905708
21
52.9099229
0
LINE
8
DEFAULT_255_2_778
10
13.4905708
20
52.9099229
11
13.5003708
21
52.9541229
0
LINE
8
DEFAULT_255_2_778
10
13.5003708
20
52.9541229
11
13.5079708
21
52.9991229
0
LINE
8
DEFAULT_255_2_778
10
13.5079708
20
52.9991229
11
13.5140708
21
53.0443229
0
LINE
8
DEFAULT_255_2_778
10
13.5140708
20
53.0443229
11
13.5164708
21
53.0671229
0
LINE
8
DEFAULT_255_2_778
10
13.5164708
20
53.0671229
11
13.5193708
21
53.0991229
0
LINE
8
DEFAULT_255_2_778
10
13.5193708
20
53.0991229
11
13.5191708
21
53.4166229
0
LINE
8
DEFAULT_255_2_778
10
13.5191708
20
53.4166229
11
13.5143708
21
53.4608229
0
LINE
8
DEFAULT_255_2_778
10
13.5143708
20
53.4608229
11
13.5074708
21
53.5044229
0
LINE
8
DEFAULT_255_2_778
10
13.5074708
20
53.5044229
11
13.4987708
21
53.5476229
0
LINE
8
DEFAULT_255_2_778
10
13.4987708
20
53.5476229
11
13.4876708
21
53.5899229
0
LINE
8
DEFAULT_255_2_778
10
13.4876708
20
53.5899229
11
13.4645708
21
53.6544229
0
LINE
8
DEFAULT_255_2_778
10
13.4645708
20
53.6544229
11
13.4302708
21
53.7230229
0
LINE
8
DEFAULT_255_2_778
10
13.4302708
20
53.7230229
11
13.3876708
21
53.7825229
0
LINE
8
DEFAULT_255_2_778
10
13.3876708
20
53.7825229
11
13.3259708
21
53.8375229
0
LINE
8
DEFAULT_255_2_778
10
13.3259708
20
53.8375229
11
13.2288708
21
53.8796229
0
LINE
8
DEFAULT_255_2_778
10
13.2288708
20
53.8796229
11
13.1388708
21
53.8915229
0
ARC
8
DEFAULT_255_2_778
10
6.3853954
20
53.7456574
40
1.0452
50
333.7291605
51
344.9646002
0
ARC
8
DEFAULT_255_2_778
10
6.7159018
20
53.6569154
40
0.7029871
50
344.9617803
51
359.6033941
0
ARC
8
DEFAULT_255_2_778
10
6.8731002
20
53.6552077
40
0.545781
50
359.6684269
51
25.298233
0
ARC
8
DEFAULT_255_2_778
10
7.0609282
20
53.7379529
40
0.3406508
50
26.2157679
51
88.8256562
0
ARC
8
DEFAULT_255_2_778
10
7.0406938
20
53.5822184
40
0.4970595
50
86.8612659
51
90.0259298
0
ARC
8
DEFAULT_255_2_778
10
7.0445851
20
53.4383706
40
0.6409203
50
90.3679767
51
100.7003811
0
ARC
8
DEFAULT_255_2_778
10
7.1016889
20
53.1250835
40
0.9593647
50
100.5774654
51
107.5415742
0
ARC
8
DEFAULT_255_2_778
10
6.9619691
20
53.6652572
40
0.4032853
50
111.7484911
51
178.2155646
0
ARC
8
DEFAULT_255_2_778
10
7.190754
20
53.6311792
40
0.6335934
50
175.7789007
51
180.0520153
0
ARC
8
DEFAULT_255_2_778
10
7.2601484
20
53.6306976
40
0.7029876
50
180.0076282
51
181.6108218
0
LINE
8
DEFAULT_255_2_778
10
6.5574386
20
53.6109363
11
6.7421386
21
53.6109363
0
ARC
8
DEFAULT_255_2_778
10
7.1448668
20
53.6232661
40
0.4029169
50
158.7708346
51
181.753604
0
ARC
8
DEFAULT_255_2_778
10
6.9633614
20
53.6858365
40
0.2112017
50
85.953982
51
156.7632852
0
ARC
8
DEFAULT_255_2_778
10
6.9883939
20
53.4847473
40
0.4118891
50
89.9937932
51
91.4093587
0
ARC
8
DEFAULT_255_2_778
10
7.00255
20
53.6522986
40
0.2447449
50
49.7867961
51
93.3053694
0
ARC
8
DEFAULT_255_2_778
10
6.9737907
20
53.652708
40
0.2639379
50
6.865855
51
44.9561714
0
ARC
8
DEFAULT_255_2_778
10
6.6606678
20
53.5897225
40
0.5828856
50
359.5885097
51
9.3340174
0
ARC
8
DEFAULT_255_2_778
10
6.8098781
20
53.6261537
40
0.4355585
50
326.8744835
51
354.6491974
0
ARC
8
DEFAULT_255_2_778
10
6.4913672
20
53.8092276
40
0.8026169
50
320.5957645
51
328.3550762
0
LINE
8
DEFAULT_255_2_778
10
6.5135386
20
52.6274363
11
6.5135386
21
52.4255363
0
LINE
8
DEFAULT_255_2_778
10
6.5135386
20
52.4255363
11
7.4546386
21
52.4255363
0
LINE
8
DEFAULT_255_2_778
10
7.4546386
20
52.4255363
11
7.4546386
21
52.6020363
0
LINE
8
DEFAULT_255_2_778
10
7.4546386
20
52.6020363
11
6.7424386
21
52.6020363
0
LINE
8
DEFAULT_255_2_778
10
6.7424386
20
52.6020363
11
7.0413386
21
52.9047363
0
LINE
8
DEFAULT_255_2_778
10
7.0413386
20
52.9047363
11
7.1996386
21
53.0896363
0
LINE
8
DEFAULT_255_2_778
10
7.1996386
20
53.0896363
11
7.3226386
21
53.2830363
0
LINE
8
DEFAULT_255_2_778
10
7.1115386
20
53.2997363
11
6.5135386
21
52.6274363
0
ARC
8
DEFAULT_255_2_778
10
7.4515954
20
53.7456574
40
1.0452
50
333.7291605
51
344.9646002
0
ARC
8
DEFAULT_255_2_778
10
7.7821018
20
53.6569154
40
0.7029871
50
344.9617803
51
359.6033941
0
ARC
8
DEFAULT_255_2_778
10
7.9393002
20
53.6552077
40
0.545781
50
359.6684269
51
25.298233
0
ARC
8
DEFAULT_255_2_778
10
8.1271282
20
53.7379529
40
0.3406508
50
26.2157679
51
88.8256562
0
ARC
8
DEFAULT_255_2_778
10
8.1068938
20
53.5822184
40
0.4970595
50
86.8612659
51
90.0259298
0
ARC
8
DEFAULT_255_2_778
10
8.1107851
20
53.4383706
40
0.6409203
50
90.3679767
51
100.7003811
0
ARC
8
DEFAULT_255_2_778
10
8.1678889
20
53.1250835
40
0.9593647
50
100.5774654
51
107.5415742
0
ARC
8
DEFAULT_255_2_778
10
8.0280655
20
53.6653243
40
0.4031846
50
111.7383534
51
178.2022051
0
ARC
8
DEFAULT_255_2_778
10
8.2561742
20
53.6313659
40
0.6328136
50
175.7762988
51
180.0520116
0
ARC
8
DEFAULT_255_2_778
10
8.3254396
20
53.6308849
40
0.7020788
50
180.007624
51
181.6118673
0
LINE
8
DEFAULT_255_2_778
10
7.6236386
20
53.6111363
11
7.8083386
21
53.6111363
0
ARC
8
DEFAULT_255_2_778
10
8.2113335
20
53.6234715
40
0.4031837
50
158.7779361
51
181.7532072
0
ARC
8
DEFAULT_255_2_778
10
8.0295762
20
53.6861415
40
0.2111957
50
85.9578697
51
156.7772231
0
ARC
8
DEFAULT_255_2_778
10
8.0545939
20
53.4850473
40
0.4118891
50
89.9937933
51
91.4093587
0
ARC
8
DEFAULT_255_2_778
10
8.0687463
20
53.6526475
40
0.2446958
50
49.7759548
51
93.3051837
0
ARC
8
DEFAULT_255_2_778
10
8.0398741
20
53.652943
40
0.2640533
50
6.8621302
51
44.9454544
0
ARC
8
DEFAULT_255_2_778
10
7.7264955
20
53.5899239
40
0.5832579
50
359.5886341
51
9.331026
0
ARC
8
DEFAULT_255_2_778
10
7.8763798
20
53.6263079
40
0.4352538
50
326.8632736
51
354.651491
0
ARC
8
DEFAULT_255_2_778
10
7.5584715
20
53.8091239
40
0.8016618
50
320.5770324
51
328.3426549
0
LINE
8
DEFAULT_255_2_778
10
7.5797386
20
52.6274363
11
7.5797386
21
52.4255363
0
LINE
8
DEFAULT_255_2_778
10
7.5797386
20
52.4255363
11
8.5208386
21
52.4255363
0
LINE
8
DEFAULT_255_2_778
10
8.5208386
20
52.4255363
11
8.5208386
21
52.6020363
0
LINE
8
DEFAULT_255_2_778
10
8.5208386
20
52.6020363
11
7.8086386
21
52.6020363
0
LINE
8
DEFAULT_255_2_778
10
7.8086386
20
52.6020363
11
8.1075386
21
52.9047363
0
LINE
8
DEFAULT_255_2_778
10
8.1075386
20
52.9047363
11
8.2658386
21
53.0896363
0
LINE
8
DEFAULT_255_2_778
10
8.2658386
20
53.0896363
11
8.3888386
21
53.2830363
0
LINE
8
DEFAULT_255_2_778
10
8.1777386
20
53.3000363
11
7.5797386
21
52.6274363
0
ARC
8
DEFAULT_255_2_778
10
8.5017954
20
53.7456574
40
1.0452
50
333.7291605
51
344.9646002
0
ARC
8
DEFAULT_255_2_778
10
8.8323018
20
53.6569154
40
0.7029871
50
344.9617803
51
359.6033941
0
ARC
8
DEFAULT_255_2_778
10
8.9895002
20
53.6552077
40
0.545781
50
359.6684269
51
25.298233
0
ARC
8
DEFAULT_255_2_778
10
9.1773282
20
53.7379529
40
0.3406508
50
26.2157679
51
88.8256562
0
ARC
8
DEFAULT_255_2_778
10
9.1570938
20
53.5822184
40
0.4970595
50
86.8612659
51
90.0259298
0
ARC
8
DEFAULT_255_2_778
10
9.1609851
20
53.4383706
40
0.6409203
50
90.3679767
51
100.7003811
0
ARC
8
DEFAULT_255_2_778
10
9.2180889
20
53.1250835
40
0.9593647
50
100.5774654
51
107.5415742
0
ARC
8
DEFAULT_255_2_778
10
9.0783691
20
53.6652572
40
0.4032853
50
111.7484911
51
178.2155646
0
ARC
8
DEFAULT_255_2_778
10
9.307154
20
53.6311792
40
0.6335934
50
175.7789007
51
180.0520153
0
ARC
8
DEFAULT_255_2_778
10
9.3765484
20
53.6306976
40
0.7029876
50
180.0076282
51
181.6108218
0
LINE
8
DEFAULT_255_2_778
10
8.6738386
20
53.6109363
11
8.8585386
21
53.6109363
0
ARC
8
DEFAULT_255_2_778
10
9.2612668
20
53.6232661
40
0.4029169
50
158.7708346
51
181.753604
0
ARC
8
DEFAULT_255_2_778
10
9.0797614
20
53.6858365
40
0.2112017
50
85.953982
51
156.7632852
0
ARC
8
DEFAULT_255_2_778
10
9.1047939
20
53.4847473
40
0.4118891
50
89.9937932
51
91.4093587
0
ARC
8
DEFAULT_255_2_778
10
9.11895
20
53.6522986
40
0.2447449
50
49.7867961
51
93.3053694
0
ARC
8
DEFAULT_255_2_778
10
9.0901907
20
53.652708
40
0.2639379
50
6.865855
51
44.9561714
0
ARC
8
DEFAULT_255_2_778
10
8.7770678
20
53.5897225
40
0.5828856
50
359.5885097
51
9.3340174
0
ARC
8
DEFAULT_255_2_778
10
8.9262781
20
53.6261537
40
0.4355585
50
326.8744835
51
354.6491974
0
ARC
8
DEFAULT_255_2_778
10
8.6077672
20
53.8092276
40
0.8026169
50
320.5957645
51
328.3550762
0
LINE
8
DEFAULT_255_2_778
10
8.6299386
20
52.6274363
11
8.6299386
21
52.4255363
0
LINE
8
DEFAULT_255_2_778
10
8.6299386
20
52.4255363
11
9.5710386
21
52.4255363
0
LINE
8
DEFAULT_255_2_778
10
9.5710386
20
52.4255363
11
9.5710386
21
52.6020363
0
LINE
8
DEFAULT_255_2_778
10
9.5710386
20
52.6020363
11
8.8588386
21
52.6020363
0
LINE
8
DEFAULT_255_2_778
10
8.8588386
20
52.6020363
11
9.1577386
21
52.9047363
0
LINE
8
DEFAULT_255_2_778
10
9.1577386
20
52.9047363
11
9.3160386
21
53.0896363
0
LINE
8
DEFAULT_255_2_778
10
9.3160386
20
53.0896363
11
9.4390386
21
53.2830363
0
LINE
8
DEFAULT_255_2_778
10
9.2279386
20
53.2997363
11
8.6299386
21
52.6274363
0
ARC
8
DEFAULT_255_2_778
10
12.0521393
20
52.9227593
40
0.2165466
50
2.3458642
51
77.5762694
0
ARC
8
DEFAULT_255_2_778
10
11.9207875
20
52.5432838
40
0.6171595
50
73.2425836
51
88.049295
0
ARC
8
DEFAULT_255_2_778
10
11.8897097
20
52.1170142
40
1.044371
50
87.141313
51
90.0525059
0
ARC
8
DEFAULT_255_2_778
10
11.8908202
20
51.8076008
40
1.3537855
50
90.0875055
51
93.5188704
0
ARC
8
DEFAULT_255_2_778
10
11.9137818
20
51.4145596
40
1.7474954
50
93.4793435
51
95.730201
0
LINE
8
DEFAULT_255_2_778
10
11.7393044
20
53.1533229
11
11.7393044
21
52.6760229
0
ARC
8
DEFAULT_255_2_778
10
11.9444315
20
54.3002444
40
1.6371232
50
262.8020751
51
265.9926659
0
ARC
8
DEFAULT_255_2_778
10
11.9144842
20
53.8672081
40
1.2030528
50
265.9741749
51
269.8924551
0
ARC
8
DEFAULT_255_2_778
10
11.9218226
20
53.3595796
40
0.6954883
50
269.2093945
51
282.1593958
0
ARC
8
DEFAULT_255_2_778
10
12.0118546
20
52.968478
40
0.2942513
50
281.0623509
51
310.0051485
0
ARC
8
DEFAULT_255_2_778
10
12.0528103
20
52.9009236
40
0.2165127
50
313.197236
51
3.1298952
0
ARC
8
DEFAULT_255_2_778
10
11.9023604
20
52.9125612
40
0.3666398
50
0.0287485
51
2.9801605
0
ARC
8
DEFAULT_255_2_778
10
12.0357362
20
53.6440137
40
0.2165516
50
2.3578724
51
77.5975755
0
ARC
8
DEFAULT_255_2_778
10
11.9042221
20
53.2639113
40
0.6178055
50
73.252418
51
88.0506127
0
ARC
8
DEFAULT_255_2_778
10
11.8731226
20
52.8369433
40
1.0457152
50
87.1433736
51
90.0522537
0
ARC
8
DEFAULT_255_2_778
10
11.8742238
20
52.5279238
40
1.3547359
50
90.0869064
51
93.5118259
0
ARC
8
DEFAULT_255_2_778
10
11.8970999
20
52.1353574
40
1.7479668
50
93.4720539
51
95.7193636
0
LINE
8
DEFAULT_255_2_778
10
11.7229044
20
53.8746229
11
11.7229044
21
53.3973229
0
ARC
8
DEFAULT_255_2_778
10
11.9282712
20
55.0211256
40
1.6367379
50
262.7919137
51
265.986208
0
ARC
8
DEFAULT_255_2_778
10
11.8982376
20
54.5875818
40
1.2021553
50
265.9677832
51
269.8921626
0
ARC
8
DEFAULT_255_2_778
10
11.9055662
20
54.080227
40
0.6948644
50
269.209118
51
282.165428
0
ARC
8
DEFAULT_255_2_778
10
11.9955391
20
53.6895627
40
0.2940666
50
281.0692526
51
310.0210645
0
ARC
8
DEFAULT_255_2_778
10
12.0363349
20
53.6222088
40
0.2165886
50
313.2160451
51
3.1311922
0
ARC
8
DEFAULT_255_2_778
10
11.8857303
20
53.6338553
40
0.3668698
50
0.0287581
51
2.9792185
0
ARC
8
DEFAULT_255_2_778
10
11.9514836
20
53.2566044
40
0.8339261
50
274.733794
51
289.0247531
0
ARC
8
DEFAULT_255_2_778
10
12.0957638
20
52.8582617
40
0.4103619
50
288.110331
51
320.3771397
0
ARC
8
DEFAULT_255_2_778
10
12.1018148
20
52.8301886
40
0.3882047
50
322.9999657
51
359.1048104
0
ARC
8
DEFAULT_255_2_778
10
11.9003243
20
52.8527164
40
0.5903407
50
357.2238232
51
0.0231545
0
ARC
8
DEFAULT_255_2_778
10
11.7899584
20
52.8514744
40
0.700708
50
0.1210639
51
5.9728792
0
ARC
8
DEFAULT_255_2_778
10
11.6590617
20
52.839257
40
0.8321667
50
5.8716848
51
7.9131454
0
ARC
8
DEFAULT_255_2_778
10
11.8724086
20
52.8679914
40
0.6168961
50
7.9977629
51
25.7405388
0
ARC
8
DEFAULT_255_2_778
10
12.1770487
20
53.0227352
40
0.275372
50
24.2663464
51
81.2783807
0
ARC
8
DEFAULT_255_2_778
10
11.9764238
20
53.7100599
40
0.4807152
50
300.2788155
51
327.9536149
0
ARC
8
DEFAULT_255_2_778
10
12.047577
20
53.6529443
40
0.3902441
50
329.5186046
51
0.8476085
0
ARC
8
DEFAULT_255_2_778
10
11.9181839
20
53.6577834
40
0.5195954
50
0.1029753
51
7.0018593
0
ARC
8
DEFAULT_255_2_778
10
11.922764
20
53.659919
40
0.5147917
50
6.8280757
51
30.0007116
0
ARC
8
DEFAULT_255_2_778
10
12.07926
20
53.7370057
40
0.3409125
50
31.9323469
51
88.3225092
0
ARC
8
DEFAULT_255_2_778
10
12.0398522
20
53.5144499
40
0.565483
50
84.9895831
51
86.9333245
0
LINE
8
DEFAULT_255_2_778
10
12.0701044
20
54.0791229
11
11.5576044
21
54.0791229
0
LINE
8
DEFAULT_255_2_778
10
12.2685044
20
52.9316229
11
12.2685044
21
52.9316229
0
LINE
8
DEFAULT_255_2_778
10
12.2521044
20
53.6529229
11
12.2521044
21
53.6529229
0
LINE
8
DEFAULT_255_2_778
10
11.5573044
20
54.0791229
11
11.5573044
21
52.4255229
0
LINE
8
DEFAULT_255_2_778
10
11.5573044
20
52.4255229
11
11.8219044
21
52.4255229
0
LINE
8
DEFAULT_255_2_778
10
11.8219044
20
52.4255229
11
12.0203044
21
52.4255229
0
LINE
8
DEFAULT_255_2_778
10
11.5576044
20
54.0791229
11
11.5573044
21
54.0791229
0
ARC
8
DEFAULT_255_2_778
10
5.6466954
20
58.6443574
40
1.0452
50
333.7291605
51
344.9646002
0
ARC
8
DEFAULT_255_2_778
10
5.9772018
20
58.5556154
40
0.7029871
50
344.9617803
51
359.6033941
0
ARC
8
DEFAULT_255_2_778
10
6.1344002
20
58.5539077
40
0.545781
50
359.6684269
51
25.298233
0
ARC
8
DEFAULT_255_2_778
10
6.3222282
20
58.6366529
40
0.3406508
50
26.2157679
51
88.8256562
0
ARC
8
DEFAULT_255_2_778
10
6.3019938
20
58.4809184
40
0.4970595
50
86.8612659
51
90.0259298
0
ARC
8
DEFAULT_255_2_778
10
6.3058851
20
58.3370706
40
0.6409203
50
90.3679767
51
100.7003811
0
ARC
8
DEFAULT_255_2_778
10
6.3629889
20
58.0237835
40
0.9593647
50
100.5774654
51
107.5415742
0
ARC
8
DEFAULT_255_2_778
10
6.2231655
20
58.5640243
40
0.4031846
50
111.7383534
51
178.2022051
0
ARC
8
DEFAULT_255_2_778
10
6.4512742
20
58.5300659
40
0.6328136
50
175.7762988
51
180.0520116
0
ARC
8
DEFAULT_255_2_778
10
6.5205396
20
58.5295849
40
0.7020788
50
180.007624
51
181.6118673
0
LINE
8
DEFAULT_255_2_778
10
5.8187386
20
58.5098363
11
6.0034386
21
58.5098363
0
ARC
8
DEFAULT_255_2_778
10
6.4064335
20
58.5221715
40
0.4031837
50
158.7779361
51
181.7532072
0
ARC
8
DEFAULT_255_2_778
10
6.2246762
20
58.5848415
40
0.2111957
50
85.9578697
51
156.7772231
0
ARC
8
DEFAULT_255_2_778
10
6.2496939
20
58.3837473
40
0.4118891
50
89.9937933
51
91.4093587
0
ARC
8
DEFAULT_255_2_778
10
6.2638463
20
58.5513475
40
0.2446958
50
49.7759548
51
93.3051837
0
ARC
8
DEFAULT_255_2_778
10
6.2349741
20
58.551643
40
0.2640533
50
6.8621302
51
44.9454544
0
ARC
8
DEFAULT_255_2_778
10
5.9215955
20
58.4886239
40
0.5832579
50
359.5886341
51
9.331026
0
ARC
8
DEFAULT_255_2_778
10
6.0714798
20
58.5250079
40
0.4352538
50
326.8632736
51
354.651491
0
ARC
8
DEFAULT_255_2_778
10
5.7535715
20
58.7078239
40
0.8016618
50
320.5770324
51
328.3426549
0
LINE
8
DEFAULT_255_2_778
10
5.7748386
20
57.5261363
11
5.7748386
21
57.3242363
0
LINE
8
DEFAULT_255_2_778
10
5.7748386
20
57.3242363
11
6.7159386
21
57.3242363
0
LINE
8
DEFAULT_255_2_778
10
6.7159386
20
57.3242363
11
6.7159386
21
57.5007363
0
LINE
8
DEFAULT_255_2_778
10
6.7159386
20
57.5007363
11
6.0037386
21
57.5007363
0
LINE
8
DEFAULT_255_2_778
10
6.0037386
20
57.5007363
11
6.3026386
21
57.8034363
0
LINE
8
DEFAULT_255_2_778
10
6.3026386
20
57.8034363
11
6.4609386
21
57.9883363
0
LINE
8
DEFAULT_255_2_778
10
6.4609386
20
57.9883363
11
6.5839386
21
58.1817363
0
LINE
8
DEFAULT_255_2_778
10
6.3728386
20
58.1987363
11
5.7748386
21
57.5261363
0
ARC
8
DEFAULT_255_2_778
10
3.6036108
20
57.8288503
40
0.2142581
50
2.4890596
51
77.4873099
0
ARC
8
DEFAULT_255_2_778
10
3.4733205
20
57.4579191
40
0.6064182
50
73.058176
51
87.5430256
0
ARC
8
DEFAULT_255_2_778
10
3.4397207
20
57.0310623
40
1.0344356
50
86.6972164
51
90.0701047
0
ARC
8
DEFAULT_255_2_778
10
3.4405328
20
56.7006619
40
1.3648367
50
90.0872268
51
93.5003317
0
ARC
8
DEFAULT_255_2_778
10
3.4635852
20
56.3035182
40
1.7626475
50
93.4600926
51
95.698458
0
LINE
8
DEFAULT_255_2_778
10
3.2885667
20
58.0574552
11
3.2885667
21
57.5849552
0
ARC
8
DEFAULT_255_2_778
10
3.4935113
20
59.2243551
40
1.6521606
50
262.8743091
51
266.0332342
0
ARC
8
DEFAULT_255_2_778
10
3.4636244
20
58.7878398
40
1.2146235
50
266.0152219
51
269.8935072
0
ARC
8
DEFAULT_255_2_778
10
3.4709743
20
58.2751143
40
0.7019617
50
269.2157929
51
282.0454505
0
ARC
8
DEFAULT_255_2_778
10
3.5610214
20
57.8797371
40
0.2965501
50
280.9722761
51
309.4019039
0
ARC
8
DEFAULT_255_2_778
10
3.6052928
20
57.8078234
40
0.2131872
50
312.47759
51
3.1276115
0
ARC
8
DEFAULT_255_2_778
10
3.4583762
20
57.8192725
40
0.3597864
50
0.0290393
51
3.0084319
0
ARC
8
DEFAULT_255_2_778
10
3.5871358
20
58.5426729
40
0.2143321
50
2.4821325
51
77.4762251
0
ARC
8
DEFAULT_255_2_778
10
3.4568815
20
58.1719269
40
0.6063073
50
73.0529649
51
87.542274
0
ARC
8
DEFAULT_255_2_778
10
3.423278
20
57.7452044
40
1.034191
50
86.696056
51
90.0701306
0
ARC
8
DEFAULT_255_2_778
10
3.4240885
20
57.4149056
40
1.3644906
50
90.0871878
51
93.5002267
0
ARC
8
DEFAULT_255_2_778
10
3.4471619
20
57.0175906
40
1.7624736
50
93.4603475
51
95.6982606
0
LINE
8
DEFAULT_255_2_778
10
3.2721667
20
58.7713552
11
3.2721667
21
58.2987552
0
ARC
8
DEFAULT_255_2_778
10
3.476872
20
59.9386154
40
1.6525876
50
262.8845206
51
266.0396735
0
ARC
8
DEFAULT_255_2_778
10
3.4470691
20
59.502586
40
1.2155411
50
266.0216235
51
269.8938056
0
ARC
8
DEFAULT_255_2_778
10
3.4544282
20
58.9895959
40
0.7026146
50
269.2161534
51
282.0392101
0
ARC
8
DEFAULT_255_2_778
10
3.5445363
20
58.5937558
40
0.2967381
50
280.9653003
51
309.3860827
0
ARC
8
DEFAULT_255_2_778
10
3.5889663
20
58.5216385
40
0.2131132
50
312.4583989
51
3.1261761
0
ARC
8
DEFAULT_255_2_778
10
3.4421925
20
58.5330783
40
0.3595701
50
0.0290532
51
3.0093205
0
ARC
8
DEFAULT_255_2_778
10
3.5001157
20
58.1797304
40
0.8455323
50
274.7115164
51
288.5995822
0
ARC
8
DEFAULT_255_2_778
10
3.6430241
20
57.7753897
40
0.4167795
50
287.7088625
51
318.5941516
0
ARC
8
DEFAULT_255_2_778
10
3.6592228
20
57.7377386
40
0.3801318
50
321.2367547
51
359.5024516
0
ARC
8
DEFAULT_255_2_778
10
3.4582829
20
57.7601186
40
0.5816247
50
357.4693469
51
0.0191224
0
ARC
8
DEFAULT_255_2_778
10
3.3528995
20
57.7588513
40
0.6870095
50
0.1218852
51
6.0240851
0
ARC
8
DEFAULT_255_2_778
10
3.2243946
20
57.7467551
40
0.8160755
50
5.9218071
51
7.9804568
0
ARC
8
DEFAULT_255_2_778
10
3.4350021
20
57.7752621
40
0.6035506
50
8.076225
51
26.2199
0
ARC
8
DEFAULT_255_2_778
10
3.7274485
20
57.9259954
40
0.2746649
50
24.9649223
51
81.5168366
0
ARC
8
DEFAULT_255_2_778
10
3.5277828
20
58.6133107
40
0.4800602
50
300.0211997
51
327.305667
0
ARC
8
DEFAULT_255_2_778
10
3.6039823
20
58.5521223
40
0.3830215
50
328.8517464
51
0.8501551
0
ARC
8
DEFAULT_255_2_778
10
3.4775409
20
58.5568737
40
0.5094214
50
0.104789
51
7.0905085
0
ARC
8
DEFAULT_255_2_778
10
3.4825926
20
58.5593721
40
0.5041036
50
6.8795856
51
30.5669438
0
ARC
8
DEFAULT_255_2_778
10
3.6300413
20
58.6324586
40
0.3401909
50
32.5975714
51
87.5716085
0
ARC
8
DEFAULT_255_2_778
10
3.5891111
20
58.4098722
40
0.565188
50
84.3804701
51
86.941528
0
LINE
8
DEFAULT_255_2_778
10
3.6192667
20
58.9742552
11
3.1067667
21
58.9742552
0
ARC
8
DEFAULT_255_2_778
10
2.3520738
20
58.5652528
40
0.4746709
50
358.4309118
51
24.3301637
0
ARC
8
DEFAULT_255_2_778
10
2.468662
20
58.6013259
40
0.3539006
50
26.7859919
51
76.3413935
0
ARC
8
DEFAULT_255_2_778
10
2.3419509
20
58.1872055
40
0.7866389
50
74.4954867
51
90.111011
0
ARC
8
DEFAULT_255_2_778
10
2.3242471
20
57.8073407
40
1.1666145
50
89.2053438
51
90.0039464
0
ARC
8
DEFAULT_255_2_778
10
2.3416869
20
58.3872889
40
0.5869278
50
91.7105742
51
113.0934634
0
ARC
8
DEFAULT_255_2_778
10
2.2668618
20
58.5862785
40
0.3746488
50
114.5037899
51
172.8453905
0
ARC
8
DEFAULT_255_2_778
10
2.5027451
20
58.5207024
40
0.6178941
50
169.5343888
51
171.5447897
0
ARC
8
DEFAULT_255_2_778
10
2.53218
20
58.4941459
40
0.6512836
50
169.6142989
51
176.3757734
0
ARC
8
DEFAULT_255_2_778
10
2.4225826
20
58.5021973
40
0.5413976
50
176.4929619
51
179.968332
0
ARC
8
DEFAULT_255_2_778
10
2.2489531
20
58.4899341
40
0.3679825
50
178.0436261
51
243.9727164
0
ARC
8
DEFAULT_255_2_778
10
2.4426887
20
58.8305415
40
0.7594576
50
242.1142492
51
257.2874361
0
ARC
8
DEFAULT_255_2_778
10
2.5331889
20
59.1619336
40
1.1027485
50
256.4895772
51
257.7104604
0
ARC
8
DEFAULT_255_2_778
10
2.1510217
20
57.3311697
40
0.76758
50
64.9653185
51
78.9251744
0
ARC
8
DEFAULT_255_2_778
10
2.335081
20
57.7093606
40
0.3470969
50
33.7330017
51
66.0762287
0
ARC
8
DEFAULT_255_2_778
10
2.3812031
20
57.753889
40
0.2842418
50
358.8558055
51
31.4306818
0
ARC
8
DEFAULT_255_2_778
10
2.2519938
20
57.749469
40
0.4133963
50
351.6106956
51
359.8259264
0
ARC
8
DEFAULT_255_2_778
10
2.4052494
20
57.7786846
40
0.270937
50
271.6633373
51
340.7042878
0
ARC
8
DEFAULT_255_2_778
10
2.3535734
20
58.0421286
40
0.5375744
50
271.5662385
51
276.3589822
0
ARC
8
DEFAULT_255_2_778
10
2.35591
20
57.9420708
40
0.4374901
50
248.73626
51
271.6185128
0
ARC
8
DEFAULT_255_2_778
10
2.2958424
20
57.7638697
40
0.2497864
50
180.6427181
51
246.7520986
0
ARC
8
DEFAULT_255_2_778
10
2.5466632
20
57.8070327
40
0.5026974
50
179.8948608
51
185.2462607
0
LINE
8
DEFAULT_255_2_778
10
2.0439667
20
57.8079552
11
1.8658667
21
57.8079552
0
ARC
8
DEFAULT_255_2_778
10
2.4847842
20
57.8300209
40
0.6193107
50
182.0418532
51
204.0135077
0
ARC
8
DEFAULT_255_2_778
10
2.3079431
20
57.7638789
40
0.4310134
50
205.5488543
51
258.0382885
0
ARC
8
DEFAULT_255_2_778
10
2.4127492
20
58.1008466
40
0.7830689
50
255.6456388
51
265.3499952
0
ARC
8
DEFAULT_255_2_778
10
2.36213
20
57.9862021
40
0.6659711
50
268.8932604
51
288.4962768
0
ARC
8
DEFAULT_255_2_778
10
2.4386699
20
57.7383738
40
0.4067075
50
289.3465833
51
350.4467337
0
ARC
8
DEFAULT_255_2_778
10
2.0616809
20
57.8446788
40
0.7972321
50
347.407865
51
357.3597984
0
ARC
8
DEFAULT_255_2_778
10
2.4027308
20
57.8221248
40
0.4555563
50
358.2175921
51
30.5364345
0
ARC
8
DEFAULT_255_2_778
10
2.4338604
20
57.8168593
40
0.4318993
50
33.2372892
51
69.9162699
0
ARC
8
DEFAULT_255_2_778
10
2.3040339
20
57.5280205
40
0.7481019
50
68.1738668
51
76.6659845
0
ARC
8
DEFAULT_255_2_778
10
2.686032
20
59.3788339
40
1.1422488
50
249.9905219
51
259.433319
0
ARC
8
DEFAULT_255_2_778
10
2.465107
20
58.7881053
40
0.511613
50
232.4172447
51
250.6015663
0
ARC
8
DEFAULT_255_2_778
10
2.284668
20
58.5623198
40
0.2226959
50
180.2224386
51
233.7771364
0
ARC
8
DEFAULT_255_2_778
10
2.3409136
20
58.5599766
40
0.2789438
50
167.4380456
51
179.6962826
0
ARC
8
DEFAULT_255_2_778
10
2.3942309
20
58.5499478
40
0.333171
50
167.0246801
51
167.748889
0
ARC
8
DEFAULT_255_2_778
10
2.3303306
20
58.4913055
40
0.2929277
50
86.8305802
51
152.8982463
0
ARC
8
DEFAULT_255_2_778
10
2.3559703
20
58.2735868
40
0.5102859
50
89.9951236
51
91.0604618
0
ARC
8
DEFAULT_255_2_778
10
2.3556482
20
58.2248637
40
0.5590091
50
86.7164585
51
89.9625362
0
ARC
8
DEFAULT_255_2_778
10
2.3641968
20
58.4785462
40
0.3053124
50
48.8833992
51
85.5912223
0
ARC
8
DEFAULT_255_2_778
10
2.3761734
20
58.5164475
40
0.2693527
50
9.0585022
51
45.4990567
0
LINE
8
DEFAULT_255_2_778
10
5.2726667
20
58.9739552
11
5.4049667
21
58.9739552
0
LINE
8
DEFAULT_255_2_778
10
5.4049667
20
58.9739552
11
5.4049667
21
57.3203552
0
LINE
8
DEFAULT_255_2_778
10
5.4049667
20
57.3203552
11
5.2395667
21
57.3203552
0
LINE
8
DEFAULT_255_2_778
10
5.2395667
20
57.3203552
11
5.2395667
21
58.7329552
0
LINE
8
DEFAULT_255_2_778
10
5.2395667
20
58.7329552
11
4.9749667
21
58.4919552
0
LINE
8
DEFAULT_255_2_778
10
4.9749667
20
58.4919552
11
4.9749667
21
58.7329552
0
LINE
8
DEFAULT_255_2_778
10
4.9749667
20
58.7329552
11
5.2726667
21
58.9739552
0
LINE
8
DEFAULT_255_2_778
10
3.8176667
20
57.8381552
11
3.8176667
21
57.8381552
0
LINE
8
DEFAULT_255_2_778
10
3.8012667
20
58.5519552
11
3.8012667
21
58.5519552
0
LINE
8
DEFAULT_255_2_778
10
3.1064667
20
58.9739552
11
3.1064667
21
57.3370552
0
LINE
8
DEFAULT_255_2_778
10
3.1064667
20
57.3370552
11
3.3710667
21
57.3370552
0
LINE
8
DEFAULT_255_2_778
10
3.3710667
20
57.3370552
11
3.5695667
21
57.3370552
0
LINE
8
DEFAULT_255_2_778
10
3.1067667
20
58.9742552
11
3.1064667
21
58.9739552
0
LINE
8
DEFAULT_255_2_778
10
2.6421667
20
58.5522552
11
2.8265667
21
58.5522552
0
ARC
8
DEFAULT_255_2_778
10
6.7128954
20
58.6443574
40
1.0452
50
333.7291605
51
344.9646002
0
ARC
8
DEFAULT_255_2_778
10
7.0434018
20
58.5556154
40
0.7029871
50
344.9617803
51
359.6033941
0
ARC
8
DEFAULT_255_2_778
10
7.2006002
20
58.5539077
40
0.545781
50
359.6684269
51
25.298233
0
ARC
8
DEFAULT_255_2_778
10
7.3884282
20
58.6366529
40
0.3406508
50
26.2157679
51
88.8256562
0
ARC
8
DEFAULT_255_2_778
10
7.3681938
20
58.4809184
40
0.4970595
50
86.8612659
51
90.0259298
0
ARC
8
DEFAULT_255_2_778
10
7.3720851
20
58.3370706
40
0.6409203
50
90.3679767
51
100.7003811
0
ARC
8
DEFAULT_255_2_778
10
7.4291889
20
58.0237835
40
0.9593647
50
100.5774654
51
107.5415742
0
ARC
8
DEFAULT_255_2_778
10
7.2893655
20
58.5640243
40
0.4031846
50
111.7383534
51
178.2022051
0
ARC
8
DEFAULT_255_2_778
10
7.5174742
20
58.5300659
40
0.6328136
50
175.7762988
51
180.0520116
0
ARC
8
DEFAULT_255_2_778
10
7.5867396
20
58.5295849
40
0.7020788
50
180.007624
51
181.6118673
0
LINE
8
DEFAULT_255_2_778
10
6.8849386
20
58.5098363
11
7.0696386
21
58.5098363
0
ARC
8
DEFAULT_255_2_778
10
7.4726335
20
58.5221715
40
0.4031837
50
158.7779361
51
181.7532072
0
ARC
8
DEFAULT_255_2_778
10
7.2908762
20
58.5848415
40
0.2111957
50
85.9578697
51
156.7772231
0
ARC
8
DEFAULT_255_2_778
10
7.3158939
20
58.3837473
40
0.4118891
50
89.9937933
51
91.4093587
0
ARC
8
DEFAULT_255_2_778
10
7.3300463
20
58.5513475
40
0.2446958
50
49.7759548
51
93.3051837
0
ARC
8
DEFAULT_255_2_778
10
7.3011741
20
58.551643
40
0.2640533
50
6.8621302
51
44.9454544
0
ARC
8
DEFAULT_255_2_778
10
6.9877955
20
58.4886239
40
0.5832579
50
359.5886341
51
9.331026
0
ARC
8
DEFAULT_255_2_778
10
7.1376798
20
58.5250079
40
0.4352538
50
326.8632736
51
354.651491
0
ARC
8
DEFAULT_255_2_778
10
6.8197715
20
58.7078239
40
0.8016618
50
320.5770324
51
328.3426549
0
LINE
8
DEFAULT_255_2_778
10
6.8410386
20
57.5261363
11
6.8410386
21
57.3242363
0
LINE
8
DEFAULT_255_2_778
10
6.8410386
20
57.3242363
11
7.7821386
21
57.3242363
0
LINE
8
DEFAULT_255_2_778
10
7.7821386
20
57.3242363
11
7.7821386
21
57.5007363
0
LINE
8
DEFAULT_255_2_778
10
7.7821386
20
57.5007363
11
7.0699386
21
57.5007363
0
LINE
8
DEFAULT_255_2_778
10
7.0699386
20
57.5007363
11
7.3688386
21
57.8034363
0
LINE
8
DEFAULT_255_2_778
10
7.3688386
20
57.8034363
11
7.5271386
21
57.9883363
0
LINE
8
DEFAULT_255_2_778
10
7.5271386
20
57.9883363
11
7.6501386
21
58.1817363
0
LINE
8
DEFAULT_255_2_778
10
7.4390386
20
58.1987363
11
6.8410386
21
57.5261363
0
ARC
8
DEFAULT_255_2_778
10
7.7624387
20
58.6445325
40
1.0455973
50
333.7292069
51
344.9641188
0
ARC
8
DEFAULT_255_2_778
10
8.0931401
20
58.5557352
40
0.7031819
50
344.9612955
51
359.6033106
0
ARC
8
DEFAULT_255_2_778
10
8.2504344
20
58.5540273
40
0.5458799
50
359.6682598
51
25.2794455
0
ARC
8
DEFAULT_255_2_778
10
8.4384099
20
58.6366226
40
0.3406806
50
26.2189773
51
88.8296732
0
ARC
8
DEFAULT_255_2_778
10
8.4181466
20
58.4807119
40
0.4972661
50
86.8619137
51
90.025922
0
ARC
8
DEFAULT_255_2_778
10
8.4220392
20
58.3367835
40
0.6412075
50
90.3679379
51
100.6979872
0
ARC
8
DEFAULT_255_2_778
10
8.4791605
20
58.0233283
40
0.9598204
50
100.575083
51
107.537457
0
ARC
8
DEFAULT_255_2_778
10
8.3391737
20
58.5641856
40
0.4030007
50
111.7347269
51
178.1974998
0
ARC
8
DEFAULT_255_2_778
10
8.5668767
20
58.5302845
40
0.6322224
50
175.7750646
51
180.0522606
0
ARC
8
DEFAULT_255_2_778
10
8.6371998
20
58.5298108
40
0.7025453
50
180.0083931
51
181.6292268
0
LINE
8
DEFAULT_255_2_778
10
7.9349386
20
58.5098363
11
8.1195386
21
58.5098363
0
ARC
8
DEFAULT_255_2_778
10
8.5223862
20
58.5221712
40
0.4030365
50
158.769744
51
181.7538001
0
ARC
8
DEFAULT_255_2_778
10
8.3408489
20
58.5847501
40
0.2112884
50
85.9533618
51
156.7610544
0
ARC
8
DEFAULT_255_2_778
10
8.3658938
20
58.3834244
40
0.412212
50
89.9937773
51
91.4088082
0
ARC
8
DEFAULT_255_2_778
10
8.3801852
20
58.5521807
40
0.2438722
50
49.3695197
51
93.3490327
0
ARC
8
DEFAULT_255_2_778
10
8.3498748
20
58.5511499
40
0.2653334
50
6.8195719
51
44.541439
0
ARC
8
DEFAULT_255_2_778
10
8.0365319
20
58.4885749
40
0.5844213
50
359.5942609
51
9.2639214
0
ARC
8
DEFAULT_255_2_778
10
8.1875798
20
58.5250079
40
0.4352538
50
326.8632736
51
354.651491
0
ARC
8
DEFAULT_255_2_778
10
7.8696715
20
58.7078239
40
0.8016618
50
320.5770324
51
328.3426549
0
LINE
8
DEFAULT_255_2_778
10
7.8912386
20
57.5261363
11
7.8912386
21
57.3242363
0
LINE
8
DEFAULT_255_2_778
10
7.8912386
20
57.3242363
11
8.8323386
21
57.3242363
0
LINE
8
DEFAULT_255_2_778
10
8.8323386
20
57.3242363
11
8.8323386
21
57.5007363
0
LINE
8
DEFAULT_255_2_778
10
8.8323386
20
57.5007363
11
8.1198386
21
57.5007363
0
LINE
8
DEFAULT_255_2_778
10
8.1198386
20
57.5007363
11
8.4188386
21
57.8034363
0
LINE
8
DEFAULT_255_2_778
10
8.4188386
20
57.8034363
11
8.5770386
21
57.9883363
0
LINE
8
DEFAULT_255_2_778
10
8.5770386
20
57.9883363
11
8.7000386
21
58.1817363
0
LINE
8
DEFAULT_255_2_778
10
8.4889386
20
58.1987363
11
7.8912386
21
57.5261363
0
LINE
8
DEFAULT_255_2_778
10
11.3683391
20
58.528898
11
11.5231391
21
58.528898
0
ARC
8
DEFAULT_255_2_778
10
10.9139717
20
58.5180389
40
0.6092642
50
1.0212536
51
21.239404
0
ARC
8
DEFAULT_255_2_778
10
11.1414641
20
58.5993194
40
0.3678394
50
22.2757817
51
84.320363
0
ARC
8
DEFAULT_255_2_778
10
11.0672821
20
58.2757489
40
0.6984147
50
80.8895541
51
88.4200097
0
ARC
8
DEFAULT_255_2_778
10
11.0810018
20
58.555588
40
0.4183466
50
89.2415964
51
153.7630244
0
ARC
8
DEFAULT_255_2_778
10
11.4193646
20
58.3365836
40
0.8200075
50
150.4872992
51
159.7503086
0
ARC
8
DEFAULT_255_2_778
10
11.5580067
20
58.2656319
40
0.9748149
50
158.6581467
51
171.8907983
0
ARC
8
DEFAULT_255_2_778
10
12.4541089
20
58.1273185
40
1.8814969
50
171.5702551
51
179.3337061
0
ARC
8
DEFAULT_255_2_778
10
13.2340391
20
58.2339107
40
2.6626479
50
181.8231853
51
187.1128645
0
ARC
8
DEFAULT_255_2_778
10
11.8819003
20
58.0598596
40
1.299374
50
186.8798638
51
195.7299782
0
ARC
8
DEFAULT_255_2_778
10
11.1422741
20
57.8450434
40
0.5292464
50
195.0527371
51
212.5648319
0
ARC
8
DEFAULT_255_2_778
10
10.9416874
20
57.726158
40
0.2963066
50
214.0678282
51
218.8230851
0
ARC
8
DEFAULT_255_2_778
10
11.2733975
20
57.9478168
40
0.6945948
50
215.9129917
51
231.7177668
0
ARC
8
DEFAULT_255_2_778
10
11.0747381
20
57.6875937
40
0.3672893
50
230.8946822
51
269.1842714
0
ARC
8
DEFAULT_255_2_778
10
11.0672973
20
57.7018514
40
0.381516
50
270.3321692
51
287.2510103
0
ARC
8
DEFAULT_255_2_778
10
10.9977622
20
57.9262191
40
0.6164117
50
287.2388269
51
308.0275057
0
ARC
8
DEFAULT_255_2_778
10
11.1298442
20
57.7470332
40
0.3939475
50
308.9500299
51
2.2907598
0
ARC
8
DEFAULT_255_2_778
10
10.9416108
20
57.7626796
40
0.581866
50
0.0098376
51
1.9518792
0
LINE
8
DEFAULT_255_2_778
10
11.5231391
20
57.782498
11
11.3627391
21
57.782498
0
ARC
8
DEFAULT_255_2_778
10
11.0673143
20
57.7753872
40
0.2955104
50
327.4515723
51
1.3788253
0
ARC
8
DEFAULT_255_2_778
10
11.1210326
20
57.7633934
40
0.2444996
50
275.4544727
51
323.0437554
0
ARC
8
DEFAULT_255_2_778
10
11.0671335
20
58.0291769
40
0.5149863
50
269.6891002
51
278.6147726
0
ARC
8
DEFAULT_255_2_778
10
11.1237654
20
57.8439126
40
0.3350271
50
201.1031127
51
259.7829576
0
ARC
8
DEFAULT_255_2_778
10
11.5009214
20
58.0234834
40
0.7522124
50
188.6026966
51
203.5209696
0
ARC
8
DEFAULT_255_2_778
10
12.1887531
20
58.1374332
40
1.4493833
50
180.5701854
51
188.9893419
0
ARC
8
DEFAULT_255_2_778
10
12.7598854
20
58.1567326
40
2.0207252
50
179.9939633
51
180.9562238
0
ARC
8
DEFAULT_255_2_778
10
13.01775
20
58.1559578
40
2.2785901
50
178.1444471
51
179.9751639
0
ARC
8
DEFAULT_255_2_778
10
13.4079414
20
58.1434298
40
2.6689824
50
176.49934
51
178.1468718
0
ARC
8
DEFAULT_255_2_778
10
11.7467728
20
58.2275171
40
1.0059312
50
163.3238685
51
175.5024878
0
ARC
8
DEFAULT_255_2_778
10
11.2253396
20
58.3906498
40
0.4596636
50
138.8614657
51
164.1516103
0
ARC
8
DEFAULT_255_2_778
10
11.0979743
20
58.4929395
40
0.2965246
50
100.8141751
51
137.5561664
0
ARC
8
DEFAULT_255_2_778
10
11.1265113
20
58.3330497
40
0.4589333
50
92.6058391
51
100.5683502
0
ARC
8
DEFAULT_255_2_778
10
11.1208203
20
58.4257268
40
0.3660962
50
90.0168057
51
92.3755327
0
ARC
8
DEFAULT_255_2_778
10
11.1335246
20
58.5723071
40
0.2198894
50
15.1400103
51
93.3401683
0
ARC
8
DEFAULT_255_2_778
10
10.8785431
20
58.4722755
40
0.493058
50
6.594369
51
18.6241128
0
LINE
8
DEFAULT_255_2_778
10
11.3683391
20
58.528898
11
11.3683391
21
58.528898
0
LINE
8
DEFAULT_255_2_778
10
9.8279708
20
57.3671396
11
9.9514708
21
57.3835396
0
LINE
8
DEFAULT_255_2_778
10
9.9514708
20
57.3835396
11
10.0364708
21
57.4144396
0
LINE
8
DEFAULT_255_2_778
10
10.0364708
20
57.4144396
11
10.1123708
21
57.4644396
0
LINE
8
DEFAULT_255_2_778
10
10.1123708
20
57.4644396
11
10.1734708
21
57.5290396
0
LINE
8
DEFAULT_255_2_778
10
10.1734708
20
57.5290396
11
10.2152708
21
57.5909396
0
LINE
8
DEFAULT_255_2_778
10
10.2152708
20
57.5909396
11
10.2502708
21
57.6594396
0
LINE
8
DEFAULT_255_2_778
10
10.2502708
20
57.6594396
11
10.2718708
21
57.7137396
0
LINE
8
DEFAULT_255_2_778
10
10.2718708
20
57.7137396
11
10.2880708
21
57.7650396
0
LINE
8
DEFAULT_255_2_778
10
10.2880708
20
57.7650396
11
10.3010708
21
57.8174396
0
LINE
8
DEFAULT_255_2_778
10
10.3010708
20
57.8174396
11
10.3110708
21
57.8708396
0
LINE
8
DEFAULT_255_2_778
10
10.3110708
20
57.8708396
11
10.3150708
21
57.8978396
0
LINE
8
DEFAULT_255_2_778
10
10.3150708
20
57.8978396
11
10.3184708
21
57.9251396
0
LINE
8
DEFAULT_255_2_778
10
10.3184708
20
57.9251396
11
10.3213708
21
57.9526396
0
LINE
8
DEFAULT_255_2_778
10
10.3213708
20
57.9526396
11
10.3237708
21
57.9801396
0
LINE
8
DEFAULT_255_2_778
10
10.3237708
20
57.9801396
11
10.3256708
21
58.0076396
0
LINE
8
DEFAULT_255_2_778
10
10.3256708
20
58.0076396
11
10.3256708
21
58.2947396
0
LINE
8
DEFAULT_255_2_778
10
10.3256708
20
58.2947396
11
10.3234708
21
58.3240396
0
LINE
8
DEFAULT_255_2_778
10
10.3234708
20
58.3240396
11
10.3208708
21
58.3532396
0
LINE
8
DEFAULT_255_2_778
10
10.3208708
20
58.3532396
11
10.3176708
21
58.3823396
0
LINE
8
DEFAULT_255_2_778
10
10.3176708
20
58.3823396
11
10.3139708
21
58.4111396
0
LINE
8
DEFAULT_255_2_778
10
10.3139708
20
58.4111396
11
10.3097708
21
58.4397396
0
LINE
8
DEFAULT_255_2_778
10
10.3097708
20
58.4397396
11
10.2991708
21
58.4963396
0
LINE
8
DEFAULT_255_2_778
10
10.2991708
20
58.4963396
11
10.2853708
21
58.5519396
0
LINE
8
DEFAULT_255_2_778
10
10.2853708
20
58.5519396
11
10.2681708
21
58.6064396
0
LINE
8
DEFAULT_255_2_778
10
10.2681708
20
58.6064396
11
10.2388708
21
58.6783396
0
LINE
8
DEFAULT_255_2_778
10
10.2388708
20
58.6783396
11
10.2025708
21
58.7458396
0
LINE
8
DEFAULT_255_2_778
10
10.2025708
20
58.7458396
11
10.1486708
21
58.8209396
0
LINE
8
DEFAULT_255_2_778
10
10.1486708
20
58.8209396
11
10.0853708
21
58.8818396
0
LINE
8
DEFAULT_255_2_778
10
10.0853708
20
58.8818396
11
10.0067708
21
58.9292396
0
LINE
8
DEFAULT_255_2_778
10
10.0067708
20
58.9292396
11
9.8863708
21
58.9651396
0
LINE
8
DEFAULT_255_2_778
10
9.8863708
20
58.9651396
11
9.7808708
21
58.9736396
0
LINE
8
DEFAULT_255_2_778
10
9.7808708
20
58.9736396
11
9.4355708
21
58.9736396
0
LINE
8
DEFAULT_255_2_778
10
9.4355708
20
58.9736396
11
9.4355708
21
57.3665396
0
LINE
8
DEFAULT_255_2_778
10
9.4355708
20
57.3665396
11
9.8101708
21
57.3665396
0
LINE
8
DEFAULT_255_2_778
10
9.7808708
20
58.7913396
11
9.5845708
21
58.7913396
0
LINE
8
DEFAULT_255_2_778
10
9.5845708
20
58.7913396
11
9.5845708
21
57.5486396
0
LINE
8
DEFAULT_255_2_778
10
9.5845708
20
57.5486396
11
9.8723708
21
57.5528396
0
LINE
8
DEFAULT_255_2_778
10
9.8723708
20
57.5528396
11
9.9670708
21
57.5816396
0
LINE
8
DEFAULT_255_2_778
10
9.9670708
20
57.5816396
11
10.0300708
21
57.6242396
0
LINE
8
DEFAULT_255_2_778
10
10.0300708
20
57.6242396
11
10.0811708
21
57.6840396
0
LINE
8
DEFAULT_255_2_778
10
10.0811708
20
57.6840396
11
10.1089708
21
57.7330396
0
LINE
8
DEFAULT_255_2_778
10
10.1089708
20
57.7330396
11
10.1319708
21
57.7912396
0
LINE
8
DEFAULT_255_2_778
10
10.1319708
20
57.7912396
11
10.1454708
21
57.8370396
0
LINE
8
DEFAULT_255_2_778
10
10.1454708
20
57.8370396
11
10.1552708
21
57.8798396
0
LINE
8
DEFAULT_255_2_778
10
10.1552708
20
57.8798396
11
10.1628708
21
57.9235396
0
LINE
8
DEFAULT_255_2_778
10
10.1628708
20
57.9235396
11
10.1689708
21
57.9674396
0
LINE
8
DEFAULT_255_2_778
10
10.1689708
20
57.9674396
11
10.1713708
21
57.9894396
0
LINE
8
DEFAULT_255_2_778
10
10.1713708
20
57.9894396
11
10.1742708
21
58.0206396
0
LINE
8
DEFAULT_255_2_778
10
10.1742708
20
58.0206396
11
10.1740708
21
58.3293396
0
LINE
8
DEFAULT_255_2_778
10
10.1740708
20
58.3293396
11
10.1692708
21
58.3725396
0
LINE
8
DEFAULT_255_2_778
10
10.1692708
20
58.3725396
11
10.1623708
21
58.4151396
0
LINE
8
DEFAULT_255_2_778
10
10.1623708
20
58.4151396
11
10.1536708
21
58.4569396
0
LINE
8
DEFAULT_255_2_778
10
10.1536708
20
58.4569396
11
10.1425708
21
58.4981396
0
LINE
8
DEFAULT_255_2_778
10
10.1425708
20
58.4981396
11
10.1194708
21
58.5611396
0
LINE
8
DEFAULT_255_2_778
10
10.1194708
20
58.5611396
11
10.0851708
21
58.6278396
0
LINE
8
DEFAULT_255_2_778
10
10.0851708
20
58.6278396
11
10.0425708
21
58.6855396
0
LINE
8
DEFAULT_255_2_778
10
10.0425708
20
58.6855396
11
9.9808708
21
58.7389396
0
LINE
8
DEFAULT_255_2_778
10
9.9808708
20
58.7389396
11
9.8837708
21
58.7797396
0
LINE
8
DEFAULT_255_2_778
10
9.8837708
20
58.7797396
11
9.7937708
21
58.7913396
0
ENDSEC
0
EOF