0
SECTION
2
HEADER
9
$MEASUREMENT
70
1
0
ENDSEC
0
SECTION
2
TABLES
0
TABLE
2
LTYPE
0
LTYPE
72
65
70
64
2
CONTINUOUS
3
______
73
0
40
0
0
ENDTAB
0
TABLE
2
LAYER
0
LAYER
2
DEFAULT_255_2_778
70
0
62
255
6
CONTINUOUS
0
ENDTAB
0
ENDSEC
0
SECTION
2
ENTITIES
0
ARC
8
DEFAULT_255_2_778
10
69.6423311
20
2.9701884
40
1.2704564
50
94.3577247
51
97.9636838
0
ARC
8
DEFAULT_255_2_778
10
69.6207874
20
3.2556687
40
0.9841645
50
90.0946586
51
94.3699718
0
ARC
8
DEFAULT_255_2_778
10
69.6289915
20
3.6375189
40
0.6023931
50
74.3869936
51
90.9350068
0
ARC
8
DEFAULT_255_2_778
10
69.7153094
20
3.9255417
40
0.3018187
50
6.9237811
51
75.4529593
0
ARC
8
DEFAULT_255_2_778
10
69.4510699
20
3.865622
40
0.5720221
50
359.6619431
51
9.6922766
0
ARC
8
DEFAULT_255_2_778
10
69.2434814
20
3.8631167
40
0.7796011
50
356.1481167
51
359.9360762
0
ARC
8
DEFAULT_255_2_778
10
69.1409865
20
3.8691322
40
0.8822691
50
355.4011387
51
356.2054876
0
ARC
8
DEFAULT_255_2_778
10
70.4570797
20
0.4299153
40
0.8173504
50
178.0243923
51
179.9831898
0
ARC
8
DEFAULT_255_2_778
10
70.1689871
20
0.4193576
40
0.5293678
50
178.8312581
51
198.5373336
0
ARC
8
DEFAULT_255_2_778
10
69.9592063
20
0.3537503
40
0.3096456
50
199.3682968
51
263.4541352
0
ARC
8
DEFAULT_255_2_778
10
70.0347727
20
0.6781082
40
0.6416353
50
260.0501672
51
270.3859752
0
ARC
8
DEFAULT_255_2_778
10
70.0374451
20
0.9608738
40
0.9243877
50
270.102265
51
274.6563132
0
ARC
8
DEFAULT_255_2_778
10
70.0210893
20
1.177449
40
1.1415767
50
274.5920981
51
277.0456467
0
ARC
8
DEFAULT_255_2_778
10
-1067.5479535
20
116.6923373
40
1144.7641373
50
354.1898619
51
354.2959059
0
ARC
8
DEFAULT_255_2_778
10
-989.3669207
20
108.8825834
40
1066.194002
50
354.2959384
51
354.4019122
0
ARC
8
DEFAULT_255_2_778
10
-918.1492727
20
101.9013242
40
994.6349959
50
354.4019528
51
354.5077453
0
ARC
8
DEFAULT_255_2_778
10
-847.9625632
20
95.1554906
40
924.1248515
50
354.5075724
51
354.631128
0
ARC
8
DEFAULT_255_2_778
10
-777.4134146
20
88.526423
40
853.2649413
50
354.631053
51
354.7630309
0
ARC
8
DEFAULT_255_2_778
10
-710.106903
20
82.358074
40
785.6763694
50
354.7629718
51
354.9024511
0
ARC
8
DEFAULT_255_2_778
10
-648.3695209
20
76.8500516
40
723.6937698
50
354.9025118
51
355.0412108
0
ARC
8
DEFAULT_255_2_778
10
-593.3495894
20
72.0755079
40
668.4670632
50
355.0412789
51
355.1783756
0
ARC
8
DEFAULT_255_2_778
10
-544.2619239
20
67.934252
40
619.20502
50
355.1784301
51
355.3136961
0
ARC
8
DEFAULT_255_2_778
10
-500.5990795
20
64.3546177
40
575.3956859
50
355.3137361
51
355.4469054
0
ARC
8
DEFAULT_255_2_778
10
-461.6257191
20
61.2505119
40
536.2989047
50
355.446958
51
355.5777966
0
ARC
8
DEFAULT_255_2_778
10
-426.7721046
20
58.5546605
40
501.3411868
50
355.5778451
51
355.7061368
0
ARC
8
DEFAULT_255_2_778
10
-387.95081
20
55.6461721
40
462.4110932
50
355.7053562
51
355.8957688
0
ARC
8
DEFAULT_255_2_778
10
-347.2448913
20
52.7239965
40
421.6004214
50
355.8959474
51
356.0794714
0
ARC
8
DEFAULT_255_2_778
10
-308.5247644
20
50.0739075
40
382.7897118
50
356.0789454
51
356.3006619
0
ARC
8
DEFAULT_255_2_778
10
-271.1080652
20
47.6542306
40
345.2948561
50
356.3007416
51
356.5243826
0
ARC
8
DEFAULT_255_2_778
10
-239.2994216
20
45.7204376
40
313.4274846
50
356.5247256
51
356.7334616
0
ARC
8
DEFAULT_255_2_778
10
-213.1789565
20
44.2281688
40
287.2644276
50
356.7337558
51
356.9273182
0
ARC
8
DEFAULT_255_2_778
10
-186.6009959
20
42.8066696
40
260.6484809
50
356.9261762
51
357.19725
0
ARC
8
DEFAULT_255_2_778
10
-157.498702
20
41.3846829
40
231.5114675
50
357.1965694
51
357.5119056
0
ARC
8
DEFAULT_255_2_778
10
-133.0218132
20
40.3164799
40
207.0112813
50
357.5131816
51
357.7706524
0
ARC
8
DEFAULT_255_2_778
10
-110.3396182
20
39.4394479
40
184.3121378
50
357.7687994
51
358.1339576
0
ARC
8
DEFAULT_255_2_778
10
-87.1346288
20
38.6837474
40
161.0948467
50
358.1338437
51
358.5190233
0
ARC
8
DEFAULT_255_2_778
10
-73.1503735
20
38.3121349
40
147.1056588
50
358.5229433
51
358.659324
0
ARC
8
DEFAULT_255_2_778
10
71.3377155
20
38.7587397
40
4.6650288
50
303.5367961
51
310.5381625
0
ARC
8
DEFAULT_255_2_778
10
72.0549654
20
37.9247385
40
3.5650318
50
310.4894975
51
319.9149782
0
ARC
8
DEFAULT_255_2_778
10
72.6701636
20
37.4127475
40
2.7646705
50
319.8233437
51
334.6655429
0
ARC
8
DEFAULT_255_2_778
10
72.9134326
20
37.2859828
40
2.4905771
50
334.9065891
51
338.9569405
0
ARC
8
DEFAULT_255_2_778
10
71.6951417
20
36.8771277
40
3.5758763
50
352.1978502
51
356.7228075
0
ARC
8
DEFAULT_255_2_778
10
71.9370926
20
36.8621474
40
3.3334647
50
356.7421315
51
359.986241
0
ARC
8
DEFAULT_255_2_778
10
72.2944486
20
36.8751632
40
2.9761407
50
359.7340122
51
32.0833898
0
ARC
8
DEFAULT_255_2_778
10
71.7309918
20
36.5358942
40
3.6337669
50
31.8969011
51
41.9200731
0
ARC
8
DEFAULT_255_2_778
10
71.3825816
20
36.2400801
40
4.0906621
50
41.742724
51
41.8893738
0
ARC
8
DEFAULT_255_2_778
10
78.1577303
20
115.2952959
40
56.1513197
50
265.4559508
51
266.0391781
0
ARC
8
DEFAULT_255_2_778
10
77.1453077
20
102.5474278
40
43.3633121
50
264.8487294
51
265.4550047
0
ARC
8
DEFAULT_255_2_778
10
76.29855
20
93.1473777
40
33.9252011
50
264.2228627
51
264.84763
0
ARC
8
DEFAULT_255_2_778
10
75.4327725
20
84.6542453
40
25.388058
50
263.2424291
51
264.2374582
0
ARC
8
DEFAULT_255_2_778
10
74.5089723
20
76.8856872
40
17.5647667
50
261.961119
51
263.2530858
0
ARC
8
DEFAULT_255_2_778
10
73.7329026
20
71.382954
40
12.0075772
50
260.5963472
51
261.9559348
0
ARC
8
DEFAULT_255_2_778
10
73.064656
20
67.3743198
40
7.9436293
50
258.6123798
51
260.6273644
0
ARC
8
DEFAULT_255_2_778
10
72.4275903
20
64.2317589
40
4.7371494
50
255.6978591
51
258.6612412
0
ARC
8
DEFAULT_255_2_778
10
71.9768029
20
62.4484231
40
2.8977274
50
253.1576051
51
255.6240895
0
ARC
8
DEFAULT_255_2_778
10
73.9928635
20
65.4134156
40
6.4096978
50
238.0922908
51
243.5433891
0
ARC
8
DEFAULT_255_2_778
10
73.2538963
20
64.2319249
40
5.0161475
50
231.1029952
51
238.1246126
0
ARC
8
DEFAULT_255_2_778
10
72.577303
20
63.396544
40
3.941143
50
222.0853205
51
231.1323901
0
ARC
8
DEFAULT_255_2_778
10
71.9968375
20
62.8776871
40
3.1625974
50
208.0188964
51
222.157439
0
ARC
8
DEFAULT_255_2_778
10
71.801983
20
62.7565641
40
2.9337225
50
183.0464983
51
207.7183074
0
ARC
8
DEFAULT_255_2_778
10
72.253243
20
62.8016648
40
3.3868072
50
179.9821488
51
183.40268
0
ARC
8
DEFAULT_255_2_778
10
72.4480138
20
62.802127
40
3.5815778
50
177.6446557
51
179.9905129
0
ARC
8
DEFAULT_255_2_778
10
72.5685873
20
62.7977432
40
3.7022297
50
176.8885727
51
177.6535562
0
ARC
8
DEFAULT_255_2_778
10
-25.3791464
20
65.132474
40
94.2751122
50
358.7030818
51
358.9579113
0
ARC
8
DEFAULT_255_2_778
10
-28.5517043
20
65.1902452
40
97.448196
50
358.9578744
51
359.2110112
0
ARC
8
DEFAULT_255_2_778
10
-31.4729763
20
65.2309529
40
100.3697516
50
359.2107384
51
359.4134509
0
ARC
8
DEFAULT_255_2_778
10
-34.3723704
20
65.2604477
40
103.2692957
50
359.4135551
51
359.6372974
0
ARC
8
DEFAULT_255_2_778
10
-37.231627
20
65.2788853
40
106.1286117
50
359.6371154
51
359.8201941
0
ARC
8
DEFAULT_255_2_778
10
-39.865813
20
65.2870361
40
108.7628102
50
359.8202551
51
0.0003656
0
ARC
8
DEFAULT_255_2_778
10
-46.7489885
20
65.2759278
40
115.6459864
50
0.0058473
51
0.7125843
0
ARC
8
DEFAULT_255_2_778
10
-58.5216644
20
65.1302848
40
127.4195632
50
0.7122333
51
1.3774981
0
ARC
8
DEFAULT_255_2_778
10
-70.7412458
20
64.8387344
40
139.6426219
50
1.3765597
51
1.9632967
0
ARC
8
DEFAULT_255_2_778
10
-82.9316205
20
64.4228029
40
151.8400902
50
1.9625623
51
2.4827534
0
ARC
8
DEFAULT_255_2_778
10
-95.0057457
20
63.9009679
40
163.9254867
50
2.4821627
51
2.945576
0
ARC
8
DEFAULT_255_2_778
10
-106.9351716
20
63.288585
40
175.8706201
50
2.9451043
51
3.3596473
0
ARC
8
DEFAULT_255_2_778
10
-118.6691914
20
62.6009551
40
187.6247708
50
3.3592795
51
3.731495
0
ARC
8
DEFAULT_255_2_778
10
-130.1183493
20
61.8552476
40
199.0981877
50
3.7312088
51
4.0666319
0
ARC
8
DEFAULT_255_2_778
10
-144.0722539
20
60.8579606
40
213.0876842
50
4.0680337
51
4.5188426
0
ARC
8
DEFAULT_255_2_778
10
-160.3856761
20
59.5712343
40
229.451773
50
4.5182038
51
4.9070901
0
ARC
8
DEFAULT_255_2_778
10
-177.790163
20
58.0749257
40
246.9204622
50
4.9075636
51
5.3270701
0
ARC
8
DEFAULT_255_2_778
10
-196.6707573
20
56.3164582
40
265.8827681
50
5.3266345
51
5.7026572
0
ARC
8
DEFAULT_255_2_778
10
-214.6704323
20
54.5220389
40
283.971666
50
5.7020489
51
6.016947
0
ARC
8
DEFAULT_255_2_778
10
-231.119833
20
52.7904566
40
300.5119549
50
6.0165226
51
6.2818466
0
ARC
8
DEFAULT_255_2_778
10
-249.5790997
20
50.7542632
40
319.0831853
50
6.2825947
51
6.6171819
0
ARC
8
DEFAULT_255_2_778
10
-272.2700646
20
48.1207596
40
341.9264605
50
6.6173772
51
6.9608164
0
ARC
8
DEFAULT_255_2_778
10
-293.9003829
20
45.4855972
40
363.7167041
50
6.9599263
51
7.2097023
0
ARC
8
DEFAULT_255_2_778
10
-316.3177379
20
42.6449403
40
386.3133215
50
7.2104129
51
7.525342
0
ARC
8
DEFAULT_255_2_778
10
-342.4334009
20
39.1964692
40
412.655679
50
7.5251393
51
7.815757
0
ARC
8
DEFAULT_255_2_778
10
-360.3199224
20
36.7517112
40
430.7085013
50
7.8143861
51
7.9085211
0
ARC
8
DEFAULT_255_2_778
10
64.8859804
20
95.9990751
40
1.4062108
50
0.5955997
51
8.6714434
0
ARC
8
DEFAULT_255_2_778
10
65.7162
20
96.1317473
40
0.5655101
50
8.0650511
51
23.776904
0
ARC
8
DEFAULT_255_2_778
10
66.067034
20
96.2970129
40
0.1780922
50
20.625615
51
72.6751196
0
ARC
8
DEFAULT_255_2_778
10
66.0830599
20
96.322457
40
0.14923
50
75.6411709
51
81.6173354
0
ARC
8
DEFAULT_255_2_778
10
40.2701332
20
-0.1333564
40
99.598249
50
74.9751885
51
89.9998131
0
LINE
8
DEFAULT_255_2_778
10
40.2704582
20
99.4648927
11
40.2693152
21
99.4648927
0
ARC
8
DEFAULT_255_2_778
10
40.268186
20
99.8678321
40
100.0029394
50
270.0001886
51
284.972043
0
ARC
8
DEFAULT_255_2_778
10
66.0522114
20
3.4529507
40
0.1999066
50
284.9300306
51
350.3942295
0
LINE
8
DEFAULT_255_2_778
10
67.0271152
20
3.5174927
11
69.4663152
21
4.2283927
0
LINE
8
DEFAULT_255_2_778
10
70.0204152
20
3.7983927
11
69.6402152
21
0.4580927
0
LINE
8
DEFAULT_255_2_778
10
70.1611152
20
0.0444927
11
70.0619152
21
0.4082927
0
LINE
8
DEFAULT_255_2_778
10
70.0619152
20
0.4082927
11
71.3353152
21
0.8051927
0
LINE
8
DEFAULT_255_2_778
10
74.4278152
20
38.9713927
11
74.4691152
21
40.4513927
0
LINE
8
DEFAULT_255_2_778
10
74.4691152
20
40.4513927
11
74.2624152
21
40.4513927
0
LINE
8
DEFAULT_255_2_778
10
74.2624152
20
40.4513927
11
74.2791152
21
59.2780927
0
LINE
8
DEFAULT_255_2_778
10
66.1048152
20
96.4700927
11
66.0897152
21
96.0599927
0
LINE
8
DEFAULT_255_2_778
10
40.2693152
20
99.4648927
11
13.5686152
21
99.4648927
0
LINE
8
DEFAULT_255_2_778
10
13.5686152
20
99.4648927
11
13.5686152
21
-0.1351073
0
LINE
8
DEFAULT_255_2_778
10
13.5686152
20
-0.1351073
11
40.2685152
21
-0.1351073
0
LINE
8
DEFAULT_255_2_778
10
66.2493152
20
3.4195927
11
66.2860152
21
3.6367927
0
ARC
8
DEFAULT_255_2_778
10
0.6683839
20
64.6020658
40
0.2364799
50
269.9543968
51
270.1369157
0
ARC
8
DEFAULT_255_2_778
10
0.6682039
20
64.7647865
40
0.3992006
50
224.9842694
51
269.998819
0
ARC
8
DEFAULT_255_2_778
10
0.6686543
20
64.7651916
40
0.3998055
50
179.9974542
51
224.9797083
0
ARC
8
DEFAULT_255_2_778
10
0.4466836
20
64.7653037
40
0.1778347
50
179.9088608
51
180.0303788
0
LINE
8
DEFAULT_255_2_778
10
0.268849
20
64.7655866
11
0.268849
21
79.8375866
0
LINE
8
DEFAULT_255_2_778
10
0.268849
20
79.8375866
11
0.668949
21
79.8375866
0
LINE
8
DEFAULT_255_2_778
10
0.668949
20
79.8375866
11
0.272849
21
79.8931866
0
LINE
8
DEFAULT_255_2_778
10
0.272849
20
79.8931866
11
0.261449
21
83.1239866
0
LINE
8
DEFAULT_255_2_778
10
0.261449
20
83.1239866
11
3.039549
21
99.5942866
0
LINE
8
DEFAULT_255_2_778
10
5.768749
20
32.8652866
11
5.268649
21
32.8652866
0
LINE
8
DEFAULT_255_2_778
10
5.268649
20
32.8652866
11
5.268649
21
33.8654866
0
LINE
8
DEFAULT_255_2_778
10
5.268649
20
33.8654866
11
5.767949
21
33.8616866
0
LINE
8
DEFAULT_255_2_778
10
5.767949
20
33.8616866
11
5.767949
21
32.8695866
0
ARC
8
DEFAULT_255_2_778
10
0.4863505
20
30.6484749
40
0.217557
50
179.9725346
51
180.0824018
0
ARC
8
DEFAULT_255_2_778
10
0.6682718
20
30.6485842
40
0.3994782
50
99.943115
51
180.0007152
0
LINE
8
DEFAULT_255_2_778
10
5.2635938
20
32.505762
11
5.7678938
21
32.745462
0
LINE
8
DEFAULT_255_2_778
10
5.7678938
20
32.745462
11
5.7678938
21
32.869562
0
LINE
8
DEFAULT_255_2_778
10
5.7678938
20
32.869562
11
5.2685938
21
32.865362
0
LINE
8
DEFAULT_255_2_778
10
5.2685938
20
32.865362
11
5.2685938
21
32.501762
0
LINE
8
DEFAULT_255_2_778
10
13.0687938
20
0.265462
11
13.0687938
21
-0.134538
0
LINE
8
DEFAULT_255_2_778
10
13.0687938
20
-0.134538
11
0.6687938
21
-0.134538
0
LINE
8
DEFAULT_255_2_778
10
0.6687938
20
-0.134538
11
0.6687938
21
0.265462
0
LINE
8
DEFAULT_255_2_778
10
0.6687938
20
0.265462
11
0.2687938
21
0.265462
0
LINE
8
DEFAULT_255_2_778
10
0.2687938
20
0.265462
11
0.2687938
21
30.648162
0
ARC
8
DEFAULT_255_2_778
10
1951.7480423
20
30.2483769
40
1945.9808751
50
179.9263207
51
179.9348303
0
ARC
8
DEFAULT_255_2_778
10
1241.5916944
20
31.059987
40
1235.8240632
50
179.9350093
51
179.943624
0
ARC
8
DEFAULT_255_2_778
10
700.9072061
20
31.5838135
40
695.1393214
50
179.94295
51
179.9607877
0
ARC
8
DEFAULT_255_2_778
10
307.2882136
20
31.8481398
40
301.5202401
50
179.9598263
51
179.9907629
0
ARC
8
DEFAULT_255_2_778
10
160.4532927
20
31.8791054
40
154.6853164
50
179.9934644
51
180.0005192
0
ARC
8
DEFAULT_255_2_778
10
15.6625644
20
-54.585462
40
87.0274778
50
96.5283598
51
96.8481952
0
ARC
8
DEFAULT_255_2_778
10
12.8282868
20
-30.9956095
40
63.2679688
50
96.8470884
51
97.219617
0
ARC
8
DEFAULT_255_2_778
10
10.6373285
20
-13.6987489
40
45.8328983
50
97.2198157
51
97.6239336
0
ARC
8
DEFAULT_255_2_778
10
9.0018209
20
-1.4788481
40
33.5040354
50
97.6242234
51
98.059955
0
ARC
8
DEFAULT_255_2_778
10
7.5106737
20
9.008302
40
22.9114065
50
98.0448954
51
98.7818636
0
ARC
8
DEFAULT_255_2_778
10
6.0844588
20
18.2062452
40
13.6035494
50
98.7598889
51
99.8904687
0
ARC
8
DEFAULT_255_2_778
10
4.9837651
20
24.5009424
40
7.2133443
50
99.8656468
51
101.4839661
0
ARC
8
DEFAULT_255_2_778
10
4.184965
20
28.4023196
40
3.2310406
50
101.3763467
51
104.3250347
0
ARC
8
DEFAULT_255_2_778
10
3.6378888
20
30.5193132
40
1.0445293
50
103.9808457
51
110.2432805
0
ARC
8
DEFAULT_255_2_778
10
3.4456313
20
31.0607047
40
0.4701073
50
111.089521
51
111.7963697
0
LINE
8
DEFAULT_255_2_778
10
3.2866762
20
31.5160037
11
5.7687762
21
32.7508037
0
LINE
8
DEFAULT_255_2_778
10
13.0688762
20
0.7140037
11
13.5688762
21
0.7844037
0
ARC
8
DEFAULT_255_2_778
10
15.8077972
20
164.7932523
40
76.1235299
50
267.9567558
51
268.3180023
0
ARC
8
DEFAULT_255_2_778
10
15.8282413
20
14.344391
40
76.7174742
50
91.6842471
51
92.0425475
0
ARC
8
DEFAULT_255_2_778
10
3.1686143
20
33.5654305
40
0.2000088
50
180.0025239
51
269.997482
0
LINE
8
DEFAULT_255_2_778
10
13.4689056
20
0.7703216
11
13.4689056
21
-0.1344784
0
LINE
8
DEFAULT_255_2_778
10
13.4689056
20
-0.1344784
11
13.0688056
21
-0.1344784
0
LINE
8
DEFAULT_255_2_778
10
13.5734056
20
88.7025216
11
13.5734056
21
91.0287216
0
LINE
8
DEFAULT_255_2_778
10
2.9686056
20
31.4599216
11
2.9686056
21
33.5654216
0
LINE
8
DEFAULT_255_2_778
10
3.1686056
20
33.3654216
11
3.1718056
21
31.4972216
0
LINE
8
DEFAULT_255_2_778
10
3.1718056
20
31.4972216
11
2.9734056
21
31.4641216
0
LINE
8
DEFAULT_255_2_778
10
22.6689056
20
66.3656216
11
21.6688056
21
66.3656216
0
LINE
8
DEFAULT_255_2_778
10
21.6688056
20
66.3656216
11
21.6688056
21
59.8655216
0
LINE
8
DEFAULT_255_2_778
10
21.6688056
20
59.8655216
11
22.6689056
21
59.8655216
0
LINE
8
DEFAULT_255_2_778
10
22.6689056
20
59.8655216
11
22.6689056
21
66.3656216
0
LINE
8
DEFAULT_255_2_778
10
22.6689056
20
66.3656216
11
27.7688056
21
66.3656216
0
LINE
8
DEFAULT_255_2_778
10
27.7688056
20
66.3656216
11
27.7688056
21
59.8655216
0
LINE
8
DEFAULT_255_2_778
10
27.7688056
20
59.8655216
11
22.6689056
21
59.8655216
0
ARC
8
DEFAULT_255_2_778
10
2.2691386
20
30.8888496
40
2.0003049
50
120.0017331
51
179.9918473
0
LINE
8
DEFAULT_255_2_778
10
0.2699337
20
30.8854342
11
2.9736337
21
31.4559342
0
LINE
8
DEFAULT_255_2_778
10
2.9736337
20
31.4559342
11
2.9689337
21
33.5654342
0
LINE
8
DEFAULT_255_2_778
10
2.9689337
20
33.5654342
11
2.9689337
21
33.6027342
0
LINE
8
DEFAULT_255_2_778
10
2.9689337
20
33.6027342
11
1.2689337
21
32.6211342
0
LINE
8
DEFAULT_255_2_778
10
22.6690337
20
42.8655342
11
21.6688337
21
42.8655342
0
LINE
8
DEFAULT_255_2_778
10
21.6688337
20
42.8655342
11
21.6688337
21
36.3655342
0
LINE
8
DEFAULT_255_2_778
10
21.6688337
20
36.3655342
11
27.7685337
21
36.3655342
0
LINE
8
DEFAULT_255_2_778
10
27.7685337
20
36.3655342
11
27.7685337
21
42.8655342
0
LINE
8
DEFAULT_255_2_778
10
27.7685337
20
42.8655342
11
22.6690337
21
42.8655342
0
LINE
8
DEFAULT_255_2_778
10
22.6690337
20
42.8655342
11
22.6690337
21
36.3655342
0
ARC
8
DEFAULT_255_2_778
10
2.6643235
20
32.224964
40
0.3043631
50
358.5239362
51
15.50357
0
ARC
8
DEFAULT_255_2_778
10
2.8802868
20
32.292483
40
0.0785534
50
10.1452405
51
90.3556357
0
ARC
8
DEFAULT_255_2_778
10
2.8844993
20
32.210335
40
0.1607686
50
91.6752989
51
111.913809
0
ARC
8
DEFAULT_255_2_778
10
2.9590777
20
32.0101595
40
0.3743548
50
111.0692398
51
120.587557
0
LINE
8
DEFAULT_255_2_778
10
2.7685856
20
32.3324238
11
2.7685856
21
31.4247238
0
LINE
8
DEFAULT_255_2_778
10
13.0687856
20
36.3655238
11
10.0686856
21
36.3655238
0
LINE
8
DEFAULT_255_2_778
10
10.0686856
20
36.3655238
11
10.0686856
21
42.8655238
0
LINE
8
DEFAULT_255_2_778
10
10.0686856
20
42.8655238
11
13.0687856
21
42.8655238
0
LINE
8
DEFAULT_255_2_778
10
5.7687532
20
31.8658151
11
5.7679532
21
31.5469151
0
ARC
8
DEFAULT_255_2_778
10
-99.0589531
20
594.5025862
40
572.6323147
50
280.4775169
51
280.5481321
0
ARC
8
DEFAULT_255_2_778
10
-79.7380118
20
490.0107316
40
466.3692147
50
280.3923001
51
280.4778879
0
ARC
8
DEFAULT_255_2_778
10
-62.4419961
20
395.6877505
40
370.4735584
50
280.2910825
51
280.3926634
0
ARC
8
DEFAULT_255_2_778
10
-48.6244517
20
319.5929844
40
293.1344483
50
280.1870091
51
280.2908871
0
ARC
8
DEFAULT_255_2_778
10
-38.2652662
20
261.9480526
40
234.5661045
50
280.0813383
51
280.1868365
0
ARC
8
DEFAULT_255_2_778
10
-28.9079715
20
209.2781319
40
181.071437
50
279.9189725
51
280.0835032
0
ARC
8
DEFAULT_255_2_778
10
-20.4753498
20
161.0469397
40
132.1086247
50
279.7271799
51
279.919625
0
ARC
8
DEFAULT_255_2_778
10
-14.3164999
20
125.1175123
40
95.6551587
50
279.5142173
51
279.7273116
0
ARC
8
DEFAULT_255_2_778
10
-9.5099501
20
96.4106617
40
66.5486961
50
279.2128262
51
279.5181679
0
ARC
8
DEFAULT_255_2_778
10
-5.9981701
20
74.7622424
40
44.6172881
50
278.8799623
51
279.2121573
0
ARC
8
DEFAULT_255_2_778
10
-3.6549158
20
59.7501181
40
29.4233845
50
278.4456931
51
278.8842009
0
ARC
8
DEFAULT_255_2_778
10
-11.1507524
20
28.6204028
40
11.9896208
50
9.7256402
51
10.7794773
0
ARC
8
DEFAULT_255_2_778
10
-5.2661576
20
29.7450172
40
5.9985292
50
10.7395779
51
12.4127311
0
LINE
8
DEFAULT_255_2_778
10
2.7688532
20
32.3325151
11
0.2688532
21
30.8892151
0
LINE
8
DEFAULT_255_2_778
10
0.2688532
20
30.8892151
11
0.2688532
21
30.6484151
0
LINE
8
DEFAULT_255_2_778
10
0.2688532
20
30.6484151
11
0.6688532
21
30.6484151
0
LINE
8
DEFAULT_255_2_778
10
0.6688532
20
30.6484151
11
0.5993532
21
31.0424151
0
LINE
8
DEFAULT_255_2_778
10
0.5993532
20
31.0424151
11
5.2686532
21
31.8658151
0
LINE
8
DEFAULT_255_2_778
10
5.2686532
20
31.8658151
11
5.7687532
21
31.8658151
0
LINE
8
DEFAULT_255_2_778
10
3.2361532
20
64.7654151
11
0.6688532
21
64.7654151
0
LINE
8
DEFAULT_255_2_778
10
0.6688532
20
64.7654151
11
0.6688532
21
67.0654151
0
LINE
8
DEFAULT_255_2_778
10
0.6688532
20
67.0654151
11
4.0732532
21
67.0654151
0
LINE
8
DEFAULT_255_2_778
10
4.0732532
20
67.0654151
11
3.0906532
21
64.3653151
0
LINE
8
DEFAULT_255_2_778
10
3.0906532
20
64.3653151
11
0.6688532
21
64.3653151
0
LINE
8
DEFAULT_255_2_778
10
0.6688532
20
64.3653151
11
0.6688532
21
64.7654151
0
LINE
8
DEFAULT_255_2_778
10
0.6688532
20
64.7654151
11
0.2688532
21
64.7654151
0
LINE
8
DEFAULT_255_2_778
10
5.2689522
20
67.465425
11
0.6688522
21
67.465425
0
LINE
8
DEFAULT_255_2_778
10
0.6688522
20
67.465425
11
0.6688522
21
67.065425
0
LINE
8
DEFAULT_255_2_778
10
0.6688522
20
67.065425
11
0.2688522
21
67.065425
0
LINE
8
DEFAULT_255_2_778
10
0.2688522
20
67.065425
11
4.0732522
21
67.066925
0
LINE
8
DEFAULT_255_2_778
10
4.0732522
20
67.066925
11
4.2222522
21
67.463825
0
ARC
8
DEFAULT_255_2_778
10
0.4469748
20
67.865248
40
0.1781908
50
179.9089573
51
180.0303466
0
ARC
8
DEFAULT_255_2_778
10
0.6688221
20
67.8651325
40
0.4000379
50
179.9969672
51
224.965924
0
ARC
8
DEFAULT_255_2_778
10
0.6684617
20
67.8654113
40
0.3999803
50
225.0306604
51
269.9921839
0
LINE
8
DEFAULT_255_2_778
10
0.6684071
20
67.465431
11
0.6687843
21
67.4654312
0
LINE
8
DEFAULT_255_2_778
10
3.4270843
20
99.8655312
11
3.4266776
21
99.8655314
0
ARC
8
DEFAULT_255_2_778
10
3.4266929
20
99.4659687
40
0.3995627
50
90.0021937
51
172.0356047
0
ARC
8
DEFAULT_255_2_778
10
0.4469748
20
0.265248
40
0.1781907
50
179.9089573
51
180.0303466
0
ARC
8
DEFAULT_255_2_778
10
0.6684159
20
0.2650643
40
0.3996318
50
179.9871931
51
224.9900165
0
ARC
8
DEFAULT_255_2_778
10
0.6684278
20
0.2650878
40
0.3996569
50
224.991197
51
269.9970351
0
LINE
8
DEFAULT_255_2_778
10
0.6684071
20
-0.134569
11
0.6687843
21
-0.1345688
0
ARC
8
DEFAULT_255_2_778
10
9.0689458
20
63.3656338
40
4.0003115
50
161.8081359
51
180.0007541
0
ARC
8
DEFAULT_255_2_778
10
9.0689471
20
63.3655287
40
4.0003128
50
179.9992487
51
198.1918613
0
LINE
8
DEFAULT_255_2_778
10
4.2187843
20
67.4654312
11
4.0731843
21
67.0654312
0
LINE
8
DEFAULT_255_2_778
10
0.6687843
20
67.8655312
11
0.2687843
21
67.8655312
0
LINE
8
DEFAULT_255_2_778
10
0.6687843
20
67.4654312
11
0.6687843
21
67.8655312
0
LINE
8
DEFAULT_255_2_778
10
3.0227843
20
99.5282312
11
3.4363843
21
99.4620312
0
LINE
8
DEFAULT_255_2_778
10
3.4363843
20
99.4620312
11
3.4270843
21
99.8655312
0
LINE
8
DEFAULT_255_2_778
10
0.2687843
20
-0.1345688
11
0.2687843
21
0.2655312
0
LINE
8
DEFAULT_255_2_778
10
0.6687843
20
-0.1345688
11
0.2687843
21
-0.1345688
0
LINE
8
DEFAULT_255_2_778
10
5.2185843
20
32.4769312
11
5.2185843
21
32.7653312
0
LINE
8
DEFAULT_255_2_778
10
5.2185843
20
32.7653312
11
4.2184843
21
32.7653312
0
LINE
8
DEFAULT_255_2_778
10
4.2184843
20
32.7653312
11
4.0575843
21
33.3654312
0
LINE
8
DEFAULT_255_2_778
10
4.0575843
20
33.3654312
11
3.1683843
21
33.3654312
0
LINE
8
DEFAULT_255_2_778
10
3.1683843
20
33.3654312
11
3.1683843
21
31.4951312
0
ARC
8
DEFAULT_255_2_778
10
3.1679835
20
33.7546407
40
0.3925584
50
270.739684
51
277.8026888
0
ARC
8
DEFAULT_255_2_778
10
3.1699898
20
33.6921046
40
0.3300037
50
270.0048
51
270.5315415
0
ARC
8
DEFAULT_255_2_778
10
3.1542309
20
33.5384315
40
0.1770358
50
189.6525279
51
275.1159699
0
ARC
8
DEFAULT_255_2_778
10
3.3914189
20
33.6051319
40
0.422849
50
180.3543445
51
193.1758554
0
ARC
8
DEFAULT_255_2_778
10
-130.7257131
20
36.8655874
40
199.5945912
50
350.4265709
51
0.0000085
0
ARC
8
DEFAULT_255_2_778
10
-130.7209296
20
36.8658289
40
199.7898076
50
350.4262583
51
359.9999392
0
ARC
8
DEFAULT_255_2_778
10
72.2637885
20
36.8683583
40
3.1949116
50
161.0692709
51
180.0491641
0
ARC
8
DEFAULT_255_2_778
10
72.2713174
20
36.8625946
40
3.2039045
50
105.2241097
51
161.0154542
0
ARC
8
DEFAULT_255_2_778
10
72.268569
20
36.8524656
40
3.2129607
50
94.9760665
51
105.1293863
0
ARC
8
DEFAULT_255_2_778
10
72.2699549
20
36.8644178
40
2.998252
50
312.436101
51
327.6326516
0
LINE
8
DEFAULT_255_2_778
10
2.9685781
20
33.6028168
11
3.4238781
21
33.8655168
0
LINE
8
DEFAULT_255_2_778
10
3.4238781
20
33.8655168
11
3.9239781
21
33.8655168
0
LINE
8
DEFAULT_255_2_778
10
3.9239781
20
33.8655168
11
4.0578781
21
33.3654168
0
LINE
8
DEFAULT_255_2_778
10
4.0578781
20
33.3654168
11
3.2212781
21
33.3657168
0
LINE
8
DEFAULT_255_2_778
10
2.9685781
20
33.6025168
11
2.9685781
21
33.6028168
0
LINE
8
DEFAULT_255_2_778
10
66.0891781
20
3.6707168
11
66.2862781
21
3.6374168
0
LINE
8
DEFAULT_255_2_778
10
71.9898781
20
40.0533168
11
74.2806781
21
40.2536168
0
LINE
8
DEFAULT_255_2_778
10
74.2806781
20
40.2536168
11
74.2539781
21
40.0504168
0
LINE
8
DEFAULT_255_2_778
10
74.2539781
20
40.0504168
11
74.4539781
21
40.0456168
0
LINE
8
DEFAULT_255_2_778
10
74.3711781
20
65.0054168
11
74.2666781
21
65.1032168
0
LINE
8
DEFAULT_255_2_778
10
74.2610781
20
39.1082168
11
74.2314781
21
39.1341168
0
LINE
8
DEFAULT_255_2_778
10
74.2314781
20
39.1341168
11
74.2539781
21
40.0504168
0
LINE
8
DEFAULT_255_2_778
10
74.2539781
20
40.0504168
11
71.9144781
21
39.8443168
0
LINE
8
DEFAULT_255_2_778
10
74.2679781
20
33.9732168
11
74.2930781
21
34.6516168
0
LINE
8
DEFAULT_255_2_778
10
27.9687781
20
36.1655168
11
27.9687781
21
43.0656168
0
LINE
8
DEFAULT_255_2_778
10
27.9687781
20
43.0656168
11
21.5687781
21
43.0656168
0
LINE
8
DEFAULT_255_2_778
10
21.5687781
20
43.0656168
11
21.5687781
21
36.1655168
0
LINE
8
DEFAULT_255_2_778
10
21.5687781
20
36.1655168
11
27.9687781
21
36.1655168
0
LINE
8
DEFAULT_255_2_778
10
27.9687781
20
59.6655168
11
27.9687781
21
66.5656168
0
LINE
8
DEFAULT_255_2_778
10
27.9687781
20
66.5656168
11
21.5687781
21
66.5656168
0
LINE
8
DEFAULT_255_2_778
10
21.5687781
20
66.5656168
11
21.5687781
21
59.6655168
0
LINE
8
DEFAULT_255_2_778
10
21.5687781
20
59.6655168
11
27.9687781
21
59.6655168
0
ARC
8
DEFAULT_255_2_778
10
-345.6780615
20
49.8653756
40
420.24666
50
358.7159787
51
359.9726785
0
ARC
8
DEFAULT_255_2_778
10
-347.1777068
20
49.865777
40
421.7463053
50
359.9727211
51
359.9999428
0
ARC
8
DEFAULT_255_2_778
10
-345.6673263
20
49.865381
40
420.2359249
50
359.9999966
51
1.2840378
0
ARC
8
DEFAULT_255_2_778
10
72.2572828
20
36.8662101
40
2.9885094
50
172.8869713
51
180.0180499
0
ARC
8
DEFAULT_255_2_778
10
-130.3507193
20
36.8603832
40
199.6194928
50
358.0584457
51
0.0014022
0
ARC
8
DEFAULT_255_2_778
10
66.9132691
20
93.4701094
40
0.1998431
50
188.7906045
51
255.0081675
0
ARC
8
DEFAULT_255_2_778
10
72.2640036
20
62.8702905
40
3.0069802
50
310.8742237
51
317.6126968
0
LINE
8
DEFAULT_255_2_778
10
74.4267735
20
38.9491686
11
74.4537735
21
40.0458686
0
LINE
8
DEFAULT_255_2_778
10
74.4537735
20
40.0458686
11
74.4630735
21
40.4482686
0
LINE
8
DEFAULT_255_2_778
10
74.4630735
20
59.2823686
11
74.4537735
21
59.6848686
0
LINE
8
DEFAULT_255_2_778
10
74.4537735
20
59.6848686
11
74.4267735
21
60.7815686
0
LINE
8
DEFAULT_255_2_778
10
66.9192735
20
6.4694686
11
66.8615735
21
6.4538686
0
LINE
8
DEFAULT_255_2_778
10
66.8615735
20
6.4538686
11
66.9022735
21
6.5360686
0
LINE
8
DEFAULT_255_2_778
10
66.9022735
20
6.5360686
11
66.9795735
21
6.6927686
0
LINE
8
DEFAULT_255_2_778
10
66.7818735
20
6.7231686
11
66.9795735
21
6.6929686
0
LINE
8
DEFAULT_255_2_778
10
66.9795735
20
6.6929686
11
67.4356735
21
9.8513686
0
LINE
8
DEFAULT_255_2_778
10
66.8615735
20
93.2770686
11
66.9192735
21
93.2614686
0
LINE
8
DEFAULT_255_2_778
10
71.9724735
20
59.4784686
11
72.0074735
21
59.8768686
0
LINE
8
DEFAULT_255_2_778
10
72.0074735
20
59.8768686
11
74.2542735
21
59.6803686
0
LINE
8
DEFAULT_255_2_778
10
74.2542735
20
59.6803686
11
74.2317735
21
60.5965686
0
ARC
8
DEFAULT_255_2_778
10
72.2655987
20
62.8606582
40
3.1954255
50
246.0694426
51
265.0462898
0
ARC
8
DEFAULT_255_2_778
10
72.2717746
20
62.8671676
40
3.2038818
50
190.257864
51
246.0157115
0
ARC
8
DEFAULT_255_2_778
10
72.2822314
20
62.8637131
40
3.2135606
50
179.9794043
51
190.1640564
0
LINE
8
DEFAULT_255_2_778
10
67.2469709
20
91.2294683
11
66.9794709
21
93.0381683
0
LINE
8
DEFAULT_255_2_778
10
66.9794709
20
93.0381683
11
66.7818709
21
93.0079683
0
LINE
8
DEFAULT_255_2_778
10
74.4537709
20
59.6847683
11
74.2536709
21
59.6800683
0
LINE
8
DEFAULT_255_2_778
10
74.2536709
20
59.6800683
11
74.2803709
21
59.4768683
0
LINE
8
DEFAULT_255_2_778
10
74.2803709
20
59.4768683
11
71.9896709
21
59.6771683
0
LINE
8
DEFAULT_255_2_778
10
69.0686709
20
62.8648683
11
68.8686709
21
62.8648683
0
ARC
8
DEFAULT_255_2_778
10
74.2629414
20
59.2778263
40
0.2003905
50
1.402461
51
84.9238446
0
ARC
8
DEFAULT_255_2_778
10
93.5602116
20
100.00127
40
27.5658189
50
189.5789272
51
190.3192451
0
ARC
8
DEFAULT_255_2_778
10
86.9842481
20
98.8975101
40
20.8978706
50
188.4262929
51
189.5951306
0
ARC
8
DEFAULT_255_2_778
10
81.0168179
20
98.0152316
40
14.8655713
50
187.0183295
51
188.432825
0
ARC
8
DEFAULT_255_2_778
10
77.8267254
20
97.6147609
40
11.6504521
50
186.4260637
51
186.9805472
0
ARC
8
DEFAULT_255_2_778
10
66.0523924
20
96.2775273
40
0.1998736
50
9.591543
51
75.0449852
0
ARC
8
DEFAULT_255_2_778
10
40.2679952
20
-0.1408105
40
100.0063413
50
75.0282129
51
89.9997269
0
ARC
8
DEFAULT_255_2_778
10
74.2629193
20
40.4534536
40
0.2004106
50
275.0819635
51
358.6210836
0
ARC
8
DEFAULT_255_2_778
10
66.9132428
20
6.2610224
40
0.1999278
50
105.0076513
51
171.1935039
0
ARC
8
DEFAULT_255_2_778
10
1.2595168
20
89.6194842
40
1.1213857
50
89.5220075
51
124.8642577
0
ARC
8
DEFAULT_255_2_778
10
1.174851
20
89.7634068
40
0.954984
50
125.6323627
51
129.9473353
0
ARC
8
DEFAULT_255_2_778
10
1.0730154
20
89.8665144
40
0.810638
50
129.1085412
51
163.9627375
0
ARC
8
DEFAULT_255_2_778
10
0.9752083
20
89.9036303
40
0.7064365
50
164.6644011
51
179.9756222
0
ARC
8
DEFAULT_255_2_778
10
0.5386289
20
83.1002377
40
0.2698572
50
170.1222347
51
180.0651459
0
LINE
8
DEFAULT_255_2_778
10
40.2684719
20
0.2658309
11
40.2696149
21
0.2658309
0
ARC
8
DEFAULT_255_2_778
10
40.2692899
20
99.86408
40
99.5982491
50
270.0001869
51
285.0248115
0
LINE
8
DEFAULT_255_2_778
10
74.2631719
20
59.2782309
11
74.4632719
21
59.2827309
0
LINE
8
DEFAULT_255_2_778
10
74.2806719
20
59.4774309
11
74.2631719
21
59.2782309
0
LINE
8
DEFAULT_255_2_778
10
72.0073719
20
39.8540309
11
71.9724719
21
40.2525309
0
LINE
8
DEFAULT_255_2_778
10
40.2684719
20
99.8655309
11
13.5685719
21
99.8655309
0
LINE
8
DEFAULT_255_2_778
10
13.5685719
20
99.8655309
11
13.5685719
21
99.4655309
0
LINE
8
DEFAULT_255_2_778
10
74.2631719
20
40.4530309
11
74.2806719
21
40.2538309
0
LINE
8
DEFAULT_255_2_778
10
74.4632719
20
40.4486309
11
74.2631719
21
40.4530309
0
LINE
8
DEFAULT_255_2_778
10
1.5477719
20
90.7408309
11
1.2688719
21
90.7408309
0
LINE
8
DEFAULT_255_2_778
10
0.2687719
20
89.9039309
11
0.2687719
21
83.0999309
0
LINE
8
DEFAULT_255_2_778
10
0.2727719
20
83.1465309
11
3.0312719
21
99.5774309
0
LINE
8
DEFAULT_255_2_778
10
3.0312719
20
99.5774309
11
3.4273719
21
99.5308309
0
LINE
8
DEFAULT_255_2_778
10
3.4273719
20
99.5308309
11
3.4273719
21
99.8655309
0
LINE
8
DEFAULT_255_2_778
10
3.4273719
20
99.8655309
11
13.0690719
21
99.8655309
0
LINE
8
DEFAULT_255_2_778
10
13.0690719
20
99.8655309
11
13.0690719
21
66.3809309
0
LINE
8
DEFAULT_255_2_778
10
66.8614719
20
93.2768309
11
66.9022719
21
93.1946309
0
LINE
8
DEFAULT_255_2_778
10
66.9022719
20
93.1946309
11
66.9794719
21
93.0382309
0
LINE
8
DEFAULT_255_2_778
10
13.5685719
20
0.2658309
11
40.2684719
21
0.2658309
0
LINE
8
DEFAULT_255_2_778
10
66.0888719
20
3.6707309
11
66.1039719
21
3.2606309
0
LINE
8
DEFAULT_255_2_778
10
40.2687719
20
0.2655309
11
40.2687719
21
-0.1345691
0
LINE
8
DEFAULT_255_2_778
10
40.2688724
20
99.8654693
11
40.2688724
21
99.4654693
0
LINE
8
DEFAULT_255_2_778
10
3.0903724
20
64.3655693
11
3.2297724
21
64.3655693
0
LINE
8
DEFAULT_255_2_778
10
3.2297724
20
64.3655693
11
3.3731724
21
64.8655693
0
LINE
8
DEFAULT_255_2_778
10
3.3731724
20
64.8655693
11
3.2723724
21
64.8655693
0
ARC
8
DEFAULT_255_2_778
10
-130.722162
20
62.8791507
40
200.411854
50
359.9960758
51
4.4339969
0
ARC
8
DEFAULT_255_2_778
10
-130.5331828
20
62.8747037
40
200.223785
50
4.4394464
51
9.157767
0
ARC
8
DEFAULT_255_2_778
10
-131.9733908
20
62.6583344
40
201.6800724
50
9.1533344
51
9.4663228
0
ARC
8
DEFAULT_255_2_778
10
55.4097537
20
164.9153264
40
70.0460032
50
279.3469354
51
279.4913854
0
ARC
8
DEFAULT_255_2_778
10
61.7272563
20
126.5322692
40
31.1465185
50
279.16144
51
279.3473967
0
ARC
8
DEFAULT_255_2_778
10
65.0506319
20
105.8789924
40
10.2275676
50
278.6879391
51
279.2027127
0
ARC
8
DEFAULT_255_2_778
10
66.4218597
20
96.8541264
40
1.0991551
50
276.6642888
51
279.0912387
0
ARC
8
DEFAULT_255_2_778
10
66.5448764
20
95.8046141
40
0.0424597
50
271.3067322
51
276.1409544
0
ARC
8
DEFAULT_255_2_778
10
66.5455624
20
95.7634098
40
0.0012759
50
238.2768571
51
282.7825442
0
LINE
8
DEFAULT_255_2_778
10
3.7472915
20
66.1705245
11
3.3731915
21
64.8653245
0
LINE
8
DEFAULT_255_2_778
10
3.3731915
20
64.8653245
11
3.2710915
21
64.8675245
0
ARC
8
DEFAULT_255_2_778
10
-130.7382146
20
62.8649237
40
200.0069153
50
0.0001927
51
9.4671834
0
ARC
8
DEFAULT_255_2_778
10
66.9390697
20
95.829275
40
0.4000647
50
186.8971581
51
189.5942164
0
ARC
8
DEFAULT_255_2_778
10
66.9378462
20
95.8291334
40
0.3988329
50
180.0009771
51
186.8980753
0
ARC
8
DEFAULT_255_2_778
10
66.9385736
20
95.8289987
40
0.3995604
50
131.9642745
51
179.9816542
0
ARC
8
DEFAULT_255_2_778
10
66.9385329
20
95.8289016
40
0.3996053
50
90.002488
51
131.950624
0
ARC
8
DEFAULT_255_2_778
10
66.9385213
20
95.8297909
40
0.398716
50
85.7784068
51
90.0008265
0
ARC
8
DEFAULT_255_2_778
10
66.9384728
20
95.8293648
40
0.3991444
50
74.341844
51
85.7759627
0
ARC
8
DEFAULT_255_2_778
10
67.0425142
20
96.2083535
40
0.0064915
50
352.4867724
51
55.3951851
0
ARC
8
DEFAULT_255_2_778
10
67.005029
20
96.2034811
40
0.0441049
50
359.675394
51
5.2341404
0
ARC
8
DEFAULT_255_2_778
10
66.7776115
20
96.2160335
40
0.2718235
50
348.0688906
51
357.3005022
0
ARC
8
DEFAULT_255_2_778
10
65.3115667
20
96.4945423
40
1.7640398
50
346.1038551
51
349.0625431
0
ARC
8
DEFAULT_255_2_778
10
61.75921
20
97.3523175
40
5.4184728
50
345.1573962
51
346.3203437
0
ARC
8
DEFAULT_255_2_778
10
55.9345228
20
98.8892662
40
11.4425222
50
344.48343
51
345.1895074
0
ARC
8
DEFAULT_255_2_778
10
40.3546379
20
0.0818496
40
99.3740825
50
71.53702
51
74.4708029
0
ARC
8
DEFAULT_255_2_778
10
61.1935304
20
97.8930804
40
11.2097377
50
341.5259666
51
342.3061202
0
ARC
8
DEFAULT_255_2_778
10
67.5299644
20
95.8779278
40
4.5605915
50
342.2305274
51
343.814891
0
ARC
8
DEFAULT_255_2_778
10
70.7565575
20
94.9468674
40
1.2023668
50
343.5658311
51
347.2515966
0
ARC
8
DEFAULT_255_2_778
10
71.7653492
20
94.7217361
40
0.1687907
50
346.2234134
51
356.9185703
0
ARC
8
DEFAULT_255_2_778
10
71.9225118
20
94.7140001
40
0.0114623
50
353.2995673
51
30.3365836
0
ARC
8
DEFAULT_255_2_778
10
71.9308223
20
94.71841
40
0.0020992
50
41.0839669
51
71.1441918
0
ARC
8
DEFAULT_255_2_778
10
71.8052689
20
94.3412004
40
0.399655
50
6.0462431
51
71.5877489
0
ARC
8
DEFAULT_255_2_778
10
-345.594422
20
49.8531395
40
420.1635047
50
2.0767899
51
6.0838
0
ARC
8
DEFAULT_255_2_778
10
72.2604061
20
62.8642179
40
3.0064703
50
34.1251652
51
47.4598512
0
ARC
8
DEFAULT_255_2_778
10
72.2750435
20
62.8762918
40
2.9875803
50
13.7885169
51
34.0909648
0
ARC
8
DEFAULT_255_2_778
10
72.2485484
20
62.8689269
40
3.0150675
50
359.9985062
51
13.8044372
0
ARC
8
DEFAULT_255_2_778
10
72.248639
20
62.8688382
40
3.0149769
50
359.0852985
51
0.0001932
0
ARC
8
DEFAULT_255_2_778
10
72.2677827
20
62.8672956
40
2.9958111
50
337.7596754
51
359.1089527
0
ARC
8
DEFAULT_255_2_778
10
72.2751007
20
62.8661103
40
2.9885894
50
324.6758513
51
337.7276063
0
ARC
8
DEFAULT_255_2_778
10
72.2357227
20
62.8931443
40
3.0363488
50
320.2944622
51
324.6892785
0
ARC
8
DEFAULT_255_2_778
10
72.2581543
20
62.8717682
40
3.0054363
50
306.5812436
51
320.3347869
0
ARC
8
DEFAULT_255_2_778
10
72.2693192
20
62.8601121
40
2.989423
50
284.9339556
51
306.5425463
0
ARC
8
DEFAULT_255_2_778
10
72.2614026
20
62.8854826
40
3.0159769
50
270.0014211
51
284.9550633
0
ARC
8
DEFAULT_255_2_778
10
72.2614697
20
62.8807043
40
3.0111985
50
268.367497
51
270.0001464
0
ARC
8
DEFAULT_255_2_778
10
72.2599273
20
62.8612579
40
2.9917162
50
249.6800343
51
268.3864154
0
ARC
8
DEFAULT_255_2_778
10
72.2607364
20
62.8596374
40
2.9904778
50
237.313133
51
249.6547144
0
ARC
8
DEFAULT_255_2_778
10
72.2855649
20
62.8996475
40
3.0375603
50
233.174227
51
237.3265418
0
LINE
8
DEFAULT_255_2_778
10
69.2751007
20
62.6700965
11
69.2687007
21
62.8655965
0
LINE
8
DEFAULT_255_2_778
10
74.0632649
20
70.465625
11
74.0433649
21
70.865625
0
ARC
8
DEFAULT_255_2_778
10
-345.2316578
20
49.8777634
40
419.4210487
50
2.0512457
51
6.0854228
0
ARC
8
DEFAULT_255_2_778
10
62.2650541
20
184.1299987
40
90.2965476
50
276.0780474
51
276.1832513
0
ARC
8
DEFAULT_255_2_778
10
67.8818541
20
132.2905495
40
38.1536964
50
276.1824065
51
276.3224907
0
ARC
8
DEFAULT_255_2_778
10
70.9230322
20
104.9221294
40
10.6168317
50
276.2752785
51
276.7400932
0
ARC
8
DEFAULT_255_2_778
10
72.1118567
20
94.9292768
40
0.5535698
50
275.9337605
51
279.3933742
0
ARC
8
DEFAULT_255_2_778
10
72.2021496
20
94.3840267
40
0.0008985
50
273.5902376
51
310.3672097
0
ARC
8
DEFAULT_255_2_778
10
40.2842868
20
-0.0751303
40
99.9387275
50
71.5385533
51
74.467584
0
LINE
8
DEFAULT_255_2_778
10
74.2680314
20
65.7578454
11
74.2931314
21
65.0794454
0
LINE
8
DEFAULT_255_2_778
10
74.2931314
20
65.0794454
11
73.9206314
21
64.8902454
0
ARC
8
DEFAULT_255_2_778
10
71.1682567
20
96.2349208
40
1.1867607
50
195.307152
51
245.1749725
0
ARC
8
DEFAULT_255_2_778
10
70.0360914
20
99.3141153
40
0.3992045
50
72.4906062
51
87.4526486
0
ARC
8
DEFAULT_255_2_778
10
70.036101
20
99.3140603
40
0.3992591
50
87.4543781
51
90.0003582
0
ARC
8
DEFAULT_255_2_778
10
70.0360657
20
99.3140911
40
0.3992283
50
89.9952961
51
123.5722931
0
ARC
8
DEFAULT_255_2_778
10
70.0363322
20
99.3136759
40
0.3997218
50
123.5711956
51
174.5811686
0
ARC
8
DEFAULT_255_2_778
10
71.7721125
20
94.3435495
40
0.4327718
50
5.353043
51
69.1285882
0
ARC
8
DEFAULT_255_2_778
10
71.2935372
20
98.9108931
40
0.3993563
50
6.662072
51
71.9167324
0
ARC
8
DEFAULT_255_2_778
10
70.8031983
20
95.1352383
40
0.1346097
50
170.3409638
51
178.3140217
0
ARC
8
DEFAULT_255_2_778
10
70.676162
20
95.1373845
40
0.007731
50
166.4273978
51
222.8805896
0
LINE
8
DEFAULT_255_2_778
10
70.6699969
20
95.1578238
11
70.1561969
21
99.6948238
0
LINE
8
DEFAULT_255_2_778
10
71.9317969
20
94.7204238
11
71.9262969
21
94.7479238
0
LINE
8
DEFAULT_255_2_778
10
72.2029969
20
94.3839238
11
71.6901969
21
98.9572238
0
LINE
8
DEFAULT_255_2_778
10
71.4174969
20
99.2905238
11
71.9262969
21
94.7479238
0
LINE
8
DEFAULT_255_2_778
10
71.9262969
20
94.7479238
11
70.6704969
21
95.1578238
0
ARC
8
DEFAULT_255_2_778
10
69.664113
20
95.9892911
40
0.518076
50
252.8178692
51
263.6014329
0
ARC
8
DEFAULT_255_2_778
10
69.656123
20
95.9263006
40
0.4545883
50
263.7174347
51
269.956437
0
ARC
8
DEFAULT_255_2_778
10
69.6659786
20
95.829366
40
0.357799
50
268.3662048
51
348.6404313
0
ARC
8
DEFAULT_255_2_778
10
69.5611908
20
95.8603993
40
0.4667491
50
347.4390857
51
0.1944913
0
ARC
8
DEFAULT_255_2_778
10
69.4869195
20
95.8614482
40
0.5410181
50
0.0567131
51
6.3021494
0
ARC
8
DEFAULT_255_2_778
10
71.0511502
20
96.2074168
40
1.0657362
50
195.599029
51
223.5036744
0
ARC
8
DEFAULT_255_2_778
10
71.4595811
20
96.5796712
40
1.6182822
50
223.1086605
51
236.1866693
0
ARC
8
DEFAULT_255_2_778
10
71.787174
20
97.0405151
40
2.1835351
50
235.7739699
51
239.3391289
0
ARC
8
DEFAULT_255_2_778
10
72.2418575
20
62.8566302
40
2.9610022
50
179.83153
51
179.9999847
0
ARC
8
DEFAULT_255_2_778
10
72.2628251
20
62.8567593
40
2.9819696
50
180.0024646
51
230.4354511
0
ARC
8
DEFAULT_255_2_778
10
72.2628101
20
62.8570421
40
2.9821781
50
230.4391332
51
270.0007225
0
ARC
8
DEFAULT_255_2_778
10
72.2628479
20
62.855458
40
2.980594
50
269.9999975
51
274.7729625
0
ARC
8
DEFAULT_255_2_778
10
72.2624617
20
62.8593647
40
2.9845191
50
274.7741099
51
281.0358571
0
ARC
8
DEFAULT_255_2_778
10
71.2926902
20
98.9107342
40
0.3996807
50
6.6669946
51
71.8537576
0
LINE
8
DEFAULT_255_2_778
10
69.5290681
20
95.4824366
11
69.5110681
21
95.4943366
0
ARC
8
DEFAULT_255_2_778
10
70.1321372
20
0.4171201
40
0.4956266
50
179.9089957
51
179.9817984
0
ARC
8
DEFAULT_255_2_778
10
70.0360187
20
0.4171868
40
0.399508
50
179.9869827
51
233.701148
0
ARC
8
DEFAULT_255_2_778
10
70.0359071
20
0.4165123
40
0.3988984
50
233.6567187
51
270.0124712
0
ARC
8
DEFAULT_255_2_778
10
70.0359955
20
0.4169123
40
0.3992984
50
269.9997702
51
272.9417913
0
ARC
8
DEFAULT_255_2_778
10
70.0359723
20
0.4170737
40
0.3994607
50
272.9439264
51
287.5028242
0
ARC
8
DEFAULT_255_2_778
10
71.4139749
20
0.4450636
40
0.005614
50
303.9628793
51
8.6822911
0
ARC
8
DEFAULT_255_2_778
10
71.3872027
20
0.4483001
40
0.0324101
50
355.7727451
51
0.188276
0
ARC
8
DEFAULT_255_2_778
10
71.2021964
20
0.4342733
40
0.2178751
50
3.7193188
51
14.66365
0
ARC
8
DEFAULT_255_2_778
10
69.8314319
20
0.1149504
40
1.6252727
50
13.321127
51
16.4759093
0
ARC
8
DEFAULT_255_2_778
10
66.34373
20
-0.8935815
40
5.2558444
50
16.2357069
51
17.4535617
0
ARC
8
DEFAULT_255_2_778
10
60.4398878
20
-2.7422744
40
11.4423616
50
17.4176311
51
18.1422006
0
ARC
8
DEFAULT_255_2_778
10
59.4055274
20
-2.91682
40
11.1617725
50
16.6057833
51
17.3833354
0
ARC
8
DEFAULT_255_2_778
10
65.7122895
20
-1.0422374
40
4.582318
50
15.102898
51
16.6805295
0
ARC
8
DEFAULT_255_2_778
10
69.0006652
20
-0.1610462
40
1.1779429
50
11.4870348
51
15.3968294
0
ARC
8
DEFAULT_255_2_778
10
69.987789
20
0.0374528
40
0.1710734
50
2.448711
51
12.1766229
0
ARC
8
DEFAULT_255_2_778
10
70.144744
20
0.0433354
40
0.0140349
50
332.8389403
51
5.8334398
0
ARC
8
DEFAULT_255_2_778
10
70.1554027
20
0.0382483
40
0.0022551
50
288.3102081
51
324.1794664
0
ARC
8
DEFAULT_255_2_778
10
-345.4491853
20
49.8671775
40
420.0177904
50
353.2876815
51
357.9239344
0
ARC
8
DEFAULT_255_2_778
10
71.6491043
20
0.5997171
40
0.1786471
50
76.8945547
51
84.541227
0
ARC
8
DEFAULT_255_2_778
10
71.0251517
20
-3.9437158
40
4.7645778
50
82.268938
51
82.8570526
0
ARC
8
DEFAULT_255_2_778
10
68.9112212
20
-20.7387306
40
21.6921058
50
82.8329012
51
83.1334866
0
ARC
8
DEFAULT_255_2_778
10
63.3562138
20
-66.6951669
40
67.9830555
50
83.1159832
51
83.2549003
0
ARC
8
DEFAULT_255_2_778
10
58.9729918
20
-103.5966574
40
105.1439543
50
83.2447033
51
83.2598372
0
ARC
8
DEFAULT_255_2_778
10
-345.2084312
20
49.8515654
40
419.3977588
50
353.2863115
51
357.9488623
0
LINE
8
DEFAULT_255_2_778
10
69.6071112
20
95.4771073
11
69.6624112
21
95.4787073
0
LINE
8
DEFAULT_255_2_778
10
69.5267112
20
95.4840073
11
69.5582112
21
95.4800073
0
LINE
8
DEFAULT_255_2_778
10
70.0421112
20
95.8388073
11
69.6384112
21
99.3514073
0
LINE
8
DEFAULT_255_2_778
10
69.5582112
20
95.4811073
11
69.6100112
21
95.4657073
0
LINE
8
DEFAULT_255_2_778
10
69.6008112
20
95.4782073
11
69.6606112
21
95.4615073
0
LINE
8
DEFAULT_255_2_778
10
70.1561112
20
0.0361073
11
71.4171112
21
0.4404073
0
LINE
8
DEFAULT_255_2_778
10
71.3134112
20
0.8206073
11
70.0575112
21
0.4179073
0
ARC
8
DEFAULT_255_2_778
10
72.2693255
20
36.8674058
40
2.9979679
50
46.4205988
51
75.243
0
ARC
8
DEFAULT_255_2_778
10
72.2698793
20
36.8663365
40
2.9983609
50
14.8700025
51
46.4423492
0
ARC
8
DEFAULT_255_2_778
10
72.2555261
20
36.8622718
40
3.0132764
50
13.8361477
51
14.8746644
0
ARC
8
DEFAULT_255_2_778
10
72.2657075
20
36.8641834
40
3.0029335
50
6.1285844
51
13.8471887
0
ARC
8
DEFAULT_255_2_778
10
72.2727099
20
36.8650838
40
2.9958749
50
5.6141968
51
6.1257609
0
ARC
8
DEFAULT_255_2_778
10
72.2736743
20
36.8651785
40
2.9949057
50
359.9999156
51
5.614198
0
ARC
8
DEFAULT_255_2_778
10
72.2679797
20
36.865348
40
3.0006003
50
315.4912184
51
359.9966797
0
ARC
8
DEFAULT_255_2_778
10
72.2625113
20
36.871646
40
3.0089152
50
312.4448411
51
315.4786919
0
ARC
8
DEFAULT_255_2_778
10
72.2086875
20
31.0065917
40
4.1986724
50
60.233807
51
65.9368467
0
ARC
8
DEFAULT_255_2_778
10
68.6999992
20
41.3273928
40
8.3268633
50
308.8267102
51
311.2175139
0
ARC
8
DEFAULT_255_2_778
10
69.6904557
20
40.1985654
40
6.8251132
50
311.207201
51
314.0934057
0
ARC
8
DEFAULT_255_2_778
10
70.6020998
20
39.2588627
40
5.5158634
50
314.0843148
51
317.4703432
0
ARC
8
DEFAULT_255_2_778
10
71.4199312
20
38.5101496
40
4.4070722
50
317.4562554
51
321.5425732
0
ARC
8
DEFAULT_255_2_778
10
72.1416821
20
37.9381303
40
3.4861327
50
321.5269724
51
326.4520889
0
ARC
8
DEFAULT_255_2_778
10
72.7674948
20
37.5246364
40
2.7360549
50
326.4263377
51
332.6204393
0
ARC
8
DEFAULT_255_2_778
10
73.3001112
20
37.2503541
40
2.1369652
50
332.5833269
51
340.6927423
0
ARC
8
DEFAULT_255_2_778
10
73.7277568
20
37.1021362
40
1.6843656
50
340.6413055
51
352.0397624
0
ARC
8
DEFAULT_255_2_778
10
73.9482558
20
37.06752
40
1.4612023
50
352.1866726
51
359.9550605
0
ARC
8
DEFAULT_255_2_778
10
73.9844557
20
37.0631817
40
1.4250057
50
0.1283514
51
24.9268937
0
ARC
8
DEFAULT_255_2_778
10
73.638793
20
36.9088929
40
1.8035045
50
24.7436702
51
35.6739051
0
ARC
8
DEFAULT_255_2_778
10
73.1986043
20
36.5957319
40
2.3437191
50
35.6174512
51
43.4712991
0
ARC
8
DEFAULT_255_2_778
10
72.6797339
20
36.1067049
40
3.0567201
50
43.4322737
51
49.4452376
0
ARC
8
DEFAULT_255_2_778
10
72.0974311
20
35.4292622
40
3.9500297
50
49.4166788
51
54.155955
0
ARC
8
DEFAULT_255_2_778
10
71.4673133
20
34.5602893
40
5.0234166
50
54.1339619
51
57.9188486
0
ARC
8
DEFAULT_255_2_778
10
70.7714796
20
33.4512954
40
6.3326346
50
57.9137017
51
61.2583476
0
ARC
8
DEFAULT_255_2_778
10
70.0536806
20
32.1490382
40
7.8196118
50
61.2351997
51
63.7050608
0
ARC
8
DEFAULT_255_2_778
10
69.5836769
20
31.2098487
40
8.8698287
50
63.6707154
51
64.4274677
0
ARC
8
DEFAULT_255_2_778
10
69.7659522
20
31.6016093
40
8.4377666
50
64.3956536
51
66.4194777
0
ARC
8
DEFAULT_255_2_778
10
70.2774442
20
32.7744515
40
7.1582423
50
66.4162835
51
68.6796655
0
ARC
8
DEFAULT_255_2_778
10
70.6740627
20
33.7907559
40
6.0672883
50
68.6793347
51
71.092416
0
ARC
8
DEFAULT_255_2_778
10
70.974809
20
34.6699943
40
5.1380367
50
71.0880453
51
73.8177197
0
ARC
8
DEFAULT_255_2_778
10
71.2061534
20
35.4702978
40
4.304967
50
73.8062547
51
77.133591
0
ARC
8
DEFAULT_255_2_778
10
71.3699941
20
36.1900091
40
3.5668426
50
77.1249602
51
81.0148071
0
ARC
8
DEFAULT_255_2_778
10
71.4680997
20
36.8152783
40
2.9339243
50
81.0001157
51
85.7255124
0
ARC
8
DEFAULT_255_2_778
10
71.5042939
20
37.283839
40
2.4639693
50
85.7527063
51
89.9473627
0
ARC
8
DEFAULT_255_2_778
10
71.4972683
20
37.7868979
40
1.9609315
50
89.7285808
51
100.7643454
0
ARC
8
DEFAULT_255_2_778
10
71.4044768
20
38.2537868
40
1.4849325
50
100.6116329
51
120.7153288
0
ARC
8
DEFAULT_255_2_778
10
71.40479
20
38.2803234
40
1.4623438
50
121.2569483
51
142.8563956
0
ARC
8
DEFAULT_255_2_778
10
71.7680202
20
37.998498
40
1.9220612
50
142.6976239
51
154.0606469
0
ARC
8
DEFAULT_255_2_778
10
72.3761072
20
37.6989448
40
2.5999208
50
153.9860198
51
162.0039026
0
ARC
8
DEFAULT_255_2_778
10
73.2230856
20
37.4201565
40
3.4915969
50
161.9469045
51
167.8268169
0
ARC
8
DEFAULT_255_2_778
10
74.3043897
20
37.1842777
40
4.5983275
50
167.7948778
51
172.3823858
0
ARC
8
DEFAULT_255_2_778
10
75.6965045
20
36.9971793
40
6.0029587
50
172.3737295
51
176.3342443
0
ARC
8
DEFAULT_255_2_778
10
77.3396201
20
36.8875779
40
7.649721
50
176.3018649
51
179.1656466
0
ARC
8
DEFAULT_255_2_778
10
78.5240443
20
36.8632735
40
8.8343764
50
179.1198932
51
179.9869533
0
ARC
8
DEFAULT_255_2_778
10
72.2640721
20
36.8680789
40
3.3954051
50
161.736206
51
180.0471442
0
ARC
8
DEFAULT_255_2_778
10
72.2719062
20
36.8615809
40
3.4048829
50
106.8905211
51
161.6736818
0
ARC
8
DEFAULT_255_2_778
10
72.2677769
20
36.8557348
40
3.4092816
50
94.972507
51
106.7955736
0
ARC
8
DEFAULT_255_2_778
10
-345.1795646
20
49.8651059
40
419.5481328
50
358.7144533
51
359.9726442
0
ARC
8
DEFAULT_255_2_778
10
-346.9750944
20
49.8654934
40
421.3436626
50
359.9727081
51
359.9999428
0
ARC
8
DEFAULT_255_2_778
10
-345.1686429
20
49.8650878
40
419.5372111
50
359.9999979
51
1.2855633
0
ARC
8
DEFAULT_255_2_778
10
72.2655106
20
62.8608635
40
3.395664
50
246.7347173
51
265.0458859
0
ARC
8
DEFAULT_255_2_778
10
72.2726575
20
62.8680149
40
3.4050588
50
191.8912511
51
246.6717685
0
ARC
8
DEFAULT_255_2_778
10
72.27789
20
62.863348
40
3.4092222
50
179.9741675
51
191.7963818
0
ARC
8
DEFAULT_255_2_778
10
-130.7247196
20
62.8649159
40
199.5933878
50
359.9999912
51
9.5734579
0
ARC
8
DEFAULT_255_2_778
10
-130.7327234
20
62.8649061
40
199.8011915
50
359.999994
51
9.5731233
0
ARC
8
DEFAULT_255_2_778
10
77.8160957
20
62.8586147
40
8.1267299
50
179.9557915
51
183.0086385
0
ARC
8
DEFAULT_255_2_778
10
76.0426618
20
62.764018
40
6.3507756
50
182.9961442
51
186.6451749
0
ARC
8
DEFAULT_255_2_778
10
74.6134087
20
62.5964416
40
4.9117327
50
186.6328453
51
190.9515909
0
ARC
8
DEFAULT_255_2_778
10
73.4753004
20
62.3743654
40
3.7521621
50
190.9238849
51
196.3885287
0
ARC
8
DEFAULT_255_2_778
10
72.5649677
20
62.1037314
40
2.8024578
50
196.331518
51
203.8288854
0
ARC
8
DEFAULT_255_2_778
10
71.8955225
20
61.8056969
40
2.0696718
50
203.7688493
51
214.0134069
0
ARC
8
DEFAULT_255_2_778
10
71.4725809
20
61.5163389
40
1.5572332
50
213.8933589
51
230.695139
0
ARC
8
DEFAULT_255_2_778
10
71.3853793
20
61.4288582
40
1.4343551
50
231.1769271
51
257.8479287
0
ARC
8
DEFAULT_255_2_778
10
71.4900785
20
61.8768258
40
1.8943419
50
257.6043669
51
269.2143427
0
ARC
8
DEFAULT_255_2_778
10
71.5059707
20
62.2308577
40
2.2485855
50
268.933129
51
270.0033522
0
ARC
8
DEFAULT_255_2_778
10
71.5020637
20
62.5070783
40
2.5248095
50
270.0916461
51
275.5498994
0
ARC
8
DEFAULT_255_2_778
10
71.4507498
20
63.0474052
40
3.0675663
50
275.5278017
51
279.8244669
0
ARC
8
DEFAULT_255_2_778
10
71.3409852
20
63.6827288
40
3.7123021
50
279.8206007
51
283.6514352
0
ARC
8
DEFAULT_255_2_778
10
71.1604782
20
64.4296662
40
4.4807406
50
283.6401763
51
286.8432639
0
ARC
8
DEFAULT_255_2_778
10
70.918361
20
65.2336355
40
5.3203749
50
286.8300907
51
289.3804797
0
ARC
8
DEFAULT_255_2_778
10
70.5963848
20
66.147833
40
6.2896148
50
289.3838016
51
291.8966202
0
ARC
8
DEFAULT_255_2_778
10
70.1920746
20
67.1577924
40
7.3774946
50
291.8849339
51
293.8317495
0
ARC
8
DEFAULT_255_2_778
10
69.7303822
20
68.2037871
40
8.5208515
50
293.8296662
51
295.5981175
0
ARC
8
DEFAULT_255_2_778
10
69.871705
20
67.9326592
40
8.2152827
50
295.5262193
51
298.2621464
0
ARC
8
DEFAULT_255_2_778
10
70.6430707
20
66.4997639
40
6.5879558
50
298.254089
51
301.439189
0
ARC
8
DEFAULT_255_2_778
10
71.3584953
20
65.3320283
40
5.21849
50
301.4247732
51
305.2817626
0
ARC
8
DEFAULT_255_2_778
10
72.0174746
20
64.4027724
40
4.0792937
50
305.2648681
51
309.9464433
0
ARC
8
DEFAULT_255_2_778
10
72.6144842
20
63.6922352
40
3.1512415
50
309.9195545
51
315.8178061
0
ARC
8
DEFAULT_255_2_778
10
73.1446463
20
63.1791381
40
2.4134491
50
315.7813297
51
323.417587
0
ARC
8
DEFAULT_255_2_778
10
73.5937233
20
62.8478559
40
1.8554037
50
323.3675478
51
333.780058
0
ARC
8
DEFAULT_255_2_778
10
73.9441694
20
62.6784669
40
1.4661805
50
333.6677549
51
352.2741566
0
ARC
8
DEFAULT_255_2_778
10
74.0155372
20
62.6632705
40
1.3934285
50
352.4988424
51
0.0164259
0
ARC
8
DEFAULT_255_2_778
10
73.8830081
20
62.6582042
40
1.5259673
50
0.2052257
51
14.7350638
0
ARC
8
DEFAULT_255_2_778
10
73.5098389
20
62.5624863
40
1.9112113
50
14.6647433
51
23.9981465
0
ARC
8
DEFAULT_255_2_778
10
73.032435
20
62.3523344
40
2.4328188
50
23.946865
51
30.7105322
0
ARC
8
DEFAULT_255_2_778
10
72.4777657
20
62.0248655
40
3.0769396
50
30.6783926
51
35.9024517
0
ARC
8
DEFAULT_255_2_778
10
71.8232506
20
61.5516171
40
3.8846237
50
35.895472
51
40.4373618
0
ARC
8
DEFAULT_255_2_778
10
71.0510043
20
60.8951717
40
4.8981738
50
40.4226145
51
44.196356
0
ARC
8
DEFAULT_255_2_778
10
70.2202821
20
60.0905534
40
6.0546798
50
44.1751814
51
47.0849605
0
ARC
8
DEFAULT_255_2_778
10
69.3168739
20
59.1192274
40
7.3811867
50
47.0831344
51
49.7391442
0
ARC
8
DEFAULT_255_2_778
10
68.5018037
20
58.1635754
40
8.6372098
50
49.7100867
51
51.1450272
0
ARC
8
DEFAULT_255_2_778
10
-130.7382927
20
36.853052
40
200.4279613
50
355.5659975
51
0.0035828
0
ARC
8
DEFAULT_255_2_778
10
-130.5473952
20
36.8573435
40
200.2379677
50
350.8425575
51
355.5605503
0
ARC
8
DEFAULT_255_2_778
10
-131.9731583
20
37.0713613
40
201.6796203
50
350.5340054
51
350.8469943
0
ARC
8
DEFAULT_255_2_778
10
40.4077698
20
99.4573789
40
99.1752725
50
285.5294146
51
287.7090583
0
ARC
8
DEFAULT_255_2_778
10
57.7890529
20
-102.6235186
40
103.7691904
50
83.2101583
51
83.3079145
0
ARC
8
DEFAULT_255_2_778
10
64.5211946
20
-45.2456205
40
45.9977017
50
83.3076954
51
83.4338264
0
ARC
8
DEFAULT_255_2_778
10
68.0543079
20
-14.4860659
40
15.035904
50
83.4054843
51
83.7556598
0
ARC
8
DEFAULT_255_2_778
10
69.5096492
20
-1.1137743
40
1.5846725
50
83.4743788
51
85.1480832
0
ARC
8
DEFAULT_255_2_778
10
69.6392178
20
0.4086609
40
0.0567347
50
85.4869816
51
88.9964221
0
ARC
8
DEFAULT_255_2_778
10
69.6399561
20
0.4639561
40
0.0014534
50
79.8803302
51
113.8635363
0
ARC
8
DEFAULT_255_2_778
10
70.036897
20
0.4179065
40
0.4003423
50
173.2033824
51
180.0090947
0
ARC
8
DEFAULT_255_2_778
10
70.0424349
20
0.4178605
40
0.4058802
50
180.0024827
51
181.3769324
0
ARC
8
DEFAULT_255_2_778
10
70.0457649
20
0.4179923
40
0.4092124
50
181.3841791
51
185.3995656
0
LINE
8
DEFAULT_255_2_778
10
69.6896682
20
36.8652851
11
69.2687682
21
36.8652851
0
LINE
8
DEFAULT_255_2_778
10
69.2687682
20
36.8652851
11
68.8686682
21
36.8652851
0
LINE
8
DEFAULT_255_2_778
10
71.9722682
20
40.2521851
11
74.2629682
21
40.4524851
0
LINE
8
DEFAULT_255_2_778
10
74.2629682
20
59.2775851
11
71.9722682
21
59.4778851
0
LINE
8
DEFAULT_255_2_778
10
66.0889682
20
96.0596851
11
66.2860682
21
96.0930851
0
LINE
8
DEFAULT_255_2_778
10
66.2860682
20
96.0930851
11
66.2492682
21
96.3102851
0
LINE
8
DEFAULT_255_2_778
10
66.2492682
20
96.3102851
11
66.2860682
21
96.0930851
0
LINE
8
DEFAULT_255_2_778
10
69.0684682
20
62.8648851
11
69.2684682
21
62.8648851
0
LINE
8
DEFAULT_255_2_778
10
69.2684682
20
62.8648851
11
69.6893682
21
62.8648851
0
LINE
8
DEFAULT_255_2_778
10
70.5752682
20
4.9816851
11
70.0574682
21
0.4178851
0
ARC
8
DEFAULT_255_2_778
10
69.6353307
20
3.8420797
40
0.4114926
50
51.7388827
51
87.7356558
0
ARC
8
DEFAULT_255_2_778
10
69.6445286
20
3.8712459
40
0.3830488
50
358.6233742
51
50.1173991
0
ARC
8
DEFAULT_255_2_778
10
69.5508266
20
3.8623534
40
0.4766404
50
353.7001627
51
359.9627342
0
ARC
8
DEFAULT_255_2_778
10
67.0425022
20
3.523094
40
0.0064915
50
304.6048149
51
7.5132276
0
ARC
8
DEFAULT_255_2_778
10
67.005017
20
3.5279663
40
0.0441049
50
354.7658596
51
0.324606
0
ARC
8
DEFAULT_255_2_778
10
66.7775995
20
3.515414
40
0.2718235
50
2.6994978
51
11.9311094
0
ARC
8
DEFAULT_255_2_778
10
65.3115548
20
3.2369052
40
1.7640398
50
10.9374569
51
13.8961449
0
ARC
8
DEFAULT_255_2_778
10
61.759198
20
2.37913
40
5.4184728
50
13.6796563
51
14.8426038
0
ARC
8
DEFAULT_255_2_778
10
55.9345109
20
0.8421812
40
11.4425222
50
14.8104926
51
15.51657
0
ARC
8
DEFAULT_255_2_778
10
55.7327079
20
-63.2481411
40
68.0834877
50
80.508307
51
80.6567435
0
ARC
8
DEFAULT_255_2_778
10
61.8589435
20
-26.0124267
40
30.3471763
50
80.6563417
51
80.8470583
0
ARC
8
DEFAULT_255_2_778
10
65.0895669
20
-5.9155138
40
9.9922587
50
80.8049999
51
81.3319796
0
ARC
8
DEFAULT_255_2_778
10
66.4245174
20
2.8923214
40
1.0838636
50
80.9240014
51
83.3931126
0
ARC
8
DEFAULT_255_2_778
10
66.5446449
20
3.9259132
40
0.0433165
50
83.9330374
51
88.7436331
0
ARC
8
DEFAULT_255_2_778
10
66.5452962
20
3.9679125
40
0.0013404
50
77.133756
51
121.8568161
0
ARC
8
DEFAULT_255_2_778
10
66.9386146
20
3.9024088
40
0.3996218
50
170.4003293
51
173.3187668
0
ARC
8
DEFAULT_255_2_778
10
66.9373848
20
3.902552
40
0.3983837
50
173.3186358
51
179.9994537
0
ARC
8
DEFAULT_255_2_778
10
66.9383484
20
3.9026538
40
0.3993472
50
180.0140622
51
228.0493494
0
ARC
8
DEFAULT_255_2_778
10
66.9384944
20
3.902563
40
0.3993772
50
228.0250688
51
270.0104408
0
ARC
8
DEFAULT_255_2_778
10
66.9385652
20
3.902667
40
0.3994812
50
270.0002831
51
274.2054547
0
ARC
8
DEFAULT_255_2_778
10
66.9385021
20
3.9031686
40
0.3999862
50
274.2091949
51
285.6182057
0
LINE
8
DEFAULT_255_2_778
10
70.0245888
20
3.810051
11
70.5751888
21
4.981651
0
LINE
8
DEFAULT_255_2_778
10
70.5751888
20
4.981651
11
69.5290888
21
4.248751
0
LINE
8
DEFAULT_255_2_778
10
69.5290888
20
4.248751
11
69.5110888
21
4.236851
0
LINE
8
DEFAULT_255_2_778
10
69.5110888
20
4.236851
11
67.0461888
21
3.517751
0
LINE
8
DEFAULT_255_2_778
10
69.6393888
20
0.464951
11
70.0245888
21
3.809851
0
ARC
8
DEFAULT_255_2_778
10
69.6257272
20
3.8564492
40
0.3970554
50
93.562596
51
107.0580815
0
ARC
8
DEFAULT_255_2_778
10
-130.7264366
20
36.8652321
40
199.9950911
50
350.5325357
51
0.0000874
0
ARC
8
DEFAULT_255_2_778
10
71.2926767
20
0.8201397
40
0.3996807
50
288.1462378
51
353.3329912
0
ARC
8
DEFAULT_255_2_778
10
72.2583807
20
36.8793514
40
2.9752686
50
74.8001861
51
86.4306806
0
ARC
8
DEFAULT_255_2_778
10
72.25857
20
36.8805826
40
2.974028
50
86.4328451
51
90.0000247
0
ARC
8
DEFAULT_255_2_778
10
72.2585297
20
36.8780045
40
2.9766062
50
89.9992485
51
126.7802773
0
ARC
8
DEFAULT_255_2_778
10
72.2639161
20
36.8707253
40
2.9856614
50
126.7794286
51
127.5243408
0
ARC
8
DEFAULT_255_2_778
10
72.2585889
20
36.8779811
40
2.9766619
50
127.5280858
51
179.9981015
0
ARC
8
DEFAULT_255_2_778
10
72.2705345
20
36.878128
40
2.9886076
50
180.0009239
51
180.2471331
0
ARC
8
DEFAULT_255_2_778
10
69.6177055
20
3.6579769
40
0.5961348
50
85.7046565
51
90.0052519
0
ARC
8
DEFAULT_255_2_778
10
69.6176509
20
3.6509691
40
0.6031426
50
90.0000034
51
90.4475433
0
ARC
8
DEFAULT_255_2_778
10
69.6178566
20
3.6458032
40
0.6083098
50
90.4631232
51
98.6226953
0
LINE
8
DEFAULT_255_2_778
10
74.0632546
20
29.2654373
11
74.0433546
21
28.8653373
0
LINE
8
DEFAULT_255_2_778
10
72.5093546
20
91.3938373
11
72.8077546
21
91.4218373
0
LINE
8
DEFAULT_255_2_778
10
72.8077546
20
91.4218373
11
73.2297546
21
86.9416373
0
LINE
8
DEFAULT_255_2_778
10
73.2297546
20
86.9416373
11
72.9278546
21
86.9416373
0
LINE
8
DEFAULT_255_2_778
10
73.4160546
20
88.1632373
11
73.4128546
21
88.1965373
0
LINE
8
DEFAULT_255_2_778
10
73.1141708
20
88.1686198
11
73.4128708
21
88.1966198
0
LINE
8
DEFAULT_255_2_778
10
73.4128708
20
88.1966198
11
73.4200708
21
88.1196198
0
LINE
8
DEFAULT_255_2_778
10
73.4200708
20
88.1196198
11
73.1212708
21
88.0916198
0
ARC
8
DEFAULT_255_2_778
10
117.0308256
20
93.6289191
40
44.2424498
50
184.3384593
51
185.3148959
0
ARC
8
DEFAULT_255_2_778
10
124.4554432
20
94.3148548
40
51.6986844
50
185.3096298
51
186.0430727
0
ARC
8
DEFAULT_255_2_778
10
131.9149815
20
95.1037544
40
59.1998226
50
186.0423031
51
186.71238
0
ARC
8
DEFAULT_255_2_778
10
73.1310734
20
90.8996875
40
2.7155429
50
269.786382
51
272.7997782
0
ARC
8
DEFAULT_255_2_778
10
73.2313424
20
89.0020687
40
0.8153256
50
272.2756454
51
279.665685
0
ARC
8
DEFAULT_255_2_778
10
73.3579541
20
88.3026714
40
0.1048592
50
275.6264614
51
305.3677688
0
ARC
8
DEFAULT_255_2_778
10
80.4490288
20
89.2331447
40
7.1034118
50
186.054715
51
188.2230563
0
ARC
8
DEFAULT_255_2_778
10
77.8850752
20
88.957149
40
4.524651
50
184.2470846
51
186.003872
0
LINE
8
DEFAULT_255_2_778
10
73.372849
20
88.6220635
11
73.213849
21
90.3100635
0
LINE
8
DEFAULT_255_2_778
10
73.213849
20
90.3100635
11
72.915149
21
90.2820635
0
LINE
8
DEFAULT_255_2_778
10
73.372849
20
88.6220635
11
73.372849
21
88.6220635
0
LINE
8
DEFAULT_255_2_778
10
73.4130844
20
88.196539
11
73.3728844
21
88.623339
0
LINE
8
DEFAULT_255_2_778
10
73.3728844
20
88.623339
11
73.0741844
21
88.595339
0
LINE
8
DEFAULT_255_2_778
10
74.5674844
20
48.865439
11
74.5674844
21
50.865439
0
LINE
8
DEFAULT_255_2_778
10
74.5169844
20
56.456839
11
74.5687844
21
56.456839
0
LINE
8
DEFAULT_255_2_778
10
74.5687844
20
56.456839
11
74.5687844
21
56.669339
0
LINE
8
DEFAULT_255_2_778
10
74.5687844
20
56.669339
11
74.5137844
21
56.669339
0
LINE
8
DEFAULT_255_2_778
10
74.5264844
20
55.812639
11
74.5685844
21
55.812639
0
LINE
8
DEFAULT_255_2_778
10
74.5685844
20
55.812639
11
74.5685844
21
56.217739
0
LINE
8
DEFAULT_255_2_778
10
74.5685844
20
56.217739
11
74.5203844
21
56.217739
0
LINE
8
DEFAULT_255_2_778
10
74.5689229
20
56.2177166
11
74.5689229
21
56.4569166
0
LINE
8
DEFAULT_255_2_778
10
74.5686229
20
57.2355166
11
74.5686229
21
56.8466166
0
LINE
8
DEFAULT_255_2_778
10
74.5686229
20
56.8466166
11
74.5106229
21
56.8466166
0
LINE
8
DEFAULT_255_2_778
10
74.5686229
20
57.6223166
11
74.5686229
21
57.2355166
0
LINE
8
DEFAULT_255_2_778
10
74.5686229
20
57.2355166
11
74.5040229
21
57.2355166
0
LINE
8
DEFAULT_255_2_778
10
74.4972229
20
57.6223166
11
74.5689229
21
57.6223166
0
LINE
8
DEFAULT_255_2_778
10
74.5689229
20
57.6223166
11
74.5689229
21
57.7205166
0
LINE
8
DEFAULT_255_2_778
10
74.5689229
20
57.7205166
11
74.4953229
21
57.7205166
0
LINE
8
DEFAULT_255_2_778
10
74.5686125
20
56.846627
11
74.5686125
21
56.748427
0
LINE
8
DEFAULT_255_2_778
10
74.5686125
20
56.748427
11
74.5123125
21
56.748427
0
LINE
8
DEFAULT_255_2_778
10
74.4723125
20
58.405827
11
74.5686125
21
58.405827
0
LINE
8
DEFAULT_255_2_778
10
74.5686125
20
58.405827
11
74.5686125
21
59.231027
0
LINE
8
DEFAULT_255_2_778
10
74.5686125
20
59.231027
11
74.4636125
21
59.231027
0
LINE
8
DEFAULT_255_2_778
10
74.5689125
20
60.207927
11
74.5689125
21
59.717127
0
LINE
8
DEFAULT_255_2_778
10
74.5689125
20
59.717127
11
74.4533125
21
59.717127
0
LINE
8
DEFAULT_255_2_778
10
74.4413125
20
60.207927
11
74.5686125
21
60.207927
0
LINE
8
DEFAULT_255_2_778
10
74.5686125
20
60.207927
11
74.5686125
21
60.288027
0
LINE
8
DEFAULT_255_2_778
10
74.5686125
20
60.288027
11
74.4392125
21
60.288027
0
LINE
8
DEFAULT_255_2_778
10
74.5686125
20
60.289927
11
74.5686125
21
60.314527
0
LINE
8
DEFAULT_255_2_778
10
74.5686125
20
60.314527
11
74.4387125
21
60.314527
0
LINE
8
DEFAULT_255_2_778
10
74.5687802
20
59.7170809
11
74.5687802
21
59.6141809
0
LINE
8
DEFAULT_255_2_778
10
74.5687802
20
59.6141809
11
74.4555802
21
59.6141809
0
LINE
8
DEFAULT_255_2_778
10
74.5288802
20
55.6488809
11
74.5685802
21
55.6488809
0
LINE
8
DEFAULT_255_2_778
10
74.5685802
20
55.6488809
11
74.5685802
21
54.9921809
0
LINE
8
DEFAULT_255_2_778
10
74.5685802
20
54.9921809
11
74.5373802
21
54.9921809
0
LINE
8
DEFAULT_255_2_778
10
74.5687802
20
55.6784809
11
74.5687802
21
55.7089809
0
LINE
8
DEFAULT_255_2_778
10
74.5687802
20
55.7089809
11
74.5280802
21
55.7089809
0
LINE
8
DEFAULT_255_2_778
10
74.5687802
20
54.9387809
11
74.5380802
21
54.9387809
0
LINE
8
DEFAULT_255_2_778
10
74.5674802
20
48.8376809
11
74.5687802
21
48.8376809
0
LINE
8
DEFAULT_255_2_778
10
13.0687802
20
59.8655809
11
13.0685802
21
66.3655809
0
LINE
8
DEFAULT_255_2_778
10
13.0685802
20
66.3655809
11
10.0686802
21
66.3655809
0
LINE
8
DEFAULT_255_2_778
10
10.0686802
20
66.3655809
11
10.0686802
21
59.8655809
0
LINE
8
DEFAULT_255_2_778
10
10.0686802
20
59.8655809
11
13.0687802
21
59.8655809
0
LINE
8
DEFAULT_255_2_778
10
13.0687802
20
59.8655809
11
13.0687802
21
0.2654809
0
LINE
8
DEFAULT_255_2_778
10
13.0687802
20
0.2654809
11
0.6685802
21
0.2654809
0
LINE
8
DEFAULT_255_2_778
10
0.6685802
20
0.2654809
11
0.6685802
21
30.6481809
0
LINE
8
DEFAULT_255_2_778
10
0.6685802
20
30.6481809
11
5.7686802
21
31.5474809
0
LINE
8
DEFAULT_255_2_778
10
5.7686802
20
31.5474809
11
5.7686802
21
33.8654809
0
LINE
8
DEFAULT_255_2_778
10
5.7686802
20
33.8654809
11
5.2685802
21
33.8654809
0
LINE
8
DEFAULT_255_2_778
10
5.2685802
20
33.8654809
11
5.2685802
21
67.8654809
0
LINE
8
DEFAULT_255_2_778
10
5.2685802
20
67.8654809
11
0.6685802
21
67.8654809
0
LINE
8
DEFAULT_255_2_778
10
0.6685802
20
67.8654809
11
0.6685802
21
79.8376809
0
LINE
8
DEFAULT_255_2_778
10
0.6685802
20
79.8376809
11
3.4270802
21
99.4654809
0
LINE
8
DEFAULT_255_2_778
10
3.4270802
20
99.4654809
11
13.0685802
21
99.4654809
0
LINE
8
DEFAULT_255_2_778
10
13.060901
20
66.3723662
11
10.067701
21
66.3723662
0
LINE
8
DEFAULT_255_2_778
10
10.067701
20
66.3723662
11
10.067701
21
59.8652662
0
LINE
8
DEFAULT_255_2_778
10
10.067701
20
59.8652662
11
13.060901
21
59.8652662
0
LINE
8
DEFAULT_255_2_778
10
13.060901
20
59.8652662
11
13.060901
21
66.3723662
0
LINE
8
DEFAULT_255_2_778
10
0.675001
20
67.8691662
11
0.675001
21
67.4640662
0
LINE
8
DEFAULT_255_2_778
10
0.675001
20
67.4640662
11
5.272101
21
67.4640662
0
LINE
8
DEFAULT_255_2_778
10
5.272101
20
67.4640662
11
5.272101
21
67.8691662
0
LINE
8
DEFAULT_255_2_778
10
5.272101
20
67.8691662
11
0.675001
21
67.8691662
0
LINE
8
DEFAULT_255_2_778
10
67.052301
20
96.2041662
11
66.953101
21
95.8236662
0
LINE
8
DEFAULT_255_2_778
10
66.953101
20
95.8236662
11
71.831501
21
94.3353662
0
LINE
8
DEFAULT_255_2_778
10
71.831501
20
94.3353662
11
71.947401
21
94.7322662
0
LINE
8
DEFAULT_255_2_778
10
71.947401
20
94.7322662
11
67.052301
21
96.2041662
0
LINE
8
DEFAULT_255_2_778
10
71.4171521
20
99.2905301
11
70.1561521
21
99.6948301
0
LINE
8
DEFAULT_255_2_778
10
70.1561521
20
99.6948301
11
70.6736521
21
95.1294301
0
LINE
8
DEFAULT_255_2_778
10
70.6736521
20
95.1294301
11
71.9304521
21
94.7325301
0
LINE
8
DEFAULT_255_2_778
10
71.9304521
20
94.7325301
11
71.4179521
21
99.2884301
0
LINE
8
DEFAULT_255_2_778
10
13.0773167
20
98.5029518
11
13.5901167
21
98.5029518
0
LINE
8
DEFAULT_255_2_778
10
13.5901167
20
98.5029518
11
13.5652167
21
0.7888518
0
LINE
8
DEFAULT_255_2_778
10
13.5652167
20
0.7888518
11
13.4742167
21
0.7806518
0
LINE
8
DEFAULT_255_2_778
10
13.4742167
20
0.7806518
11
13.4660167
21
-0.1371482
0
LINE
8
DEFAULT_255_2_778
10
13.4660167
20
-0.1371482
11
13.0609167
21
-0.1371482
0
LINE
8
DEFAULT_255_2_778
10
13.0609167
20
-0.1371482
11
13.0776167
21
98.4944518
0
ENDSEC
0
EOF