0
SECTION
2
HEADER
9
$MEASUREMENT
70
1
0
ENDSEC
0
SECTION
2
TABLES
0
TABLE
2
LTYPE
0
LTYPE
72
65
70
64
2
CONTINUOUS
3
______
73
0
40
0
0
ENDTAB
0
TABLE
2
LAYER
0
LAYER
2
DEFAULT_255_2_778
70
0
62
255
6
CONTINUOUS
0
LAYER
2
DEFAULT_255_1_388
70
0
62
255
6
CONTINUOUS
0
ENDTAB
0
ENDSEC
0
SECTION
2
ENTITIES
0
ARC
8
DEFAULT_255_2_778
10
3.5695693
20
51.9926534
40
0.7914215
50
129.1312896
51
180.1450914
0
ARC
8
DEFAULT_255_2_778
10
3.5698345
20
51.9931405
40
0.7912112
50
89.854026
51
129.1684493
0
ARC
8
DEFAULT_255_2_778
10
25.7988937
20
51.992827
40
0.7915249
50
39.4792447
51
90.147911
0
ARC
8
DEFAULT_255_2_778
10
25.7994935
20
51.9926737
40
0.7911595
50
359.8533901
51
39.5154338
0
ARC
8
DEFAULT_255_2_778
10
25.7991693
20
-1.9863989
40
0.7914836
50
309.4761667
51
0.1482649
0
ARC
8
DEFAULT_255_2_778
10
25.798898
20
-1.98683
40
0.7913235
50
269.8517415
51
309.511178
0
ARC
8
DEFAULT_255_2_778
10
3.569842
20
-1.9867718
40
0.7913815
50
219.1282118
51
270.1454017
0
ARC
8
DEFAULT_255_2_778
10
3.5695247
20
-1.9863893
40
0.7913769
50
179.8524075
51
219.1641908
0
LINE
8
DEFAULT_255_2_778
10
3.5718503
20
52.7843492
11
25.7968503
21
52.7843492
0
LINE
8
DEFAULT_255_2_778
10
26.5906503
20
51.9906492
11
26.5906503
21
-1.9843508
0
LINE
8
DEFAULT_255_2_778
10
25.7968503
20
-2.7781508
11
3.5718503
21
-2.7781508
0
LINE
8
DEFAULT_255_2_778
10
2.7781503
20
-1.9843508
11
2.7781503
21
51.9906492
0
LINE
8
DEFAULT_255_1_388
10
5.8344015
20
1.3381934
11
5.8642191
21
1.3381934
0
LINE
8
DEFAULT_255_1_388
10
5.8642191
20
1.3381934
11
5.8642191
21
1.1963338
0
LINE
8
DEFAULT_255_1_388
10
5.8642191
20
1.1963338
11
5.8334979
21
1.1963338
0
LINE
8
DEFAULT_255_1_388
10
5.2181705
20
0.5222747
11
5.2181705
21
0.5864278
0
LINE
8
DEFAULT_255_1_388
10
5.3862335
20
0.5647422
11
5.3862335
21
0.5032999
0
ARC
8
DEFAULT_255_1_388
10
5.8393871
20
0.6340826
40
0.562282
50
90.6001079
51
104.5146616
0
ARC
8
DEFAULT_255_1_388
10
5.795683
20
0.79661
40
0.3939917
50
104.2855758
51
133.8630124
0
ARC
8
DEFAULT_255_1_388
10
5.8141083
20
0.7844243
40
0.4155734
50
134.5304124
51
161.6210222
0
ARC
8
DEFAULT_255_1_388
10
6.0001015
20
0.7188421
40
0.6127682
50
161.2850533
51
174.2074364
0
ARC
8
DEFAULT_255_1_388
10
6.1590582
20
0.6969437
40
0.7731446
50
173.7817938
51
174.9251711
0
ARC
8
DEFAULT_255_1_388
10
5.6464775
20
0.541427
40
0.3412588
50
95.8332067
51
138.995412
0
ARC
8
DEFAULT_255_1_388
10
5.6716056
20
0.3975695
40
0.4870358
50
89.8755506
51
97.0540979
0
ARC
8
DEFAULT_255_1_388
10
5.6769445
20
0.4915841
40
0.3930432
50
71.6407016
51
90.6240821
0
ARC
8
DEFAULT_255_1_388
10
5.6938838
20
0.5539433
40
0.3285421
50
39.6368051
51
71.0190743
0
ARC
8
DEFAULT_255_1_388
10
5.6222746
20
0.4920586
40
0.4231706
50
10.6588054
51
39.9044509
0
ARC
8
DEFAULT_255_1_388
10
5.4481291
20
0.4542223
40
0.60133
50
359.6827842
51
11.1326896
0
ARC
8
DEFAULT_255_1_388
10
5.4436627
20
0.4462715
40
0.6058047
50
347.2485908
51
0.4371098
0
ARC
8
DEFAULT_255_1_388
10
5.6312413
20
0.4011379
40
0.4128987
50
318.1408565
51
347.6118497
0
ARC
8
DEFAULT_255_1_388
10
5.6678009
20
0.3710903
40
0.3656244
50
275.6342406
51
317.824739
0
ARC
8
DEFAULT_255_1_388
10
5.642953
20
0.5172827
40
0.513655
50
269.8872513
51
276.7916069
0
ARC
8
DEFAULT_255_1_388
10
5.6367723
20
0.4019181
40
0.398323
50
246.9139443
51
270.7436787
0
ARC
8
DEFAULT_255_1_388
10
5.6374919
20
0.3859044
40
0.3839368
50
218.1665534
51
245.8780431
0
ARC
8
DEFAULT_255_1_388
10
5.7364291
20
0.4686903
40
0.5128958
50
191.4115343
51
218.6077624
0
ARC
8
DEFAULT_255_1_388
10
5.9544607
20
0.5175777
40
0.7363054
50
179.6344971
51
191.7836758
0
ARC
8
DEFAULT_255_1_388
10
6.5824482
20
0.5939495
40
1.3642984
50
171.4523743
51
180.3158856
0
ARC
8
DEFAULT_255_1_388
10
6.0880209
20
0.6708895
40
0.8639311
50
157.9802296
51
171.6246761
0
ARC
8
DEFAULT_255_1_388
10
5.8389559
20
0.7702038
40
0.5958004
50
141.4299236
51
157.8541251
0
ARC
8
DEFAULT_255_1_388
10
5.7667643
20
0.8212746
40
0.5075416
50
102.871586
51
140.8564533
0
ARC
8
DEFAULT_255_1_388
10
5.8396195
20
0.5467943
40
0.7914163
50
90.377773
51
103.5868422
0
ARC
8
DEFAULT_255_1_388
10
5.6440717
20
0.4787543
40
0.2667015
50
89.8751238
51
126.2072139
0
ARC
8
DEFAULT_255_1_388
10
5.6492188
20
0.4613847
40
0.2838229
50
124.9742447
51
144.8960197
0
ARC
8
DEFAULT_255_1_388
10
5.6294433
20
0.4774981
40
0.2583845
50
145.2974778
51
160.2660922
0
ARC
8
DEFAULT_255_1_388
10
5.9750921
20
0.4997151
40
0.5888695
50
179.6512124
51
190.285571
0
ARC
8
DEFAULT_255_1_388
10
5.7845401
20
0.4637968
40
0.3949683
50
190.0944895
51
207.5099647
0
ARC
8
DEFAULT_255_1_388
10
5.7208982
20
0.4335177
40
0.3245464
50
207.9585471
51
216.325377
0
ARC
8
DEFAULT_255_1_388
10
5.6826619
20
0.4020712
40
0.2751259
50
215.7661336
51
232.5457193
0
ARC
8
DEFAULT_255_1_388
10
5.6395735
20
0.3473273
40
0.2054668
50
232.8005815
51
270.6605497
0
ARC
8
DEFAULT_255_1_388
10
5.644716
20
0.3882853
40
0.2464268
50
269.3550767
51
288.474612
0
ARC
8
DEFAULT_255_1_388
10
5.6551667
20
0.3489721
40
0.2058436
50
289.1831976
51
322.9685307
0
ARC
8
DEFAULT_255_1_388
10
5.5863768
20
0.4032279
40
0.2934408
50
322.6007085
51
346.5183319
0
ARC
8
DEFAULT_255_1_388
10
5.4561524
20
0.4364434
40
0.4278249
50
346.2584622
51
358.7739592
0
ARC
8
DEFAULT_255_1_388
10
5.34101
20
0.4426829
40
0.5430876
50
358.3757628
51
0.0082477
0
ARC
8
DEFAULT_255_1_388
10
5.4266918
20
0.4457856
40
0.4574157
50
359.6211417
51
11.28403
0
ARC
8
DEFAULT_255_1_388
10
5.5703524
20
0.4757535
40
0.3106708
50
11.0483152
51
31.8145585
0
ARC
8
DEFAULT_255_1_388
10
5.6051229
20
0.4946045
40
0.2711963
50
32.3028554
51
38.0820598
0
ARC
8
DEFAULT_255_1_388
10
5.6524462
20
0.5374717
40
0.2075566
50
36.8249851
51
85.741667
0
ARC
8
DEFAULT_255_1_388
10
5.6448875
20
0.4811065
40
0.2643487
50
85.0150021
51
90.050843
0
LINE
8
DEFAULT_255_1_388
10
7.0343351
20
0.7716585
11
7.0343351
21
0.6297989
0
LINE
8
DEFAULT_255_1_388
10
7.0343351
20
0.6297989
11
6.4641859
21
0.6297989
0
LINE
8
DEFAULT_255_1_388
10
6.4641859
20
0.6297989
11
6.4641859
21
0.1635596
0
LINE
8
DEFAULT_255_1_388
10
6.4641859
20
0.1635596
11
7.1264986
21
0.1635596
0
LINE
8
DEFAULT_255_1_388
10
7.1264986
20
0.1635596
11
7.1264986
21
0.0217
0
LINE
8
DEFAULT_255_1_388
10
7.1264986
20
0.0217
11
6.2907015
21
0.0217
0
LINE
8
DEFAULT_255_1_388
10
6.2907015
20
0.0217
11
6.2907015
21
1.3372898
0
LINE
8
DEFAULT_255_1_388
10
6.2907015
20
1.3372898
11
7.117463
21
1.3372898
0
LINE
8
DEFAULT_255_1_388
10
7.117463
20
1.3372898
11
7.117463
21
1.1945267
0
LINE
8
DEFAULT_255_1_388
10
7.117463
20
1.1945267
11
6.4641859
21
1.1945267
0
LINE
8
DEFAULT_255_1_388
10
6.4641859
20
1.1945267
11
6.4641859
21
0.7716585
0
LINE
8
DEFAULT_255_1_388
10
6.4641859
20
0.7716585
11
7.0343351
21
0.7716585
0
LINE
8
DEFAULT_255_1_388
10
8.2152938
20
0.9568892
11
8.0409059
21
0.9568892
0
LINE
8
DEFAULT_255_1_388
10
7.2620333
20
0.4030042
11
7.4364212
21
0.4030042
0
ARC
8
DEFAULT_255_1_388
10
8.1149786
20
1.9632821
40
1.4087688
50
248.9196578
51
254.1442424
0
ARC
8
DEFAULT_255_1_388
10
7.9259666
20
1.4766805
40
0.8867498
50
241.6337352
51
249.0064643
0
ARC
8
DEFAULT_255_1_388
10
7.7539979
20
1.1615764
40
0.5277799
50
230.4982261
51
241.8087583
0
ARC
8
DEFAULT_255_1_388
10
7.665775
20
1.0491686
40
0.3849419
50
227.4062979
51
229.9877433
0
ARC
8
DEFAULT_255_1_388
10
7.6109097
20
0.9956155
40
0.3084129
50
200.6782127
51
228.1765252
0
ARC
8
DEFAULT_255_1_388
10
7.6190466
20
0.9939277
40
0.315461
50
179.506278
51
199.8695278
0
ARC
8
DEFAULT_255_1_388
10
7.6180054
20
1.0022671
40
0.3144584
50
132.4834401
51
181.0242352
0
ARC
8
DEFAULT_255_1_388
10
7.6849259
20
0.9390788
40
0.4063094
50
129.2526113
51
133.4249077
0
ARC
8
DEFAULT_255_1_388
10
7.7014851
20
0.9142619
40
0.436014
50
101.9878945
51
128.8741833
0
ARC
8
DEFAULT_255_1_388
10
7.7463267
20
0.720636
40
0.6347415
50
89.5906376
51
102.3170567
0
ARC
8
DEFAULT_255_1_388
10
7.7542578
20
0.7564586
40
0.5989122
50
77.2359491
51
90.3248968
0
ARC
8
DEFAULT_255_1_388
10
7.7775509
20
0.8652554
40
0.4876594
50
63.8379856
51
77.0808925
0
ARC
8
DEFAULT_255_1_388
10
7.8088043
20
0.9234882
40
0.4216191
50
45.9863127
51
64.1608798
0
ARC
8
DEFAULT_255_1_388
10
7.8381436
20
0.956999
40
0.3771394
50
32.2747934
51
45.6544796
0
ARC
8
DEFAULT_255_1_388
10
7.8456243
20
0.9591426
40
0.3696765
50
359.6507495
51
32.6129943
0
ARC
8
DEFAULT_255_1_388
10
7.7395425
20
0.9596788
40
0.3013762
50
359.469654
51
14.983205
0
ARC
8
DEFAULT_255_1_388
10
7.8188678
20
0.9809288
40
0.2192542
50
14.9781954
51
48.2004799
0
ARC
8
DEFAULT_255_1_388
10
7.8003788
20
0.9576937
40
0.2489048
50
48.5926661
51
74.1242559
0
ARC
8
DEFAULT_255_1_388
10
7.7628591
20
0.8338607
40
0.3782845
50
73.7889321
51
86.6653996
0
ARC
8
DEFAULT_255_1_388
10
7.7513405
20
0.6980955
40
0.5145025
50
86.2642725
51
90.0533288
0
ARC
8
DEFAULT_255_1_388
10
7.7481498
20
0.7425376
40
0.4700681
50
89.669455
51
99.2313411
0
ARC
8
DEFAULT_255_1_388
10
7.7208658
20
0.9050401
40
0.3052945
50
99.0695987
51
113.7659242
0
ARC
8
DEFAULT_255_1_388
10
7.6900652
20
0.9776772
40
0.226407
50
114.0402885
51
127.9848946
0
ARC
8
DEFAULT_255_1_388
10
7.6630129
20
1.0109884
40
0.1835045
50
127.7287217
51
176.7106493
0
ARC
8
DEFAULT_255_1_388
10
7.7393794
20
0.999621
40
0.2604907
50
175.1780759
51
180.0581213
0
ARC
8
DEFAULT_255_1_388
10
7.6445137
20
0.9982411
40
0.1656287
50
179.6140658
51
228.124674
0
ARC
8
DEFAULT_255_1_388
10
7.6942495
20
1.044294
40
0.2332038
50
226.5785315
51
230.8792476
0
ARC
8
DEFAULT_255_1_388
10
7.7471981
20
1.1145908
40
0.3211664
50
231.4636401
51
241.9261664
0
ARC
8
DEFAULT_255_1_388
10
7.8818765
20
1.3624349
40
0.6032345
50
241.7177136
51
248.3259138
0
ARC
8
DEFAULT_255_1_388
10
8.0377359
20
1.7485771
40
1.0196417
50
248.2007377
51
252.4527713
0
ARC
8
DEFAULT_255_1_388
10
8.1730886
20
2.1670092
40
1.4594143
50
252.3388938
51
254.347037
0
ARC
8
DEFAULT_255_1_388
10
7.3246187
20
-0.8677905
40
1.6917621
50
71.0197462
51
74.4085467
0
ARC
8
DEFAULT_255_1_388
10
7.5153275
20
-0.3172856
40
1.1091618
50
66.1845203
51
71.086519
0
ARC
8
DEFAULT_255_1_388
10
7.6903823
20
0.0768439
40
0.6779073
50
59.3537334
51
66.269255
0
ARC
8
DEFAULT_255_1_388
10
7.7903549
20
0.2459777
40
0.4814366
50
49.1021732
51
59.3294421
0
ARC
8
DEFAULT_255_1_388
10
7.8824538
20
0.3509575
40
0.3417875
50
32.7924183
51
49.2503526
0
ARC
8
DEFAULT_255_1_388
10
7.9174152
20
0.3759311
40
0.2988789
50
31.121225
51
32.3977355
0
ARC
8
DEFAULT_255_1_388
10
7.908633
20
0.3726728
40
0.3080861
50
8.1116803
51
30.7958224
0
ARC
8
DEFAULT_255_1_388
10
7.8174675
20
0.3571437
40
0.4005385
50
359.8390945
51
8.4707348
0
ARC
8
DEFAULT_255_1_388
10
7.8878723
20
0.3516751
40
0.3301608
50
337.4732479
51
0.7538283
0
ARC
8
DEFAULT_255_1_388
10
7.9079748
20
0.3494554
40
0.3107929
50
307.5917028
51
336.4313755
0
ARC
8
DEFAULT_255_1_388
10
7.8568806
20
0.4062509
40
0.3870096
50
307.6560665
51
308.4561779
0
ARC
8
DEFAULT_255_1_388
10
7.8303022
20
0.4470832
40
0.435591
50
284.3733666
51
307.1426212
0
ARC
8
DEFAULT_255_1_388
10
7.7745917
20
0.6520391
40
0.6479685
50
272.4384566
51
284.6464689
0
ARC
8
DEFAULT_255_1_388
10
7.7603302
20
0.8544434
40
0.8508149
50
269.9708517
51
272.8180721
0
ARC
8
DEFAULT_255_1_388
10
7.7554984
20
0.6252283
40
0.6216151
50
248.2707343
51
270.4054609
0
ARC
8
DEFAULT_255_1_388
10
7.7493856
20
0.6037673
40
0.5994203
50
246.1380358
51
248.054058
0
ARC
8
DEFAULT_255_1_388
10
7.7022998
20
0.5048705
40
0.4899388
50
233.1671897
51
246.4951656
0
ARC
8
DEFAULT_255_1_388
10
7.6399633
20
0.4207137
40
0.3852115
50
215.3403381
51
233.084328
0
ARC
8
DEFAULT_255_1_388
10
7.6092997
20
0.3984093
40
0.3472969
50
179.2419235
51
215.2648426
0
ARC
8
DEFAULT_255_1_388
10
7.6956548
20
0.3999979
40
0.259251
50
179.3355796
51
199.1045873
0
ARC
8
DEFAULT_255_1_388
10
7.658269
20
0.3902223
40
0.2207454
50
199.8830064
51
232.7061328
0
ARC
8
DEFAULT_255_1_388
10
7.7113965
20
0.4570456
40
0.306101
50
232.3736206
51
255.5136621
0
ARC
8
DEFAULT_255_1_388
10
7.749747
20
0.5970177
40
0.4512213
50
255.2447928
51
267.5318292
0
ARC
8
DEFAULT_255_1_388
10
7.7595937
20
0.7356709
40
0.5901825
50
267.1564563
51
270.0294721
0
ARC
8
DEFAULT_255_1_388
10
7.7627263
20
0.6857623
40
0.5402814
50
269.6999944
51
278.1662446
0
ARC
8
DEFAULT_255_1_388
10
7.791529
20
0.4910974
40
0.3435003
50
278.0229022
51
290.6255326
0
ARC
8
DEFAULT_255_1_388
10
7.8306457
20
0.3867547
40
0.2320666
50
290.6616368
51
307.0374127
0
ARC
8
DEFAULT_255_1_388
10
7.8644357
20
0.345304
40
0.1786372
50
306.3942078
51
355.303191
0
ARC
8
DEFAULT_255_1_388
10
7.806865
20
0.3539186
40
0.2367516
50
354.3662092
51
0.0709489
0
ARC
8
DEFAULT_255_1_388
10
7.8228518
20
0.3564561
40
0.2207761
50
359.4175379
51
16.1975911
0
ARC
8
DEFAULT_255_1_388
10
7.8740636
20
0.3704954
40
0.1676828
50
16.4721294
51
52.6261798
0
ARC
8
DEFAULT_255_1_388
10
7.7817144
20
0.2485606
40
0.3206412
50
52.7381828
51
62.4979144
0
ARC
8
DEFAULT_255_1_388
10
7.6258896
20
-0.0446764
40
0.6527035
50
62.2517425
51
68.1219454
0
ARC
8
DEFAULT_255_1_388
10
7.4324384
20
-0.5201049
40
1.1659797
50
68.006043
51
71.8055127
0
ARC
8
DEFAULT_255_1_388
10
7.2304292
20
-1.1259277
40
1.8045908
50
71.718361
51
73.9260743
0
LINE
8
DEFAULT_255_1_388
10
9.2462608
20
1.3372898
11
9.2462608
21
1.2433191
0
LINE
8
DEFAULT_255_1_388
10
9.2462608
20
1.2433191
11
8.7014115
21
0.0217
0
LINE
8
DEFAULT_255_1_388
10
8.7014115
20
0.0217
11
8.52612
21
0.0217
0
LINE
8
DEFAULT_255_1_388
10
8.52612
20
0.0217
11
9.0691622
21
1.199948
0
LINE
8
DEFAULT_255_1_388
10
9.0691622
20
1.199948
11
8.3571534
21
1.199948
0
LINE
8
DEFAULT_255_1_388
10
8.3571534
20
1.199948
11
8.3571534
21
1.3372898
0
LINE
8
DEFAULT_255_1_388
10
8.3571534
20
1.3372898
11
9.2462608
21
1.3372898
0
LINE
8
DEFAULT_255_1_388
10
9.6465399
20
0.6469666
11
9.5128124
21
0.6813021
0
LINE
8
DEFAULT_255_1_388
10
9.5128124
20
0.6813021
11
9.5796761
21
1.3372898
0
LINE
8
DEFAULT_255_1_388
10
9.5796761
20
1.3372898
11
10.2537352
21
1.3372898
0
LINE
8
DEFAULT_255_1_388
10
10.2537352
20
1.3372898
11
10.2537352
21
1.1827803
0
LINE
8
DEFAULT_255_1_388
10
10.2537352
20
1.1827803
11
9.7215357
21
1.1827803
0
LINE
8
DEFAULT_255_1_388
10
9.7215357
20
1.1827803
11
9.6817789
21
0.8240652
0
LINE
8
DEFAULT_255_1_388
10
9.465827
20
0.3677652
11
9.6239508
21
0.3677652
0
LINE
8
DEFAULT_255_1_388
10
9.6908146
20
0.6831092
11
9.6465399
21
0.6469666
0
ARC
8
DEFAULT_255_1_388
10
9.8904403
20
0.4663241
40
0.4141476
50
93.7181681
51
120.253934
0
ARC
8
DEFAULT_255_1_388
10
9.9010455
20
0.3754284
40
0.5055616
50
89.9660471
51
94.2495185
0
ARC
8
DEFAULT_255_1_388
10
9.9056277
20
0.4417154
40
0.4392953
50
73.8045384
51
90.5585736
0
ARC
8
DEFAULT_255_1_388
10
9.9320534
20
0.538252
40
0.3392225
50
41.3071072
51
73.543002
0
ARC
8
DEFAULT_255_1_388
10
9.8852354
20
0.4979461
40
0.4009977
50
13.5075837
51
41.2174839
0
ARC
8
DEFAULT_255_1_388
10
9.7005452
20
0.4495907
40
0.5918864
50
1.1330171
51
13.8830737
0
ARC
8
DEFAULT_255_1_388
10
9.5409098
20
0.4410522
40
0.7516787
50
359.9925091
51
1.5431298
0
ARC
8
DEFAULT_255_1_388
10
9.6853712
20
0.4364027
40
0.6072343
50
347.8572712
51
0.4294349
0
ARC
8
DEFAULT_255_1_388
10
9.8822847
20
0.3917898
40
0.4053482
50
323.6727442
51
348.1674594
0
ARC
8
DEFAULT_255_1_388
10
9.9153812
20
0.3716175
40
0.3667495
50
316.8171818
51
323.1486802
0
ARC
8
DEFAULT_255_1_388
10
9.9222935
20
0.3674612
40
0.358869
50
281.839603
51
316.5458142
0
ARC
8
DEFAULT_255_1_388
10
9.8800223
20
0.5424363
40
0.5388223
50
269.5770964
51
282.4214641
0
ARC
8
DEFAULT_255_1_388
10
9.8720144
20
0.518393
40
0.5147801
50
256.2425863
51
270.4486481
0
ARC
8
DEFAULT_255_1_388
10
9.8383671
20
0.3834124
40
0.3756708
50
228.9024379
51
256.33135
0
ARC
8
DEFAULT_255_1_388
10
9.8300652
20
0.3703054
40
0.360344
50
193.7536029
51
228.5272638
0
ARC
8
DEFAULT_255_1_388
10
9.9693217
20
0.4111463
40
0.5053599
50
184.9244437
51
194.4976052
0
ARC
8
DEFAULT_255_1_388
10
9.9909858
20
0.4151722
40
0.3700839
50
187.3596909
51
198.6733728
0
ARC
8
DEFAULT_255_1_388
10
9.8729101
20
0.3742373
40
0.2451195
50
198.4453795
51
217.7945479
0
ARC
8
DEFAULT_255_1_388
10
9.8396274
20
0.3506563
40
0.2043754
50
218.2887146
51
228.5613203
0
ARC
8
DEFAULT_255_1_388
10
9.8506281
20
0.3654902
40
0.2227819
50
228.9652423
51
258.1237049
0
ARC
8
DEFAULT_255_1_388
10
9.8737718
20
0.4645964
40
0.3245374
50
257.7260585
51
270.4013717
0
ARC
8
DEFAULT_255_1_388
10
9.8788216
20
0.4145255
40
0.2744726
50
269.4204315
51
286.420998
0
ARC
8
DEFAULT_255_1_388
10
9.8955272
20
0.3538705
40
0.2115721
50
286.7250065
51
320.6004665
0
ARC
8
DEFAULT_255_1_388
10
9.8524187
20
0.3888527
40
0.2670878
50
320.6712228
51
344.5440474
0
ARC
8
DEFAULT_255_1_388
10
9.7222901
20
0.4270394
40
0.4026927
50
344.241448
51
356.735803
0
ARC
8
DEFAULT_255_1_388
10
9.5819208
20
0.4386656
40
0.5435085
50
356.3547471
51
0.0507222
0
ARC
8
DEFAULT_255_1_388
10
9.7321473
20
0.4421812
40
0.3932934
50
359.5579289
51
12.9534322
0
ARC
8
DEFAULT_255_1_388
10
9.8508313
20
0.4709586
40
0.2711827
50
12.6489751
51
41.608121
0
ARC
8
DEFAULT_255_1_388
10
9.8767473
20
0.4929946
40
0.2371737
50
41.7851122
51
85.9892156
0
ARC
8
DEFAULT_255_1_388
10
9.8628784
20
0.4014738
40
0.3295244
50
84.6965848
51
90.0672125
0
ARC
8
DEFAULT_255_1_388
10
9.8602351
20
0.3263118
40
0.4046926
50
89.6804991
51
99.161352
0
ARC
8
DEFAULT_255_1_388
10
9.837136
20
0.4643848
40
0.2647044
50
98.9836248
51
113.8905702
0
ARC
8
DEFAULT_255_1_388
10
9.8113035
20
0.5253118
40
0.1985386
50
114.195234
51
127.3641866
0
LINE
8
DEFAULT_255_1_388
10
11.0244757
20
1.3436148
11
11.0244757
21
0.0217
0
LINE
8
DEFAULT_255_1_388
10
11.0244757
20
0.0217
11
10.8564127
21
0.0217
0
LINE
8
DEFAULT_255_1_388
10
10.8564127
20
0.0217
11
10.8564127
21
1.135795
0
LINE
8
DEFAULT_255_1_388
10
10.8564127
20
1.135795
11
10.5193832
21
1.0120066
0
LINE
8
DEFAULT_255_1_388
10
10.5193832
20
1.0120066
11
10.5193832
21
1.1638055
0
LINE
8
DEFAULT_255_1_388
10
10.5193832
20
1.1638055
11
10.9982723
21
1.3436148
0
LINE
8
DEFAULT_255_1_388
10
10.9982723
20
1.3436148
11
11.0244757
21
1.3436148
0
ARC
8
DEFAULT_255_1_388
10
11.9945581
20
0.991072
40
0.3175098
50
338.8762533
51
0.5167111
0
ARC
8
DEFAULT_255_1_388
10
12.0135175
20
0.98596
40
0.2979894
50
325.8415285
51
338.4793574
0
ARC
8
DEFAULT_255_1_388
10
11.9695809
20
1.0164242
40
0.351452
50
296.7587686
51
325.7536481
0
ARC
8
DEFAULT_255_1_388
10
11.9367437
20
1.0718363
40
0.4157374
50
296.0927901
51
297.3613472
0
ARC
8
DEFAULT_255_1_388
10
11.9661632
20
0.3335593
40
0.395855
50
47.9007294
51
67.1948823
0
ARC
8
DEFAULT_255_1_388
10
11.9882274
20
0.3612599
40
0.360516
50
35.2363914
51
47.551141
0
ARC
8
DEFAULT_255_1_388
10
12.0176678
20
0.3809093
40
0.3251343
50
359.2759765
51
35.4014143
0
ARC
8
DEFAULT_255_1_388
10
11.9338604
20
0.3726787
40
0.4089365
50
343.1293083
51
0.5775513
0
ARC
8
DEFAULT_255_1_388
10
12.0153718
20
0.3502336
40
0.3244269
50
310.8496669
51
342.7449331
0
ARC
8
DEFAULT_255_1_388
10
11.9683593
20
0.4038913
40
0.3957651
50
281.5472888
51
310.9170406
0
ARC
8
DEFAULT_255_1_388
10
11.9282467
20
0.5785814
40
0.5749654
50
269.619248
51
281.9789564
0
ARC
8
DEFAULT_255_1_388
10
11.9201245
20
0.5786776
40
0.5750649
50
257.4585678
51
270.4285689
0
ARC
8
DEFAULT_255_1_388
10
11.8772765
20
0.3982741
40
0.389671
50
228.7554326
51
257.8484789
0
ARC
8
DEFAULT_255_1_388
10
11.842425
20
0.3563228
40
0.335154
50
184.0104975
51
228.5071184
0
ARC
8
DEFAULT_255_1_388
10
11.9732643
20
0.376243
40
0.4671891
50
179.9315832
51
185.3253753
0
ARC
8
DEFAULT_255_1_388
10
11.8409156
20
0.3804592
40
0.33486
50
145.6796023
51
180.6259786
0
ARC
8
DEFAULT_255_1_388
10
11.8592921
20
0.3676271
40
0.3572723
50
115.5537685
51
145.6415986
0
ARC
8
DEFAULT_255_1_388
10
11.8975965
20
0.2990087
40
0.4357296
50
113.243307
51
116.2057839
0
ARC
8
DEFAULT_255_1_388
10
11.8804617
20
1.0187379
40
0.3549126
50
222.9549744
51
244.1370481
0
ARC
8
DEFAULT_255_1_388
10
11.866726
20
1.0033378
40
0.3343711
50
213.3436887
51
222.6274467
0
ARC
8
DEFAULT_255_1_388
10
11.845133
20
0.9886653
40
0.3082678
50
180.431584
51
213.271499
0
ARC
8
DEFAULT_255_1_388
10
11.9086328
20
0.9939296
40
0.3718363
50
179.9991191
51
181.1690594
0
ARC
8
DEFAULT_255_1_388
10
11.9558785
20
0.9978072
40
0.4190996
50
164.6186169
51
180.529336
0
ARC
8
DEFAULT_255_1_388
10
11.8548433
20
1.024978
40
0.3144772
50
132.2455553
51
164.5090724
0
ARC
8
DEFAULT_255_1_388
10
11.8871412
20
0.988407
40
0.3632644
50
100.7053914
51
132.1386381
0
ARC
8
DEFAULT_255_1_388
10
11.9214473
20
0.8334118
40
0.5219578
50
89.6730358
51
101.2451698
0
ARC
8
DEFAULT_255_1_388
10
11.9284464
20
0.8530648
40
0.5023124
50
76.287748
51
90.4586006
0
ARC
8
DEFAULT_255_1_388
10
11.9628966
20
0.9905671
40
0.3605639
50
47.8240511
51
76.4266241
0
ARC
8
DEFAULT_255_1_388
10
11.987935
20
1.0198599
40
0.3220463
50
6.9168387
51
47.6262497
0
ARC
8
DEFAULT_255_1_388
10
11.8544803
20
0.9952004
40
0.4575765
50
359.8415968
51
7.9697453
0
ARC
8
DEFAULT_255_1_388
10
11.8929073
20
0.3831519
40
0.2827228
50
359.445363
51
16.9256873
0
ARC
8
DEFAULT_255_1_388
10
11.9456507
20
0.3976781
40
0.2280396
50
17.2920767
51
45.4630727
0
ARC
8
DEFAULT_255_1_388
10
11.9395642
20
0.3924324
40
0.2360485
50
45.30305
51
83.1920945
0
ARC
8
DEFAULT_255_1_388
10
11.9234387
20
0.3022473
40
0.3275527
50
82.2612665
51
90.1434275
0
ARC
8
DEFAULT_255_1_388
10
11.9199663
20
0.3284869
40
0.3013237
50
89.4956434
51
104.8580688
0
ARC
8
DEFAULT_255_1_388
10
11.9000853
20
0.4038455
40
0.2233867
50
104.8856641
51
135.244616
0
ARC
8
DEFAULT_255_1_388
10
11.9056842
20
0.3988352
40
0.2308906
50
135.3399546
51
172.1044062
0
ARC
8
DEFAULT_255_1_388
10
11.9964367
20
0.3814667
40
0.3232034
50
171.2645637
51
180.186429
0
ARC
8
DEFAULT_255_1_388
10
11.9774371
20
0.3778426
40
0.304213
50
179.5154935
51
193.6464289
0
ARC
8
DEFAULT_255_1_388
10
11.8856047
20
0.3544473
40
0.209456
50
193.3540274
51
225.8258581
0
ARC
8
DEFAULT_255_1_388
10
11.8901919
20
0.3624076
40
0.2183738
50
226.4180634
51
255.8552336
0
ARC
8
DEFAULT_255_1_388
10
11.9190386
20
0.4677521
40
0.3275812
50
255.4654104
51
268.7987425
0
ARC
8
DEFAULT_255_1_388
10
11.9243562
20
0.5619545
40
0.4218877
50
268.3449238
51
270.0094605
0
ARC
8
DEFAULT_255_1_388
10
11.9269796
20
0.4851094
40
0.3450519
50
269.5759586
51
282.0820163
0
ARC
8
DEFAULT_255_1_388
10
11.9522832
20
0.3732363
40
0.2303642
50
281.752014
51
306.6056188
0
ARC
8
DEFAULT_255_1_388
10
11.963364
20
0.3550802
40
0.2091906
50
307.1346085
51
314.027845
0
ARC
8
DEFAULT_255_1_388
10
11.9593152
20
0.3580459
40
0.2141385
50
314.2552483
51
350.1694025
0
ARC
8
DEFAULT_255_1_388
10
11.8635389
20
0.3788175
40
0.312082
50
349.4140529
51
0.2933014
0
ARC
8
DEFAULT_255_1_388
10
11.9220666
20
0.9591924
40
0.2588377
50
89.477747
51
105.729729
0
ARC
8
DEFAULT_255_1_388
10
11.9067586
20
1.0160367
40
0.1999733
50
105.9233417
51
135.1660906
0
ARC
8
DEFAULT_255_1_388
10
11.9090617
20
1.0144412
40
0.2027322
50
135.3052302
51
168.9883645
0
ARC
8
DEFAULT_255_1_388
10
12.0021633
20
0.9930996
40
0.2982129
50
168.3801673
51
180.3602268
0
ARC
8
DEFAULT_255_1_388
10
11.976475
20
0.9888622
40
0.2725291
50
179.5033122
51
194.9125571
0
ARC
8
DEFAULT_255_1_388
10
11.9106157
20
0.9715427
40
0.204431
50
194.9720816
51
224.194444
0
ARC
8
DEFAULT_255_1_388
10
11.9074522
20
0.9689635
40
0.2003651
50
224.2962453
51
262.015664
0
ARC
8
DEFAULT_255_1_388
10
11.9234526
20
1.0512315
40
0.2840925
50
261.1245923
51
270.1962896
0
ARC
8
DEFAULT_255_1_388
10
11.9268007
20
1.0301859
40
0.2630559
50
269.4827276
51
285.0987215
0
ARC
8
DEFAULT_255_1_388
10
11.9441444
20
0.9651175
40
0.1957162
50
285.1585357
51
315.9484501
0
ARC
8
DEFAULT_255_1_388
10
11.9341317
20
0.9743315
40
0.2093195
50
316.0413965
51
351.916092
0
ARC
8
DEFAULT_255_1_388
10
11.8516692
20
0.9902323
40
0.2932279
50
351.105835
51
0.1939062
0
ARC
8
DEFAULT_255_1_388
10
11.8812326
20
0.9936224
40
0.2636739
50
359.4789618
51
16.0678224
0
ARC
8
DEFAULT_255_1_388
10
11.9347797
20
1.0080721
40
0.2082215
50
16.3252067
51
44.7913869
0
ARC
8
DEFAULT_255_1_388
10
11.932786
20
1.008132
40
0.2095992
50
44.3957814
51
88.2499162
0
ARC
8
DEFAULT_255_1_388
10
11.9245194
20
0.9393006
40
0.2787189
50
86.9833854
51
90.0192215
0
LINE
8
DEFAULT_255_1_388
10
12.9183468
20
0.6487737
11
12.9183468
21
0.5123355
0
LINE
8
DEFAULT_255_1_388
10
12.9183468
20
0.5123355
11
12.4774073
21
0.5123355
0
LINE
8
DEFAULT_255_1_388
10
12.4774073
20
0.5123355
11
12.4774073
21
0.6487737
0
LINE
8
DEFAULT_255_1_388
10
12.4774073
20
0.6487737
11
12.9183468
21
0.6487737
0
LINE
8
DEFAULT_255_1_388
10
13.7695045
20
1.3372898
11
13.7695045
21
0.463543
0
LINE
8
DEFAULT_255_1_388
10
13.7695045
20
0.463543
11
13.9520245
21
0.463543
0
LINE
8
DEFAULT_255_1_388
10
13.9520245
20
0.463543
11
13.9520245
21
0.3271048
0
LINE
8
DEFAULT_255_1_388
10
13.9520245
20
0.3271048
11
13.7695045
21
0.3271048
0
LINE
8
DEFAULT_255_1_388
10
13.7695045
20
0.3271048
11
13.7695045
21
0.0217
0
LINE
8
DEFAULT_255_1_388
10
13.7695045
20
0.0217
11
13.6014415
21
0.0217
0
LINE
8
DEFAULT_255_1_388
10
13.6014415
20
0.0217
11
13.6014415
21
0.3271048
0
LINE
8
DEFAULT_255_1_388
10
13.6014415
20
0.3271048
11
13.0023783
21
0.3271048
0
LINE
8
DEFAULT_255_1_388
10
13.0023783
20
0.3271048
11
13.0023783
21
0.4255933
0
LINE
8
DEFAULT_255_1_388
10
13.0023783
20
0.4255933
11
13.5915023
21
1.3372898
0
LINE
8
DEFAULT_255_1_388
10
13.5915023
20
1.3372898
11
13.7695045
21
1.3372898
0
LINE
8
DEFAULT_255_1_388
10
13.5815631
20
1.0725455
11
13.1921268
21
0.463543
0
LINE
8
DEFAULT_255_1_388
10
13.1921268
20
0.463543
11
13.6014415
21
0.463543
0
LINE
8
DEFAULT_255_1_388
10
13.6014415
20
0.463543
11
13.6014415
21
1.108688
0
LINE
8
DEFAULT_255_1_388
10
13.6014415
20
1.108688
11
13.5815631
21
1.0725455
0
LINE
8
DEFAULT_255_1_388
10
14.8718531
20
0.7445516
11
14.8718531
21
0.6026919
0
LINE
8
DEFAULT_255_1_388
10
14.8718531
20
0.6026919
11
14.3197752
21
0.6026919
0
LINE
8
DEFAULT_255_1_388
10
14.3197752
20
0.6026919
11
14.3197752
21
0.0217
0
LINE
8
DEFAULT_255_1_388
10
14.3197752
20
0.0217
11
14.1462909
21
0.0217
0
LINE
8
DEFAULT_255_1_388
10
14.1462909
20
0.0217
11
14.1462909
21
1.3372898
0
LINE
8
DEFAULT_255_1_388
10
14.1462909
20
1.3372898
11
14.961306
21
1.3372898
0
LINE
8
DEFAULT_255_1_388
10
14.961306
20
1.3372898
11
14.961306
21
1.1945267
0
LINE
8
DEFAULT_255_1_388
10
14.961306
20
1.1945267
11
14.3197752
21
1.1945267
0
LINE
8
DEFAULT_255_1_388
10
14.3197752
20
1.1945267
11
14.3197752
21
0.7445516
0
LINE
8
DEFAULT_255_1_388
10
14.3197752
20
0.7445516
11
14.8718531
21
0.7445516
0
LINE
8
DEFAULT_255_1_388
10
15.6525328
20
0.5367317
11
15.3426102
21
0.5367317
0
LINE
8
DEFAULT_255_1_388
10
15.3426102
20
0.5367317
11
15.3426102
21
0.0217
0
LINE
8
DEFAULT_255_1_388
10
15.3426102
20
0.0217
11
15.1691258
21
0.0217
0
LINE
8
DEFAULT_255_1_388
10
15.1691258
20
0.0217
11
15.1691258
21
1.3372898
0
LINE
8
DEFAULT_255_1_388
10
15.1691258
20
1.3372898
11
15.6543399
21
1.3372898
0
LINE
8
DEFAULT_255_1_388
10
15.3426102
20
1.1945267
11
15.3426102
21
0.6785914
0
LINE
8
DEFAULT_255_1_388
10
15.3426102
20
0.6785914
11
15.6543399
21
0.6785914
0
LINE
8
DEFAULT_255_1_388
10
15.6642792
20
1.1945267
11
15.3426102
21
1.1945267
0
ARC
8
DEFAULT_255_1_388
10
15.6590773
20
0.6556334
40
0.6816729
50
78.8380084
51
90.398184
0
ARC
8
DEFAULT_255_1_388
10
15.7058803
20
0.8829796
40
0.449571
50
58.9633273
51
79.0810717
0
ARC
8
DEFAULT_255_1_388
10
15.7398188
20
0.9459823
40
0.3781049
50
48.0194715
51
58.4475592
0
ARC
8
DEFAULT_255_1_388
10
15.7498008
20
0.9555818
40
0.3642936
50
3.3374546
51
48.1766642
0
ARC
8
DEFAULT_255_1_388
10
15.6112814
20
0.9356581
40
0.5038766
50
359.9483251
51
4.6822857
0
ARC
8
DEFAULT_255_1_388
10
15.6252738
20
0.9308779
40
0.4899031
50
346.1879032
51
0.5059221
0
ARC
8
DEFAULT_255_1_388
10
15.7781529
20
0.8911763
40
0.3319729
50
310.8832219
51
346.5426612
0
ARC
8
DEFAULT_255_1_388
10
15.7434377
20
0.9380853
40
0.3901853
50
286.6925305
51
310.228778
0
ARC
8
DEFAULT_255_1_388
10
15.6794107
20
1.1394585
40
0.6014737
50
274.6848219
51
287.0247342
0
ARC
8
DEFAULT_255_1_388
10
15.6540656
20
1.3879088
40
0.8511785
50
269.8968222
51
275.0192639
0
ARC
8
DEFAULT_255_1_388
10
15.6571649
20
1.1541144
40
0.4755314
50
269.6596206
51
279.4150542
0
ARC
8
DEFAULT_255_1_388
10
15.6861107
20
0.9863945
40
0.3053379
50
279.2050006
51
294.9901776
0
ARC
8
DEFAULT_255_1_388
10
15.7187742
20
0.9135353
40
0.2255036
50
295.2886769
51
311.2912669
0
ARC
8
DEFAULT_255_1_388
10
15.7267483
20
0.9016938
40
0.2113522
50
311.7853512
51
347.2860549
0
ARC
8
DEFAULT_255_1_388
10
15.6160645
20
0.930143
40
0.3256011
50
346.6891629
51
0.1057086
0
ARC
8
DEFAULT_255_1_388
10
15.5238104
20
0.9334247
40
0.417863
50
359.63239
51
359.9961329
0
ARC
8
DEFAULT_255_1_388
10
15.640271
20
0.9361987
40
0.3014155
50
359.4673371
51
15.5931159
0
ARC
8
DEFAULT_255_1_388
10
15.7105772
20
0.9551937
40
0.2285918
50
15.7441779
51
46.620186
0
ARC
8
DEFAULT_255_1_388
10
15.6939532
20
0.9360361
40
0.2539359
50
46.8628482
51
75.6676625
0
ARC
8
DEFAULT_255_1_388
10
15.6608589
20
0.8169243
40
0.3775415
50
75.2763152
51
88.2916439
0
ARC
8
DEFAULT_255_1_388
10
15.6542588
20
0.7167097
40
0.4779221
50
87.8589087
51
88.7986197
0
LINE
8
DEFAULT_255_1_388
10
17.1181144
20
0.799669
11
17.1181144
21
0.5828135
0
LINE
8
DEFAULT_255_1_388
10
16.2877386
20
0.5602244
11
16.2877386
21
0.7834048
0
LINE
8
DEFAULT_255_1_388
10
16.9509549
20
0.5376353
11
16.9509549
21
0.8114153
0
LINE
8
DEFAULT_255_1_388
10
16.454898
20
0.8240652
11
16.454898
21
0.5566102
0
ARC
8
DEFAULT_255_1_388
10
15.7403478
20
0.5773118
40
1.3777776
50
353.8440855
51
0.2287917
0
ARC
8
DEFAULT_255_1_388
10
16.2622495
20
0.5190414
40
0.852639
50
344.4934746
51
353.9763743
0
ARC
8
DEFAULT_255_1_388
10
16.5989302
20
0.4233191
40
0.5026273
50
329.2803599
51
344.7473406
0
ARC
8
DEFAULT_255_1_388
10
16.7104798
20
0.3621038
40
0.3754848
50
324.9361395
51
328.6153007
0
ARC
8
DEFAULT_255_1_388
10
16.7530448
20
0.3323586
40
0.3235566
50
280.5801797
51
324.9173226
0
ARC
8
DEFAULT_255_1_388
10
16.7079076
20
0.5203236
40
0.5167077
50
269.5979457
51
281.6732777
0
ARC
8
DEFAULT_255_1_388
10
16.699798
20
0.5068113
40
0.5032026
50
256.6228565
51
270.5105488
0
ARC
8
DEFAULT_255_1_388
10
16.6545723
20
0.3326345
40
0.3233092
50
215.8618351
51
257.2787793
0
ARC
8
DEFAULT_255_1_388
10
16.769443
20
0.4097106
40
0.4615831
50
197.9695203
51
215.2622745
0
ARC
8
DEFAULT_255_1_388
10
17.0490105
20
0.5040641
40
0.7566307
50
187.8816486
51
198.2346584
0
ARC
8
DEFAULT_255_1_388
10
17.4943343
20
0.5683453
40
1.2065653
50
180.8977266
51
188.0054894
0
ARC
8
DEFAULT_255_1_388
10
17.7993557
20
0.57984
40
1.5117443
50
180.7434591
51
181.152202
0
ARC
8
DEFAULT_255_1_388
10
17.6318553
20
0.7888371
40
1.3441277
50
173.7674302
51
180.2315596
0
ARC
8
DEFAULT_255_1_388
10
17.1236422
20
0.8462779
40
0.8326847
50
164.3058537
51
173.9000553
0
ARC
8
DEFAULT_255_1_388
10
16.7960422
20
0.9406652
40
0.4917711
50
148.7922028
51
164.5682288
0
ARC
8
DEFAULT_255_1_388
10
16.6891159
20
1.0003457
40
0.3694204
50
144.5883979
51
148.1161588
0
ARC
8
DEFAULT_255_1_388
10
16.6503905
20
1.0273667
40
0.322202
50
101.6440149
51
144.5142619
0
ARC
8
DEFAULT_255_1_388
10
16.6982097
20
0.8373337
40
0.5180451
50
89.528284
51
102.5820197
0
ARC
8
DEFAULT_255_1_388
10
16.7071089
20
0.8329376
40
0.5224441
50
77.0437914
51
90.508231
0
ARC
8
DEFAULT_255_1_388
10
16.7523343
20
1.0177272
40
0.3322297
50
48.2777708
51
77.4996087
0
ARC
8
DEFAULT_255_1_388
10
16.7605083
20
1.0322557
40
0.315966
50
36.3141586
51
47.6307332
0
ARC
8
DEFAULT_255_1_388
10
16.6627805
20
0.9664159
40
0.4337313
50
18.2931065
51
35.6770203
0
ARC
8
DEFAULT_255_1_388
10
16.3766646
20
0.8682107
40
0.7362203
50
8.0246996
51
18.5605636
0
ARC
8
DEFAULT_255_1_388
10
15.9083001
20
0.7990432
40
1.2096583
50
1.127539
51
8.1718423
0
ARC
8
DEFAULT_255_1_388
10
15.5434134
20
0.7847374
40
1.5747719
50
0.5432713
51
1.38669
0
ARC
8
DEFAULT_255_1_388
10
15.7491513
20
0.8154163
40
1.2018103
50
359.8092569
51
4.9408001
0
ARC
8
DEFAULT_255_1_388
10
16.2228094
20
0.85769
40
0.7262727
50
4.8364937
51
12.2906017
0
ARC
8
DEFAULT_255_1_388
10
16.5327559
20
0.9267485
40
0.4087324
50
12.0806994
51
23.8171225
0
ARC
8
DEFAULT_255_1_388
10
16.6647955
20
0.9826508
40
0.2653719
50
24.2874621
51
31.3934353
0
ARC
8
DEFAULT_255_1_388
10
16.7238391
20
1.0212822
40
0.1948607
50
30.7407708
51
82.4658033
0
ARC
8
DEFAULT_255_1_388
10
16.7036052
20
0.9219017
40
0.2961198
50
81.1057101
51
90.2187368
0
ARC
8
DEFAULT_255_1_388
10
16.6995864
20
0.9509421
40
0.2670929
50
89.380395
51
105.6763916
0
ARC
8
DEFAULT_255_1_388
10
16.6789586
20
1.025932
40
0.1893189
50
105.7980655
51
149.7387869
0
ARC
8
DEFAULT_255_1_388
10
16.7986726
20
0.9539719
40
0.3289892
50
149.4208441
51
163.628295
0
ARC
8
DEFAULT_255_1_388
10
17.0338956
20
0.8822345
40
0.5749004
50
163.3764549
51
172.141138
0
ARC
8
DEFAULT_255_1_388
10
17.4051677
20
0.8290582
40
0.9499585
50
172.0258462
51
178.0705453
0
ARC
8
DEFAULT_255_1_388
10
17.747323
20
0.8128682
40
1.2924734
50
177.8639301
51
179.5036263
0
ARC
8
DEFAULT_255_1_388
10
17.6254248
20
0.5525151
40
1.170534
50
179.7995545
51
185.246089
0
ARC
8
DEFAULT_255_1_388
10
17.1705842
20
0.5094404
40
0.7136613
50
185.1411911
51
193.0082205
0
ARC
8
DEFAULT_255_1_388
10
16.8732102
20
0.4391441
40
0.4080987
50
192.7897338
51
205.2507384
0
ARC
8
DEFAULT_255_1_388
10
16.7554312
20
0.3865538
40
0.2791522
50
205.8001921
51
211.2545876
0
ARC
8
DEFAULT_255_1_388
10
16.6965851
20
0.3471132
40
0.2084074
50
210.3789935
51
238.4007996
0
ARC
8
DEFAULT_255_1_388
10
16.6943937
20
0.3523786
40
0.2117943
50
239.6521916
51
265.9793852
0
ARC
8
DEFAULT_255_1_388
10
16.7039786
20
0.4280358
40
0.2879689
50
265.1324455
51
270.0603288
0
ARC
8
DEFAULT_255_1_388
10
16.7072163
20
0.3915418
40
0.2514919
50
269.3314378
51
287.2180039
0
ARC
8
DEFAULT_255_1_388
10
16.7227246
20
0.3349291
40
0.1928357
50
287.7957942
51
329.0808983
0
ARC
8
DEFAULT_255_1_388
10
16.6150003
20
0.4021651
40
0.319808
50
328.6635261
51
343.3325043
0
ARC
8
DEFAULT_255_1_388
10
16.3705461
20
0.4783195
40
0.5758408
50
343.0498092
51
351.9392499
0
ARC
8
DEFAULT_255_1_388
10
15.9804783
20
0.5358205
40
0.9701202
50
351.8071632
51
357.7957897
0
ARC
8
DEFAULT_255_1_388
10
15.617026
20
0.5546724
40
1.3340376
50
357.5870923
51
359.2682493
0
LINE
8
DEFAULT_255_1_388
10
18.1572135
20
0.799669
11
18.1572135
21
0.5828135
0
LINE
8
DEFAULT_255_1_388
10
17.3268377
20
0.5602244
11
17.3268377
21
0.7834048
0
LINE
8
DEFAULT_255_1_388
10
17.9900541
20
0.5376353
11
17.9900541
21
0.8114153
0
LINE
8
DEFAULT_255_1_388
10
17.4939972
20
0.8240652
11
17.4939972
21
0.5566102
0
ARC
8
DEFAULT_255_1_388
10
16.7794469
20
0.5773118
40
1.3777776
50
353.8440855
51
0.2287917
0
ARC
8
DEFAULT_255_1_388
10
17.3013486
20
0.5190414
40
0.852639
50
344.4934746
51
353.9763743
0
ARC
8
DEFAULT_255_1_388
10
17.6380293
20
0.4233191
40
0.5026273
50
329.2803599
51
344.7473406
0
ARC
8
DEFAULT_255_1_388
10
17.7495789
20
0.3621038
40
0.3754848
50
324.9361395
51
328.6153007
0
ARC
8
DEFAULT_255_1_388
10
17.7921439
20
0.3323586
40
0.3235566
50
280.5801797
51
324.9173226
0
ARC
8
DEFAULT_255_1_388
10
17.7470068
20
0.5203236
40
0.5167077
50
269.5979457
51
281.6732777
0
ARC
8
DEFAULT_255_1_388
10
17.7388971
20
0.5068113
40
0.5032026
50
256.6228565
51
270.5105488
0
ARC
8
DEFAULT_255_1_388
10
17.6936714
20
0.3326345
40
0.3233092
50
215.8618351
51
257.2787793
0
ARC
8
DEFAULT_255_1_388
10
17.8085421
20
0.4097106
40
0.4615831
50
197.9695203
51
215.2622745
0
ARC
8
DEFAULT_255_1_388
10
18.0881096
20
0.5040641
40
0.7566307
50
187.8816486
51
198.2346584
0
ARC
8
DEFAULT_255_1_388
10
18.5334335
20
0.5683453
40
1.2065653
50
180.8977266
51
188.0054894
0
ARC
8
DEFAULT_255_1_388
10
18.8384548
20
0.57984
40
1.5117443
50
180.7434591
51
181.152202
0
ARC
8
DEFAULT_255_1_388
10
18.6709544
20
0.7888371
40
1.3441277
50
173.7674302
51
180.2315596
0
ARC
8
DEFAULT_255_1_388
10
18.1627413
20
0.8462779
40
0.8326847
50
164.3058537
51
173.9000553
0
ARC
8
DEFAULT_255_1_388
10
17.8351413
20
0.9406652
40
0.4917711
50
148.7922028
51
164.5682288
0
ARC
8
DEFAULT_255_1_388
10
17.7282151
20
1.0003457
40
0.3694204
50
144.5883979
51
148.1161588
0
ARC
8
DEFAULT_255_1_388
10
17.6894896
20
1.0273667
40
0.322202
50
101.6440149
51
144.5142619
0
ARC
8
DEFAULT_255_1_388
10
17.7373088
20
0.8373337
40
0.5180451
50
89.528284
51
102.5820197
0
ARC
8
DEFAULT_255_1_388
10
17.746208
20
0.8329376
40
0.5224441
50
77.0437914
51
90.508231
0
ARC
8
DEFAULT_255_1_388
10
17.7914334
20
1.0177272
40
0.3322297
50
48.2777708
51
77.4996087
0
ARC
8
DEFAULT_255_1_388
10
17.7996074
20
1.0322557
40
0.315966
50
36.3141586
51
47.6307332
0
ARC
8
DEFAULT_255_1_388
10
17.7018796
20
0.9664159
40
0.4337313
50
18.2931065
51
35.6770203
0
ARC
8
DEFAULT_255_1_388
10
17.4157637
20
0.8682107
40
0.7362203
50
8.0246996
51
18.5605636
0
ARC
8
DEFAULT_255_1_388
10
16.9473992
20
0.7990432
40
1.2096583
50
1.127539
51
8.1718423
0
ARC
8
DEFAULT_255_1_388
10
16.5825126
20
0.7847374
40
1.5747719
50
0.5432713
51
1.38669
0
ARC
8
DEFAULT_255_1_388
10
16.7882504
20
0.8154163
40
1.2018103
50
359.8092569
51
4.9408001
0
ARC
8
DEFAULT_255_1_388
10
17.2619086
20
0.85769
40
0.7262727
50
4.8364937
51
12.2906017
0
ARC
8
DEFAULT_255_1_388
10
17.571855
20
0.9267485
40
0.4087324
50
12.0806994
51
23.8171225
0
ARC
8
DEFAULT_255_1_388
10
17.7038946
20
0.9826508
40
0.2653719
50
24.2874621
51
31.3934353
0
ARC
8
DEFAULT_255_1_388
10
17.7629382
20
1.0212822
40
0.1948607
50
30.7407708
51
82.4658033
0
ARC
8
DEFAULT_255_1_388
10
17.7427043
20
0.9219017
40
0.2961198
50
81.1057101
51
90.2187368
0
ARC
8
DEFAULT_255_1_388
10
17.7386855
20
0.9509421
40
0.2670929
50
89.380395
51
105.6763916
0
ARC
8
DEFAULT_255_1_388
10
17.7180577
20
1.025932
40
0.1893189
50
105.7980655
51
149.7387869
0
ARC
8
DEFAULT_255_1_388
10
17.8377717
20
0.9539719
40
0.3289892
50
149.4208441
51
163.628295
0
ARC
8
DEFAULT_255_1_388
10
18.0729947
20
0.8822345
40
0.5749004
50
163.3764549
51
172.141138
0
ARC
8
DEFAULT_255_1_388
10
18.4442668
20
0.8290582
40
0.9499585
50
172.0258462
51
178.0705453
0
ARC
8
DEFAULT_255_1_388
10
18.7864221
20
0.8128682
40
1.2924734
50
177.8639301
51
179.5036263
0
ARC
8
DEFAULT_255_1_388
10
18.664524
20
0.5525151
40
1.170534
50
179.7995545
51
185.246089
0
ARC
8
DEFAULT_255_1_388
10
18.2096833
20
0.5094404
40
0.7136613
50
185.1411911
51
193.0082205
0
ARC
8
DEFAULT_255_1_388
10
17.9123093
20
0.4391441
40
0.4080987
50
192.7897338
51
205.2507384
0
ARC
8
DEFAULT_255_1_388
10
17.7945303
20
0.3865538
40
0.2791522
50
205.8001921
51
211.2545876
0
ARC
8
DEFAULT_255_1_388
10
17.7356843
20
0.3471132
40
0.2084074
50
210.3789935
51
238.4007996
0
ARC
8
DEFAULT_255_1_388
10
17.7334929
20
0.3523786
40
0.2117943
50
239.6521916
51
265.9793852
0
ARC
8
DEFAULT_255_1_388
10
17.7430777
20
0.4280358
40
0.2879689
50
265.1324455
51
270.0603288
0
ARC
8
DEFAULT_255_1_388
10
17.7463155
20
0.3915418
40
0.2514919
50
269.3314378
51
287.2180039
0
ARC
8
DEFAULT_255_1_388
10
17.7618237
20
0.3349291
40
0.1928357
50
287.7957942
51
329.0808983
0
ARC
8
DEFAULT_255_1_388
10
17.6540994
20
0.4021651
40
0.319808
50
328.6635261
51
343.3325043
0
ARC
8
DEFAULT_255_1_388
10
17.4096452
20
0.4783195
40
0.5758408
50
343.0498092
51
351.9392499
0
ARC
8
DEFAULT_255_1_388
10
17.0195774
20
0.5358205
40
0.9701202
50
351.8071632
51
357.7957897
0
ARC
8
DEFAULT_255_1_388
10
16.6561251
20
0.5546724
40
1.3340376
50
357.5870923
51
359.2682493
0
LINE
8
DEFAULT_255_1_388
10
18.7363983
20
0.6487737
11
18.7363983
21
0.5123355
0
LINE
8
DEFAULT_255_1_388
10
18.7363983
20
0.5123355
11
18.2954588
21
0.5123355
0
LINE
8
DEFAULT_255_1_388
10
18.2954588
20
0.5123355
11
18.2954588
21
0.6487737
0
LINE
8
DEFAULT_255_1_388
10
18.2954588
20
0.6487737
11
18.7363983
21
0.6487737
0
LINE
8
DEFAULT_255_1_388
10
19.7068265
20
0.799669
11
19.7068265
21
0.5828135
0
LINE
8
DEFAULT_255_1_388
10
18.8764508
20
0.5602244
11
18.8764508
21
0.7834048
0
LINE
8
DEFAULT_255_1_388
10
19.5396671
20
0.5376353
11
19.5396671
21
0.8114153
0
LINE
8
DEFAULT_255_1_388
10
19.0436102
20
0.8240652
11
19.0436102
21
0.5566102
0
ARC
8
DEFAULT_255_1_388
10
18.3290599
20
0.5773118
40
1.3777776
50
353.8440855
51
0.2287917
0
ARC
8
DEFAULT_255_1_388
10
18.8509616
20
0.5190414
40
0.852639
50
344.4934746
51
353.9763743
0
ARC
8
DEFAULT_255_1_388
10
19.1876424
20
0.4233191
40
0.5026273
50
329.2803599
51
344.7473406
0
ARC
8
DEFAULT_255_1_388
10
19.2991919
20
0.3621038
40
0.3754848
50
324.9361395
51
328.6153007
0
ARC
8
DEFAULT_255_1_388
10
19.3417569
20
0.3323586
40
0.3235566
50
280.5801797
51
324.9173226
0
ARC
8
DEFAULT_255_1_388
10
19.2966198
20
0.5203236
40
0.5167077
50
269.5979457
51
281.6732777
0
ARC
8
DEFAULT_255_1_388
10
19.2885101
20
0.5068113
40
0.5032026
50
256.6228565
51
270.5105488
0
ARC
8
DEFAULT_255_1_388
10
19.2432844
20
0.3326345
40
0.3233092
50
215.8618351
51
257.2787793
0
ARC
8
DEFAULT_255_1_388
10
19.3581551
20
0.4097106
40
0.4615831
50
197.9695203
51
215.2622745
0
ARC
8
DEFAULT_255_1_388
10
19.6377227
20
0.5040641
40
0.7566307
50
187.8816486
51
198.2346584
0
ARC
8
DEFAULT_255_1_388
10
20.0830465
20
0.5683453
40
1.2065653
50
180.8977266
51
188.0054894
0
ARC
8
DEFAULT_255_1_388
10
20.3880679
20
0.57984
40
1.5117443
50
180.7434591
51
181.152202
0
ARC
8
DEFAULT_255_1_388
10
20.2205675
20
0.7888371
40
1.3441277
50
173.7674302
51
180.2315596
0
ARC
8
DEFAULT_255_1_388
10
19.7123544
20
0.8462779
40
0.8326847
50
164.3058537
51
173.9000553
0
ARC
8
DEFAULT_255_1_388
10
19.3847544
20
0.9406652
40
0.4917711
50
148.7922028
51
164.5682288
0
ARC
8
DEFAULT_255_1_388
10
19.2778281
20
1.0003457
40
0.3694204
50
144.5883979
51
148.1161588
0
ARC
8
DEFAULT_255_1_388
10
19.2391026
20
1.0273667
40
0.322202
50
101.6440149
51
144.5142619
0
ARC
8
DEFAULT_255_1_388
10
19.2869219
20
0.8373337
40
0.5180451
50
89.528284
51
102.5820197
0
ARC
8
DEFAULT_255_1_388
10
19.295821
20
0.8329376
40
0.5224441
50
77.0437914
51
90.508231
0
ARC
8
DEFAULT_255_1_388
10
19.3410464
20
1.0177272
40
0.3322297
50
48.2777708
51
77.4996087
0
ARC
8
DEFAULT_255_1_388
10
19.3492204
20
1.0322557
40
0.315966
50
36.3141586
51
47.6307332
0
ARC
8
DEFAULT_255_1_388
10
19.2514926
20
0.9664159
40
0.4337313
50
18.2931065
51
35.6770203
0
ARC
8
DEFAULT_255_1_388
10
18.9653767
20
0.8682107
40
0.7362203
50
8.0246996
51
18.5605636
0
ARC
8
DEFAULT_255_1_388
10
18.4970123
20
0.7990432
40
1.2096583
50
1.127539
51
8.1718423
0
ARC
8
DEFAULT_255_1_388
10
18.1321256
20
0.7847374
40
1.5747719
50
0.5432713
51
1.38669
0
ARC
8
DEFAULT_255_1_388
10
18.3378635
20
0.8154163
40
1.2018103
50
359.8092569
51
4.9408001
0
ARC
8
DEFAULT_255_1_388
10
18.8115216
20
0.85769
40
0.7262727
50
4.8364937
51
12.2906017
0
ARC
8
DEFAULT_255_1_388
10
19.1214681
20
0.9267485
40
0.4087324
50
12.0806994
51
23.8171225
0
ARC
8
DEFAULT_255_1_388
10
19.2535077
20
0.9826508
40
0.2653719
50
24.2874621
51
31.3934353
0
ARC
8
DEFAULT_255_1_388
10
19.3125513
20
1.0212822
40
0.1948607
50
30.7407708
51
82.4658033
0
ARC
8
DEFAULT_255_1_388
10
19.2923174
20
0.9219017
40
0.2961198
50
81.1057101
51
90.2187368
0
ARC
8
DEFAULT_255_1_388
10
19.2882985
20
0.9509421
40
0.2670929
50
89.380395
51
105.6763916
0
ARC
8
DEFAULT_255_1_388
10
19.2676707
20
1.025932
40
0.1893189
50
105.7980655
51
149.7387869
0
ARC
8
DEFAULT_255_1_388
10
19.3873847
20
0.9539719
40
0.3289892
50
149.4208441
51
163.628295
0
ARC
8
DEFAULT_255_1_388
10
19.6226077
20
0.8822345
40
0.5749004
50
163.3764549
51
172.141138
0
ARC
8
DEFAULT_255_1_388
10
19.9938799
20
0.8290582
40
0.9499585
50
172.0258462
51
178.0705453
0
ARC
8
DEFAULT_255_1_388
10
20.3360351
20
0.8128682
40
1.2924734
50
177.8639301
51
179.5036263
0
ARC
8
DEFAULT_255_1_388
10
20.214137
20
0.5525151
40
1.170534
50
179.7995545
51
185.246089
0
ARC
8
DEFAULT_255_1_388
10
19.7592963
20
0.5094404
40
0.7136613
50
185.1411911
51
193.0082205
0
ARC
8
DEFAULT_255_1_388
10
19.4619224
20
0.4391441
40
0.4080987
50
192.7897338
51
205.2507384
0
ARC
8
DEFAULT_255_1_388
10
19.3441434
20
0.3865538
40
0.2791522
50
205.8001921
51
211.2545876
0
ARC
8
DEFAULT_255_1_388
10
19.2852973
20
0.3471132
40
0.2084074
50
210.3789935
51
238.4007996
0
ARC
8
DEFAULT_255_1_388
10
19.2831059
20
0.3523786
40
0.2117943
50
239.6521916
51
265.9793852
0
ARC
8
DEFAULT_255_1_388
10
19.2926908
20
0.4280358
40
0.2879689
50
265.1324455
51
270.0603288
0
ARC
8
DEFAULT_255_1_388
10
19.2959285
20
0.3915418
40
0.2514919
50
269.3314378
51
287.2180039
0
ARC
8
DEFAULT_255_1_388
10
19.3114367
20
0.3349291
40
0.1928357
50
287.7957942
51
329.0808983
0
ARC
8
DEFAULT_255_1_388
10
19.2037124
20
0.4021651
40
0.319808
50
328.6635261
51
343.3325043
0
ARC
8
DEFAULT_255_1_388
10
18.9592583
20
0.4783195
40
0.5758408
50
343.0498092
51
351.9392499
0
ARC
8
DEFAULT_255_1_388
10
18.5691904
20
0.5358205
40
0.9701202
50
351.8071632
51
357.7957897
0
ARC
8
DEFAULT_255_1_388
10
18.2057381
20
0.5546724
40
1.3340376
50
357.5870923
51
359.2682493
0
LINE
8
DEFAULT_255_1_388
10
20.8164037
20
0.0217
11
20.6908082
21
0.3650545
0
LINE
8
DEFAULT_255_1_388
10
20.6908082
20
0.3650545
11
20.1396339
21
0.3650545
0
LINE
8
DEFAULT_255_1_388
10
20.1396339
20
0.3650545
11
20.0158456
21
0.0217
0
LINE
8
DEFAULT_255_1_388
10
20.0158456
20
0.0217
11
19.8369398
21
0.0217
0
LINE
8
DEFAULT_255_1_388
10
19.8369398
20
0.0217
11
20.3393216
21
1.3372898
0
LINE
8
DEFAULT_255_1_388
10
20.3393216
20
1.3372898
11
20.4911205
21
1.3372898
0
LINE
8
DEFAULT_255_1_388
10
20.4911205
20
1.3372898
11
20.9944059
21
0.0217
0
LINE
8
DEFAULT_255_1_388
10
20.9944059
20
0.0217
11
20.8164037
21
0.0217
0
LINE
8
DEFAULT_255_1_388
10
20.415221
20
1.1231451
11
20.1920406
21
0.5078177
0
LINE
8
DEFAULT_255_1_388
10
20.1920406
20
0.5078177
11
20.639305
21
0.5078177
0
LINE
8
DEFAULT_255_1_388
10
20.639305
20
0.5078177
11
20.415221
21
1.1231451
0
LINE
8
DEFAULT_255_1_388
10
21.6278045
20
0.0217
11
21.1715045
21
0.0217
0
LINE
8
DEFAULT_255_1_388
10
21.1715045
20
0.0217
11
21.1715045
21
1.3372898
0
LINE
8
DEFAULT_255_1_388
10
21.1715045
20
1.3372898
11
21.6016012
21
1.3372898
0
LINE
8
DEFAULT_255_1_388
10
21.6341295
20
0.6370274
11
21.3449889
21
0.6370274
0
LINE
8
DEFAULT_255_1_388
10
21.3449889
20
0.6370274
11
21.3449889
21
0.1635596
0
LINE
8
DEFAULT_255_1_388
10
21.3449889
20
0.1635596
11
21.6314188
21
0.1635596
0
LINE
8
DEFAULT_255_1_388
10
21.3449889
20
1.1945267
11
21.3449889
21
0.7761763
0
LINE
8
DEFAULT_255_1_388
10
21.3449889
20
0.7761763
11
21.6070226
21
0.7761763
0
LINE
8
DEFAULT_255_1_388
10
21.6016012
20
1.1945267
11
21.3449889
21
1.1945267
0
ARC
8
DEFAULT_255_1_388
10
21.6058432
20
0.5084824
40
0.8288183
50
82.1256322
51
90.2932506
0
ARC
8
DEFAULT_255_1_388
10
21.6496007
20
0.814259
40
0.5199321
50
69.9044202
51
82.2857574
0
ARC
8
DEFAULT_255_1_388
10
21.7138
20
0.9877993
40
0.3348993
50
51.1840204
51
70.018125
0
ARC
8
DEFAULT_255_1_388
10
21.7424832
20
1.0294945
40
0.2844579
50
12.1018086
51
50.421322
0
ARC
8
DEFAULT_255_1_388
10
21.5867703
20
0.9903937
40
0.4449429
50
359.5252354
51
12.8212369
0
ARC
8
DEFAULT_255_1_388
10
21.7645133
20
0.9825943
40
0.2672162
50
323.4907456
51
0.8818258
0
ARC
8
DEFAULT_255_1_388
10
21.7174546
20
1.0189523
40
0.3266736
50
298.6824053
51
323.2758285
0
ARC
8
DEFAULT_255_1_388
10
21.6767837
20
1.0865509
40
0.4055105
50
293.1994739
51
299.139634
0
ARC
8
DEFAULT_255_1_388
10
21.7524787
20
0.4019651
40
0.3229926
50
54.0009997
51
74.9168635
0
ARC
8
DEFAULT_255_1_388
10
21.7655714
20
0.4241511
40
0.2973581
50
36.3578854
51
53.5293172
0
ARC
8
DEFAULT_255_1_388
10
21.7513082
20
0.413985
40
0.3148715
50
4.8189348
51
36.3090187
0
ARC
8
DEFAULT_255_1_388
10
21.6636106
20
0.4016383
40
0.4033265
50
359.9373213
51
5.5201284
0
ARC
8
DEFAULT_255_1_388
10
21.6271436
20
0.3970733
40
0.4398126
50
344.7479357
51
0.5372278
0
ARC
8
DEFAULT_255_1_388
10
21.7386335
20
0.3670205
40
0.3243441
50
311.1785587
51
344.6887681
0
ARC
8
DEFAULT_255_1_388
10
21.7057878
20
0.4079084
40
0.3767511
50
286.0417804
51
310.8440924
0
ARC
8
DEFAULT_255_1_388
10
21.6487287
20
0.5931885
40
0.5705957
50
274.1044074
51
286.4070149
0
ARC
8
DEFAULT_255_1_388
10
21.6288503
20
0.8049901
40
0.7832907
50
269.9235077
51
274.4458593
0
ARC
8
DEFAULT_255_1_388
10
21.6340221
20
0.5418462
40
0.3782955
50
269.6057074
51
281.3740795
0
ARC
8
DEFAULT_255_1_388
10
21.6599719
20
0.4188569
40
0.2526069
50
281.105298
51
302.5134029
0
ARC
8
DEFAULT_255_1_388
10
21.6765107
20
0.3891944
40
0.2187131
50
303.0365425
51
311.8818034
0
ARC
8
DEFAULT_255_1_388
10
21.6845284
20
0.3796602
40
0.2062624
50
311.9916937
51
351.7143773
0
ARC
8
DEFAULT_255_1_388
10
21.5926309
20
0.3982271
40
0.2999202
50
350.7343295
51
0.2221526
0
ARC
8
DEFAULT_255_1_388
10
21.5805397
20
0.404587
40
0.3120525
50
359.045729
51
17.2295312
0
ARC
8
DEFAULT_255_1_388
10
21.6974427
20
0.4393155
40
0.1901144
50
17.6685208
51
78.9940245
0
ARC
8
DEFAULT_255_1_388
10
21.6392788
20
0.2305011
40
0.4065575
50
76.565218
51
90.7103392
0
LINE
8
DEFAULT_255_1_388
10
21.6342385
20
0.6370274
11
21.6341295
21
0.6370274
0
ARC
8
DEFAULT_255_1_388
10
21.6095614
20
1.1457949
40
0.3696273
50
269.6064514
51
281.4533785
0
ARC
8
DEFAULT_255_1_388
10
21.6346255
20
1.0275283
40
0.2487412
50
281.2044438
51
302.5143998
0
ARC
8
DEFAULT_255_1_388
10
21.6500509
20
0.9997576
40
0.2170405
50
303.0211308
51
309.8378766
0
ARC
8
DEFAULT_255_1_388
10
21.6706626
20
0.9766486
40
0.1860946
50
309.5229446
51
356.9509628
0
ARC
8
DEFAULT_255_1_388
10
21.5960752
20
0.9873831
40
0.2612347
50
355.4699226
51
0.0498632
0
ARC
8
DEFAULT_255_1_388
10
21.5646425
20
0.9898789
40
0.2926762
50
359.5558955
51
11.2092924
0
ARC
8
DEFAULT_255_1_388
10
21.6723393
20
1.0121667
40
0.1827036
50
10.9185717
51
31.322519
0
ARC
8
DEFAULT_255_1_388
10
21.7044941
20
1.0300571
40
0.1459418
50
31.8850633
51
52.1415586
0
ARC
8
DEFAULT_255_1_388
10
21.673637
20
0.9864674
40
0.1993088
50
52.8283418
51
71.9850132
0
ARC
8
DEFAULT_255_1_388
10
21.6313531
20
0.8620158
40
0.3307407
50
71.686634
51
82.8453416
0
ARC
8
DEFAULT_255_1_388
10
21.6044178
20
0.6584892
40
0.536039
50
82.6981895
51
90.1730083
0
ARC
8
DEFAULT_255_1_388
10
21.601901
20
0.7463836
40
0.4481429
50
89.8851568
51
90.0383283
0
LINE
8
DEFAULT_255_1_388
10
23.1051324
20
0.799669
11
23.1051324
21
0.5828135
0
LINE
8
DEFAULT_255_1_388
10
22.2747567
20
0.5602244
11
22.2747567
21
0.7834048
0
LINE
8
DEFAULT_255_1_388
10
22.937973
20
0.5376353
11
22.937973
21
0.8114153
0
LINE
8
DEFAULT_255_1_388
10
22.4419161
20
0.8240652
11
22.4419161
21
0.5566102
0
ARC
8
DEFAULT_255_1_388
10
21.7273658
20
0.5773118
40
1.3777776
50
353.8440855
51
0.2287917
0
ARC
8
DEFAULT_255_1_388
10
22.2492676
20
0.5190414
40
0.852639
50
344.4934746
51
353.9763743
0
ARC
8
DEFAULT_255_1_388
10
22.5859483
20
0.4233191
40
0.5026273
50
329.2803599
51
344.7473406
0
ARC
8
DEFAULT_255_1_388
10
22.6974979
20
0.3621038
40
0.3754848
50
324.9361395
51
328.6153007
0
ARC
8
DEFAULT_255_1_388
10
22.7400628
20
0.3323586
40
0.3235566
50
280.5801797
51
324.9173226
0
ARC
8
DEFAULT_255_1_388
10
22.6949257
20
0.5203236
40
0.5167077
50
269.5979457
51
281.6732777
0
ARC
8
DEFAULT_255_1_388
10
22.686816
20
0.5068113
40
0.5032026
50
256.6228565
51
270.5105488
0
ARC
8
DEFAULT_255_1_388
10
22.6415903
20
0.3326345
40
0.3233092
50
215.8618351
51
257.2787793
0
ARC
8
DEFAULT_255_1_388
10
22.756461
20
0.4097106
40
0.4615831
50
197.9695203
51
215.2622745
0
ARC
8
DEFAULT_255_1_388
10
23.0360286
20
0.5040641
40
0.7566307
50
187.8816486
51
198.2346584
0
ARC
8
DEFAULT_255_1_388
10
23.4813524
20
0.5683453
40
1.2065653
50
180.8977266
51
188.0054894
0
ARC
8
DEFAULT_255_1_388
10
23.7863738
20
0.57984
40
1.5117443
50
180.7434591
51
181.152202
0
ARC
8
DEFAULT_255_1_388
10
23.6188734
20
0.7888371
40
1.3441277
50
173.7674302
51
180.2315596
0
ARC
8
DEFAULT_255_1_388
10
23.1106603
20
0.8462779
40
0.8326847
50
164.3058537
51
173.9000553
0
ARC
8
DEFAULT_255_1_388
10
22.7830603
20
0.9406652
40
0.4917711
50
148.7922028
51
164.5682288
0
ARC
8
DEFAULT_255_1_388
10
22.676134
20
1.0003457
40
0.3694204
50
144.5883979
51
148.1161588
0
ARC
8
DEFAULT_255_1_388
10
22.6374085
20
1.0273667
40
0.322202
50
101.6440149
51
144.5142619
0
ARC
8
DEFAULT_255_1_388
10
22.6852278
20
0.8373337
40
0.5180451
50
89.528284
51
102.5820197
0
ARC
8
DEFAULT_255_1_388
10
22.694127
20
0.8329376
40
0.5224441
50
77.0437914
51
90.508231
0
ARC
8
DEFAULT_255_1_388
10
22.7393523
20
1.0177272
40
0.3322297
50
48.2777708
51
77.4996087
0
ARC
8
DEFAULT_255_1_388
10
22.7475263
20
1.0322557
40
0.315966
50
36.3141586
51
47.6307332
0
ARC
8
DEFAULT_255_1_388
10
22.6497985
20
0.9664159
40
0.4337313
50
18.2931065
51
35.6770203
0
ARC
8
DEFAULT_255_1_388
10
22.3636826
20
0.8682107
40
0.7362203
50
8.0246996
51
18.5605636
0
ARC
8
DEFAULT_255_1_388
10
21.8953182
20
0.7990432
40
1.2096583
50
1.127539
51
8.1718423
0
ARC
8
DEFAULT_255_1_388
10
21.5304315
20
0.7847374
40
1.5747719
50
0.5432713
51
1.38669
0
ARC
8
DEFAULT_255_1_388
10
21.7361694
20
0.8154163
40
1.2018103
50
359.8092569
51
4.9408001
0
ARC
8
DEFAULT_255_1_388
10
22.2098275
20
0.85769
40
0.7262727
50
4.8364937
51
12.2906017
0
ARC
8
DEFAULT_255_1_388
10
22.519774
20
0.9267485
40
0.4087324
50
12.0806994
51
23.8171225
0
ARC
8
DEFAULT_255_1_388
10
22.6518136
20
0.9826508
40
0.2653719
50
24.2874621
51
31.3934353
0
ARC
8
DEFAULT_255_1_388
10
22.7108572
20
1.0212822
40
0.1948607
50
30.7407708
51
82.4658033
0
ARC
8
DEFAULT_255_1_388
10
22.6906233
20
0.9219017
40
0.2961198
50
81.1057101
51
90.2187368
0
ARC
8
DEFAULT_255_1_388
10
22.6866044
20
0.9509421
40
0.2670929
50
89.380395
51
105.6763916
0
ARC
8
DEFAULT_255_1_388
10
22.6659766
20
1.025932
40
0.1893189
50
105.7980655
51
149.7387869
0
ARC
8
DEFAULT_255_1_388
10
22.7856907
20
0.9539719
40
0.3289892
50
149.4208441
51
163.628295
0
ARC
8
DEFAULT_255_1_388
10
23.0209136
20
0.8822345
40
0.5749004
50
163.3764549
51
172.141138
0
ARC
8
DEFAULT_255_1_388
10
23.3921858
20
0.8290582
40
0.9499585
50
172.0258462
51
178.0705453
0
ARC
8
DEFAULT_255_1_388
10
23.734341
20
0.8128682
40
1.2924734
50
177.8639301
51
179.5036263
0
ARC
8
DEFAULT_255_1_388
10
23.6124429
20
0.5525151
40
1.170534
50
179.7995545
51
185.246089
0
ARC
8
DEFAULT_255_1_388
10
23.1576022
20
0.5094404
40
0.7136613
50
185.1411911
51
193.0082205
0
ARC
8
DEFAULT_255_1_388
10
22.8602283
20
0.4391441
40
0.4080987
50
192.7897338
51
205.2507384
0
ARC
8
DEFAULT_255_1_388
10
22.7424493
20
0.3865538
40
0.2791522
50
205.8001921
51
211.2545876
0
ARC
8
DEFAULT_255_1_388
10
22.6836032
20
0.3471132
40
0.2084074
50
210.3789935
51
238.4007996
0
ARC
8
DEFAULT_255_1_388
10
22.6814118
20
0.3523786
40
0.2117943
50
239.6521916
51
265.9793852
0
ARC
8
DEFAULT_255_1_388
10
22.6909967
20
0.4280358
40
0.2879689
50
265.1324455
51
270.0603288
0
ARC
8
DEFAULT_255_1_388
10
22.6942344
20
0.3915418
40
0.2514919
50
269.3314378
51
287.2180039
0
ARC
8
DEFAULT_255_1_388
10
22.7097426
20
0.3349291
40
0.1928357
50
287.7957942
51
329.0808983
0
ARC
8
DEFAULT_255_1_388
10
22.6020183
20
0.4021651
40
0.319808
50
328.6635261
51
343.3325043
0
ARC
8
DEFAULT_255_1_388
10
22.3575642
20
0.4783195
40
0.5758408
50
343.0498092
51
351.9392499
0
ARC
8
DEFAULT_255_1_388
10
21.9674963
20
0.5358205
40
0.9701202
50
351.8071632
51
357.7957897
0
ARC
8
DEFAULT_255_1_388
10
21.604044
20
0.5546724
40
1.3340376
50
357.5870923
51
359.2682493
0
ARC
8
DEFAULT_255_2_778
10
7.7537439
20
52.2948128
40
3.0466403
50
251.6724781
51
258.5987661
0
ARC
8
DEFAULT_255_2_778
10
7.5394558
20
51.2136316
40
1.9444375
50
258.4907215
51
268.3974115
0
ARC
8
DEFAULT_255_2_778
10
7.5171542
20
50.7829995
40
1.5133848
50
268.7854544
51
269.9953942
0
ARC
8
DEFAULT_255_2_778
10
7.5274263
20
50.3336726
40
1.0641086
50
269.4403512
51
279.6841037
0
ARC
8
DEFAULT_255_2_778
10
7.6415978
20
49.7041567
40
0.4244099
50
278.7863046
51
300.3428271
0
ARC
8
DEFAULT_255_2_778
10
7.7606279
20
49.50153
40
0.1894089
50
300.2328316
51
1.9014863
0
ARC
8
DEFAULT_255_2_778
10
7.745908
20
49.5106715
40
0.2040445
50
359.1977832
51
359.9996968
0
ARC
8
DEFAULT_255_2_778
10
7.752475
20
49.5115013
40
0.1974794
50
359.7589479
51
47.2071953
0
ARC
8
DEFAULT_255_2_778
10
7.618413
20
49.3625429
40
0.3978723
50
47.6130098
51
60.824453
0
ARC
8
DEFAULT_255_2_778
10
7.0178997
20
48.3455677
40
1.5788249
50
59.7878046
51
64.8721208
0
ARC
8
DEFAULT_255_2_778
10
6.0919837
20
46.4143461
40
3.7205057
50
64.5916011
51
66.820345
0
ARC
8
DEFAULT_255_2_778
10
9.6372482
20
54.7724609
40
5.3584611
50
244.3087082
51
247.1497851
0
ARC
8
DEFAULT_255_2_778
10
8.548378
20
52.516872
40
2.8538059
50
240.2312866
51
244.3765687
0
ARC
8
DEFAULT_255_2_778
10
7.7790999
20
51.1824805
40
1.3135689
50
233.2094737
51
240.4596791
0
ARC
8
DEFAULT_255_2_778
10
7.3558445
20
50.6124409
40
0.603585
50
225.678902
51
232.9782433
0
ARC
8
DEFAULT_255_2_778
10
7.396101
20
50.6372518
40
0.6495632
50
178.2741582
51
224.667467
0
ARC
8
DEFAULT_255_2_778
10
7.506051
20
50.6706559
40
0.7593447
50
157.036112
51
181.044431
0
ARC
8
DEFAULT_255_2_778
10
7.3786854
20
50.7114246
40
0.6262846
50
124.9253006
51
155.9241303
0
ARC
8
DEFAULT_255_2_778
10
7.5959789
20
50.4030358
40
1.0035357
50
100.4079723
51
125.0168617
0
ARC
8
DEFAULT_255_2_778
10
7.6990521
20
49.9089723
40
1.5081396
50
89.6483922
51
100.8684975
0
ARC
8
DEFAULT_255_2_778
10
7.7082565
20
49.5567665
40
1.8603169
50
89.5079487
51
89.9984402
0
ARC
8
DEFAULT_255_2_778
10
7.7098896
20
49.4915371
40
1.9255311
50
83.9170631
51
89.5732113
0
ARC
8
DEFAULT_255_2_778
10
7.507084
20
47.4839635
40
3.9433074
50
80.7325723
51
84.0779772
0
ARC
8
DEFAULT_255_2_778
10
7.020778
20
44.4610497
40
7.0050837
50
78.5086351
51
80.7886813
0
ARC
8
DEFAULT_255_2_778
10
7.66195
20
49.0605221
40
1.9415426
50
67.135818
51
78.0934208
0
ARC
8
DEFAULT_255_2_778
10
7.7851137
20
49.6309486
40
1.3579807
50
78.2126325
51
89.7333975
0
ARC
8
DEFAULT_255_2_778
10
7.7793169
20
50.0453048
40
0.9436877
50
89.2643807
51
100.5577599
0
ARC
8
DEFAULT_255_2_778
10
7.6665349
20
50.6140957
40
0.3639224
50
99.5099416
51
124.0285213
0
ARC
8
DEFAULT_255_2_778
10
7.57032
20
50.7641933
40
0.1857341
50
125.3416971
51
182.2767689
0
ARC
8
DEFAULT_255_2_778
10
7.5498732
20
50.7575853
40
0.1651425
50
180.2673353
51
239.6912529
0
ARC
8
DEFAULT_255_2_778
10
7.9317524
20
51.355904
40
0.8748407
50
237.8744287
51
242.8176978
0
ARC
8
DEFAULT_255_2_778
10
9.4128979
20
54.1665997
40
4.0518771
50
242.3429481
51
244.0446069
0
ARC
8
DEFAULT_255_2_778
10
12.366878
20
60.2004499
40
10.7700062
50
243.963828
51
244.8175572
0
ARC
8
DEFAULT_255_2_778
10
15.3890528
20
66.5921513
40
17.8401724
50
244.7685545
51
244.971514
0
ARC
8
DEFAULT_255_2_778
10
5.8608283
20
46.0973652
40
4.7613433
50
62.2451122
51
65.4192096
0
ARC
8
DEFAULT_255_2_778
10
6.9253351
20
48.109274
40
2.4851839
50
57.2979848
51
62.3628589
0
ARC
8
DEFAULT_255_2_778
10
7.6799627
20
49.274958
40
1.0965802
50
48.7493094
51
57.571194
0
ARC
8
DEFAULT_255_2_778
10
8.0114821
20
49.6632759
40
0.586081
50
44.3424824
51
48.0852666
0
ARC
8
DEFAULT_255_2_778
10
7.9782325
20
49.6437146
40
0.6236013
50
1.3523843
51
43.4925744
0
ARC
8
DEFAULT_255_2_778
10
7.7102854
20
49.6107828
40
0.8926473
50
359.9763756
51
3.0599076
0
ARC
8
DEFAULT_255_2_778
10
7.8642098
20
49.5956968
40
0.7388693
50
333.0409438
51
1.1413791
0
ARC
8
DEFAULT_255_2_778
10
7.8947469
20
49.6025035
40
0.7150136
50
300.8436672
51
331.44521
0
ARC
8
DEFAULT_255_2_778
10
7.6945587
20
49.9165479
40
1.0873327
50
281.4188469
51
301.4162372
0
ARC
8
DEFAULT_255_2_778
10
7.5631994
20
50.5253698
40
1.7101299
50
270.2272327
51
281.6944092
0
ARC
8
DEFAULT_255_2_778
10
7.5453128
20
51.0010692
40
2.185955
50
269.9983113
51
270.6466065
0
LINE
8
DEFAULT_255_2_778
10
7.5452484
20
48.8151142
11
7.5437325
21
48.8151147
0
ARC
8
DEFAULT_255_2_778
10
7.5508484
20
51.9980647
40
3.1829579
50
256.2431122
51
269.871909
0
ARC
8
DEFAULT_255_2_778
10
21.7540021
20
52.2168817
40
2.9666503
50
251.5318157
51
258.7258279
0
ARC
8
DEFAULT_255_2_778
10
21.5537563
20
51.194951
40
1.9252941
50
258.62435
51
268.8252909
0
ARC
8
DEFAULT_255_2_778
10
21.5354665
20
50.8000972
40
1.5301823
50
269.2068806
51
269.9987259
0
ARC
8
DEFAULT_255_2_778
10
21.5473171
20
50.3358861
40
1.0660376
50
269.3612297
51
279.5899087
0
ARC
8
DEFAULT_255_2_778
10
21.6607762
20
49.7044001
40
0.424527
50
278.6895227
51
300.2363944
0
ARC
8
DEFAULT_255_2_778
10
21.7798406
20
49.500947
40
0.188796
50
300.1108484
51
1.9024905
0
ARC
8
DEFAULT_255_2_778
10
21.74389
20
49.5115898
40
0.2246851
50
358.8842611
51
0.0019649
0
ARC
8
DEFAULT_255_2_778
10
21.7769114
20
49.5155062
40
0.1917038
50
358.831716
51
47.0900458
0
ARC
8
DEFAULT_255_2_778
10
21.6376597
20
49.3570519
40
0.402612
50
47.9285592
51
61.0836101
0
ARC
8
DEFAULT_255_2_778
10
21.0429796
20
48.3387787
40
1.5817315
50
60.0631222
51
65.1602386
0
ARC
8
DEFAULT_255_2_778
10
20.1314272
20
46.412706
40
3.7125866
50
64.8807046
51
67.1209578
0
ARC
8
DEFAULT_255_2_778
10
23.627479
20
54.7021565
40
5.2839333
50
244.2656926
51
247.1407051
0
ARC
8
DEFAULT_255_2_778
10
22.559432
20
52.4939327
40
2.8309849
50
240.1545061
51
244.3326325
0
ARC
8
DEFAULT_255_2_778
10
21.7855871
20
51.1579023
40
1.2870531
50
232.697515
51
240.4357497
0
ARC
8
DEFAULT_255_2_778
10
21.3704829
20
50.6068895
40
0.5972006
50
225.5850892
51
232.3393736
0
ARC
8
DEFAULT_255_2_778
10
21.4133264
20
50.636461
40
0.6483829
50
178.7795739
51
224.7095916
0
ARC
8
DEFAULT_255_2_778
10
21.6668642
20
50.6604812
40
0.9018316
50
179.997867
51
180.6487041
0
ARC
8
DEFAULT_255_2_778
10
21.5167061
20
50.6742926
40
0.7517998
50
156.9195758
51
181.050088
0
ARC
8
DEFAULT_255_2_778
10
21.3927805
20
50.7137389
40
0.6224513
50
124.7111133
51
155.7879672
0
ARC
8
DEFAULT_255_2_778
10
21.6049077
20
50.4234843
40
0.9818859
50
101.7943006
51
125.2417472
0
ARC
8
DEFAULT_255_2_778
10
21.7294568
20
49.8700359
40
1.5491324
50
89.5237779
51
102.119608
0
ARC
8
DEFAULT_255_2_778
10
21.727965
20
49.3152684
40
2.1038954
50
83.2897778
51
89.6087235
0
ARC
8
DEFAULT_255_2_778
10
21.5234013
20
47.5029907
40
3.9276711
50
79.3121016
51
83.4152109
0
ARC
8
DEFAULT_255_2_778
10
21.2067148
20
45.7383502
40
5.7204535
50
78.2244786
51
79.4731175
0
ARC
8
DEFAULT_255_2_778
10
21.6833903
20
49.0720601
40
1.9313541
50
67.1320052
51
78.3124693
0
ARC
8
DEFAULT_255_2_778
10
21.8010805
20
49.624309
40
1.3667182
50
78.4541134
51
89.7546716
0
ARC
8
DEFAULT_255_2_778
10
21.7948662
20
50.0529688
40
0.9381236
50
89.263032
51
100.5789495
0
ARC
8
DEFAULT_255_2_778
10
21.6820638
20
50.6196991
40
0.3603816
50
99.4915893
51
124.3627674
0
ARC
8
DEFAULT_255_2_778
10
21.5871509
20
50.7667673
40
0.1854666
50
125.8028369
51
182.2896157
0
ARC
8
DEFAULT_255_2_778
10
21.5489799
20
50.759272
40
0.1471476
50
179.9666171
51
180.1001736
0
ARC
8
DEFAULT_255_2_778
10
21.5661858
20
50.7592311
40
0.1643535
50
180.0754351
51
239.8483251
0
ARC
8
DEFAULT_255_2_778
10
21.9354551
20
51.341313
40
0.8535847
50
238.0402264
51
243.0370307
0
ARC
8
DEFAULT_255_2_778
10
23.4787463
20
54.2934461
40
4.1847343
50
242.5305029
51
244.1852103
0
ARC
8
DEFAULT_255_2_778
10
26.6265515
20
60.7636116
40
11.3799845
50
244.1038809
51
244.9214171
0
ARC
8
DEFAULT_255_2_778
10
29.8771528
20
67.672326
40
19.0152051
50
244.8737354
51
245.0669821
0
ARC
8
DEFAULT_255_2_778
10
19.8876742
20
46.139071
40
4.7223648
50
62.036831
51
65.2981624
0
ARC
8
DEFAULT_255_2_778
10
20.9516164
20
48.1336714
40
2.4617531
50
57.1110762
51
62.1404081
0
ARC
8
DEFAULT_255_2_778
10
21.7042272
20
49.286797
40
1.0847836
50
48.3568195
51
57.4187314
0
ARC
8
DEFAULT_255_2_778
10
22.028946
20
49.6631639
40
0.5878002
50
44.453022
51
47.6325253
0
ARC
8
DEFAULT_255_2_778
10
21.9973779
20
49.6449098
40
0.6231843
50
1.0876759
51
43.6183889
0
ARC
8
DEFAULT_255_2_778
10
21.7304111
20
49.6128301
40
0.8911213
50
359.9797211
51
2.8243422
0
ARC
8
DEFAULT_255_2_778
10
21.8798151
20
49.5977736
40
0.7418639
50
333.2156265
51
1.138567
0
ARC
8
DEFAULT_255_2_778
10
21.9146495
20
49.6022363
40
0.7130495
50
300.9658303
51
331.6339563
0
ARC
8
DEFAULT_255_2_778
10
21.7181382
20
49.91147
40
1.0793606
50
281.9136331
51
301.4645182
0
ARC
8
DEFAULT_255_2_778
10
21.5849532
20
50.5086054
40
1.6911426
50
270.5804277
51
282.1523279
0
ARC
8
DEFAULT_255_2_778
10
21.5638102
20
51.0025177
40
2.1853034
50
269.9959061
51
271.0035609
0
LINE
8
DEFAULT_255_2_778
10
21.5636541
20
48.8172142
11
21.5621325
21
48.8172147
0
ARC
8
DEFAULT_255_2_778
10
21.5690949
20
52.0013913
40
3.1841842
50
256.2458002
51
269.8747201
0
LINE
8
DEFAULT_255_2_778
10
6.7957325
20
48.9079147
11
6.7957325
21
49.4027147
0
LINE
8
DEFAULT_255_2_778
10
8.4163325
20
51.3257147
11
8.4163325
21
50.8495147
0
LINE
8
DEFAULT_255_2_778
10
6.7939325
20
48.9064147
11
6.7957325
21
48.9079147
0
LINE
8
DEFAULT_255_2_778
10
8.9865325
20
51.3752147
11
9.6628325
21
51.3752147
0
LINE
8
DEFAULT_255_2_778
10
9.6628325
20
51.3752147
11
9.6628325
21
48.8677147
0
LINE
8
DEFAULT_255_2_778
10
9.6628325
20
48.8677147
11
8.9865325
21
48.8677147
0
LINE
8
DEFAULT_255_2_778
10
8.9865325
20
48.8677147
11
8.9865325
21
51.3752147
0
LINE
8
DEFAULT_255_2_778
10
10.2808325
20
48.8677147
11
10.2808325
21
51.3752147
0
LINE
8
DEFAULT_255_2_778
10
10.2808325
20
51.3752147
11
12.0131325
21
51.3752147
0
LINE
8
DEFAULT_255_2_778
10
12.0131325
20
51.3752147
11
12.0131325
21
50.9214147
0
LINE
8
DEFAULT_255_2_778
10
12.0131325
20
50.9214147
11
10.9320325
21
50.9214147
0
LINE
8
DEFAULT_255_2_778
10
10.9320325
20
50.9214147
11
10.9320325
21
50.3552147
0
LINE
8
DEFAULT_255_2_778
10
10.9320325
20
50.3552147
11
11.8734325
21
50.3552147
0
LINE
8
DEFAULT_255_2_778
10
11.8734325
20
50.3552147
11
11.8734325
21
49.9417147
0
LINE
8
DEFAULT_255_2_778
10
11.8734325
20
49.9417147
11
10.9320325
21
49.9417147
0
LINE
8
DEFAULT_255_2_778
10
10.9320325
20
49.9417147
11
10.9320325
21
49.3464147
0
LINE
8
DEFAULT_255_2_778
10
10.9320325
20
49.3464147
11
12.0411325
21
49.3464147
0
LINE
8
DEFAULT_255_2_778
10
12.0411325
20
49.3464147
11
12.0411325
21
48.8661147
0
LINE
8
DEFAULT_255_2_778
10
12.0411325
20
48.8661147
11
10.2808325
21
48.8677147
0
LINE
8
DEFAULT_255_2_778
10
12.4816325
20
48.8677147
11
12.4816325
21
51.3752147
0
LINE
8
DEFAULT_255_2_778
10
12.4816325
20
51.3752147
11
13.3574325
21
51.3752147
0
LINE
8
DEFAULT_255_2_778
10
13.3574325
20
51.3752147
11
13.9670325
21
49.7729147
0
LINE
8
DEFAULT_255_2_778
10
13.9670325
20
49.7729147
11
14.5896325
21
51.3752147
0
LINE
8
DEFAULT_255_2_778
10
14.5896325
20
51.3752147
11
15.4214325
21
51.3752147
0
LINE
8
DEFAULT_255_2_778
10
15.4214325
20
51.3752147
11
15.4214325
21
48.8677147
0
LINE
8
DEFAULT_255_2_778
10
15.4214325
20
48.8677147
11
14.7811325
21
48.8677147
0
LINE
8
DEFAULT_255_2_778
10
14.7811325
20
48.8677147
11
14.7811325
21
50.6436147
0
LINE
8
DEFAULT_255_2_778
10
14.7811325
20
50.6436147
11
14.0723325
21
48.8434147
0
LINE
8
DEFAULT_255_2_778
10
14.0723325
20
48.8434147
11
13.6514325
21
48.8434147
0
LINE
8
DEFAULT_255_2_778
10
13.6514325
20
48.8434147
11
12.9558325
21
50.6436147
0
LINE
8
DEFAULT_255_2_778
10
12.9558325
20
50.6436147
11
12.9558325
21
48.8675147
0
LINE
8
DEFAULT_255_2_778
10
12.9558325
20
48.8675147
11
12.4816325
21
48.8677147
0
LINE
8
DEFAULT_255_2_778
10
16.0408325
20
48.8677147
11
16.0408325
21
51.3752147
0
LINE
8
DEFAULT_255_2_778
10
16.0408325
20
51.3752147
11
17.7730325
21
51.3752147
0
LINE
8
DEFAULT_255_2_778
10
17.7730325
20
51.3752147
11
17.7730325
21
50.9214147
0
LINE
8
DEFAULT_255_2_778
10
17.7730325
20
50.9214147
11
16.6920325
21
50.9214147
0
LINE
8
DEFAULT_255_2_778
10
16.6920325
20
50.9214147
11
16.6920325
21
50.3552147
0
LINE
8
DEFAULT_255_2_778
10
16.6920325
20
50.3552147
11
17.6333325
21
50.3552147
0
LINE
8
DEFAULT_255_2_778
10
17.6333325
20
50.3552147
11
17.6333325
21
49.9417147
0
LINE
8
DEFAULT_255_2_778
10
17.6333325
20
49.9417147
11
16.6920325
21
49.9417147
0
LINE
8
DEFAULT_255_2_778
10
16.6920325
20
49.9417147
11
16.6920325
21
49.3464147
0
LINE
8
DEFAULT_255_2_778
10
16.6920325
20
49.3464147
11
17.8029325
21
49.3464147
0
LINE
8
DEFAULT_255_2_778
10
17.8029325
20
49.3464147
11
17.8029325
21
48.8661147
0
LINE
8
DEFAULT_255_2_778
10
17.8029325
20
48.8661147
11
16.0408325
21
48.8677147
0
LINE
8
DEFAULT_255_2_778
10
18.2453325
20
48.8677147
11
18.2453325
21
51.3752147
0
LINE
8
DEFAULT_255_2_778
10
18.2453325
20
51.3752147
11
19.0282325
21
51.3752147
0
LINE
8
DEFAULT_255_2_778
10
19.0282325
20
51.3752147
11
19.8585325
21
49.6964147
0
LINE
8
DEFAULT_255_2_778
10
19.8585325
20
49.6964147
11
19.8585325
21
51.3752147
0
LINE
8
DEFAULT_255_2_778
10
19.8585325
20
51.3752147
11
20.3342325
21
51.3752147
0
LINE
8
DEFAULT_255_2_778
10
20.3342325
20
51.3752147
11
20.3342325
21
48.8677147
0
LINE
8
DEFAULT_255_2_778
10
20.3342325
20
48.8677147
11
19.5738325
21
48.8677147
0
LINE
8
DEFAULT_255_2_778
10
19.5738325
20
48.8677147
11
18.7213325
21
50.5690147
0
LINE
8
DEFAULT_255_2_778
10
18.7213325
20
50.5690147
11
18.7213325
21
48.8677147
0
LINE
8
DEFAULT_255_2_778
10
18.7213325
20
48.8677147
11
18.2453325
21
48.8677147
0
LINE
8
DEFAULT_255_2_778
10
20.8142325
20
48.9082147
11
20.8142325
21
49.4030147
0
LINE
8
DEFAULT_255_2_778
10
22.3741325
20
51.3384147
11
22.4339325
21
51.3278147
0
LINE
8
DEFAULT_255_2_778
10
22.4339325
20
51.3278147
11
22.4339325
21
50.8516147
0
LINE
8
DEFAULT_255_2_778
10
20.8120325
20
48.9085147
11
20.8142325
21
48.9082147
0
LINE
8
DEFAULT_255_1_388
10
7.9822457
20
47.2589892
11
7.8078577
21
47.2589892
0
LINE
8
DEFAULT_255_1_388
10
7.0289852
20
46.7051042
11
7.2033731
21
46.7051042
0
ARC
8
DEFAULT_255_1_388
10
7.8819304
20
48.2653821
40
1.4087688
50
248.9196578
51
254.1442424
0
ARC
8
DEFAULT_255_1_388
10
7.6929184
20
47.7787805
40
0.8867498
50
241.6337352
51
249.0064643
0
ARC
8
DEFAULT_255_1_388
10
7.5209498
20
47.4636764
40
0.5277799
50
230.4982261
51
241.8087583
0
ARC
8
DEFAULT_255_1_388
10
7.4327269
20
47.3512686
40
0.3849419
50
227.4062979
51
229.9877433
0
ARC
8
DEFAULT_255_1_388
10
7.3778615
20
47.2977155
40
0.3084129
50
200.6782127
51
228.1765252
0
ARC
8
DEFAULT_255_1_388
10
7.3859984
20
47.2960277
40
0.315461
50
179.506278
51
199.8695278
0
ARC
8
DEFAULT_255_1_388
10
7.3849573
20
47.3043671
40
0.3144584
50
132.4834401
51
181.0242352
0
ARC
8
DEFAULT_255_1_388
10
7.4518777
20
47.2411788
40
0.4063094
50
129.2526113
51
133.4249077
0
ARC
8
DEFAULT_255_1_388
10
7.468437
20
47.2163619
40
0.436014
50
101.9878945
51
128.8741833
0
ARC
8
DEFAULT_255_1_388
10
7.5132785
20
47.022736
40
0.6347415
50
89.5906376
51
102.3170567
0
ARC
8
DEFAULT_255_1_388
10
7.5212097
20
47.0585586
40
0.5989122
50
77.2359491
51
90.3248968
0
ARC
8
DEFAULT_255_1_388
10
7.5445028
20
47.1673554
40
0.4876594
50
63.8379856
51
77.0808925
0
ARC
8
DEFAULT_255_1_388
10
7.5757561
20
47.2255882
40
0.4216191
50
45.9863127
51
64.1608798
0
ARC
8
DEFAULT_255_1_388
10
7.6050955
20
47.259099
40
0.3771394
50
32.2747934
51
45.6544796
0
ARC
8
DEFAULT_255_1_388
10
7.6125761
20
47.2612426
40
0.3696765
50
359.6507495
51
32.6129943
0
ARC
8
DEFAULT_255_1_388
10
7.5064944
20
47.2617788
40
0.3013762
50
359.469654
51
14.983205
0
ARC
8
DEFAULT_255_1_388
10
7.5858196
20
47.2830288
40
0.2192542
50
14.9781954
51
48.2004799
0
ARC
8
DEFAULT_255_1_388
10
7.5673307
20
47.2597937
40
0.2489048
50
48.5926661
51
74.1242559
0
ARC
8
DEFAULT_255_1_388
10
7.5298109
20
47.1359607
40
0.3782845
50
73.7889321
51
86.6653996
0
ARC
8
DEFAULT_255_1_388
10
7.5182924
20
47.0001955
40
0.5145025
50
86.2642725
51
90.0533288
0
ARC
8
DEFAULT_255_1_388
10
7.5151017
20
47.0446376
40
0.4700681
50
89.669455
51
99.2313411
0
ARC
8
DEFAULT_255_1_388
10
7.4878176
20
47.2071401
40
0.3052945
50
99.0695987
51
113.7659242
0
ARC
8
DEFAULT_255_1_388
10
7.4570171
20
47.2797772
40
0.226407
50
114.0402885
51
127.9848946
0
ARC
8
DEFAULT_255_1_388
10
7.4299647
20
47.3130884
40
0.1835045
50
127.7287217
51
176.7106493
0
ARC
8
DEFAULT_255_1_388
10
7.5063312
20
47.301721
40
0.2604907
50
175.1780759
51
180.0581213
0
ARC
8
DEFAULT_255_1_388
10
7.4114656
20
47.3003411
40
0.1656287
50
179.6140658
51
228.124674
0
ARC
8
DEFAULT_255_1_388
10
7.4612013
20
47.346394
40
0.2332038
50
226.5785315
51
230.8792476
0
ARC
8
DEFAULT_255_1_388
10
7.51415
20
47.4166908
40
0.3211664
50
231.4636401
51
241.9261664
0
ARC
8
DEFAULT_255_1_388
10
7.6488283
20
47.6645349
40
0.6032345
50
241.7177136
51
248.3259138
0
ARC
8
DEFAULT_255_1_388
10
7.8046878
20
48.0506771
40
1.0196417
50
248.2007377
51
252.4527713
0
ARC
8
DEFAULT_255_1_388
10
7.9400405
20
48.4691092
40
1.4594143
50
252.3388938
51
254.347037
0
ARC
8
DEFAULT_255_1_388
10
7.0915705
20
45.4343095
40
1.6917621
50
71.0197462
51
74.4085467
0
ARC
8
DEFAULT_255_1_388
10
7.2822793
20
45.9848144
40
1.1091618
50
66.1845203
51
71.086519
0
ARC
8
DEFAULT_255_1_388
10
7.4573342
20
46.3789439
40
0.6779073
50
59.3537334
51
66.269255
0
ARC
8
DEFAULT_255_1_388
10
7.5573068
20
46.5480777
40
0.4814366
50
49.1021732
51
59.3294421
0
ARC
8
DEFAULT_255_1_388
10
7.6494056
20
46.6530575
40
0.3417875
50
32.7924183
51
49.2503526
0
ARC
8
DEFAULT_255_1_388
10
7.684367
20
46.6780311
40
0.2988789
50
31.121225
51
32.3977355
0
ARC
8
DEFAULT_255_1_388
10
7.6755848
20
46.6747728
40
0.3080861
50
8.1116803
51
30.7958224
0
ARC
8
DEFAULT_255_1_388
10
7.5844194
20
46.6592437
40
0.4005385
50
359.8390945
51
8.4707348
0
ARC
8
DEFAULT_255_1_388
10
7.6548242
20
46.6537751
40
0.3301608
50
337.4732479
51
0.7538283
0
ARC
8
DEFAULT_255_1_388
10
7.6749267
20
46.6515554
40
0.3107929
50
307.5917028
51
336.4313755
0
ARC
8
DEFAULT_255_1_388
10
7.6238324
20
46.7083509
40
0.3870096
50
307.6560665
51
308.4561779
0
ARC
8
DEFAULT_255_1_388
10
7.5972541
20
46.7491832
40
0.435591
50
284.3733666
51
307.1426212
0
ARC
8
DEFAULT_255_1_388
10
7.5415435
20
46.9541391
40
0.6479685
50
272.4384566
51
284.6464689
0
ARC
8
DEFAULT_255_1_388
10
7.527282
20
47.1565434
40
0.8508149
50
269.9708517
51
272.8180721
0
ARC
8
DEFAULT_255_1_388
10
7.5224503
20
46.9273283
40
0.6216151
50
248.2707343
51
270.4054609
0
ARC
8
DEFAULT_255_1_388
10
7.5163374
20
46.9058673
40
0.5994203
50
246.1380358
51
248.054058
0
ARC
8
DEFAULT_255_1_388
10
7.4692517
20
46.8069705
40
0.4899388
50
233.1671897
51
246.4951656
0
ARC
8
DEFAULT_255_1_388
10
7.4069152
20
46.7228137
40
0.3852115
50
215.3403381
51
233.084328
0
ARC
8
DEFAULT_255_1_388
10
7.3762516
20
46.7005093
40
0.3472969
50
179.2419235
51
215.2648426
0
ARC
8
DEFAULT_255_1_388
10
7.4626067
20
46.7020979
40
0.259251
50
179.3355796
51
199.1045873
0
ARC
8
DEFAULT_255_1_388
10
7.4252209
20
46.6923223
40
0.2207454
50
199.8830064
51
232.7061328
0
ARC
8
DEFAULT_255_1_388
10
7.4783483
20
46.7591456
40
0.306101
50
232.3736206
51
255.5136621
0
ARC
8
DEFAULT_255_1_388
10
7.5166989
20
46.8991177
40
0.4512213
50
255.2447928
51
267.5318292
0
ARC
8
DEFAULT_255_1_388
10
7.5265456
20
47.0377709
40
0.5901825
50
267.1564563
51
270.0294721
0
ARC
8
DEFAULT_255_1_388
10
7.5296781
20
46.9878623
40
0.5402814
50
269.6999944
51
278.1662446
0
ARC
8
DEFAULT_255_1_388
10
7.5584809
20
46.7931974
40
0.3435003
50
278.0229022
51
290.6255326
0
ARC
8
DEFAULT_255_1_388
10
7.5975975
20
46.6888547
40
0.2320666
50
290.6616368
51
307.0374127
0
ARC
8
DEFAULT_255_1_388
10
7.6313875
20
46.647404
40
0.1786372
50
306.3942078
51
355.303191
0
ARC
8
DEFAULT_255_1_388
10
7.5738168
20
46.6560186
40
0.2367516
50
354.3662092
51
0.0709489
0
ARC
8
DEFAULT_255_1_388
10
7.5898037
20
46.6585561
40
0.2207761
50
359.4175379
51
16.1975911
0
ARC
8
DEFAULT_255_1_388
10
7.6410155
20
46.6725954
40
0.1676828
50
16.4721294
51
52.6261798
0
ARC
8
DEFAULT_255_1_388
10
7.5486662
20
46.5506606
40
0.3206412
50
52.7381828
51
62.4979144
0
ARC
8
DEFAULT_255_1_388
10
7.3928415
20
46.2574236
40
0.6527035
50
62.2517425
51
68.1219454
0
ARC
8
DEFAULT_255_1_388
10
7.1993903
20
45.7819951
40
1.1659797
50
68.006043
51
71.8055127
0
ARC
8
DEFAULT_255_1_388
10
6.9973811
20
45.1761723
40
1.8045908
50
71.718361
51
73.9260743
0
LINE
8
DEFAULT_255_1_388
10
8.3933675
20
47.6393898
11
8.3933675
21
46.3238
0
LINE
8
DEFAULT_255_1_388
10
8.3933675
20
46.3238
11
8.2198831
21
46.3238
0
LINE
8
DEFAULT_255_1_388
10
8.2198831
20
46.3238
11
8.2198831
21
47.6393898
0
LINE
8
DEFAULT_255_1_388
10
8.2198831
20
47.6393898
11
8.3933675
21
47.6393898
0
LINE
8
DEFAULT_255_1_388
10
8.7105186
20
47.6393898
11
8.9346026
21
47.6393898
0
LINE
8
DEFAULT_255_1_388
10
8.9346026
20
47.6393898
11
9.3646993
21
46.5659553
0
LINE
8
DEFAULT_255_1_388
10
9.3646993
20
46.5659553
11
9.7947959
21
47.6393898
0
LINE
8
DEFAULT_255_1_388
10
9.7947959
20
47.6393898
11
10.0197835
21
47.6393898
0
LINE
8
DEFAULT_255_1_388
10
10.0197835
20
47.6393898
11
10.0197835
21
46.3238
0
LINE
8
DEFAULT_255_1_388
10
10.0197835
20
46.3238
11
9.8462991
21
46.3238
0
LINE
8
DEFAULT_255_1_388
10
9.8462991
20
46.3238
11
9.8462991
21
46.836121
0
LINE
8
DEFAULT_255_1_388
10
9.8462991
20
46.836121
11
9.8625633
21
47.3891025
0
LINE
8
DEFAULT_255_1_388
10
9.8625633
20
47.3891025
11
9.4306595
21
46.3238
0
LINE
8
DEFAULT_255_1_388
10
9.4306595
20
46.3238
11
9.2978355
21
46.3238
0
LINE
8
DEFAULT_255_1_388
10
9.2978355
20
46.3238
11
8.8668353
21
47.3863918
0
LINE
8
DEFAULT_255_1_388
10
8.8668353
20
47.3863918
11
8.884003
21
46.836121
0
LINE
8
DEFAULT_255_1_388
10
8.884003
20
46.836121
11
8.884003
21
46.3238
0
LINE
8
DEFAULT_255_1_388
10
8.884003
20
46.3238
11
8.7105186
21
46.3238
0
LINE
8
DEFAULT_255_1_388
10
8.7105186
20
46.3238
11
8.7105186
21
47.6393898
0
LINE
8
DEFAULT_255_1_388
10
11.1944173
20
46.3238
11
11.0688218
21
46.6671545
0
LINE
8
DEFAULT_255_1_388
10
11.0688218
20
46.6671545
11
10.5176475
21
46.6671545
0
LINE
8
DEFAULT_255_1_388
10
10.5176475
20
46.6671545
11
10.3938592
21
46.3238
0
LINE
8
DEFAULT_255_1_388
10
10.3938592
20
46.3238
11
10.2149534
21
46.3238
0
LINE
8
DEFAULT_255_1_388
10
10.2149534
20
46.3238
11
10.7173353
21
47.6393898
0
LINE
8
DEFAULT_255_1_388
10
10.7173353
20
47.6393898
11
10.8691341
21
47.6393898
0
LINE
8
DEFAULT_255_1_388
10
10.8691341
20
47.6393898
11
11.3724195
21
46.3238
0
LINE
8
DEFAULT_255_1_388
10
11.3724195
20
46.3238
11
11.1944173
21
46.3238
0
LINE
8
DEFAULT_255_1_388
10
10.7932347
20
47.4252451
11
10.5700542
21
46.8099177
0
LINE
8
DEFAULT_255_1_388
10
10.5700542
20
46.8099177
11
11.0173187
21
46.8099177
0
LINE
8
DEFAULT_255_1_388
10
11.0173187
20
46.8099177
11
10.7932347
21
47.4252451
0
LINE
8
DEFAULT_255_1_388
10
12.3419441
20
47.6393898
11
12.3419441
21
47.4966267
0
LINE
8
DEFAULT_255_1_388
10
12.3419441
20
47.4966267
11
11.919076
21
47.4966267
0
LINE
8
DEFAULT_255_1_388
10
11.919076
20
47.4966267
11
11.919076
21
46.3238
0
LINE
8
DEFAULT_255_1_388
10
11.919076
20
46.3238
11
11.7464952
21
46.3238
0
LINE
8
DEFAULT_255_1_388
10
11.7464952
20
46.3238
11
11.7464952
21
47.4966267
0
LINE
8
DEFAULT_255_1_388
10
11.7464952
20
47.4966267
11
11.3245306
21
47.4966267
0
LINE
8
DEFAULT_255_1_388
10
11.3245306
20
47.4966267
11
11.3245306
21
47.6393898
0
LINE
8
DEFAULT_255_1_388
10
11.3245306
20
47.6393898
11
12.3419441
21
47.6393898
0
LINE
8
DEFAULT_255_1_388
10
12.7232483
20
47.6393898
11
12.7232483
21
46.3238
0
LINE
8
DEFAULT_255_1_388
10
12.7232483
20
46.3238
11
12.549764
21
46.3238
0
LINE
8
DEFAULT_255_1_388
10
12.549764
20
46.3238
11
12.549764
21
47.6393898
0
LINE
8
DEFAULT_255_1_388
10
12.549764
20
47.6393898
11
12.7232483
21
47.6393898
0
LINE
8
DEFAULT_255_1_388
10
13.8337291
20
46.7412468
11
14.008117
21
46.7412468
0
LINE
8
DEFAULT_255_1_388
10
12.9952212
20
46.9201525
11
12.9952212
21
47.0466516
0
LINE
8
DEFAULT_255_1_388
10
14.008117
20
47.2165217
11
13.8337291
21
47.2165217
0
LINE
8
DEFAULT_255_1_388
10
13.1696092
20
47.0421337
11
13.1696092
21
46.9147312
0
ARC
8
DEFAULT_255_1_388
10
13.3915404
20
46.8084329
40
0.6202263
50
340.1774904
51
353.7812217
0
ARC
8
DEFAULT_255_1_388
10
13.5683257
20
46.7425893
40
0.4315926
50
311.4560052
51
340.4420756
0
ARC
8
DEFAULT_255_1_388
10
13.5645796
20
46.7550665
40
0.4434573
50
282.4332229
51
310.7514507
0
ARC
8
DEFAULT_255_1_388
10
13.5151614
20
46.9592703
40
0.6535262
50
269.9358869
51
282.8096729
0
ARC
8
DEFAULT_255_1_388
10
13.5093554
20
47.1105329
40
0.8048043
50
269.9995752
51
270.3612856
0
ARC
8
DEFAULT_255_1_388
10
13.5034044
20
46.8306781
40
0.5249831
50
250.7885263
51
270.6488451
0
ARC
8
DEFAULT_255_1_388
10
13.4844868
20
46.7589853
40
0.4510942
50
219.3628377
51
250.0611024
0
ARC
8
DEFAULT_255_1_388
10
13.5777743
20
46.8382653
40
0.5735046
50
193.5480293
51
219.5755675
0
ARC
8
DEFAULT_255_1_388
10
13.8445952
20
46.907552
40
0.849146
50
181.1220183
51
193.8754971
0
ARC
8
DEFAULT_255_1_388
10
14.0769185
20
46.9199914
40
1.0816971
50
179.9914644
51
181.5398227
0
ARC
8
DEFAULT_255_1_388
10
13.8692495
20
47.0508586
40
0.8740384
50
169.5837606
51
180.275782
0
ARC
8
DEFAULT_255_1_388
10
13.6625844
20
47.0890439
40
0.6638751
50
155.0367033
51
169.6002779
0
ARC
8
DEFAULT_255_1_388
10
13.5348302
20
47.1506336
40
0.5220662
50
136.7831557
51
155.2472983
0
ARC
8
DEFAULT_255_1_388
10
13.4910092
20
47.1878577
40
0.4646502
50
121.7633063
51
136.4281161
0
ARC
8
DEFAULT_255_1_388
10
13.5061932
20
47.1598049
40
0.4964979
50
95.6460018
51
121.5489589
0
ARC
8
DEFAULT_255_1_388
10
13.5238907
20
47.0350704
40
0.6223912
50
89.9245727
51
96.1375919
0
ARC
8
DEFAULT_255_1_388
10
13.5295612
20
47.0484721
40
0.6090084
50
76.6779212
51
90.456405
0
ARC
8
DEFAULT_255_1_388
10
13.5738425
20
47.227406
40
0.42469
50
47.4858803
51
76.9287069
0
ARC
8
DEFAULT_255_1_388
10
13.5573038
20
47.2161623
40
0.4441778
50
16.5424081
51
46.8934505
0
ARC
8
DEFAULT_255_1_388
10
13.3764088
20
47.1567265
40
0.6345318
50
5.4072971
51
17.0363711
0
ARC
8
DEFAULT_255_1_388
10
13.2145813
20
47.1307304
40
0.6250632
50
7.8888693
51
15.9242022
0
ARC
8
DEFAULT_255_1_388
10
13.4380799
20
47.1956309
40
0.3923364
50
15.7650676
51
27.9410069
0
ARC
8
DEFAULT_255_1_388
10
13.5622968
20
47.2621317
40
0.2514401
50
27.8167196
51
46.4007942
0
ARC
8
DEFAULT_255_1_388
10
13.5678809
20
47.2614882
40
0.2480958
50
47.4372362
51
75.0695672
0
ARC
8
DEFAULT_255_1_388
10
13.5331646
20
47.1406277
40
0.3738281
50
74.7009379
51
87.8124314
0
ARC
8
DEFAULT_255_1_388
10
13.5249262
20
47.0222659
40
0.4924321
50
87.3802571
51
90.0251599
0
ARC
8
DEFAULT_255_1_388
10
13.520591
20
47.1542997
40
0.3604218
50
89.3451886
51
108.5744412
0
ARC
8
DEFAULT_255_1_388
10
13.5051902
20
47.2120836
40
0.3007661
50
109.2998307
51
143.3037387
0
ARC
8
DEFAULT_255_1_388
10
13.5909192
20
47.1461584
40
0.4089031
50
143.075267
51
163.1918576
0
ARC
8
DEFAULT_255_1_388
10
13.8105026
20
47.0768652
40
0.6391492
50
162.9375929
51
174.6208776
0
ARC
8
DEFAULT_255_1_388
10
14.1059408
20
47.0444711
40
0.9363344
50
174.342123
51
180.1430283
0
ARC
8
DEFAULT_255_1_388
10
14.0011949
20
46.9101117
40
0.8315986
50
179.6817261
51
189.150555
0
ARC
8
DEFAULT_255_1_388
10
13.7198698
20
46.8632559
40
0.5464044
50
188.9911061
51
203.5772363
0
ARC
8
DEFAULT_255_1_388
10
13.598399
20
46.8128539
40
0.4149206
50
203.9075402
51
215.1312435
0
ARC
8
DEFAULT_255_1_388
10
13.4945788
20
46.7323907
40
0.2837747
50
213.9071511
51
263.8848919
0
ARC
8
DEFAULT_255_1_388
10
13.5086781
20
46.8206519
40
0.3730641
50
263.1757928
51
270.1031044
0
ARC
8
DEFAULT_255_1_388
10
13.512286
20
46.9609511
40
0.5133712
50
269.6722503
51
279.0606936
0
ARC
8
DEFAULT_255_1_388
10
13.5423016
20
46.779515
40
0.3294739
50
278.8749101
51
293.6349581
0
ARC
8
DEFAULT_255_1_388
10
13.5783219
20
46.6949251
40
0.2375405
50
293.8553806
51
310.0518171
0
ARC
8
DEFAULT_255_1_388
10
13.5788728
20
46.6879021
40
0.2318463
50
311.0644687
51
332.0111037
0
ARC
8
DEFAULT_255_1_388
10
13.4447402
20
46.7618702
40
0.3850112
50
331.6586806
51
343.2877423
0
ARC
8
DEFAULT_255_1_388
10
13.2126867
20
46.8331806
40
0.6277712
50
343.1446576
51
351.0103568
0
ARC
8
DEFAULT_255_1_388
10
13.049419
20
46.8631873
40
0.7937327
50
350.71248
51
351.1626997
0
LINE
8
DEFAULT_255_1_388
10
15.5758013
20
47.2589892
11
15.4014134
21
47.2589892
0
LINE
8
DEFAULT_255_1_388
10
14.6225408
20
46.7051042
11
14.7969288
21
46.7051042
0
ARC
8
DEFAULT_255_1_388
10
15.4754861
20
48.2653821
40
1.4087688
50
248.9196578
51
254.1442424
0
ARC
8
DEFAULT_255_1_388
10
15.2864741
20
47.7787805
40
0.8867498
50
241.6337352
51
249.0064643
0
ARC
8
DEFAULT_255_1_388
10
15.1145054
20
47.4636764
40
0.5277799
50
230.4982261
51
241.8087583
0
ARC
8
DEFAULT_255_1_388
10
15.0262825
20
47.3512686
40
0.3849419
50
227.4062979
51
229.9877433
0
ARC
8
DEFAULT_255_1_388
10
14.9714172
20
47.2977155
40
0.3084129
50
200.6782127
51
228.1765252
0
ARC
8
DEFAULT_255_1_388
10
14.9795541
20
47.2960277
40
0.315461
50
179.506278
51
199.8695278
0
ARC
8
DEFAULT_255_1_388
10
14.978513
20
47.3043671
40
0.3144584
50
132.4834401
51
181.0242352
0
ARC
8
DEFAULT_255_1_388
10
15.0454334
20
47.2411788
40
0.4063094
50
129.2526113
51
133.4249077
0
ARC
8
DEFAULT_255_1_388
10
15.0619926
20
47.2163619
40
0.436014
50
101.9878945
51
128.8741833
0
ARC
8
DEFAULT_255_1_388
10
15.1068342
20
47.022736
40
0.6347415
50
89.5906376
51
102.3170567
0
ARC
8
DEFAULT_255_1_388
10
15.1147653
20
47.0585586
40
0.5989122
50
77.2359491
51
90.3248968
0
ARC
8
DEFAULT_255_1_388
10
15.1380584
20
47.1673554
40
0.4876594
50
63.8379856
51
77.0808925
0
ARC
8
DEFAULT_255_1_388
10
15.1693118
20
47.2255882
40
0.4216191
50
45.9863127
51
64.1608798
0
ARC
8
DEFAULT_255_1_388
10
15.1986511
20
47.259099
40
0.3771394
50
32.2747934
51
45.6544796
0
ARC
8
DEFAULT_255_1_388
10
15.2061318
20
47.2612426
40
0.3696765
50
359.6507495
51
32.6129943
0
ARC
8
DEFAULT_255_1_388
10
15.1000501
20
47.2617788
40
0.3013762
50
359.469654
51
14.983205
0
ARC
8
DEFAULT_255_1_388
10
15.1793753
20
47.2830288
40
0.2192542
50
14.9781954
51
48.2004799
0
ARC
8
DEFAULT_255_1_388
10
15.1608864
20
47.2597937
40
0.2489048
50
48.5926661
51
74.1242559
0
ARC
8
DEFAULT_255_1_388
10
15.1233666
20
47.1359607
40
0.3782845
50
73.7889321
51
86.6653996
0
ARC
8
DEFAULT_255_1_388
10
15.1118481
20
47.0001955
40
0.5145025
50
86.2642725
51
90.0533288
0
ARC
8
DEFAULT_255_1_388
10
15.1086573
20
47.0446376
40
0.4700681
50
89.669455
51
99.2313411
0
ARC
8
DEFAULT_255_1_388
10
15.0813733
20
47.2071401
40
0.3052945
50
99.0695987
51
113.7659242
0
ARC
8
DEFAULT_255_1_388
10
15.0505728
20
47.2797772
40
0.226407
50
114.0402885
51
127.9848946
0
ARC
8
DEFAULT_255_1_388
10
15.0235204
20
47.3130884
40
0.1835045
50
127.7287217
51
176.7106493
0
ARC
8
DEFAULT_255_1_388
10
15.0998869
20
47.301721
40
0.2604907
50
175.1780759
51
180.0581213
0
ARC
8
DEFAULT_255_1_388
10
15.0050212
20
47.3003411
40
0.1656287
50
179.6140658
51
228.124674
0
ARC
8
DEFAULT_255_1_388
10
15.054757
20
47.346394
40
0.2332038
50
226.5785315
51
230.8792476
0
ARC
8
DEFAULT_255_1_388
10
15.1077056
20
47.4166908
40
0.3211664
50
231.4636401
51
241.9261664
0
ARC
8
DEFAULT_255_1_388
10
15.242384
20
47.6645349
40
0.6032345
50
241.7177136
51
248.3259138
0
ARC
8
DEFAULT_255_1_388
10
15.3982435
20
48.0506771
40
1.0196417
50
248.2007377
51
252.4527713
0
ARC
8
DEFAULT_255_1_388
10
15.5335961
20
48.4691092
40
1.4594143
50
252.3388938
51
254.347037
0
ARC
8
DEFAULT_255_1_388
10
14.6851262
20
45.4343095
40
1.6917621
50
71.0197462
51
74.4085467
0
ARC
8
DEFAULT_255_1_388
10
14.875835
20
45.9848144
40
1.1091618
50
66.1845203
51
71.086519
0
ARC
8
DEFAULT_255_1_388
10
15.0508899
20
46.3789439
40
0.6779073
50
59.3537334
51
66.269255
0
ARC
8
DEFAULT_255_1_388
10
15.1508625
20
46.5480777
40
0.4814366
50
49.1021732
51
59.3294421
0
ARC
8
DEFAULT_255_1_388
10
15.2429613
20
46.6530575
40
0.3417875
50
32.7924183
51
49.2503526
0
ARC
8
DEFAULT_255_1_388
10
15.2779227
20
46.6780311
40
0.2988789
50
31.121225
51
32.3977355
0
ARC
8
DEFAULT_255_1_388
10
15.2691405
20
46.6747728
40
0.3080861
50
8.1116803
51
30.7958224
0
ARC
8
DEFAULT_255_1_388
10
15.1779751
20
46.6592437
40
0.4005385
50
359.8390945
51
8.4707348
0
ARC
8
DEFAULT_255_1_388
10
15.2483798
20
46.6537751
40
0.3301608
50
337.4732479
51
0.7538283
0
ARC
8
DEFAULT_255_1_388
10
15.2684823
20
46.6515554
40
0.3107929
50
307.5917028
51
336.4313755
0
ARC
8
DEFAULT_255_1_388
10
15.2173881
20
46.7083509
40
0.3870096
50
307.6560665
51
308.4561779
0
ARC
8
DEFAULT_255_1_388
10
15.1908098
20
46.7491832
40
0.435591
50
284.3733666
51
307.1426212
0
ARC
8
DEFAULT_255_1_388
10
15.1350992
20
46.9541391
40
0.6479685
50
272.4384566
51
284.6464689
0
ARC
8
DEFAULT_255_1_388
10
15.1208377
20
47.1565434
40
0.8508149
50
269.9708517
51
272.8180721
0
ARC
8
DEFAULT_255_1_388
10
15.1160059
20
46.9273283
40
0.6216151
50
248.2707343
51
270.4054609
0
ARC
8
DEFAULT_255_1_388
10
15.1098931
20
46.9058673
40
0.5994203
50
246.1380358
51
248.054058
0
ARC
8
DEFAULT_255_1_388
10
15.0628073
20
46.8069705
40
0.4899388
50
233.1671897
51
246.4951656
0
ARC
8
DEFAULT_255_1_388
10
15.0004709
20
46.7228137
40
0.3852115
50
215.3403381
51
233.084328
0
ARC
8
DEFAULT_255_1_388
10
14.9698073
20
46.7005093
40
0.3472969
50
179.2419235
51
215.2648426
0
ARC
8
DEFAULT_255_1_388
10
15.0561624
20
46.7020979
40
0.259251
50
179.3355796
51
199.1045873
0
ARC
8
DEFAULT_255_1_388
10
15.0187765
20
46.6923223
40
0.2207454
50
199.8830064
51
232.7061328
0
ARC
8
DEFAULT_255_1_388
10
15.071904
20
46.7591456
40
0.306101
50
232.3736206
51
255.5136621
0
ARC
8
DEFAULT_255_1_388
10
15.1102546
20
46.8991177
40
0.4512213
50
255.2447928
51
267.5318292
0
ARC
8
DEFAULT_255_1_388
10
15.1201013
20
47.0377709
40
0.5901825
50
267.1564563
51
270.0294721
0
ARC
8
DEFAULT_255_1_388
10
15.1232338
20
46.9878623
40
0.5402814
50
269.6999944
51
278.1662446
0
ARC
8
DEFAULT_255_1_388
10
15.1520365
20
46.7931974
40
0.3435003
50
278.0229022
51
290.6255326
0
ARC
8
DEFAULT_255_1_388
10
15.1911532
20
46.6888547
40
0.2320666
50
290.6616368
51
307.0374127
0
ARC
8
DEFAULT_255_1_388
10
15.2249432
20
46.647404
40
0.1786372
50
306.3942078
51
355.303191
0
ARC
8
DEFAULT_255_1_388
10
15.1673725
20
46.6560186
40
0.2367516
50
354.3662092
51
0.0709489
0
ARC
8
DEFAULT_255_1_388
10
15.1833594
20
46.6585561
40
0.2207761
50
359.4175379
51
16.1975911
0
ARC
8
DEFAULT_255_1_388
10
15.2345711
20
46.6725954
40
0.1676828
50
16.4721294
51
52.6261798
0
ARC
8
DEFAULT_255_1_388
10
15.1422219
20
46.5506606
40
0.3206412
50
52.7381828
51
62.4979144
0
ARC
8
DEFAULT_255_1_388
10
14.9863972
20
46.2574236
40
0.6527035
50
62.2517425
51
68.1219454
0
ARC
8
DEFAULT_255_1_388
10
14.792946
20
45.7819951
40
1.1659797
50
68.006043
51
71.8055127
0
ARC
8
DEFAULT_255_1_388
10
14.5909368
20
45.1761723
40
1.8045908
50
71.718361
51
73.9260743
0
LINE
8
DEFAULT_255_1_388
10
16.6067684
20
47.6393898
11
16.6067684
21
47.5454191
0
LINE
8
DEFAULT_255_1_388
10
16.6067684
20
47.5454191
11
16.061919
21
46.3238
0
LINE
8
DEFAULT_255_1_388
10
16.061919
20
46.3238
11
15.8866275
21
46.3238
0
LINE
8
DEFAULT_255_1_388
10
15.8866275
20
46.3238
11
16.4296697
21
47.502048
0
LINE
8
DEFAULT_255_1_388
10
16.4296697
20
47.502048
11
15.7176609
21
47.502048
0
LINE
8
DEFAULT_255_1_388
10
15.7176609
20
47.502048
11
15.7176609
21
47.6393898
0
LINE
8
DEFAULT_255_1_388
10
15.7176609
20
47.6393898
11
16.6067684
21
47.6393898
0
LINE
8
DEFAULT_255_1_388
10
17.1615569
20
46.9508737
11
17.1615569
21
46.8144355
0
LINE
8
DEFAULT_255_1_388
10
17.1615569
20
46.8144355
11
16.7206175
21
46.8144355
0
LINE
8
DEFAULT_255_1_388
10
16.7206175
20
46.8144355
11
16.7206175
21
46.9508737
0
LINE
8
DEFAULT_255_1_388
10
16.7206175
20
46.9508737
11
17.1615569
21
46.9508737
0
LINE
8
DEFAULT_255_1_388
10
17.856398
20
47.6457148
11
17.856398
21
46.3238
0
LINE
8
DEFAULT_255_1_388
10
17.856398
20
46.3238
11
17.688335
21
46.3238
0
LINE
8
DEFAULT_255_1_388
10
17.688335
20
46.3238
11
17.688335
21
47.437895
0
LINE
8
DEFAULT_255_1_388
10
17.688335
20
47.437895
11
17.3513055
21
47.3141066
0
LINE
8
DEFAULT_255_1_388
10
17.3513055
20
47.3141066
11
17.3513055
21
47.4659055
0
LINE
8
DEFAULT_255_1_388
10
17.3513055
20
47.4659055
11
17.8301946
21
47.6457148
0
LINE
8
DEFAULT_255_1_388
10
17.8301946
20
47.6457148
11
17.856398
21
47.6457148
0
LINE
8
DEFAULT_255_1_388
10
18.5566604
20
46.9490666
11
18.4229329
21
46.9834021
0
LINE
8
DEFAULT_255_1_388
10
18.4229329
20
46.9834021
11
18.4897967
21
47.6393898
0
LINE
8
DEFAULT_255_1_388
10
18.4897967
20
47.6393898
11
19.1638558
21
47.6393898
0
LINE
8
DEFAULT_255_1_388
10
19.1638558
20
47.6393898
11
19.1638558
21
47.4848803
0
LINE
8
DEFAULT_255_1_388
10
19.1638558
20
47.4848803
11
18.6316563
21
47.4848803
0
LINE
8
DEFAULT_255_1_388
10
18.6316563
20
47.4848803
11
18.5918995
21
47.1261652
0
LINE
8
DEFAULT_255_1_388
10
18.3759476
20
46.6698652
11
18.5340713
21
46.6698652
0
LINE
8
DEFAULT_255_1_388
10
18.6009351
20
46.9852092
11
18.5566604
21
46.9490666
0
ARC
8
DEFAULT_255_1_388
10
18.8005608
20
46.7684241
40
0.4141476
50
93.7181681
51
120.253934
0
ARC
8
DEFAULT_255_1_388
10
18.811166
20
46.6775284
40
0.5055616
50
89.9660471
51
94.2495185
0
ARC
8
DEFAULT_255_1_388
10
18.8157482
20
46.7438154
40
0.4392953
50
73.8045384
51
90.5585736
0
ARC
8
DEFAULT_255_1_388
10
18.842174
20
46.840352
40
0.3392225
50
41.3071072
51
73.543002
0
ARC
8
DEFAULT_255_1_388
10
18.795356
20
46.8000461
40
0.4009977
50
13.5075837
51
41.2174839
0
ARC
8
DEFAULT_255_1_388
10
18.6106657
20
46.7516907
40
0.5918864
50
1.1330171
51
13.8830737
0
ARC
8
DEFAULT_255_1_388
10
18.4510303
20
46.7431522
40
0.7516787
50
359.9925091
51
1.5431298
0
ARC
8
DEFAULT_255_1_388
10
18.5954918
20
46.7385027
40
0.6072343
50
347.8572712
51
0.4294349
0
ARC
8
DEFAULT_255_1_388
10
18.7924053
20
46.6938898
40
0.4053482
50
323.6727442
51
348.1674594
0
ARC
8
DEFAULT_255_1_388
10
18.8255017
20
46.6737175
40
0.3667495
50
316.8171818
51
323.1486802
0
ARC
8
DEFAULT_255_1_388
10
18.8324141
20
46.6695612
40
0.358869
50
281.839603
51
316.5458142
0
ARC
8
DEFAULT_255_1_388
10
18.7901429
20
46.8445363
40
0.5388223
50
269.5770964
51
282.4214641
0
ARC
8
DEFAULT_255_1_388
10
18.7821349
20
46.820493
40
0.5147801
50
256.2425863
51
270.4486481
0
ARC
8
DEFAULT_255_1_388
10
18.7484877
20
46.6855124
40
0.3756708
50
228.9024379
51
256.33135
0
ARC
8
DEFAULT_255_1_388
10
18.7401857
20
46.6724054
40
0.360344
50
193.7536029
51
228.5272638
0
ARC
8
DEFAULT_255_1_388
10
18.8794422
20
46.7132463
40
0.5053599
50
184.9244437
51
194.4976052
0
ARC
8
DEFAULT_255_1_388
10
18.9011063
20
46.7172722
40
0.3700839
50
187.3596909
51
198.6733728
0
ARC
8
DEFAULT_255_1_388
10
18.7830307
20
46.6763373
40
0.2451195
50
198.4453795
51
217.7945479
0
ARC
8
DEFAULT_255_1_388
10
18.7497479
20
46.6527563
40
0.2043754
50
218.2887146
51
228.5613203
0
ARC
8
DEFAULT_255_1_388
10
18.7607486
20
46.6675902
40
0.2227819
50
228.9652423
51
258.1237049
0
ARC
8
DEFAULT_255_1_388
10
18.7838924
20
46.7666964
40
0.3245374
50
257.7260585
51
270.4013717
0
ARC
8
DEFAULT_255_1_388
10
18.7889422
20
46.7166255
40
0.2744726
50
269.4204315
51
286.420998
0
ARC
8
DEFAULT_255_1_388
10
18.8056477
20
46.6559705
40
0.2115721
50
286.7250065
51
320.6004665
0
ARC
8
DEFAULT_255_1_388
10
18.7625393
20
46.6909527
40
0.2670878
50
320.6712228
51
344.5440474
0
ARC
8
DEFAULT_255_1_388
10
18.6324107
20
46.7291394
40
0.4026927
50
344.241448
51
356.735803
0
ARC
8
DEFAULT_255_1_388
10
18.4920414
20
46.7407656
40
0.5435085
50
356.3547471
51
0.0507222
0
ARC
8
DEFAULT_255_1_388
10
18.6422679
20
46.7442812
40
0.3932934
50
359.5579289
51
12.9534322
0
ARC
8
DEFAULT_255_1_388
10
18.7609519
20
46.7730586
40
0.2711827
50
12.6489751
51
41.608121
0
ARC
8
DEFAULT_255_1_388
10
18.7868679
20
46.7950946
40
0.2371737
50
41.7851122
51
85.9892156
0
ARC
8
DEFAULT_255_1_388
10
18.7729989
20
46.7035738
40
0.3295244
50
84.6965848
51
90.0672125
0
ARC
8
DEFAULT_255_1_388
10
18.7703557
20
46.6284118
40
0.4046926
50
89.6804991
51
99.161352
0
ARC
8
DEFAULT_255_1_388
10
18.7472566
20
46.7664848
40
0.2647044
50
98.9836248
51
113.8905702
0
ARC
8
DEFAULT_255_1_388
10
18.7214241
20
46.8274118
40
0.1985386
50
114.195234
51
127.3641866
0
LINE
8
DEFAULT_255_1_388
10
20.2101834
20
47.101769
11
20.2101834
21
46.8849135
0
LINE
8
DEFAULT_255_1_388
10
19.3798077
20
46.8623244
11
19.3798077
21
47.0855048
0
LINE
8
DEFAULT_255_1_388
10
20.043024
20
46.8397353
11
20.043024
21
47.1135153
0
LINE
8
DEFAULT_255_1_388
10
19.5469671
20
47.1261652
11
19.5469671
21
46.8587102
0
ARC
8
DEFAULT_255_1_388
10
18.8324168
20
46.8794118
40
1.3777776
50
353.8440855
51
0.2287917
0
ARC
8
DEFAULT_255_1_388
10
19.3543185
20
46.8211414
40
0.852639
50
344.4934746
51
353.9763743
0
ARC
8
DEFAULT_255_1_388
10
19.6909993
20
46.7254191
40
0.5026273
50
329.2803599
51
344.7473406
0
ARC
8
DEFAULT_255_1_388
10
19.8025488
20
46.6642038
40
0.3754848
50
324.9361395
51
328.6153007
0
ARC
8
DEFAULT_255_1_388
10
19.8451138
20
46.6344586
40
0.3235566
50
280.5801797
51
324.9173226
0
ARC
8
DEFAULT_255_1_388
10
19.7999767
20
46.8224236
40
0.5167077
50
269.5979457
51
281.6732777
0
ARC
8
DEFAULT_255_1_388
10
19.791867
20
46.8089113
40
0.5032026
50
256.6228565
51
270.5105488
0
ARC
8
DEFAULT_255_1_388
10
19.7466413
20
46.6347345
40
0.3233092
50
215.8618351
51
257.2787793
0
ARC
8
DEFAULT_255_1_388
10
19.861512
20
46.7118106
40
0.4615831
50
197.9695203
51
215.2622745
0
ARC
8
DEFAULT_255_1_388
10
20.1410796
20
46.8061641
40
0.7566307
50
187.8816486
51
198.2346584
0
ARC
8
DEFAULT_255_1_388
10
20.5864034
20
46.8704453
40
1.2065653
50
180.8977266
51
188.0054894
0
ARC
8
DEFAULT_255_1_388
10
20.8914248
20
46.88194
40
1.5117443
50
180.7434591
51
181.152202
0
ARC
8
DEFAULT_255_1_388
10
20.7239243
20
47.0909371
40
1.3441277
50
173.7674302
51
180.2315596
0
ARC
8
DEFAULT_255_1_388
10
20.2157112
20
47.1483779
40
0.8326847
50
164.3058537
51
173.9000553
0
ARC
8
DEFAULT_255_1_388
10
19.8881112
20
47.2427652
40
0.4917711
50
148.7922028
51
164.5682288
0
ARC
8
DEFAULT_255_1_388
10
19.781185
20
47.3024457
40
0.3694204
50
144.5883979
51
148.1161588
0
ARC
8
DEFAULT_255_1_388
10
19.7424595
20
47.3294667
40
0.322202
50
101.6440149
51
144.5142619
0
ARC
8
DEFAULT_255_1_388
10
19.7902787
20
47.1394337
40
0.5180451
50
89.528284
51
102.5820197
0
ARC
8
DEFAULT_255_1_388
10
19.7991779
20
47.1350376
40
0.5224441
50
77.0437914
51
90.508231
0
ARC
8
DEFAULT_255_1_388
10
19.8444033
20
47.3198272
40
0.3322297
50
48.2777708
51
77.4996087
0
ARC
8
DEFAULT_255_1_388
10
19.8525773
20
47.3343557
40
0.315966
50
36.3141586
51
47.6307332
0
ARC
8
DEFAULT_255_1_388
10
19.7548495
20
47.2685159
40
0.4337313
50
18.2931065
51
35.6770203
0
ARC
8
DEFAULT_255_1_388
10
19.4687336
20
47.1703107
40
0.7362203
50
8.0246996
51
18.5605636
0
ARC
8
DEFAULT_255_1_388
10
19.0003691
20
47.1011432
40
1.2096583
50
1.127539
51
8.1718423
0
ARC
8
DEFAULT_255_1_388
10
18.6354825
20
47.0868374
40
1.5747719
50
0.5432713
51
1.38669
0
ARC
8
DEFAULT_255_1_388
10
18.8412204
20
47.1175163
40
1.2018103
50
359.8092569
51
4.9408001
0
ARC
8
DEFAULT_255_1_388
10
19.3148785
20
47.15979
40
0.7262727
50
4.8364937
51
12.2906017
0
ARC
8
DEFAULT_255_1_388
10
19.624825
20
47.2288485
40
0.4087324
50
12.0806994
51
23.8171225
0
ARC
8
DEFAULT_255_1_388
10
19.7568646
20
47.2847508
40
0.2653719
50
24.2874621
51
31.3934353
0
ARC
8
DEFAULT_255_1_388
10
19.8159082
20
47.3233822
40
0.1948607
50
30.7407708
51
82.4658033
0
ARC
8
DEFAULT_255_1_388
10
19.7956742
20
47.2240017
40
0.2961198
50
81.1057101
51
90.2187368
0
ARC
8
DEFAULT_255_1_388
10
19.7916554
20
47.2530421
40
0.2670929
50
89.380395
51
105.6763916
0
ARC
8
DEFAULT_255_1_388
10
19.7710276
20
47.328032
40
0.1893189
50
105.7980655
51
149.7387869
0
ARC
8
DEFAULT_255_1_388
10
19.8907416
20
47.2560719
40
0.3289892
50
149.4208441
51
163.628295
0
ARC
8
DEFAULT_255_1_388
10
20.1259646
20
47.1843345
40
0.5749004
50
163.3764549
51
172.141138
0
ARC
8
DEFAULT_255_1_388
10
20.4972367
20
47.1311582
40
0.9499585
50
172.0258462
51
178.0705453
0
ARC
8
DEFAULT_255_1_388
10
20.839392
20
47.1149682
40
1.2924734
50
177.8639301
51
179.5036263
0
ARC
8
DEFAULT_255_1_388
10
20.7174939
20
46.8546151
40
1.170534
50
179.7995545
51
185.246089
0
ARC
8
DEFAULT_255_1_388
10
20.2626532
20
46.8115404
40
0.7136613
50
185.1411911
51
193.0082205
0
ARC
8
DEFAULT_255_1_388
10
19.9652793
20
46.7412441
40
0.4080987
50
192.7897338
51
205.2507384
0
ARC
8
DEFAULT_255_1_388
10
19.8475003
20
46.6886538
40
0.2791522
50
205.8001921
51
211.2545876
0
ARC
8
DEFAULT_255_1_388
10
19.7886542
20
46.6492132
40
0.2084074
50
210.3789935
51
238.4007996
0
ARC
8
DEFAULT_255_1_388
10
19.7864628
20
46.6544786
40
0.2117943
50
239.6521916
51
265.9793852
0
ARC
8
DEFAULT_255_1_388
10
19.7960477
20
46.7301358
40
0.2879689
50
265.1324455
51
270.0603288
0
ARC
8
DEFAULT_255_1_388
10
19.7992854
20
46.6936418
40
0.2514919
50
269.3314378
51
287.2180039
0
ARC
8
DEFAULT_255_1_388
10
19.8147936
20
46.6370291
40
0.1928357
50
287.7957942
51
329.0808983
0
ARC
8
DEFAULT_255_1_388
10
19.7070693
20
46.7042651
40
0.319808
50
328.6635261
51
343.3325043
0
ARC
8
DEFAULT_255_1_388
10
19.4626152
20
46.7804195
40
0.5758408
50
343.0498092
51
351.9392499
0
ARC
8
DEFAULT_255_1_388
10
19.0725473
20
46.8379205
40
0.9701202
50
351.8071632
51
357.7957897
0
ARC
8
DEFAULT_255_1_388
10
18.709095
20
46.8567724
40
1.3340376
50
357.5870923
51
359.2682493
0
LINE
8
DEFAULT_255_1_388
10
21.2492825
20
47.101769
11
21.2492825
21
46.8849135
0
LINE
8
DEFAULT_255_1_388
10
20.4189068
20
46.8623244
11
20.4189068
21
47.0855048
0
LINE
8
DEFAULT_255_1_388
10
21.0821231
20
46.8397353
11
21.0821231
21
47.1135153
0
LINE
8
DEFAULT_255_1_388
10
20.5860662
20
47.1261652
11
20.5860662
21
46.8587102
0
ARC
8
DEFAULT_255_1_388
10
19.8715159
20
46.8794118
40
1.3777776
50
353.8440855
51
0.2287917
0
ARC
8
DEFAULT_255_1_388
10
20.3934177
20
46.8211414
40
0.852639
50
344.4934746
51
353.9763743
0
ARC
8
DEFAULT_255_1_388
10
20.7300984
20
46.7254191
40
0.5026273
50
329.2803599
51
344.7473406
0
ARC
8
DEFAULT_255_1_388
10
20.8416479
20
46.6642038
40
0.3754848
50
324.9361395
51
328.6153007
0
ARC
8
DEFAULT_255_1_388
10
20.8842129
20
46.6344586
40
0.3235566
50
280.5801797
51
324.9173226
0
ARC
8
DEFAULT_255_1_388
10
20.8390758
20
46.8224236
40
0.5167077
50
269.5979457
51
281.6732777
0
ARC
8
DEFAULT_255_1_388
10
20.8309661
20
46.8089113
40
0.5032026
50
256.6228565
51
270.5105488
0
ARC
8
DEFAULT_255_1_388
10
20.7857404
20
46.6347345
40
0.3233092
50
215.8618351
51
257.2787793
0
ARC
8
DEFAULT_255_1_388
10
20.9006111
20
46.7118106
40
0.4615831
50
197.9695203
51
215.2622745
0
ARC
8
DEFAULT_255_1_388
10
21.1801787
20
46.8061641
40
0.7566307
50
187.8816486
51
198.2346584
0
ARC
8
DEFAULT_255_1_388
10
21.6255025
20
46.8704453
40
1.2065653
50
180.8977266
51
188.0054894
0
ARC
8
DEFAULT_255_1_388
10
21.9305239
20
46.88194
40
1.5117443
50
180.7434591
51
181.152202
0
ARC
8
DEFAULT_255_1_388
10
21.7630235
20
47.0909371
40
1.3441277
50
173.7674302
51
180.2315596
0
ARC
8
DEFAULT_255_1_388
10
21.2548104
20
47.1483779
40
0.8326847
50
164.3058537
51
173.9000553
0
ARC
8
DEFAULT_255_1_388
10
20.9272104
20
47.2427652
40
0.4917711
50
148.7922028
51
164.5682288
0
ARC
8
DEFAULT_255_1_388
10
20.8202841
20
47.3024457
40
0.3694204
50
144.5883979
51
148.1161588
0
ARC
8
DEFAULT_255_1_388
10
20.7815586
20
47.3294667
40
0.322202
50
101.6440149
51
144.5142619
0
ARC
8
DEFAULT_255_1_388
10
20.8293779
20
47.1394337
40
0.5180451
50
89.528284
51
102.5820197
0
ARC
8
DEFAULT_255_1_388
10
20.838277
20
47.1350376
40
0.5224441
50
77.0437914
51
90.508231
0
ARC
8
DEFAULT_255_1_388
10
20.8835024
20
47.3198272
40
0.3322297
50
48.2777708
51
77.4996087
0
ARC
8
DEFAULT_255_1_388
10
20.8916764
20
47.3343557
40
0.315966
50
36.3141586
51
47.6307332
0
ARC
8
DEFAULT_255_1_388
10
20.7939486
20
47.2685159
40
0.4337313
50
18.2931065
51
35.6770203
0
ARC
8
DEFAULT_255_1_388
10
20.5078327
20
47.1703107
40
0.7362203
50
8.0246996
51
18.5605636
0
ARC
8
DEFAULT_255_1_388
10
20.0394683
20
47.1011432
40
1.2096583
50
1.127539
51
8.1718423
0
ARC
8
DEFAULT_255_1_388
10
19.6745816
20
47.0868374
40
1.5747719
50
0.5432713
51
1.38669
0
ARC
8
DEFAULT_255_1_388
10
19.8803195
20
47.1175163
40
1.2018103
50
359.8092569
51
4.9408001
0
ARC
8
DEFAULT_255_1_388
10
20.3539776
20
47.15979
40
0.7262727
50
4.8364937
51
12.2906017
0
ARC
8
DEFAULT_255_1_388
10
20.6639241
20
47.2288485
40
0.4087324
50
12.0806994
51
23.8171225
0
ARC
8
DEFAULT_255_1_388
10
20.7959637
20
47.2847508
40
0.2653719
50
24.2874621
51
31.3934353
0
ARC
8
DEFAULT_255_1_388
10
20.8550073
20
47.3233822
40
0.1948607
50
30.7407708
51
82.4658033
0
ARC
8
DEFAULT_255_1_388
10
20.8347734
20
47.2240017
40
0.2961198
50
81.1057101
51
90.2187368
0
ARC
8
DEFAULT_255_1_388
10
20.8307545
20
47.2530421
40
0.2670929
50
89.380395
51
105.6763916
0
ARC
8
DEFAULT_255_1_388
10
20.8101267
20
47.328032
40
0.1893189
50
105.7980655
51
149.7387869
0
ARC
8
DEFAULT_255_1_388
10
20.9298407
20
47.2560719
40
0.3289892
50
149.4208441
51
163.628295
0
ARC
8
DEFAULT_255_1_388
10
21.1650637
20
47.1843345
40
0.5749004
50
163.3764549
51
172.141138
0
ARC
8
DEFAULT_255_1_388
10
21.5363359
20
47.1311582
40
0.9499585
50
172.0258462
51
178.0705453
0
ARC
8
DEFAULT_255_1_388
10
21.8784911
20
47.1149682
40
1.2924734
50
177.8639301
51
179.5036263
0
ARC
8
DEFAULT_255_1_388
10
21.756593
20
46.8546151
40
1.170534
50
179.7995545
51
185.246089
0
ARC
8
DEFAULT_255_1_388
10
21.3017523
20
46.8115404
40
0.7136613
50
185.1411911
51
193.0082205
0
ARC
8
DEFAULT_255_1_388
10
21.0043784
20
46.7412441
40
0.4080987
50
192.7897338
51
205.2507384
0
ARC
8
DEFAULT_255_1_388
10
20.8865994
20
46.6886538
40
0.2791522
50
205.8001921
51
211.2545876
0
ARC
8
DEFAULT_255_1_388
10
20.8277533
20
46.6492132
40
0.2084074
50
210.3789935
51
238.4007996
0
ARC
8
DEFAULT_255_1_388
10
20.8255619
20
46.6544786
40
0.2117943
50
239.6521916
51
265.9793852
0
ARC
8
DEFAULT_255_1_388
10
20.8351468
20
46.7301358
40
0.2879689
50
265.1324455
51
270.0603288
0
ARC
8
DEFAULT_255_1_388
10
20.8383845
20
46.6936418
40
0.2514919
50
269.3314378
51
287.2180039
0
ARC
8
DEFAULT_255_1_388
10
20.8538927
20
46.6370291
40
0.1928357
50
287.7957942
51
329.0808983
0
ARC
8
DEFAULT_255_1_388
10
20.7461684
20
46.7042651
40
0.319808
50
328.6635261
51
343.3325043
0
ARC
8
DEFAULT_255_1_388
10
20.5017143
20
46.7804195
40
0.5758408
50
343.0498092
51
351.9392499
0
ARC
8
DEFAULT_255_1_388
10
20.1116464
20
46.8379205
40
0.9701202
50
351.8071632
51
357.7957897
0
ARC
8
DEFAULT_255_1_388
10
19.7481941
20
46.8567724
40
1.3340376
50
357.5870923
51
359.2682493
0
LINE
8
DEFAULT_255_1_388
10
4.1680903
20
45.6549898
11
4.1680903
21
44.4812596
0
LINE
8
DEFAULT_255_1_388
10
4.1680903
20
44.4812596
11
4.7915498
21
44.4812596
0
LINE
8
DEFAULT_255_1_388
10
4.7915498
20
44.4812596
11
4.7915498
21
44.3394
0
LINE
8
DEFAULT_255_1_388
10
4.7915498
20
44.3394
11
3.9937024
21
44.3394
0
LINE
8
DEFAULT_255_1_388
10
3.9937024
20
44.3394
11
3.9937024
21
45.6549898
0
LINE
8
DEFAULT_255_1_388
10
3.9937024
20
45.6549898
11
4.1680903
21
45.6549898
0
LINE
8
DEFAULT_255_1_388
10
5.4421162
20
45.4290987
11
5.4421162
21
45.0450838
0
LINE
8
DEFAULT_255_1_388
10
5.4421162
20
45.0450838
11
5.8089634
21
45.0450838
0
LINE
8
DEFAULT_255_1_388
10
5.8089634
20
45.0450838
11
5.8089634
21
44.8869601
0
LINE
8
DEFAULT_255_1_388
10
5.8089634
20
44.8869601
11
5.4421162
21
44.8869601
0
LINE
8
DEFAULT_255_1_388
10
5.4421162
20
44.8869601
11
5.4421162
21
44.4713204
0
LINE
8
DEFAULT_255_1_388
10
5.4421162
20
44.4713204
11
5.2740532
21
44.4713204
0
LINE
8
DEFAULT_255_1_388
10
5.2740532
20
44.4713204
11
5.2740532
21
44.8869601
0
LINE
8
DEFAULT_255_1_388
10
5.2740532
20
44.8869601
11
4.9072061
21
44.8869601
0
LINE
8
DEFAULT_255_1_388
10
4.9072061
20
44.8869601
11
4.9072061
21
45.0450838
0
LINE
8
DEFAULT_255_1_388
10
4.9072061
20
45.0450838
11
5.2740532
21
45.0450838
0
LINE
8
DEFAULT_255_1_388
10
5.2740532
20
45.0450838
11
5.2740532
21
45.4290987
0
LINE
8
DEFAULT_255_1_388
10
5.2740532
20
45.4290987
11
5.4421162
21
45.4290987
0
LINE
8
DEFAULT_255_1_388
10
4.5583094
20
5.1669317
11
4.2483868
21
5.1669317
0
LINE
8
DEFAULT_255_1_388
10
4.2483868
20
5.1669317
11
4.2483868
21
4.6519
0
LINE
8
DEFAULT_255_1_388
10
4.2483868
20
4.6519
11
4.0749024
21
4.6519
0
LINE
8
DEFAULT_255_1_388
10
4.0749024
20
4.6519
11
4.0749024
21
5.9674898
0
LINE
8
DEFAULT_255_1_388
10
4.0749024
20
5.9674898
11
4.5601165
21
5.9674898
0
LINE
8
DEFAULT_255_1_388
10
4.2483868
20
5.8247267
11
4.2483868
21
5.3087914
0
LINE
8
DEFAULT_255_1_388
10
4.2483868
20
5.3087914
11
4.5601165
21
5.3087914
0
LINE
8
DEFAULT_255_1_388
10
4.5700557
20
5.8247267
11
4.2483868
21
5.8247267
0
ARC
8
DEFAULT_255_1_388
10
4.5648538
20
5.2858334
40
0.6816729
50
78.8380084
51
90.398184
0
ARC
8
DEFAULT_255_1_388
10
4.6116569
20
5.5131796
40
0.449571
50
58.9633273
51
79.0810717
0
ARC
8
DEFAULT_255_1_388
10
4.6455953
20
5.5761823
40
0.3781049
50
48.0194715
51
58.4475592
0
ARC
8
DEFAULT_255_1_388
10
4.6555773
20
5.5857818
40
0.3642936
50
3.3374546
51
48.1766642
0
ARC
8
DEFAULT_255_1_388
10
4.517058
20
5.5658581
40
0.5038766
50
359.9483251
51
4.6822857
0
ARC
8
DEFAULT_255_1_388
10
4.5310503
20
5.5610779
40
0.4899031
50
346.1879032
51
0.5059221
0
ARC
8
DEFAULT_255_1_388
10
4.6839295
20
5.5213763
40
0.3319729
50
310.8832219
51
346.5426612
0
ARC
8
DEFAULT_255_1_388
10
4.6492143
20
5.5682853
40
0.3901853
50
286.6925305
51
310.228778
0
ARC
8
DEFAULT_255_1_388
10
4.5851873
20
5.7696585
40
0.6014737
50
274.6848219
51
287.0247342
0
ARC
8
DEFAULT_255_1_388
10
4.5598422
20
6.0181088
40
0.8511785
50
269.8968222
51
275.0192639
0
ARC
8
DEFAULT_255_1_388
10
4.5629415
20
5.7843144
40
0.4755314
50
269.6596206
51
279.4150542
0
ARC
8
DEFAULT_255_1_388
10
4.5918873
20
5.6165945
40
0.3053379
50
279.2050006
51
294.9901776
0
ARC
8
DEFAULT_255_1_388
10
4.6245508
20
5.5437353
40
0.2255036
50
295.2886769
51
311.2912669
0
ARC
8
DEFAULT_255_1_388
10
4.6325249
20
5.5318938
40
0.2113522
50
311.7853512
51
347.2860549
0
ARC
8
DEFAULT_255_1_388
10
4.521841
20
5.560343
40
0.3256011
50
346.6891629
51
0.1057086
0
ARC
8
DEFAULT_255_1_388
10
4.429587
20
5.5636247
40
0.417863
50
359.63239
51
359.9961329
0
ARC
8
DEFAULT_255_1_388
10
4.5460475
20
5.5663987
40
0.3014155
50
359.4673371
51
15.5931159
0
ARC
8
DEFAULT_255_1_388
10
4.6163538
20
5.5853937
40
0.2285918
50
15.7441779
51
46.620186
0
ARC
8
DEFAULT_255_1_388
10
4.5997298
20
5.5662361
40
0.2539359
50
46.8628482
51
75.6676625
0
ARC
8
DEFAULT_255_1_388
10
4.5666354
20
5.4471243
40
0.3775415
50
75.2763152
51
88.2916439
0
ARC
8
DEFAULT_255_1_388
10
4.5600354
20
5.3469097
40
0.4779221
50
87.8589087
51
88.7986197
0
LINE
8
DEFAULT_255_1_388
10
5.6986077
20
4.6519
11
5.2423077
21
4.6519
0
LINE
8
DEFAULT_255_1_388
10
5.2423077
20
4.6519
11
5.2423077
21
5.9674898
0
LINE
8
DEFAULT_255_1_388
10
5.2423077
20
5.9674898
11
5.6724043
21
5.9674898
0
LINE
8
DEFAULT_255_1_388
10
5.7049327
20
5.2672274
11
5.415792
21
5.2672274
0
LINE
8
DEFAULT_255_1_388
10
5.415792
20
5.2672274
11
5.415792
21
4.7937596
0
LINE
8
DEFAULT_255_1_388
10
5.415792
20
4.7937596
11
5.702222
21
4.7937596
0
LINE
8
DEFAULT_255_1_388
10
5.415792
20
5.8247267
11
5.415792
21
5.4063763
0
LINE
8
DEFAULT_255_1_388
10
5.415792
20
5.4063763
11
5.6778257
21
5.4063763
0
LINE
8
DEFAULT_255_1_388
10
5.6724043
20
5.8247267
11
5.415792
21
5.8247267
0
ARC
8
DEFAULT_255_1_388
10
5.6766464
20
5.1386824
40
0.8288183
50
82.1256322
51
90.2932506
0
ARC
8
DEFAULT_255_1_388
10
5.7204039
20
5.444459
40
0.5199321
50
69.9044202
51
82.2857574
0
ARC
8
DEFAULT_255_1_388
10
5.7846031
20
5.6179993
40
0.3348993
50
51.1840204
51
70.018125
0
ARC
8
DEFAULT_255_1_388
10
5.8132863
20
5.6596945
40
0.2844579
50
12.1018086
51
50.421322
0
ARC
8
DEFAULT_255_1_388
10
5.6575735
20
5.6205937
40
0.4449429
50
359.5252354
51
12.8212369
0
ARC
8
DEFAULT_255_1_388
10
5.8353165
20
5.6127943
40
0.2672162
50
323.4907456
51
0.8818258
0
ARC
8
DEFAULT_255_1_388
10
5.7882577
20
5.6491523
40
0.3266736
50
298.6824053
51
323.2758285
0
ARC
8
DEFAULT_255_1_388
10
5.7475869
20
5.7167509
40
0.4055105
50
293.1994739
51
299.139634
0
ARC
8
DEFAULT_255_1_388
10
5.8232819
20
5.0321651
40
0.3229926
50
54.0009997
51
74.9168635
0
ARC
8
DEFAULT_255_1_388
10
5.8363745
20
5.0543511
40
0.2973581
50
36.3578854
51
53.5293172
0
ARC
8
DEFAULT_255_1_388
10
5.8221114
20
5.044185
40
0.3148715
50
4.8189348
51
36.3090187
0
ARC
8
DEFAULT_255_1_388
10
5.7344138
20
5.0318383
40
0.4033265
50
359.9373213
51
5.5201284
0
ARC
8
DEFAULT_255_1_388
10
5.6979468
20
5.0272733
40
0.4398126
50
344.7479357
51
0.5372278
0
ARC
8
DEFAULT_255_1_388
10
5.8094366
20
4.9972205
40
0.3243441
50
311.1785587
51
344.6887681
0
ARC
8
DEFAULT_255_1_388
10
5.776591
20
5.0381084
40
0.3767511
50
286.0417804
51
310.8440924
0
ARC
8
DEFAULT_255_1_388
10
5.7195319
20
5.2233885
40
0.5705957
50
274.1044074
51
286.4070149
0
ARC
8
DEFAULT_255_1_388
10
5.6996534
20
5.4351901
40
0.7832907
50
269.9235077
51
274.4458593
0
ARC
8
DEFAULT_255_1_388
10
5.7048253
20
5.1720462
40
0.3782955
50
269.6057074
51
281.3740795
0
ARC
8
DEFAULT_255_1_388
10
5.7307751
20
5.0490569
40
0.2526069
50
281.105298
51
302.5134029
0
ARC
8
DEFAULT_255_1_388
10
5.7473139
20
5.0193944
40
0.2187131
50
303.0365425
51
311.8818034
0
ARC
8
DEFAULT_255_1_388
10
5.7553316
20
5.0098602
40
0.2062624
50
311.9916937
51
351.7143773
0
ARC
8
DEFAULT_255_1_388
10
5.6634341
20
5.0284271
40
0.2999202
50
350.7343295
51
0.2221526
0
ARC
8
DEFAULT_255_1_388
10
5.6513429
20
5.034787
40
0.3120525
50
359.045729
51
17.2295312
0
ARC
8
DEFAULT_255_1_388
10
5.7682459
20
5.0695155
40
0.1901144
50
17.6685208
51
78.9940245
0
ARC
8
DEFAULT_255_1_388
10
5.710082
20
4.8607011
40
0.4065575
50
76.565218
51
90.7103392
0
LINE
8
DEFAULT_255_1_388
10
5.7050417
20
5.2672274
11
5.7049327
21
5.2672274
0
ARC
8
DEFAULT_255_1_388
10
5.6803646
20
5.7759949
40
0.3696273
50
269.6064514
51
281.4533785
0
ARC
8
DEFAULT_255_1_388
10
5.7054287
20
5.6577283
40
0.2487412
50
281.2044438
51
302.5143998
0
ARC
8
DEFAULT_255_1_388
10
5.720854
20
5.6299576
40
0.2170405
50
303.0211308
51
309.8378766
0
ARC
8
DEFAULT_255_1_388
10
5.7414658
20
5.6068486
40
0.1860946
50
309.5229446
51
356.9509628
0
ARC
8
DEFAULT_255_1_388
10
5.6668784
20
5.6175831
40
0.2612347
50
355.4699226
51
0.0498632
0
ARC
8
DEFAULT_255_1_388
10
5.6354457
20
5.6200789
40
0.2926762
50
359.5558955
51
11.2092924
0
ARC
8
DEFAULT_255_1_388
10
5.7431425
20
5.6423667
40
0.1827036
50
10.9185717
51
31.322519
0
ARC
8
DEFAULT_255_1_388
10
5.7752973
20
5.6602571
40
0.1459418
50
31.8850633
51
52.1415586
0
ARC
8
DEFAULT_255_1_388
10
5.7444402
20
5.6166674
40
0.1993088
50
52.8283418
51
71.9850132
0
ARC
8
DEFAULT_255_1_388
10
5.7021563
20
5.4922158
40
0.3307407
50
71.686634
51
82.8453416
0
ARC
8
DEFAULT_255_1_388
10
5.675221
20
5.2886892
40
0.536039
50
82.6981895
51
90.1730083
0
ARC
8
DEFAULT_255_1_388
10
5.6727041
20
5.3765836
40
0.4481429
50
89.8851568
51
90.0383283
0
LINE
8
DEFAULT_255_1_388
10
4.4744094
20
13.1044317
11
4.1644868
21
13.1044317
0
LINE
8
DEFAULT_255_1_388
10
4.1644868
20
13.1044317
11
4.1644868
21
12.5894
0
LINE
8
DEFAULT_255_1_388
10
4.1644868
20
12.5894
11
3.9910024
21
12.5894
0
LINE
8
DEFAULT_255_1_388
10
3.9910024
20
12.5894
11
3.9910024
21
13.9049898
0
LINE
8
DEFAULT_255_1_388
10
3.9910024
20
13.9049898
11
4.4762165
21
13.9049898
0
LINE
8
DEFAULT_255_1_388
10
4.1644868
20
13.7622267
11
4.1644868
21
13.2462914
0
LINE
8
DEFAULT_255_1_388
10
4.1644868
20
13.2462914
11
4.4762165
21
13.2462914
0
LINE
8
DEFAULT_255_1_388
10
4.4861557
20
13.7622267
11
4.1644868
21
13.7622267
0
ARC
8
DEFAULT_255_1_388
10
4.4809538
20
13.2233334
40
0.6816729
50
78.8380084
51
90.398184
0
ARC
8
DEFAULT_255_1_388
10
4.5277569
20
13.4506796
40
0.449571
50
58.9633273
51
79.0810717
0
ARC
8
DEFAULT_255_1_388
10
4.5616953
20
13.5136823
40
0.3781049
50
48.0194715
51
58.4475592
0
ARC
8
DEFAULT_255_1_388
10
4.5716773
20
13.5232818
40
0.3642936
50
3.3374546
51
48.1766642
0
ARC
8
DEFAULT_255_1_388
10
4.433158
20
13.5033581
40
0.5038766
50
359.9483251
51
4.6822857
0
ARC
8
DEFAULT_255_1_388
10
4.4471503
20
13.4985779
40
0.4899031
50
346.1879032
51
0.5059221
0
ARC
8
DEFAULT_255_1_388
10
4.6000295
20
13.4588763
40
0.3319729
50
310.8832219
51
346.5426612
0
ARC
8
DEFAULT_255_1_388
10
4.5653143
20
13.5057853
40
0.3901853
50
286.6925305
51
310.228778
0
ARC
8
DEFAULT_255_1_388
10
4.5012873
20
13.7071585
40
0.6014737
50
274.6848219
51
287.0247342
0
ARC
8
DEFAULT_255_1_388
10
4.4759422
20
13.9556088
40
0.8511785
50
269.8968222
51
275.0192639
0
ARC
8
DEFAULT_255_1_388
10
4.4790415
20
13.7218144
40
0.4755314
50
269.6596206
51
279.4150542
0
ARC
8
DEFAULT_255_1_388
10
4.5079873
20
13.5540945
40
0.3053379
50
279.2050006
51
294.9901776
0
ARC
8
DEFAULT_255_1_388
10
4.5406508
20
13.4812353
40
0.2255036
50
295.2886769
51
311.2912669
0
ARC
8
DEFAULT_255_1_388
10
4.5486249
20
13.4693938
40
0.2113522
50
311.7853512
51
347.2860549
0
ARC
8
DEFAULT_255_1_388
10
4.437941
20
13.497843
40
0.3256011
50
346.6891629
51
0.1057086
0
ARC
8
DEFAULT_255_1_388
10
4.345687
20
13.5011247
40
0.417863
50
359.63239
51
359.9961329
0
ARC
8
DEFAULT_255_1_388
10
4.4621475
20
13.5038987
40
0.3014155
50
359.4673371
51
15.5931159
0
ARC
8
DEFAULT_255_1_388
10
4.5324538
20
13.5228937
40
0.2285918
50
15.7441779
51
46.620186
0
ARC
8
DEFAULT_255_1_388
10
4.5158298
20
13.5037361
40
0.2539359
50
46.8628482
51
75.6676625
0
ARC
8
DEFAULT_255_1_388
10
4.4827354
20
13.3846243
40
0.3775415
50
75.2763152
51
88.2916439
0
ARC
8
DEFAULT_255_1_388
10
4.4761354
20
13.2844097
40
0.4779221
50
87.8589087
51
88.7986197
0
LINE
8
DEFAULT_255_1_388
10
6.1694963
20
13.9049898
11
6.1694963
21
12.5894
0
LINE
8
DEFAULT_255_1_388
10
6.1694963
20
12.5894
11
5.9951083
21
12.5894
0
LINE
8
DEFAULT_255_1_388
10
5.9951083
20
12.5894
11
5.3327956
21
13.6031993
0
LINE
8
DEFAULT_255_1_388
10
5.3327956
20
13.6031993
11
5.3327956
21
12.5894
0
LINE
8
DEFAULT_255_1_388
10
5.3327956
20
12.5894
11
5.1584077
21
12.5894
0
LINE
8
DEFAULT_255_1_388
10
5.1584077
20
12.5894
11
5.1584077
21
13.9049898
0
LINE
8
DEFAULT_255_1_388
10
5.1584077
20
13.9049898
11
5.3327956
21
13.9049898
0
LINE
8
DEFAULT_255_1_388
10
5.3327956
20
13.9049898
11
5.9969155
21
12.8866727
0
LINE
8
DEFAULT_255_1_388
10
5.9969155
20
12.8866727
11
5.9969155
21
13.9049898
0
LINE
8
DEFAULT_255_1_388
10
5.9969155
20
13.9049898
11
6.1694963
21
13.9049898
0
LINE
8
DEFAULT_255_1_388
10
4.4744094
20
21.0419317
11
4.1644868
21
21.0419317
0
LINE
8
DEFAULT_255_1_388
10
4.1644868
20
21.0419317
11
4.1644868
21
20.5269
0
LINE
8
DEFAULT_255_1_388
10
4.1644868
20
20.5269
11
3.9910024
21
20.5269
0
LINE
8
DEFAULT_255_1_388
10
3.9910024
20
20.5269
11
3.9910024
21
21.8424898
0
LINE
8
DEFAULT_255_1_388
10
3.9910024
20
21.8424898
11
4.4762165
21
21.8424898
0
LINE
8
DEFAULT_255_1_388
10
4.1644868
20
21.6997267
11
4.1644868
21
21.1837914
0
LINE
8
DEFAULT_255_1_388
10
4.1644868
20
21.1837914
11
4.4762165
21
21.1837914
0
LINE
8
DEFAULT_255_1_388
10
4.4861557
20
21.6997267
11
4.1644868
21
21.6997267
0
ARC
8
DEFAULT_255_1_388
10
4.4809538
20
21.1608334
40
0.6816729
50
78.8380084
51
90.398184
0
ARC
8
DEFAULT_255_1_388
10
4.5277569
20
21.3881796
40
0.449571
50
58.9633273
51
79.0810717
0
ARC
8
DEFAULT_255_1_388
10
4.5616953
20
21.4511823
40
0.3781049
50
48.0194715
51
58.4475592
0
ARC
8
DEFAULT_255_1_388
10
4.5716773
20
21.4607818
40
0.3642936
50
3.3374546
51
48.1766642
0
ARC
8
DEFAULT_255_1_388
10
4.433158
20
21.4408581
40
0.5038766
50
359.9483251
51
4.6822857
0
ARC
8
DEFAULT_255_1_388
10
4.4471503
20
21.4360779
40
0.4899031
50
346.1879032
51
0.5059221
0
ARC
8
DEFAULT_255_1_388
10
4.6000295
20
21.3963763
40
0.3319729
50
310.8832219
51
346.5426612
0
ARC
8
DEFAULT_255_1_388
10
4.5653143
20
21.4432853
40
0.3901853
50
286.6925305
51
310.228778
0
ARC
8
DEFAULT_255_1_388
10
4.5012873
20
21.6446585
40
0.6014737
50
274.6848219
51
287.0247342
0
ARC
8
DEFAULT_255_1_388
10
4.4759422
20
21.8931088
40
0.8511785
50
269.8968222
51
275.0192639
0
ARC
8
DEFAULT_255_1_388
10
4.4790415
20
21.6593144
40
0.4755314
50
269.6596206
51
279.4150542
0
ARC
8
DEFAULT_255_1_388
10
4.5079873
20
21.4915945
40
0.3053379
50
279.2050006
51
294.9901776
0
ARC
8
DEFAULT_255_1_388
10
4.5406508
20
21.4187353
40
0.2255036
50
295.2886769
51
311.2912669
0
ARC
8
DEFAULT_255_1_388
10
4.5486249
20
21.4068938
40
0.2113522
50
311.7853512
51
347.2860549
0
ARC
8
DEFAULT_255_1_388
10
4.437941
20
21.435343
40
0.3256011
50
346.6891629
51
0.1057086
0
ARC
8
DEFAULT_255_1_388
10
4.345687
20
21.4386247
40
0.417863
50
359.63239
51
359.9961329
0
ARC
8
DEFAULT_255_1_388
10
4.4621475
20
21.4413987
40
0.3014155
50
359.4673371
51
15.5931159
0
ARC
8
DEFAULT_255_1_388
10
4.5324538
20
21.4603937
40
0.2285918
50
15.7441779
51
46.620186
0
ARC
8
DEFAULT_255_1_388
10
4.5158298
20
21.4412361
40
0.2539359
50
46.8628482
51
75.6676625
0
ARC
8
DEFAULT_255_1_388
10
4.4827354
20
21.3221243
40
0.3775415
50
75.2763152
51
88.2916439
0
ARC
8
DEFAULT_255_1_388
10
4.4761354
20
21.2219097
40
0.4779221
50
87.8589087
51
88.7986197
0
LINE
8
DEFAULT_255_1_388
10
6.1694963
20
21.8424898
11
6.1694963
21
20.5269
0
LINE
8
DEFAULT_255_1_388
10
6.1694963
20
20.5269
11
5.9951083
21
20.5269
0
LINE
8
DEFAULT_255_1_388
10
5.9951083
20
20.5269
11
5.3327956
21
21.5406993
0
LINE
8
DEFAULT_255_1_388
10
5.3327956
20
21.5406993
11
5.3327956
21
20.5269
0
LINE
8
DEFAULT_255_1_388
10
5.3327956
20
20.5269
11
5.1584077
21
20.5269
0
LINE
8
DEFAULT_255_1_388
10
5.1584077
20
20.5269
11
5.1584077
21
21.8424898
0
LINE
8
DEFAULT_255_1_388
10
5.1584077
20
21.8424898
11
5.3327956
21
21.8424898
0
LINE
8
DEFAULT_255_1_388
10
5.3327956
20
21.8424898
11
5.9969155
21
20.8241727
0
LINE
8
DEFAULT_255_1_388
10
5.9969155
20
20.8241727
11
5.9969155
21
21.8424898
0
LINE
8
DEFAULT_255_1_388
10
5.9969155
20
21.8424898
11
6.1694963
21
21.8424898
0
LINE
8
DEFAULT_255_1_388
10
4.4744094
20
28.9794317
11
4.1644868
21
28.9794317
0
LINE
8
DEFAULT_255_1_388
10
4.1644868
20
28.9794317
11
4.1644868
21
28.4644
0
LINE
8
DEFAULT_255_1_388
10
4.1644868
20
28.4644
11
3.9910024
21
28.4644
0
LINE
8
DEFAULT_255_1_388
10
3.9910024
20
28.4644
11
3.9910024
21
29.7799898
0
LINE
8
DEFAULT_255_1_388
10
3.9910024
20
29.7799898
11
4.4762165
21
29.7799898
0
LINE
8
DEFAULT_255_1_388
10
4.1644868
20
29.6372267
11
4.1644868
21
29.1212914
0
LINE
8
DEFAULT_255_1_388
10
4.1644868
20
29.1212914
11
4.4762165
21
29.1212914
0
LINE
8
DEFAULT_255_1_388
10
4.4861557
20
29.6372267
11
4.1644868
21
29.6372267
0
ARC
8
DEFAULT_255_1_388
10
4.4809538
20
29.0983334
40
0.6816729
50
78.8380084
51
90.398184
0
ARC
8
DEFAULT_255_1_388
10
4.5277569
20
29.3256796
40
0.449571
50
58.9633273
51
79.0810717
0
ARC
8
DEFAULT_255_1_388
10
4.5616953
20
29.3886823
40
0.3781049
50
48.0194715
51
58.4475592
0
ARC
8
DEFAULT_255_1_388
10
4.5716773
20
29.3982818
40
0.3642936
50
3.3374546
51
48.1766642
0
ARC
8
DEFAULT_255_1_388
10
4.433158
20
29.3783581
40
0.5038766
50
359.9483251
51
4.6822857
0
ARC
8
DEFAULT_255_1_388
10
4.4471503
20
29.3735779
40
0.4899031
50
346.1879032
51
0.5059221
0
ARC
8
DEFAULT_255_1_388
10
4.6000295
20
29.3338763
40
0.3319729
50
310.8832219
51
346.5426612
0
ARC
8
DEFAULT_255_1_388
10
4.5653143
20
29.3807853
40
0.3901853
50
286.6925305
51
310.228778
0
ARC
8
DEFAULT_255_1_388
10
4.5012873
20
29.5821585
40
0.6014737
50
274.6848219
51
287.0247342
0
ARC
8
DEFAULT_255_1_388
10
4.4759422
20
29.8306088
40
0.8511785
50
269.8968222
51
275.0192639
0
ARC
8
DEFAULT_255_1_388
10
4.4790415
20
29.5968144
40
0.4755314
50
269.6596206
51
279.4150542
0
ARC
8
DEFAULT_255_1_388
10
4.5079873
20
29.4290945
40
0.3053379
50
279.2050006
51
294.9901776
0
ARC
8
DEFAULT_255_1_388
10
4.5406508
20
29.3562353
40
0.2255036
50
295.2886769
51
311.2912669
0
ARC
8
DEFAULT_255_1_388
10
4.5486249
20
29.3443938
40
0.2113522
50
311.7853512
51
347.2860549
0
ARC
8
DEFAULT_255_1_388
10
4.437941
20
29.372843
40
0.3256011
50
346.6891629
51
0.1057086
0
ARC
8
DEFAULT_255_1_388
10
4.345687
20
29.3761247
40
0.417863
50
359.63239
51
359.9961329
0
ARC
8
DEFAULT_255_1_388
10
4.4621475
20
29.3788987
40
0.3014155
50
359.4673371
51
15.5931159
0
ARC
8
DEFAULT_255_1_388
10
4.5324538
20
29.3978937
40
0.2285918
50
15.7441779
51
46.620186
0
ARC
8
DEFAULT_255_1_388
10
4.5158298
20
29.3787361
40
0.2539359
50
46.8628482
51
75.6676625
0
ARC
8
DEFAULT_255_1_388
10
4.4827354
20
29.2596243
40
0.3775415
50
75.2763152
51
88.2916439
0
ARC
8
DEFAULT_255_1_388
10
4.4761354
20
29.1594097
40
0.4779221
50
87.8589087
51
88.7986197
0
LINE
8
DEFAULT_255_1_388
10
6.1694963
20
29.7799898
11
6.1694963
21
28.4644
0
LINE
8
DEFAULT_255_1_388
10
6.1694963
20
28.4644
11
5.9951083
21
28.4644
0
LINE
8
DEFAULT_255_1_388
10
5.9951083
20
28.4644
11
5.3327956
21
29.4781993
0
LINE
8
DEFAULT_255_1_388
10
5.3327956
20
29.4781993
11
5.3327956
21
28.4644
0
LINE
8
DEFAULT_255_1_388
10
5.3327956
20
28.4644
11
5.1584077
21
28.4644
0
LINE
8
DEFAULT_255_1_388
10
5.1584077
20
28.4644
11
5.1584077
21
29.7799898
0
LINE
8
DEFAULT_255_1_388
10
5.1584077
20
29.7799898
11
5.3327956
21
29.7799898
0
LINE
8
DEFAULT_255_1_388
10
5.3327956
20
29.7799898
11
5.9969155
21
28.7616727
0
LINE
8
DEFAULT_255_1_388
10
5.9969155
20
28.7616727
11
5.9969155
21
29.7799898
0
LINE
8
DEFAULT_255_1_388
10
5.9969155
20
29.7799898
11
6.1694963
21
29.7799898
0
LINE
8
DEFAULT_255_1_388
10
4.4744094
20
36.9169317
11
4.1644868
21
36.9169317
0
LINE
8
DEFAULT_255_1_388
10
4.1644868
20
36.9169317
11
4.1644868
21
36.4019
0
LINE
8
DEFAULT_255_1_388
10
4.1644868
20
36.4019
11
3.9910024
21
36.4019
0
LINE
8
DEFAULT_255_1_388
10
3.9910024
20
36.4019
11
3.9910024
21
37.7174898
0
LINE
8
DEFAULT_255_1_388
10
3.9910024
20
37.7174898
11
4.4762165
21
37.7174898
0
LINE
8
DEFAULT_255_1_388
10
4.1644868
20
37.5747267
11
4.1644868
21
37.0587914
0
LINE
8
DEFAULT_255_1_388
10
4.1644868
20
37.0587914
11
4.4762165
21
37.0587914
0
LINE
8
DEFAULT_255_1_388
10
4.4861557
20
37.5747267
11
4.1644868
21
37.5747267
0
ARC
8
DEFAULT_255_1_388
10
4.4809538
20
37.0358334
40
0.6816729
50
78.8380084
51
90.398184
0
ARC
8
DEFAULT_255_1_388
10
4.5277569
20
37.2631796
40
0.449571
50
58.9633273
51
79.0810717
0
ARC
8
DEFAULT_255_1_388
10
4.5616953
20
37.3261823
40
0.3781049
50
48.0194715
51
58.4475592
0
ARC
8
DEFAULT_255_1_388
10
4.5716773
20
37.3357818
40
0.3642936
50
3.3374546
51
48.1766642
0
ARC
8
DEFAULT_255_1_388
10
4.433158
20
37.3158581
40
0.5038766
50
359.9483251
51
4.6822857
0
ARC
8
DEFAULT_255_1_388
10
4.4471503
20
37.3110779
40
0.4899031
50
346.1879032
51
0.5059221
0
ARC
8
DEFAULT_255_1_388
10
4.6000295
20
37.2713763
40
0.3319729
50
310.8832219
51
346.5426612
0
ARC
8
DEFAULT_255_1_388
10
4.5653143
20
37.3182853
40
0.3901853
50
286.6925305
51
310.228778
0
ARC
8
DEFAULT_255_1_388
10
4.5012873
20
37.5196585
40
0.6014737
50
274.6848219
51
287.0247342
0
ARC
8
DEFAULT_255_1_388
10
4.4759422
20
37.7681088
40
0.8511785
50
269.8968222
51
275.0192639
0
ARC
8
DEFAULT_255_1_388
10
4.4790415
20
37.5343144
40
0.4755314
50
269.6596206
51
279.4150542
0
ARC
8
DEFAULT_255_1_388
10
4.5079873
20
37.3665945
40
0.3053379
50
279.2050006
51
294.9901776
0
ARC
8
DEFAULT_255_1_388
10
4.5406508
20
37.2937353
40
0.2255036
50
295.2886769
51
311.2912669
0
ARC
8
DEFAULT_255_1_388
10
4.5486249
20
37.2818938
40
0.2113522
50
311.7853512
51
347.2860549
0
ARC
8
DEFAULT_255_1_388
10
4.437941
20
37.310343
40
0.3256011
50
346.6891629
51
0.1057086
0
ARC
8
DEFAULT_255_1_388
10
4.345687
20
37.3136247
40
0.417863
50
359.63239
51
359.9961329
0
ARC
8
DEFAULT_255_1_388
10
4.4621475
20
37.3163987
40
0.3014155
50
359.4673371
51
15.5931159
0
ARC
8
DEFAULT_255_1_388
10
4.5324538
20
37.3353937
40
0.2285918
50
15.7441779
51
46.620186
0
ARC
8
DEFAULT_255_1_388
10
4.5158298
20
37.3162361
40
0.2539359
50
46.8628482
51
75.6676625
0
ARC
8
DEFAULT_255_1_388
10
4.4827354
20
37.1971243
40
0.3775415
50
75.2763152
51
88.2916439
0
ARC
8
DEFAULT_255_1_388
10
4.4761354
20
37.0969097
40
0.4779221
50
87.8589087
51
88.7986197
0
LINE
8
DEFAULT_255_1_388
10
6.1694963
20
37.7174898
11
6.1694963
21
36.4019
0
LINE
8
DEFAULT_255_1_388
10
6.1694963
20
36.4019
11
5.9951083
21
36.4019
0
LINE
8
DEFAULT_255_1_388
10
5.9951083
20
36.4019
11
5.3327956
21
37.4156993
0
LINE
8
DEFAULT_255_1_388
10
5.3327956
20
37.4156993
11
5.3327956
21
36.4019
0
LINE
8
DEFAULT_255_1_388
10
5.3327956
20
36.4019
11
5.1584077
21
36.4019
0
LINE
8
DEFAULT_255_1_388
10
5.1584077
20
36.4019
11
5.1584077
21
37.7174898
0
LINE
8
DEFAULT_255_1_388
10
5.1584077
20
37.7174898
11
5.3327956
21
37.7174898
0
LINE
8
DEFAULT_255_1_388
10
5.3327956
20
37.7174898
11
5.9969155
21
36.6991727
0
LINE
8
DEFAULT_255_1_388
10
5.9969155
20
36.6991727
11
5.9969155
21
37.7174898
0
LINE
8
DEFAULT_255_1_388
10
5.9969155
20
37.7174898
11
6.1694963
21
37.7174898
0
LINE
8
DEFAULT_255_1_388
10
23.0074024
20
45.6549898
11
23.2314864
21
45.6549898
0
LINE
8
DEFAULT_255_1_388
10
23.2314864
20
45.6549898
11
23.6615831
21
44.5815553
0
LINE
8
DEFAULT_255_1_388
10
23.6615831
20
44.5815553
11
24.0916797
21
45.6549898
0
LINE
8
DEFAULT_255_1_388
10
24.0916797
20
45.6549898
11
24.3166673
21
45.6549898
0
LINE
8
DEFAULT_255_1_388
10
24.3166673
20
45.6549898
11
24.3166673
21
44.3394
0
LINE
8
DEFAULT_255_1_388
10
24.3166673
20
44.3394
11
24.1431829
21
44.3394
0
LINE
8
DEFAULT_255_1_388
10
24.1431829
20
44.3394
11
24.1431829
21
44.851721
0
LINE
8
DEFAULT_255_1_388
10
24.1431829
20
44.851721
11
24.1594471
21
45.4047025
0
LINE
8
DEFAULT_255_1_388
10
24.1594471
20
45.4047025
11
23.7275433
21
44.3394
0
LINE
8
DEFAULT_255_1_388
10
23.7275433
20
44.3394
11
23.5947193
21
44.3394
0
LINE
8
DEFAULT_255_1_388
10
23.5947193
20
44.3394
11
23.163719
21
45.4019918
0
LINE
8
DEFAULT_255_1_388
10
23.163719
20
45.4019918
11
23.1808868
21
44.851721
0
LINE
8
DEFAULT_255_1_388
10
23.1808868
20
44.851721
11
23.1808868
21
44.3394
0
LINE
8
DEFAULT_255_1_388
10
23.1808868
20
44.3394
11
23.0074024
21
44.3394
0
LINE
8
DEFAULT_255_1_388
10
23.0074024
20
44.3394
11
23.0074024
21
45.6549898
0
ENDSEC
0
EOF