0
SECTION
2
HEADER
9
$MEASUREMENT
70
1
0
ENDSEC
0
SECTION
2
TABLES
0
TABLE
2
LTYPE
0
LTYPE
72
65
70
64
2
CONTINUOUS
3
______
73
0
40
0
0
ENDTAB
0
TABLE
2
LAYER
0
LAYER
2
DEFAULT_255_2_778
70
0
62
255
6
CONTINUOUS
0
LAYER
2
DEFAULT_255_1_234
70
0
62
255
6
CONTINUOUS
0
ENDTAB
0
ENDSEC
0
SECTION
2
ENTITIES
0
ARC
8
DEFAULT_255_2_778
10
3.5695693
20
59.9302032
40
0.7914215
50
129.1312896
51
180.1450914
0
ARC
8
DEFAULT_255_2_778
10
3.5698345
20
59.9306904
40
0.7912112
50
89.854026
51
129.1684493
0
ARC
8
DEFAULT_255_2_778
10
25.7988937
20
59.9303769
40
0.7915249
50
39.4792447
51
90.147911
0
ARC
8
DEFAULT_255_2_778
10
25.7994935
20
59.9302236
40
0.7911595
50
359.8533901
51
39.5154338
0
ARC
8
DEFAULT_255_2_778
10
25.7991693
20
-1.986349
40
0.7914836
50
309.4761667
51
0.1482649
0
ARC
8
DEFAULT_255_2_778
10
25.798898
20
-1.9867801
40
0.7913235
50
269.8517415
51
309.511178
0
ARC
8
DEFAULT_255_2_778
10
3.569842
20
-1.9867219
40
0.7913815
50
219.1282118
51
270.1454017
0
ARC
8
DEFAULT_255_2_778
10
3.5695247
20
-1.9863394
40
0.7913769
50
179.8524075
51
219.1641908
0
LINE
8
DEFAULT_255_2_778
10
3.5718503
20
60.7218991
11
25.7968503
21
60.7218991
0
LINE
8
DEFAULT_255_2_778
10
26.5906503
20
59.9281991
11
26.5906503
21
-1.9843009
0
LINE
8
DEFAULT_255_2_778
10
25.7968503
20
-2.7781009
11
3.5718503
21
-2.7781009
0
LINE
8
DEFAULT_255_2_778
10
2.7781503
20
-1.9843009
11
2.7781503
21
59.9281991
0
LINE
8
DEFAULT_255_1_234
10
6.6296835
20
1.1804243
11
6.6561882
21
1.1804243
0
LINE
8
DEFAULT_255_1_234
10
6.6561882
20
1.1804243
11
6.6561882
21
1.054326
0
LINE
8
DEFAULT_255_1_234
10
6.6561882
20
1.054326
11
6.6288803
21
1.054326
0
LINE
8
DEFAULT_255_1_234
10
6.0819189
20
0.4551583
11
6.0819189
21
0.5121836
0
LINE
8
DEFAULT_255_1_234
10
6.2313093
20
0.4929075
11
6.2313093
21
0.4382917
0
ARC
8
DEFAULT_255_1_234
10
6.6341151
20
0.5545455
40
0.4998079
50
90.6001036
51
104.514704
0
ARC
8
DEFAULT_255_1_234
10
6.5952667
20
0.6990131
40
0.3502176
50
104.2855254
51
133.862935
0
ARC
8
DEFAULT_255_1_234
10
6.6116424
20
0.688183
40
0.3693984
50
134.5302688
51
161.6210873
0
ARC
8
DEFAULT_255_1_234
10
6.7769613
20
0.6298895
40
0.5446739
50
161.2849839
51
174.2076652
0
ARC
8
DEFAULT_255_1_234
10
6.917655
20
0.6104787
40
0.6866274
50
173.7810589
51
174.9254635
0
ARC
8
DEFAULT_255_1_234
10
6.4626382
20
0.4721839
40
0.3033419
50
95.8330959
51
138.9954921
0
ARC
8
DEFAULT_255_1_234
10
6.4849738
20
0.3443375
40
0.4328947
50
89.8753725
51
97.0544009
0
ARC
8
DEFAULT_255_1_234
10
6.4897204
20
0.4278748
40
0.3493769
50
71.6407809
51
90.6240094
0
ARC
8
DEFAULT_255_1_234
10
6.5047777
20
0.4833082
40
0.2920396
50
39.6367836
51
71.019018
0
ARC
8
DEFAULT_255_1_234
10
6.441125
20
0.4282998
40
0.3761538
50
10.658731
51
39.9043955
0
ARC
8
DEFAULT_255_1_234
10
6.2863333
20
0.3946686
40
0.5345136
50
359.682601
51
11.132623
0
ARC
8
DEFAULT_255_1_234
10
6.2823464
20
0.387601
40
0.5385081
50
347.2486944
51
0.4369317
0
ARC
8
DEFAULT_255_1_234
10
6.4490941
20
0.3474807
40
0.3670249
50
318.1409698
51
347.6118597
0
ARC
8
DEFAULT_255_1_234
10
6.4815934
20
0.3207702
40
0.3250007
50
275.6342139
51
317.8248465
0
ARC
8
DEFAULT_255_1_234
10
6.4595045
20
0.4507219
40
0.4565864
50
269.8874292
51
276.7917694
0
ARC
8
DEFAULT_255_1_234
10
6.4540116
20
0.3481743
40
0.3540676
50
246.9140195
51
270.7437342
0
ARC
8
DEFAULT_255_1_234
10
6.4546506
20
0.3339384
40
0.3412781
50
218.1665114
51
245.878116
0
ARC
8
DEFAULT_255_1_234
10
6.5425967
20
0.4075279
40
0.455911
50
191.4115814
51
218.6077802
0
ARC
8
DEFAULT_255_1_234
10
6.7364056
20
0.4509833
40
0.6545001
50
179.6345085
51
191.7836486
0
ARC
8
DEFAULT_255_1_234
10
7.2946393
20
0.5188697
40
1.2127388
50
171.4525249
51
180.3158839
0
ARC
8
DEFAULT_255_1_234
10
6.8551269
20
0.5872608
40
0.7679464
50
157.9802646
51
171.6246686
0
ARC
8
DEFAULT_255_1_234
10
6.633729
20
0.6755421
40
0.5296008
50
141.4298019
51
157.854097
0
ARC
8
DEFAULT_255_1_234
10
6.569561
20
0.7209381
40
0.4511509
50
102.8715806
51
140.8564722
0
ARC
8
DEFAULT_255_1_234
10
6.6343226
20
0.4769552
40
0.7034845
50
90.3778349
51
103.5869322
0
ARC
8
DEFAULT_255_1_234
10
6.4605002
20
0.416473
40
0.2370698
50
89.8751008
51
126.2071704
0
ARC
8
DEFAULT_255_1_234
10
6.4650792
20
0.4010303
40
0.2522934
50
124.9745049
51
144.895901
0
ARC
8
DEFAULT_255_1_234
10
6.4474982
20
0.415356
40
0.2296779
50
145.2974905
51
160.2660252
0
ARC
8
DEFAULT_255_1_234
10
6.7547521
20
0.4351071
40
0.5234525
50
179.6514266
51
190.2855912
0
ARC
8
DEFAULT_255_1_234
10
6.5853658
20
0.4031786
40
0.3510893
50
190.0945431
51
207.5098196
0
ARC
8
DEFAULT_255_1_234
10
6.5287928
20
0.3762623
40
0.288489
50
207.9583163
51
216.3251085
0
ARC
8
DEFAULT_255_1_234
10
6.4948036
20
0.3483105
40
0.2445587
50
215.7661442
51
232.5456785
0
ARC
8
DEFAULT_255_1_234
10
6.4565019
20
0.2996482
40
0.1826382
50
232.8005391
51
270.6605633
0
ARC
8
DEFAULT_255_1_234
10
6.461072
20
0.3360612
40
0.2190529
50
269.35537
51
288.4744281
0
ARC
8
DEFAULT_255_1_234
10
6.4703617
20
0.3011118
40
0.1829749
50
289.1833337
51
322.9683818
0
ARC
8
DEFAULT_255_1_234
10
6.4092139
20
0.3493391
40
0.2608399
50
322.6007884
51
346.5182367
0
ARC
8
DEFAULT_255_1_234
10
6.2934735
20
0.3788616
40
0.3802777
50
346.2582162
51
358.7741648
0
ARC
8
DEFAULT_255_1_234
10
6.1916404
20
0.3843965
40
0.4822176
50
358.3755224
51
0.0098023
0
ARC
8
DEFAULT_255_1_234
10
6.2672591
20
0.3871657
40
0.4066078
50
359.6214041
51
11.2839074
0
ARC
8
DEFAULT_255_1_234
10
6.3949738
20
0.4138066
40
0.2761514
50
11.0482309
51
31.8146458
0
ARC
8
DEFAULT_255_1_234
10
6.4258781
20
0.4305584
40
0.2410679
50
32.3035391
51
38.082671
0
ARC
8
DEFAULT_255_1_234
10
6.4679441
20
0.4686662
40
0.1844966
50
36.825067
51
85.7415724
0
ARC
8
DEFAULT_255_1_234
10
6.4612274
20
0.4186301
40
0.2349122
50
85.0140713
51
90.0513278
0
LINE
8
DEFAULT_255_1_234
10
7.6962983
20
0.6768343
11
7.6962983
21
0.550736
0
LINE
8
DEFAULT_255_1_234
10
7.6962983
20
0.550736
11
7.1894957
21
0.550736
0
LINE
8
DEFAULT_255_1_234
10
7.1894957
20
0.550736
11
7.1894957
21
0.1362983
0
LINE
8
DEFAULT_255_1_234
10
7.1894957
20
0.1362983
11
7.7782221
21
0.1362983
0
LINE
8
DEFAULT_255_1_234
10
7.7782221
20
0.1362983
11
7.7782221
21
0.0102
0
LINE
8
DEFAULT_255_1_234
10
7.7782221
20
0.0102
11
7.0352863
21
0.0102
0
LINE
8
DEFAULT_255_1_234
10
7.0352863
20
0.0102
11
7.0352863
21
1.1796211
0
LINE
8
DEFAULT_255_1_234
10
7.0352863
20
1.1796211
11
7.7701903
21
1.1796211
0
LINE
8
DEFAULT_255_1_234
10
7.7701903
20
1.1796211
11
7.7701903
21
1.0527196
0
LINE
8
DEFAULT_255_1_234
10
7.7701903
20
1.0527196
11
7.1894957
21
1.0527196
0
LINE
8
DEFAULT_255_1_234
10
7.1894957
20
1.0527196
11
7.1894957
21
0.6768343
0
LINE
8
DEFAULT_255_1_234
10
7.1894957
20
0.6768343
11
7.6962983
21
0.6768343
0
LINE
8
DEFAULT_255_1_234
10
8.7460465
20
0.8414849
11
8.591034
21
0.8414849
0
LINE
8
DEFAULT_255_1_234
10
7.8986981
20
0.3491394
11
8.0537107
21
0.3491394
0
ARC
8
DEFAULT_255_1_234
10
8.6569153
20
1.7361768
40
1.252368
50
248.9199003
51
254.1439814
0
ARC
8
DEFAULT_255_1_234
10
8.4888648
20
1.3035234
40
0.788226
50
241.633709
51
249.0064503
0
ARC
8
DEFAULT_255_1_234
10
8.3360042
20
1.0234317
40
0.4691427
50
230.498225
51
241.8087113
0
ARC
8
DEFAULT_255_1_234
10
8.2575616
20
0.9234906
40
0.3421437
50
227.4064532
51
229.9881192
0
ARC
8
DEFAULT_255_1_234
10
8.2088137
20
0.8759088
40
0.2741476
50
200.6781896
51
228.1763934
0
ARC
8
DEFAULT_255_1_234
10
8.2160447
20
0.8744077
40
0.2804109
50
179.5061581
51
199.8694617
0
ARC
8
DEFAULT_255_1_234
10
8.2151199
20
0.881821
40
0.2795204
50
132.4834203
51
181.0242172
0
ARC
8
DEFAULT_255_1_234
10
8.2746782
20
0.8255704
40
0.3612768
50
129.2532479
51
133.4242687
0
ARC
8
DEFAULT_255_1_234
10
8.2893231
20
0.8035965
40
0.3875675
50
101.98776
51
128.8742646
0
ARC
8
DEFAULT_255_1_234
10
8.3291842
20
0.6314741
40
0.5642249
50
89.5906553
51
102.3169264
0
ARC
8
DEFAULT_255_1_234
10
8.3362334
20
0.6633148
40
0.5323783
50
77.2360837
51
90.3248275
0
ARC
8
DEFAULT_255_1_234
10
8.3569413
20
0.76004
40
0.4334697
50
63.837784
51
77.0809408
0
ARC
8
DEFAULT_255_1_234
10
8.3847175
20
0.8117911
40
0.3747796
50
45.9864267
51
64.1607727
0
ARC
8
DEFAULT_255_1_234
10
8.4108056
20
0.8415866
40
0.3352302
50
32.2747395
51
45.6547121
0
ARC
8
DEFAULT_255_1_234
10
8.4174497
20
0.843488
40
0.328603
50
359.6507365
51
32.6130309
0
ARC
8
DEFAULT_255_1_234
10
8.3231592
20
0.843966
40
0.2678863
50
359.469343
51
14.9832209
0
ARC
8
DEFAULT_255_1_234
10
8.3936654
20
0.8628539
40
0.1948938
50
14.9781179
51
48.2004265
0
ARC
8
DEFAULT_255_1_234
10
8.3772299
20
0.8421983
40
0.2212521
50
48.5927837
51
74.1241538
0
ARC
8
DEFAULT_255_1_234
10
8.3438788
20
0.7321248
40
0.3362561
50
73.7888341
51
86.6652678
0
ARC
8
DEFAULT_255_1_234
10
8.3336354
20
0.6113881
40
0.4573953
50
86.2640471
51
90.0526343
0
ARC
8
DEFAULT_255_1_234
10
8.3308066
20
0.6509192
40
0.4178709
50
89.6697524
51
99.2309573
0
ARC
8
DEFAULT_255_1_234
10
8.3065517
20
0.7953964
40
0.2713749
50
99.069534
51
113.7658566
0
ARC
8
DEFAULT_255_1_234
10
8.2791708
20
0.8599677
40
0.2012469
50
114.0401004
51
127.9850673
0
ARC
8
DEFAULT_255_1_234
10
8.2551272
20
0.889573
40
0.1631167
50
127.7287463
51
176.7105154
0
ARC
8
DEFAULT_255_1_234
10
8.322999
20
0.8794693
40
0.2315392
50
175.1779447
51
180.0581938
0
ARC
8
DEFAULT_255_1_234
10
8.2386836
20
0.8782428
40
0.1472271
50
179.6142195
51
228.1246017
0
ARC
8
DEFAULT_255_1_234
10
8.2828505
20
0.9191308
40
0.2072299
50
226.5779593
51
230.8800004
0
ARC
8
DEFAULT_255_1_234
10
8.3299584
20
0.9816636
40
0.2854818
50
231.4635071
51
241.9260842
0
ARC
8
DEFAULT_255_1_234
10
8.4496762
20
1.20198
40
0.53622
50
241.7178533
51
248.3259551
0
ARC
8
DEFAULT_255_1_234
10
8.5882134
20
1.5452064
40
0.9063478
50
248.2007737
51
252.4528373
0
ARC
8
DEFAULT_255_1_234
10
8.7085858
20
1.9173441
40
1.2974635
50
252.3391078
51
254.3469452
0
ARC
8
DEFAULT_255_1_234
10
7.9543561
20
-0.7803852
40
1.5037162
50
71.0197183
51
74.4087047
0
ARC
8
DEFAULT_255_1_234
10
8.1238246
20
-0.2911889
40
0.9859993
50
66.1847285
51
71.086374
0
ARC
8
DEFAULT_255_1_234
10
8.2794559
20
0.05922
40
0.6025855
50
59.3536294
51
66.2691831
0
ARC
8
DEFAULT_255_1_234
10
8.3683211
20
0.2095609
40
0.4279449
50
49.1020879
51
59.3293958
0
ARC
8
DEFAULT_255_1_234
10
8.4501951
20
0.3028834
40
0.3038015
50
32.7919921
51
49.2505539
0
ARC
8
DEFAULT_255_1_234
10
8.4823041
20
0.3257191
40
0.264448
50
31.1181161
51
32.4005348
0
ARC
8
DEFAULT_255_1_234
10
8.4734579
20
0.3221779
40
0.2738556
50
8.1116974
51
30.7958831
0
ARC
8
DEFAULT_255_1_234
10
8.3924247
20
0.3083753
40
0.3560327
50
359.8389159
51
8.4706516
0
ARC
8
DEFAULT_255_1_234
10
8.4550038
20
0.3035137
40
0.2934776
50
337.4731098
51
0.7537279
0
ARC
8
DEFAULT_255_1_234
10
8.4728733
20
0.3015387
40
0.2762607
50
307.5917067
51
336.4315538
0
ARC
8
DEFAULT_255_1_234
10
8.4268561
20
0.3528102
40
0.3449979
50
307.6551545
51
308.4529766
0
ARC
8
DEFAULT_255_1_234
10
8.403828
20
0.388325
40
0.3871988
50
284.3734338
51
307.1424381
0
ARC
8
DEFAULT_255_1_234
10
8.354311
20
0.5704932
40
0.5759636
50
272.4382747
51
284.646547
0
ARC
8
DEFAULT_255_1_234
10
8.3416319
20
0.7504893
40
0.7563528
50
269.9708387
51
272.8178037
0
ARC
8
DEFAULT_255_1_234
10
8.3373358
20
0.5466716
40
0.5525489
50
248.2707594
51
270.4055579
0
ARC
8
DEFAULT_255_1_234
10
8.33191
20
0.5276192
40
0.5328452
50
246.1383403
51
248.0542782
0
ARC
8
DEFAULT_255_1_234
10
8.2900478
20
0.4396843
40
0.4355005
50
233.1670131
51
246.4950969
0
ARC
8
DEFAULT_255_1_234
10
8.2346383
20
0.3648812
40
0.3424126
50
215.3403242
51
233.0843104
0
ARC
8
DEFAULT_255_1_234
10
8.2073815
20
0.3450549
40
0.3087104
50
179.2419209
51
215.2648451
0
ARC
8
DEFAULT_255_1_234
10
8.2841409
20
0.3464666
40
0.2304457
50
179.335461
51
199.1045811
0
ARC
8
DEFAULT_255_1_234
10
8.2509085
20
0.3377766
40
0.1962176
50
199.8828939
51
232.7063202
0
ARC
8
DEFAULT_255_1_234
10
8.2981353
20
0.3971788
40
0.2720938
50
232.3738199
51
255.5136649
0
ARC
8
DEFAULT_255_1_234
10
8.332222
20
0.5215835
40
0.4010747
50
255.2446292
51
267.5320849
0
ARC
8
DEFAULT_255_1_234
10
8.3409843
20
0.6448702
40
0.5246356
50
267.1557994
51
270.0286766
0
ARC
8
DEFAULT_255_1_234
10
8.3437616
20
0.600495
40
0.4802668
50
269.7000017
51
278.1660162
0
ARC
8
DEFAULT_255_1_234
10
8.369362
20
0.4274515
40
0.3053425
50
278.0231263
51
290.625471
0
ARC
8
DEFAULT_255_1_234
10
8.4041308
20
0.3347025
40
0.206291
50
290.6619762
51
307.0370976
0
ARC
8
DEFAULT_255_1_234
10
8.4341697
20
0.2978504
40
0.1587906
50
306.3943566
51
355.3030547
0
ARC
8
DEFAULT_255_1_234
10
8.3829628
20
0.3055113
40
0.2104809
50
354.3660432
51
0.0698737
0
ARC
8
DEFAULT_255_1_234
10
8.3971973
20
0.3077617
40
0.1962563
50
359.417946
51
16.1971788
0
ARC
8
DEFAULT_255_1_234
10
8.4427284
20
0.3202418
40
0.149053
50
16.4723299
51
52.6262157
0
ARC
8
DEFAULT_255_1_234
10
8.3606338
20
0.2118433
40
0.2850296
50
52.7386432
51
62.4979148
0
ARC
8
DEFAULT_255_1_234
10
8.2221415
20
-0.0487717
40
0.5801521
50
62.2515216
51
68.1220564
0
ARC
8
DEFAULT_255_1_234
10
8.0501325
20
-0.4715128
40
1.0365451
50
68.0062803
51
71.8053402
0
ARC
8
DEFAULT_255_1_234
10
7.8705697
20
-1.0100242
40
1.6042013
50
71.7183119
51
73.9258742
0
LINE
8
DEFAULT_255_1_234
10
9.6624679
20
1.1796211
11
9.6624679
21
1.096091
0
LINE
8
DEFAULT_255_1_234
10
9.6624679
20
1.096091
11
9.1781541
21
0.0102
0
LINE
8
DEFAULT_255_1_234
10
9.1781541
20
0.0102
11
9.0223383
21
0.0102
0
LINE
8
DEFAULT_255_1_234
10
9.0223383
20
0.0102
11
9.5050458
21
1.0575387
0
LINE
8
DEFAULT_255_1_234
10
9.5050458
20
1.0575387
11
8.8721448
21
1.0575387
0
LINE
8
DEFAULT_255_1_234
10
8.8721448
20
1.0575387
11
8.8721448
21
1.1796211
0
LINE
8
DEFAULT_255_1_234
10
8.8721448
20
1.1796211
11
9.6624679
21
1.1796211
0
LINE
8
DEFAULT_255_1_234
10
10.0182739
20
0.5659963
11
9.8994042
21
0.5965169
0
LINE
8
DEFAULT_255_1_234
10
9.8994042
20
0.5965169
11
9.958839
21
1.1796211
0
LINE
8
DEFAULT_255_1_234
10
9.958839
20
1.1796211
11
10.5580067
21
1.1796211
0
LINE
8
DEFAULT_255_1_234
10
10.5580067
20
1.1796211
11
10.5580067
21
1.0422784
0
LINE
8
DEFAULT_255_1_234
10
10.5580067
20
1.0422784
11
10.0849373
21
1.0422784
0
LINE
8
DEFAULT_255_1_234
10
10.0849373
20
1.0422784
11
10.0495977
21
0.7234184
0
LINE
8
DEFAULT_255_1_234
10
9.8576391
20
0.3178156
11
9.9981945
21
0.3178156
0
LINE
8
DEFAULT_255_1_234
10
10.0576294
20
0.5981232
11
10.0182739
21
0.5659963
0
ARC
8
DEFAULT_255_1_234
10
10.2350761
20
0.405423
40
0.3681349
50
93.7182161
51
120.2538958
0
ARC
8
DEFAULT_255_1_234
10
10.2445023
20
0.3246394
40
0.449379
50
89.9660152
51
94.2496022
0
ARC
8
DEFAULT_255_1_234
10
10.2485757
20
0.3835549
40
0.390482
50
73.8043271
51
90.5585896
0
ARC
8
DEFAULT_255_1_234
10
10.2720654
20
0.4693602
40
0.3015334
50
41.3071453
51
73.5430202
0
ARC
8
DEFAULT_255_1_234
10
10.2304482
20
0.4335324
40
0.3564457
50
13.5075983
51
41.2174222
0
ARC
8
DEFAULT_255_1_234
10
10.0662685
20
0.3905486
40
0.5261351
50
1.1331335
51
13.8829381
0
ARC
8
DEFAULT_255_1_234
10
9.9251054
20
0.3829665
40
0.6674378
50
359.9919444
51
1.544251
0
ARC
8
DEFAULT_255_1_234
10
10.0527881
20
0.378828
40
0.5397702
50
347.8572367
51
0.4293338
0
ARC
8
DEFAULT_255_1_234
10
10.2278198
20
0.3391736
40
0.3603188
50
323.673004
51
348.1672506
0
ARC
8
DEFAULT_255_1_234
10
10.2572707
20
0.3212168
40
0.3259678
50
316.8171152
51
323.1492751
0
ARC
8
DEFAULT_255_1_234
10
10.2633895
20
0.317546
40
0.3189975
50
281.8396411
51
316.5457803
0
ARC
8
DEFAULT_255_1_234
10
10.2258159
20
0.4730762
40
0.4789527
50
269.5770101
51
282.4214771
0
ARC
8
DEFAULT_255_1_234
10
10.2186971
20
0.4517125
40
0.45759
50
256.2427136
51
270.4486331
0
ARC
8
DEFAULT_255_1_234
10
10.1887873
20
0.3317229
40
0.3339303
50
228.9023911
51
256.3314342
0
ARC
8
DEFAULT_255_1_234
10
10.1814106
20
0.3200746
40
0.32031
50
193.753695
51
228.5271154
0
ARC
8
DEFAULT_255_1_234
10
10.305206
20
0.35638
40
0.4492253
50
184.924711
51
194.497588
0
ARC
8
DEFAULT_255_1_234
10
10.3244626
20
0.3599591
40
0.3289787
50
187.3600538
51
198.6732863
0
ARC
8
DEFAULT_255_1_234
10
10.219492
20
0.3235674
40
0.217884
50
198.4451669
51
217.794479
0
ARC
8
DEFAULT_255_1_234
10
10.1899096
20
0.3026085
40
0.1816698
50
218.2887171
51
228.5612368
0
ARC
8
DEFAULT_255_1_234
10
10.1996883
20
0.3157963
40
0.1980329
50
228.9654866
51
258.1234728
0
ARC
8
DEFAULT_255_1_234
10
10.2202593
20
0.4038833
40
0.2884748
50
257.7258293
51
270.401361
0
ARC
8
DEFAULT_255_1_234
10
10.2247479
20
0.3593821
40
0.2439788
50
269.4204404
51
286.4209037
0
ARC
8
DEFAULT_255_1_234
10
10.2395966
20
0.3054657
40
0.1880666
50
286.7251356
51
320.600362
0
ARC
8
DEFAULT_255_1_234
10
10.2012791
20
0.3365595
40
0.2374121
50
320.6712579
51
344.5441685
0
ARC
8
DEFAULT_255_1_234
10
10.0856118
20
0.3705045
40
0.3579479
50
344.2412205
51
356.7357071
0
ARC
8
DEFAULT_255_1_234
10
9.9607266
20
0.3808444
40
0.4832297
50
356.3548756
51
0.0500261
0
ARC
8
DEFAULT_255_1_234
10
10.0943775
20
0.383965
40
0.3495889
50
359.5576869
51
12.953486
0
ARC
8
DEFAULT_255_1_234
10
10.1998673
20
0.4095434
40
0.2410532
50
12.6490276
51
41.6081334
0
ARC
8
DEFAULT_255_1_234
10
10.2229044
20
0.4291321
40
0.2108218
50
41.7850273
51
85.9892764
0
ARC
8
DEFAULT_255_1_234
10
10.210578
20
0.3478462
40
0.2928454
50
84.6957577
51
90.0676183
0
ARC
8
DEFAULT_255_1_234
10
10.2082264
20
0.2809716
40
0.3597255
50
89.6804936
51
99.1614436
0
ARC
8
DEFAULT_255_1_234
10
10.1876896
20
0.4037131
40
0.235281
50
98.9830931
51
113.8908934
0
ARC
8
DEFAULT_255_1_234
10
10.1647306
20
0.4578587
40
0.176479
50
114.1950727
51
127.3641004
0
LINE
8
DEFAULT_255_1_234
10
11.488082
20
0.7017327
11
11.488082
21
0.5089709
0
LINE
8
DEFAULT_255_1_234
10
10.7499652
20
0.4888916
11
10.7499652
21
0.6872755
0
LINE
8
DEFAULT_255_1_234
10
11.3394948
20
0.4688123
11
11.3394948
21
0.7121739
0
LINE
8
DEFAULT_255_1_234
10
10.8985524
20
0.7234184
11
10.8985524
21
0.4856789
0
ARC
8
DEFAULT_255_1_234
10
10.2633709
20
0.5040805
40
1.2247208
50
353.8441951
51
0.2287902
0
ARC
8
DEFAULT_255_1_234
10
10.7273213
20
0.4522806
40
0.7578929
50
344.4934747
51
353.9765454
0
ARC
8
DEFAULT_255_1_234
10
11.0265803
20
0.3671981
40
0.4467846
50
329.2803592
51
344.7472793
0
ARC
8
DEFAULT_255_1_234
10
11.1258628
20
0.3127018
40
0.3336173
50
324.9352394
51
328.6160465
0
ARC
8
DEFAULT_255_1_234
10
11.1635737
20
0.2863427
40
0.2876076
50
280.580143
51
324.9173126
0
ARC
8
DEFAULT_255_1_234
10
11.1234529
20
0.4534099
40
0.4592847
50
269.5977311
51
281.6734359
0
ARC
8
DEFAULT_255_1_234
10
11.1162435
20
0.4414173
40
0.4472986
50
256.6228859
51
270.51044
0
ARC
8
DEFAULT_255_1_234
10
11.0760413
20
0.2865877
40
0.2873874
50
215.8618325
51
257.2788573
0
ARC
8
DEFAULT_255_1_234
10
11.1781444
20
0.3550977
40
0.4102928
50
197.9693508
51
215.2623606
0
ARC
8
DEFAULT_255_1_234
10
11.426656
20
0.4389709
40
0.6725652
50
187.8816417
51
198.2346507
0
ARC
8
DEFAULT_255_1_234
10
11.8224768
20
0.4961079
40
1.0724845
50
180.8976217
51
188.0055519
0
ARC
8
DEFAULT_255_1_234
10
12.1024957
20
0.5064777
40
1.3526448
50
180.7449369
51
181.1510016
0
ARC
8
DEFAULT_255_1_234
10
11.9447686
20
0.6921042
40
1.1948131
50
173.7675579
51
180.231553
0
ARC
8
DEFAULT_255_1_234
10
11.4929832
20
0.7431666
40
0.7401564
50
164.3058563
51
173.9002247
0
ARC
8
DEFAULT_255_1_234
10
11.2017901
20
0.8270656
40
0.4371288
50
148.7922025
51
164.568378
0
ARC
8
DEFAULT_255_1_234
10
11.1066353
20
0.8801929
40
0.3282386
50
144.5883898
51
148.1176286
0
ARC
8
DEFAULT_255_1_234
10
11.0723251
20
0.9041315
40
0.2864044
50
101.6440918
51
144.514236
0
ARC
8
DEFAULT_255_1_234
10
11.1148318
20
0.7352069
40
0.4604934
50
89.5284041
51
102.5819763
0
ARC
8
DEFAULT_255_1_234
10
11.1227406
20
0.7313018
40
0.464401
50
77.0437873
51
90.5081339
0
ARC
8
DEFAULT_255_1_234
10
11.1629407
20
0.8955615
40
0.2953195
50
48.2778575
51
77.4994676
0
ARC
8
DEFAULT_255_1_234
10
11.1702039
20
0.9084746
40
0.2808655
50
36.3142134
51
47.6305865
0
ARC
8
DEFAULT_255_1_234
10
11.0833346
20
0.8499515
40
0.3855453
50
18.2931786
51
35.6769206
0
ARC
8
DEFAULT_255_1_234
10
10.8290104
20
0.7626593
40
0.654423
50
8.024666
51
18.5605216
0
ARC
8
DEFAULT_255_1_234
10
10.4127024
20
0.7011792
40
1.0752407
50
1.1274072
51
8.1718305
0
ARC
8
DEFAULT_255_1_234
10
10.0891215
20
0.6884885
40
1.3990231
50
0.5424119
51
1.3863029
0
ARC
8
DEFAULT_255_1_234
10
10.2712593
20
0.7157342
40
1.0682415
50
359.8090433
51
4.9407866
0
ARC
8
DEFAULT_255_1_234
10
10.6922607
20
0.7533113
40
0.6455691
50
4.8362157
51
12.2904523
0
ARC
8
DEFAULT_255_1_234
10
10.9677722
20
0.8146965
40
0.3633074
50
12.0805627
51
23.8173984
0
ARC
8
DEFAULT_255_1_234
10
11.0851427
20
0.8643919
40
0.2358723
50
24.2871213
51
31.3935614
0
ARC
8
DEFAULT_255_1_234
10
11.1376124
20
0.8987233
40
0.1732111
50
30.7407893
51
82.4657128
0
ARC
8
DEFAULT_255_1_234
10
11.1196259
20
0.8103691
40
0.263235
50
81.1060089
51
90.2184952
0
ARC
8
DEFAULT_255_1_234
10
11.1160557
20
0.8361924
40
0.2374236
50
89.3806855
51
105.6762551
0
ARC
8
DEFAULT_255_1_234
10
11.0977188
20
0.9028567
40
0.1682847
50
105.7981136
51
149.7388061
0
ARC
8
DEFAULT_255_1_234
10
11.2041266
20
0.838895
40
0.2924306
50
149.4208916
51
163.6286378
0
ARC
8
DEFAULT_255_1_234
10
11.4132154
20
0.775125
40
0.5110213
50
163.3763315
51
172.1410975
0
ARC
8
DEFAULT_255_1_234
10
11.7432873
20
0.7278518
40
0.8444586
50
172.0259487
51
178.0703232
0
ARC
8
DEFAULT_255_1_234
10
12.0462963
20
0.7134906
40
1.1477868
50
177.8631668
51
179.5044149
0
ARC
8
DEFAULT_255_1_234
10
11.9390367
20
0.4820389
40
1.0404907
50
179.7995573
51
185.2460446
0
ARC
8
DEFAULT_255_1_234
10
11.5347407
20
0.4437513
40
0.6343885
50
185.1411642
51
193.0079639
0
ARC
8
DEFAULT_255_1_234
10
11.2703879
20
0.3812641
40
0.3627568
50
192.7897626
51
205.2507664
0
ARC
8
DEFAULT_255_1_234
10
11.1657426
20
0.3345415
40
0.2481908
50
205.8005384
51
211.2537509
0
ARC
8
DEFAULT_255_1_234
10
11.1133867
20
0.299458
40
0.1852521
50
210.3789793
51
238.4008143
0
ARC
8
DEFAULT_255_1_234
10
11.1114389
20
0.3041376
40
0.1882621
50
239.6520629
51
265.9793761
0
ARC
8
DEFAULT_255_1_234
10
11.1199589
20
0.3713427
40
0.2559272
50
265.1315437
51
270.060332
0
ARC
8
DEFAULT_255_1_234
10
11.1228367
20
0.3389534
40
0.2235528
50
269.3314664
51
287.2178029
0
ARC
8
DEFAULT_255_1_234
10
11.1366219
20
0.2886279
40
0.1714108
50
287.7958004
51
329.080874
0
ARC
8
DEFAULT_255_1_234
10
11.0408676
20
0.348393
40
0.2842745
50
328.6634704
51
343.3325132
0
ARC
8
DEFAULT_255_1_234
10
10.8235696
20
0.4160863
40
0.5118644
50
343.0499468
51
351.9393422
0
ARC
8
DEFAULT_255_1_234
10
10.4768996
20
0.4671949
40
0.8622784
50
351.8069023
51
357.7959224
0
ARC
8
DEFAULT_255_1_234
10
10.1533552
20
0.4839721
40
1.1862365
50
357.5871873
51
359.2677531
0
LINE
8
DEFAULT_255_1_234
10
12.4117319
20
0.7017327
11
12.4117319
21
0.5089709
0
LINE
8
DEFAULT_255_1_234
10
11.6736151
20
0.4888916
11
11.6736151
21
0.6872755
0
LINE
8
DEFAULT_255_1_234
10
12.2631447
20
0.4688123
11
12.2631447
21
0.7121739
0
LINE
8
DEFAULT_255_1_234
10
11.8222023
20
0.7234184
11
11.8222023
21
0.4856789
0
ARC
8
DEFAULT_255_1_234
10
11.1870208
20
0.5040805
40
1.2247208
50
353.8441951
51
0.2287902
0
ARC
8
DEFAULT_255_1_234
10
11.6509712
20
0.4522806
40
0.7578929
50
344.4934747
51
353.9765454
0
ARC
8
DEFAULT_255_1_234
10
11.9502302
20
0.3671981
40
0.4467846
50
329.2803592
51
344.7472793
0
ARC
8
DEFAULT_255_1_234
10
12.0495127
20
0.3127018
40
0.3336173
50
324.9352394
51
328.6160465
0
ARC
8
DEFAULT_255_1_234
10
12.0872236
20
0.2863427
40
0.2876076
50
280.580143
51
324.9173126
0
ARC
8
DEFAULT_255_1_234
10
12.0471028
20
0.4534099
40
0.4592847
50
269.5977311
51
281.6734359
0
ARC
8
DEFAULT_255_1_234
10
12.0398934
20
0.4414173
40
0.4472986
50
256.6228859
51
270.51044
0
ARC
8
DEFAULT_255_1_234
10
11.9996912
20
0.2865877
40
0.2873874
50
215.8618325
51
257.2788573
0
ARC
8
DEFAULT_255_1_234
10
12.1017943
20
0.3550977
40
0.4102928
50
197.9693508
51
215.2623606
0
ARC
8
DEFAULT_255_1_234
10
12.3503059
20
0.4389709
40
0.6725652
50
187.8816417
51
198.2346507
0
ARC
8
DEFAULT_255_1_234
10
12.7461267
20
0.4961079
40
1.0724845
50
180.8976217
51
188.0055519
0
ARC
8
DEFAULT_255_1_234
10
13.0261456
20
0.5064777
40
1.3526448
50
180.7449369
51
181.1510016
0
ARC
8
DEFAULT_255_1_234
10
12.8684185
20
0.6921042
40
1.1948131
50
173.7675579
51
180.231553
0
ARC
8
DEFAULT_255_1_234
10
12.4166331
20
0.7431666
40
0.7401564
50
164.3058563
51
173.9002247
0
ARC
8
DEFAULT_255_1_234
10
12.12544
20
0.8270656
40
0.4371288
50
148.7922025
51
164.568378
0
ARC
8
DEFAULT_255_1_234
10
12.0302852
20
0.8801929
40
0.3282386
50
144.5883898
51
148.1176286
0
ARC
8
DEFAULT_255_1_234
10
11.995975
20
0.9041315
40
0.2864044
50
101.6440918
51
144.514236
0
ARC
8
DEFAULT_255_1_234
10
12.0384817
20
0.7352069
40
0.4604934
50
89.5284041
51
102.5819763
0
ARC
8
DEFAULT_255_1_234
10
12.0463905
20
0.7313018
40
0.464401
50
77.0437873
51
90.5081339
0
ARC
8
DEFAULT_255_1_234
10
12.0865906
20
0.8955615
40
0.2953195
50
48.2778575
51
77.4994676
0
ARC
8
DEFAULT_255_1_234
10
12.0938538
20
0.9084746
40
0.2808655
50
36.3142134
51
47.6305865
0
ARC
8
DEFAULT_255_1_234
10
12.0069845
20
0.8499515
40
0.3855453
50
18.2931786
51
35.6769206
0
ARC
8
DEFAULT_255_1_234
10
11.7526603
20
0.7626593
40
0.654423
50
8.024666
51
18.5605216
0
ARC
8
DEFAULT_255_1_234
10
11.3363523
20
0.7011792
40
1.0752407
50
1.1274072
51
8.1718305
0
ARC
8
DEFAULT_255_1_234
10
11.0127714
20
0.6884885
40
1.3990231
50
0.5424119
51
1.3863029
0
ARC
8
DEFAULT_255_1_234
10
11.1949092
20
0.7157342
40
1.0682415
50
359.8090433
51
4.9407866
0
ARC
8
DEFAULT_255_1_234
10
11.6159106
20
0.7533113
40
0.6455691
50
4.8362157
51
12.2904523
0
ARC
8
DEFAULT_255_1_234
10
11.8914221
20
0.8146965
40
0.3633074
50
12.0805627
51
23.8173984
0
ARC
8
DEFAULT_255_1_234
10
12.0087926
20
0.8643919
40
0.2358723
50
24.2871213
51
31.3935614
0
ARC
8
DEFAULT_255_1_234
10
12.0612623
20
0.8987233
40
0.1732111
50
30.7407893
51
82.4657128
0
ARC
8
DEFAULT_255_1_234
10
12.0432758
20
0.8103691
40
0.263235
50
81.1060089
51
90.2184952
0
ARC
8
DEFAULT_255_1_234
10
12.0397056
20
0.8361924
40
0.2374236
50
89.3806855
51
105.6762551
0
ARC
8
DEFAULT_255_1_234
10
12.0213687
20
0.9028567
40
0.1682847
50
105.7981136
51
149.7388061
0
ARC
8
DEFAULT_255_1_234
10
12.1277765
20
0.838895
40
0.2924306
50
149.4208916
51
163.6286378
0
ARC
8
DEFAULT_255_1_234
10
12.3368653
20
0.775125
40
0.5110213
50
163.3763315
51
172.1410975
0
ARC
8
DEFAULT_255_1_234
10
12.6669372
20
0.7278518
40
0.8444586
50
172.0259487
51
178.0703232
0
ARC
8
DEFAULT_255_1_234
10
12.9699462
20
0.7134906
40
1.1477868
50
177.8631668
51
179.5044149
0
ARC
8
DEFAULT_255_1_234
10
12.8626866
20
0.4820389
40
1.0404907
50
179.7995573
51
185.2460446
0
ARC
8
DEFAULT_255_1_234
10
12.4583906
20
0.4437513
40
0.6343885
50
185.1411642
51
193.0079639
0
ARC
8
DEFAULT_255_1_234
10
12.1940378
20
0.3812641
40
0.3627568
50
192.7897626
51
205.2507664
0
ARC
8
DEFAULT_255_1_234
10
12.0893925
20
0.3345415
40
0.2481908
50
205.8005384
51
211.2537509
0
ARC
8
DEFAULT_255_1_234
10
12.0370366
20
0.299458
40
0.1852521
50
210.3789793
51
238.4008143
0
ARC
8
DEFAULT_255_1_234
10
12.0350888
20
0.3041376
40
0.1882621
50
239.6520629
51
265.9793761
0
ARC
8
DEFAULT_255_1_234
10
12.0436088
20
0.3713427
40
0.2559272
50
265.1315437
51
270.060332
0
ARC
8
DEFAULT_255_1_234
10
12.0464867
20
0.3389534
40
0.2235528
50
269.3314664
51
287.2178029
0
ARC
8
DEFAULT_255_1_234
10
12.0602718
20
0.2886279
40
0.1714108
50
287.7958004
51
329.080874
0
ARC
8
DEFAULT_255_1_234
10
11.9645175
20
0.348393
40
0.2842745
50
328.6634704
51
343.3325132
0
ARC
8
DEFAULT_255_1_234
10
11.7472195
20
0.4160863
40
0.5118644
50
343.0499468
51
351.9393422
0
ARC
8
DEFAULT_255_1_234
10
11.4005495
20
0.4671949
40
0.8622784
50
351.8069023
51
357.7959224
0
ARC
8
DEFAULT_255_1_234
10
11.0770051
20
0.4839721
40
1.1862365
50
357.5871873
51
359.2677531
0
LINE
8
DEFAULT_255_1_234
10
12.9265663
20
0.5676026
11
12.9265663
21
0.4463234
0
LINE
8
DEFAULT_255_1_234
10
12.9265663
20
0.4463234
11
12.5346175
21
0.4463234
0
LINE
8
DEFAULT_255_1_234
10
12.5346175
20
0.4463234
11
12.5346175
21
0.5676026
0
LINE
8
DEFAULT_255_1_234
10
12.5346175
20
0.5676026
11
12.9265663
21
0.5676026
0
LINE
8
DEFAULT_255_1_234
10
13.789175
20
0.7017327
11
13.789175
21
0.5089709
0
LINE
8
DEFAULT_255_1_234
10
13.0510583
20
0.4888916
11
13.0510583
21
0.6872755
0
LINE
8
DEFAULT_255_1_234
10
13.6405878
20
0.4688123
11
13.6405878
21
0.7121739
0
LINE
8
DEFAULT_255_1_234
10
13.1996454
20
0.7234184
11
13.1996454
21
0.4856789
0
ARC
8
DEFAULT_255_1_234
10
12.564464
20
0.5040805
40
1.2247208
50
353.8441951
51
0.2287902
0
ARC
8
DEFAULT_255_1_234
10
13.0284143
20
0.4522806
40
0.7578929
50
344.4934747
51
353.9765454
0
ARC
8
DEFAULT_255_1_234
10
13.3276733
20
0.3671981
40
0.4467846
50
329.2803592
51
344.7472793
0
ARC
8
DEFAULT_255_1_234
10
13.4269558
20
0.3127018
40
0.3336173
50
324.9352394
51
328.6160465
0
ARC
8
DEFAULT_255_1_234
10
13.4646667
20
0.2863427
40
0.2876076
50
280.580143
51
324.9173126
0
ARC
8
DEFAULT_255_1_234
10
13.424546
20
0.4534099
40
0.4592847
50
269.5977311
51
281.6734359
0
ARC
8
DEFAULT_255_1_234
10
13.4173365
20
0.4414173
40
0.4472986
50
256.6228859
51
270.51044
0
ARC
8
DEFAULT_255_1_234
10
13.3771343
20
0.2865877
40
0.2873874
50
215.8618325
51
257.2788573
0
ARC
8
DEFAULT_255_1_234
10
13.4792375
20
0.3550977
40
0.4102928
50
197.9693508
51
215.2623606
0
ARC
8
DEFAULT_255_1_234
10
13.727749
20
0.4389709
40
0.6725652
50
187.8816417
51
198.2346507
0
ARC
8
DEFAULT_255_1_234
10
14.1235699
20
0.4961079
40
1.0724845
50
180.8976217
51
188.0055519
0
ARC
8
DEFAULT_255_1_234
10
14.4035887
20
0.5064777
40
1.3526448
50
180.7449369
51
181.1510016
0
ARC
8
DEFAULT_255_1_234
10
14.2458616
20
0.6921042
40
1.1948131
50
173.7675579
51
180.231553
0
ARC
8
DEFAULT_255_1_234
10
13.7940762
20
0.7431666
40
0.7401564
50
164.3058563
51
173.9002247
0
ARC
8
DEFAULT_255_1_234
10
13.5028831
20
0.8270656
40
0.4371288
50
148.7922025
51
164.568378
0
ARC
8
DEFAULT_255_1_234
10
13.4077283
20
0.8801929
40
0.3282386
50
144.5883898
51
148.1176286
0
ARC
8
DEFAULT_255_1_234
10
13.3734181
20
0.9041315
40
0.2864044
50
101.6440918
51
144.514236
0
ARC
8
DEFAULT_255_1_234
10
13.4159248
20
0.7352069
40
0.4604934
50
89.5284041
51
102.5819763
0
ARC
8
DEFAULT_255_1_234
10
13.4238336
20
0.7313018
40
0.464401
50
77.0437873
51
90.5081339
0
ARC
8
DEFAULT_255_1_234
10
13.4640337
20
0.8955615
40
0.2953195
50
48.2778575
51
77.4994676
0
ARC
8
DEFAULT_255_1_234
10
13.4712969
20
0.9084746
40
0.2808655
50
36.3142134
51
47.6305865
0
ARC
8
DEFAULT_255_1_234
10
13.3844276
20
0.8499515
40
0.3855453
50
18.2931786
51
35.6769206
0
ARC
8
DEFAULT_255_1_234
10
13.1301035
20
0.7626593
40
0.654423
50
8.024666
51
18.5605216
0
ARC
8
DEFAULT_255_1_234
10
12.7137955
20
0.7011792
40
1.0752407
50
1.1274072
51
8.1718305
0
ARC
8
DEFAULT_255_1_234
10
12.3902145
20
0.6884885
40
1.3990231
50
0.5424119
51
1.3863029
0
ARC
8
DEFAULT_255_1_234
10
12.5723523
20
0.7157342
40
1.0682415
50
359.8090433
51
4.9407866
0
ARC
8
DEFAULT_255_1_234
10
12.9933537
20
0.7533113
40
0.6455691
50
4.8362157
51
12.2904523
0
ARC
8
DEFAULT_255_1_234
10
13.2688652
20
0.8146965
40
0.3633074
50
12.0805627
51
23.8173984
0
ARC
8
DEFAULT_255_1_234
10
13.3862357
20
0.8643919
40
0.2358723
50
24.2871213
51
31.3935614
0
ARC
8
DEFAULT_255_1_234
10
13.4387054
20
0.8987233
40
0.1732111
50
30.7407893
51
82.4657128
0
ARC
8
DEFAULT_255_1_234
10
13.4207189
20
0.8103691
40
0.263235
50
81.1060089
51
90.2184952
0
ARC
8
DEFAULT_255_1_234
10
13.4171488
20
0.8361924
40
0.2374236
50
89.3806855
51
105.6762551
0
ARC
8
DEFAULT_255_1_234
10
13.3988118
20
0.9028567
40
0.1682847
50
105.7981136
51
149.7388061
0
ARC
8
DEFAULT_255_1_234
10
13.5052197
20
0.838895
40
0.2924306
50
149.4208916
51
163.6286378
0
ARC
8
DEFAULT_255_1_234
10
13.7143085
20
0.775125
40
0.5110213
50
163.3763315
51
172.1410975
0
ARC
8
DEFAULT_255_1_234
10
14.0443804
20
0.7278518
40
0.8444586
50
172.0259487
51
178.0703232
0
ARC
8
DEFAULT_255_1_234
10
14.3473893
20
0.7134906
40
1.1477868
50
177.8631668
51
179.5044149
0
ARC
8
DEFAULT_255_1_234
10
14.2401297
20
0.4820389
40
1.0404907
50
179.7995573
51
185.2460446
0
ARC
8
DEFAULT_255_1_234
10
13.8358337
20
0.4437513
40
0.6343885
50
185.1411642
51
193.0079639
0
ARC
8
DEFAULT_255_1_234
10
13.5714809
20
0.3812641
40
0.3627568
50
192.7897626
51
205.2507664
0
ARC
8
DEFAULT_255_1_234
10
13.4668356
20
0.3345415
40
0.2481908
50
205.8005384
51
211.2537509
0
ARC
8
DEFAULT_255_1_234
10
13.4144797
20
0.299458
40
0.1852521
50
210.3789793
51
238.4008143
0
ARC
8
DEFAULT_255_1_234
10
13.4125319
20
0.3041376
40
0.1882621
50
239.6520629
51
265.9793761
0
ARC
8
DEFAULT_255_1_234
10
13.4210519
20
0.3713427
40
0.2559272
50
265.1315437
51
270.060332
0
ARC
8
DEFAULT_255_1_234
10
13.4239298
20
0.3389534
40
0.2235528
50
269.3314664
51
287.2178029
0
ARC
8
DEFAULT_255_1_234
10
13.437715
20
0.2886279
40
0.1714108
50
287.7958004
51
329.080874
0
ARC
8
DEFAULT_255_1_234
10
13.3419606
20
0.348393
40
0.2842745
50
328.6634704
51
343.3325132
0
ARC
8
DEFAULT_255_1_234
10
13.1246626
20
0.4160863
40
0.5118644
50
343.0499468
51
351.9393422
0
ARC
8
DEFAULT_255_1_234
10
12.7779926
20
0.4671949
40
0.8622784
50
351.8069023
51
357.7959224
0
ARC
8
DEFAULT_255_1_234
10
12.4544482
20
0.4839721
40
1.1862365
50
357.5871873
51
359.2677531
0
LINE
8
DEFAULT_255_1_234
10
14.9168311
20
1.1796211
11
14.9168311
21
0.0102
0
LINE
8
DEFAULT_255_1_234
10
14.9168311
20
0.0102
11
14.7618185
21
0.0102
0
LINE
8
DEFAULT_255_1_234
10
14.7618185
20
0.0102
11
14.7618185
21
0.550736
0
LINE
8
DEFAULT_255_1_234
10
14.7618185
20
0.550736
11
14.1722889
21
0.550736
0
LINE
8
DEFAULT_255_1_234
10
14.1722889
20
0.550736
11
14.1722889
21
0.0102
0
LINE
8
DEFAULT_255_1_234
10
14.1722889
20
0.0102
11
14.0180795
21
0.0102
0
LINE
8
DEFAULT_255_1_234
10
14.0180795
20
0.0102
11
14.0180795
21
1.1796211
0
LINE
8
DEFAULT_255_1_234
10
14.0180795
20
1.1796211
11
14.1722889
21
1.1796211
0
LINE
8
DEFAULT_255_1_234
10
14.1722889
20
1.1796211
11
14.1722889
21
0.6768343
0
LINE
8
DEFAULT_255_1_234
10
14.1722889
20
0.6768343
11
14.7618185
21
0.6768343
0
LINE
8
DEFAULT_255_1_234
10
14.7618185
20
0.6768343
11
14.7618185
21
1.1796211
0
LINE
8
DEFAULT_255_1_234
10
14.7618185
20
1.1796211
11
14.9168311
21
1.1796211
0
LINE
8
DEFAULT_255_1_234
10
15.6204113
20
0.4680091
11
15.3449227
21
0.4680091
0
LINE
8
DEFAULT_255_1_234
10
15.3449227
20
0.4680091
11
15.3449227
21
0.0102
0
LINE
8
DEFAULT_255_1_234
10
15.3449227
20
0.0102
11
15.1907133
21
0.0102
0
LINE
8
DEFAULT_255_1_234
10
15.1907133
20
0.0102
11
15.1907133
21
1.1796211
0
LINE
8
DEFAULT_255_1_234
10
15.1907133
20
1.1796211
11
15.6220177
21
1.1796211
0
LINE
8
DEFAULT_255_1_234
10
15.3449227
20
1.0527196
11
15.3449227
21
0.5941074
0
LINE
8
DEFAULT_255_1_234
10
15.3449227
20
0.5941074
11
15.6220177
21
0.5941074
0
LINE
8
DEFAULT_255_1_234
10
15.6308526
20
1.0527196
11
15.3449227
21
1.0527196
0
ARC
8
DEFAULT_255_1_234
10
15.6262304
20
0.5737195
40
0.6059162
50
78.8378113
51
90.3983573
0
ARC
8
DEFAULT_255_1_234
10
15.6678317
20
0.7757879
40
0.3996205
50
58.9632738
51
79.0810598
0
ARC
8
DEFAULT_255_1_234
10
15.6979859
20
0.8317721
40
0.3361177
50
48.0197965
51
58.447194
0
ARC
8
DEFAULT_255_1_234
10
15.706872
20
0.8403225
40
0.3238191
50
3.3375044
51
48.1766626
0
ARC
8
DEFAULT_255_1_234
10
15.583856
20
0.8226171
40
0.4477806
50
359.9477528
51
4.6829065
0
ARC
8
DEFAULT_255_1_234
10
15.5961877
20
0.8183628
40
0.4354656
50
346.1877825
51
0.5060252
0
ARC
8
DEFAULT_255_1_234
10
15.7320744
20
0.7830731
40
0.295089
50
310.8831995
51
346.5426355
0
ARC
8
DEFAULT_255_1_234
10
15.7012164
20
0.8247695
40
0.3468331
50
286.6925341
51
310.2288297
0
ARC
8
DEFAULT_255_1_234
10
15.6442995
20
1.0037882
40
0.5346654
50
274.6850312
51
287.0245141
0
ARC
8
DEFAULT_255_1_234
10
15.6217718
20
1.2246932
40
0.7566852
50
269.8969846
51
275.018904
0
ARC
8
DEFAULT_255_1_234
10
15.6245309
20
1.0167707
40
0.4226708
50
269.6593078
51
279.4153575
0
ARC
8
DEFAULT_255_1_234
10
15.6502585
20
0.8677133
40
0.2714146
50
279.2049762
51
294.9900808
0
ARC
8
DEFAULT_255_1_234
10
15.679291
20
0.8029508
40
0.2004525
50
295.2888114
51
311.2911209
0
ARC
8
DEFAULT_255_1_234
10
15.6863805
20
0.792422
40
0.1878703
50
311.7854996
51
347.2861051
0
ARC
8
DEFAULT_255_1_234
10
15.5879963
20
0.8177092
40
0.2894234
50
346.6893224
51
0.1059443
0
ARC
8
DEFAULT_255_1_234
10
15.5124858
20
0.8205685
40
0.3649409
50
359.6350983
51
0.0053152
0
ARC
8
DEFAULT_255_1_234
10
15.6095187
20
0.8230937
40
0.2679199
50
359.4672059
51
15.5933957
0
ARC
8
DEFAULT_255_1_234
10
15.6720075
20
0.8399779
40
0.2031932
50
15.7442113
51
46.6203375
0
ARC
8
DEFAULT_255_1_234
10
15.6572296
20
0.8229484
40
0.2257226
50
46.8628658
51
75.6676503
0
ARC
8
DEFAULT_255_1_234
10
15.6278117
20
0.7170718
40
0.3355939
50
75.276167
51
88.2915297
0
ARC
8
DEFAULT_255_1_234
10
15.6219823
20
0.6292524
40
0.4235602
50
87.8575022
51
88.8000139
0
LINE
8
DEFAULT_255_1_234
10
16.9231593
20
0.7017327
11
16.9231593
21
0.5089709
0
LINE
8
DEFAULT_255_1_234
10
16.1850425
20
0.4888916
11
16.1850425
21
0.6872755
0
LINE
8
DEFAULT_255_1_234
10
16.7745721
20
0.4688123
11
16.7745721
21
0.7121739
0
LINE
8
DEFAULT_255_1_234
10
16.3336297
20
0.7234184
11
16.3336297
21
0.4856789
0
ARC
8
DEFAULT_255_1_234
10
15.6984482
20
0.5040805
40
1.2247208
50
353.8441951
51
0.2287902
0
ARC
8
DEFAULT_255_1_234
10
16.1623986
20
0.4522806
40
0.7578929
50
344.4934747
51
353.9765454
0
ARC
8
DEFAULT_255_1_234
10
16.4616576
20
0.3671981
40
0.4467846
50
329.2803592
51
344.7472793
0
ARC
8
DEFAULT_255_1_234
10
16.5609401
20
0.3127018
40
0.3336173
50
324.9352394
51
328.6160465
0
ARC
8
DEFAULT_255_1_234
10
16.598651
20
0.2863427
40
0.2876076
50
280.580143
51
324.9173126
0
ARC
8
DEFAULT_255_1_234
10
16.5585302
20
0.4534099
40
0.4592847
50
269.5977311
51
281.6734359
0
ARC
8
DEFAULT_255_1_234
10
16.5513208
20
0.4414173
40
0.4472986
50
256.6228859
51
270.51044
0
ARC
8
DEFAULT_255_1_234
10
16.5111186
20
0.2865877
40
0.2873874
50
215.8618325
51
257.2788573
0
ARC
8
DEFAULT_255_1_234
10
16.6132217
20
0.3550977
40
0.4102928
50
197.9693508
51
215.2623606
0
ARC
8
DEFAULT_255_1_234
10
16.8617333
20
0.4389709
40
0.6725652
50
187.8816417
51
198.2346507
0
ARC
8
DEFAULT_255_1_234
10
17.2575541
20
0.4961079
40
1.0724845
50
180.8976217
51
188.0055519
0
ARC
8
DEFAULT_255_1_234
10
17.5375729
20
0.5064777
40
1.3526448
50
180.7449369
51
181.1510016
0
ARC
8
DEFAULT_255_1_234
10
17.3798459
20
0.6921042
40
1.1948131
50
173.7675579
51
180.231553
0
ARC
8
DEFAULT_255_1_234
10
16.9280605
20
0.7431666
40
0.7401564
50
164.3058563
51
173.9002247
0
ARC
8
DEFAULT_255_1_234
10
16.6368674
20
0.8270656
40
0.4371288
50
148.7922025
51
164.568378
0
ARC
8
DEFAULT_255_1_234
10
16.5417126
20
0.8801929
40
0.3282386
50
144.5883898
51
148.1176286
0
ARC
8
DEFAULT_255_1_234
10
16.5074024
20
0.9041315
40
0.2864044
50
101.6440918
51
144.514236
0
ARC
8
DEFAULT_255_1_234
10
16.5499091
20
0.7352069
40
0.4604934
50
89.5284041
51
102.5819763
0
ARC
8
DEFAULT_255_1_234
10
16.5578179
20
0.7313018
40
0.464401
50
77.0437873
51
90.5081339
0
ARC
8
DEFAULT_255_1_234
10
16.598018
20
0.8955615
40
0.2953195
50
48.2778575
51
77.4994676
0
ARC
8
DEFAULT_255_1_234
10
16.6052812
20
0.9084746
40
0.2808655
50
36.3142134
51
47.6305865
0
ARC
8
DEFAULT_255_1_234
10
16.5184119
20
0.8499515
40
0.3855453
50
18.2931786
51
35.6769206
0
ARC
8
DEFAULT_255_1_234
10
16.2640877
20
0.7626593
40
0.654423
50
8.024666
51
18.5605216
0
ARC
8
DEFAULT_255_1_234
10
15.8477797
20
0.7011792
40
1.0752407
50
1.1274072
51
8.1718305
0
ARC
8
DEFAULT_255_1_234
10
15.5241988
20
0.6884885
40
1.3990231
50
0.5424119
51
1.3863029
0
ARC
8
DEFAULT_255_1_234
10
15.7063366
20
0.7157342
40
1.0682415
50
359.8090433
51
4.9407866
0
ARC
8
DEFAULT_255_1_234
10
16.127338
20
0.7533113
40
0.6455691
50
4.8362157
51
12.2904523
0
ARC
8
DEFAULT_255_1_234
10
16.4028495
20
0.8146965
40
0.3633074
50
12.0805627
51
23.8173984
0
ARC
8
DEFAULT_255_1_234
10
16.52022
20
0.8643919
40
0.2358723
50
24.2871213
51
31.3935614
0
ARC
8
DEFAULT_255_1_234
10
16.5726897
20
0.8987233
40
0.1732111
50
30.7407893
51
82.4657128
0
ARC
8
DEFAULT_255_1_234
10
16.5547031
20
0.8103691
40
0.263235
50
81.1060089
51
90.2184952
0
ARC
8
DEFAULT_255_1_234
10
16.551133
20
0.8361924
40
0.2374236
50
89.3806855
51
105.6762551
0
ARC
8
DEFAULT_255_1_234
10
16.5327961
20
0.9028567
40
0.1682847
50
105.7981136
51
149.7388061
0
ARC
8
DEFAULT_255_1_234
10
16.6392039
20
0.838895
40
0.2924306
50
149.4208916
51
163.6286378
0
ARC
8
DEFAULT_255_1_234
10
16.8482927
20
0.775125
40
0.5110213
50
163.3763315
51
172.1410975
0
ARC
8
DEFAULT_255_1_234
10
17.1783646
20
0.7278518
40
0.8444586
50
172.0259487
51
178.0703232
0
ARC
8
DEFAULT_255_1_234
10
17.4813736
20
0.7134906
40
1.1477868
50
177.8631668
51
179.5044149
0
ARC
8
DEFAULT_255_1_234
10
17.374114
20
0.4820389
40
1.0404907
50
179.7995573
51
185.2460446
0
ARC
8
DEFAULT_255_1_234
10
16.969818
20
0.4437513
40
0.6343885
50
185.1411642
51
193.0079639
0
ARC
8
DEFAULT_255_1_234
10
16.7054652
20
0.3812641
40
0.3627568
50
192.7897626
51
205.2507664
0
ARC
8
DEFAULT_255_1_234
10
16.6008199
20
0.3345415
40
0.2481908
50
205.8005384
51
211.2537509
0
ARC
8
DEFAULT_255_1_234
10
16.548464
20
0.299458
40
0.1852521
50
210.3789793
51
238.4008143
0
ARC
8
DEFAULT_255_1_234
10
16.5465161
20
0.3041376
40
0.1882621
50
239.6520629
51
265.9793761
0
ARC
8
DEFAULT_255_1_234
10
16.5550362
20
0.3713427
40
0.2559272
50
265.1315437
51
270.060332
0
ARC
8
DEFAULT_255_1_234
10
16.557914
20
0.3389534
40
0.2235528
50
269.3314664
51
287.2178029
0
ARC
8
DEFAULT_255_1_234
10
16.5716992
20
0.2886279
40
0.1714108
50
287.7958004
51
329.080874
0
ARC
8
DEFAULT_255_1_234
10
16.4759449
20
0.348393
40
0.2842745
50
328.6634704
51
343.3325132
0
ARC
8
DEFAULT_255_1_234
10
16.2586469
20
0.4160863
40
0.5118644
50
343.0499468
51
351.9393422
0
ARC
8
DEFAULT_255_1_234
10
15.9119769
20
0.4671949
40
0.8622784
50
351.8069023
51
357.7959224
0
ARC
8
DEFAULT_255_1_234
10
15.5884325
20
0.4839721
40
1.1862365
50
357.5871873
51
359.2677531
0
LINE
8
DEFAULT_255_1_234
10
17.8468092
20
0.7017327
11
17.8468092
21
0.5089709
0
LINE
8
DEFAULT_255_1_234
10
17.1086924
20
0.4888916
11
17.1086924
21
0.6872755
0
LINE
8
DEFAULT_255_1_234
10
17.698222
20
0.4688123
11
17.698222
21
0.7121739
0
LINE
8
DEFAULT_255_1_234
10
17.2572796
20
0.7234184
11
17.2572796
21
0.4856789
0
ARC
8
DEFAULT_255_1_234
10
16.6220981
20
0.5040805
40
1.2247208
50
353.8441951
51
0.2287902
0
ARC
8
DEFAULT_255_1_234
10
17.0860485
20
0.4522806
40
0.7578929
50
344.4934747
51
353.9765454
0
ARC
8
DEFAULT_255_1_234
10
17.3853075
20
0.3671981
40
0.4467846
50
329.2803592
51
344.7472793
0
ARC
8
DEFAULT_255_1_234
10
17.48459
20
0.3127018
40
0.3336173
50
324.9352394
51
328.6160465
0
ARC
8
DEFAULT_255_1_234
10
17.5223009
20
0.2863427
40
0.2876076
50
280.580143
51
324.9173126
0
ARC
8
DEFAULT_255_1_234
10
17.4821801
20
0.4534099
40
0.4592847
50
269.5977311
51
281.6734359
0
ARC
8
DEFAULT_255_1_234
10
17.4749707
20
0.4414173
40
0.4472986
50
256.6228859
51
270.51044
0
ARC
8
DEFAULT_255_1_234
10
17.4347685
20
0.2865877
40
0.2873874
50
215.8618325
51
257.2788573
0
ARC
8
DEFAULT_255_1_234
10
17.5368716
20
0.3550977
40
0.4102928
50
197.9693508
51
215.2623606
0
ARC
8
DEFAULT_255_1_234
10
17.7853832
20
0.4389709
40
0.6725652
50
187.8816417
51
198.2346507
0
ARC
8
DEFAULT_255_1_234
10
18.181204
20
0.4961079
40
1.0724845
50
180.8976217
51
188.0055519
0
ARC
8
DEFAULT_255_1_234
10
18.4612228
20
0.5064777
40
1.3526448
50
180.7449369
51
181.1510016
0
ARC
8
DEFAULT_255_1_234
10
18.3034958
20
0.6921042
40
1.1948131
50
173.7675579
51
180.231553
0
ARC
8
DEFAULT_255_1_234
10
17.8517104
20
0.7431666
40
0.7401564
50
164.3058563
51
173.9002247
0
ARC
8
DEFAULT_255_1_234
10
17.5605173
20
0.8270656
40
0.4371288
50
148.7922025
51
164.568378
0
ARC
8
DEFAULT_255_1_234
10
17.4653625
20
0.8801929
40
0.3282386
50
144.5883898
51
148.1176286
0
ARC
8
DEFAULT_255_1_234
10
17.4310523
20
0.9041315
40
0.2864044
50
101.6440918
51
144.514236
0
ARC
8
DEFAULT_255_1_234
10
17.473559
20
0.7352069
40
0.4604934
50
89.5284041
51
102.5819763
0
ARC
8
DEFAULT_255_1_234
10
17.4814678
20
0.7313018
40
0.464401
50
77.0437873
51
90.5081339
0
ARC
8
DEFAULT_255_1_234
10
17.5216679
20
0.8955615
40
0.2953195
50
48.2778575
51
77.4994676
0
ARC
8
DEFAULT_255_1_234
10
17.5289311
20
0.9084746
40
0.2808655
50
36.3142134
51
47.6305865
0
ARC
8
DEFAULT_255_1_234
10
17.4420618
20
0.8499515
40
0.3855453
50
18.2931786
51
35.6769206
0
ARC
8
DEFAULT_255_1_234
10
17.1877376
20
0.7626593
40
0.654423
50
8.024666
51
18.5605216
0
ARC
8
DEFAULT_255_1_234
10
16.7714296
20
0.7011792
40
1.0752407
50
1.1274072
51
8.1718305
0
ARC
8
DEFAULT_255_1_234
10
16.4478487
20
0.6884885
40
1.3990231
50
0.5424119
51
1.3863029
0
ARC
8
DEFAULT_255_1_234
10
16.6299865
20
0.7157342
40
1.0682415
50
359.8090433
51
4.9407866
0
ARC
8
DEFAULT_255_1_234
10
17.0509879
20
0.7533113
40
0.6455691
50
4.8362157
51
12.2904523
0
ARC
8
DEFAULT_255_1_234
10
17.3264994
20
0.8146965
40
0.3633074
50
12.0805627
51
23.8173984
0
ARC
8
DEFAULT_255_1_234
10
17.4438699
20
0.8643919
40
0.2358723
50
24.2871213
51
31.3935614
0
ARC
8
DEFAULT_255_1_234
10
17.4963396
20
0.8987233
40
0.1732111
50
30.7407893
51
82.4657128
0
ARC
8
DEFAULT_255_1_234
10
17.4783531
20
0.8103691
40
0.263235
50
81.1060089
51
90.2184952
0
ARC
8
DEFAULT_255_1_234
10
17.4747829
20
0.8361924
40
0.2374236
50
89.3806855
51
105.6762551
0
ARC
8
DEFAULT_255_1_234
10
17.456446
20
0.9028567
40
0.1682847
50
105.7981136
51
149.7388061
0
ARC
8
DEFAULT_255_1_234
10
17.5628538
20
0.838895
40
0.2924306
50
149.4208916
51
163.6286378
0
ARC
8
DEFAULT_255_1_234
10
17.7719426
20
0.775125
40
0.5110213
50
163.3763315
51
172.1410975
0
ARC
8
DEFAULT_255_1_234
10
18.1020145
20
0.7278518
40
0.8444586
50
172.0259487
51
178.0703232
0
ARC
8
DEFAULT_255_1_234
10
18.4050235
20
0.7134906
40
1.1477868
50
177.8631668
51
179.5044149
0
ARC
8
DEFAULT_255_1_234
10
18.2977639
20
0.4820389
40
1.0404907
50
179.7995573
51
185.2460446
0
ARC
8
DEFAULT_255_1_234
10
17.8934679
20
0.4437513
40
0.6343885
50
185.1411642
51
193.0079639
0
ARC
8
DEFAULT_255_1_234
10
17.6291151
20
0.3812641
40
0.3627568
50
192.7897626
51
205.2507664
0
ARC
8
DEFAULT_255_1_234
10
17.5244698
20
0.3345415
40
0.2481908
50
205.8005384
51
211.2537509
0
ARC
8
DEFAULT_255_1_234
10
17.4721139
20
0.299458
40
0.1852521
50
210.3789793
51
238.4008143
0
ARC
8
DEFAULT_255_1_234
10
17.470166
20
0.3041376
40
0.1882621
50
239.6520629
51
265.9793761
0
ARC
8
DEFAULT_255_1_234
10
17.4786861
20
0.3713427
40
0.2559272
50
265.1315437
51
270.060332
0
ARC
8
DEFAULT_255_1_234
10
17.4815639
20
0.3389534
40
0.2235528
50
269.3314664
51
287.2178029
0
ARC
8
DEFAULT_255_1_234
10
17.4953491
20
0.2886279
40
0.1714108
50
287.7958004
51
329.080874
0
ARC
8
DEFAULT_255_1_234
10
17.3995948
20
0.348393
40
0.2842745
50
328.6634704
51
343.3325132
0
ARC
8
DEFAULT_255_1_234
10
17.1822968
20
0.4160863
40
0.5118644
50
343.0499468
51
351.9393422
0
ARC
8
DEFAULT_255_1_234
10
16.8356268
20
0.4671949
40
0.8622784
50
351.8069023
51
357.7959224
0
ARC
8
DEFAULT_255_1_234
10
16.5120824
20
0.4839721
40
1.1862365
50
357.5871873
51
359.2677531
0
LINE
8
DEFAULT_255_1_234
10
18.3616436
20
0.5676026
11
18.3616436
21
0.4463234
0
LINE
8
DEFAULT_255_1_234
10
18.3616436
20
0.4463234
11
17.9696948
21
0.4463234
0
LINE
8
DEFAULT_255_1_234
10
17.9696948
20
0.4463234
11
17.9696948
21
0.5676026
0
LINE
8
DEFAULT_255_1_234
10
17.9696948
20
0.5676026
11
18.3616436
21
0.5676026
0
LINE
8
DEFAULT_255_1_234
10
19.2242523
20
0.7017327
11
19.2242523
21
0.5089709
0
LINE
8
DEFAULT_255_1_234
10
18.4861355
20
0.4888916
11
18.4861355
21
0.6872755
0
LINE
8
DEFAULT_255_1_234
10
19.0756651
20
0.4688123
11
19.0756651
21
0.7121739
0
LINE
8
DEFAULT_255_1_234
10
18.6347227
20
0.7234184
11
18.6347227
21
0.4856789
0
ARC
8
DEFAULT_255_1_234
10
17.9995413
20
0.5040805
40
1.2247208
50
353.8441951
51
0.2287902
0
ARC
8
DEFAULT_255_1_234
10
18.4634916
20
0.4522806
40
0.7578929
50
344.4934747
51
353.9765454
0
ARC
8
DEFAULT_255_1_234
10
18.7627506
20
0.3671981
40
0.4467846
50
329.2803592
51
344.7472793
0
ARC
8
DEFAULT_255_1_234
10
18.8620331
20
0.3127018
40
0.3336173
50
324.9352394
51
328.6160465
0
ARC
8
DEFAULT_255_1_234
10
18.899744
20
0.2863427
40
0.2876076
50
280.580143
51
324.9173126
0
ARC
8
DEFAULT_255_1_234
10
18.8596233
20
0.4534099
40
0.4592847
50
269.5977311
51
281.6734359
0
ARC
8
DEFAULT_255_1_234
10
18.8524138
20
0.4414173
40
0.4472986
50
256.6228859
51
270.51044
0
ARC
8
DEFAULT_255_1_234
10
18.8122116
20
0.2865877
40
0.2873874
50
215.8618325
51
257.2788573
0
ARC
8
DEFAULT_255_1_234
10
18.9143148
20
0.3550977
40
0.4102928
50
197.9693508
51
215.2623606
0
ARC
8
DEFAULT_255_1_234
10
19.1628263
20
0.4389709
40
0.6725652
50
187.8816417
51
198.2346507
0
ARC
8
DEFAULT_255_1_234
10
19.5586471
20
0.4961079
40
1.0724845
50
180.8976217
51
188.0055519
0
ARC
8
DEFAULT_255_1_234
10
19.838666
20
0.5064777
40
1.3526448
50
180.7449369
51
181.1510016
0
ARC
8
DEFAULT_255_1_234
10
19.6809389
20
0.6921042
40
1.1948131
50
173.7675579
51
180.231553
0
ARC
8
DEFAULT_255_1_234
10
19.2291535
20
0.7431666
40
0.7401564
50
164.3058563
51
173.9002247
0
ARC
8
DEFAULT_255_1_234
10
18.9379604
20
0.8270656
40
0.4371288
50
148.7922025
51
164.568378
0
ARC
8
DEFAULT_255_1_234
10
18.8428056
20
0.8801929
40
0.3282386
50
144.5883898
51
148.1176286
0
ARC
8
DEFAULT_255_1_234
10
18.8084954
20
0.9041315
40
0.2864044
50
101.6440918
51
144.514236
0
ARC
8
DEFAULT_255_1_234
10
18.8510021
20
0.7352069
40
0.4604934
50
89.5284041
51
102.5819763
0
ARC
8
DEFAULT_255_1_234
10
18.8589109
20
0.7313018
40
0.464401
50
77.0437873
51
90.5081339
0
ARC
8
DEFAULT_255_1_234
10
18.899111
20
0.8955615
40
0.2953195
50
48.2778575
51
77.4994676
0
ARC
8
DEFAULT_255_1_234
10
18.9063742
20
0.9084746
40
0.2808655
50
36.3142134
51
47.6305865
0
ARC
8
DEFAULT_255_1_234
10
18.8195049
20
0.8499515
40
0.3855453
50
18.2931786
51
35.6769206
0
ARC
8
DEFAULT_255_1_234
10
18.5651808
20
0.7626593
40
0.654423
50
8.024666
51
18.5605216
0
ARC
8
DEFAULT_255_1_234
10
18.1488728
20
0.7011792
40
1.0752407
50
1.1274072
51
8.1718305
0
ARC
8
DEFAULT_255_1_234
10
17.8252918
20
0.6884885
40
1.3990231
50
0.5424119
51
1.3863029
0
ARC
8
DEFAULT_255_1_234
10
18.0074296
20
0.7157342
40
1.0682415
50
359.8090433
51
4.9407866
0
ARC
8
DEFAULT_255_1_234
10
18.428431
20
0.7533113
40
0.6455691
50
4.8362157
51
12.2904523
0
ARC
8
DEFAULT_255_1_234
10
18.7039425
20
0.8146965
40
0.3633074
50
12.0805627
51
23.8173984
0
ARC
8
DEFAULT_255_1_234
10
18.821313
20
0.8643919
40
0.2358723
50
24.2871213
51
31.3935614
0
ARC
8
DEFAULT_255_1_234
10
18.8737827
20
0.8987233
40
0.1732111
50
30.7407893
51
82.4657128
0
ARC
8
DEFAULT_255_1_234
10
18.8557962
20
0.8103691
40
0.263235
50
81.1060089
51
90.2184952
0
ARC
8
DEFAULT_255_1_234
10
18.8522261
20
0.8361924
40
0.2374236
50
89.3806855
51
105.6762551
0
ARC
8
DEFAULT_255_1_234
10
18.8338891
20
0.9028567
40
0.1682847
50
105.7981136
51
149.7388061
0
ARC
8
DEFAULT_255_1_234
10
18.9402969
20
0.838895
40
0.2924306
50
149.4208916
51
163.6286378
0
ARC
8
DEFAULT_255_1_234
10
19.1493858
20
0.775125
40
0.5110213
50
163.3763315
51
172.1410975
0
ARC
8
DEFAULT_255_1_234
10
19.4794576
20
0.7278518
40
0.8444586
50
172.0259487
51
178.0703232
0
ARC
8
DEFAULT_255_1_234
10
19.7824666
20
0.7134906
40
1.1477868
50
177.8631668
51
179.5044149
0
ARC
8
DEFAULT_255_1_234
10
19.675207
20
0.4820389
40
1.0404907
50
179.7995573
51
185.2460446
0
ARC
8
DEFAULT_255_1_234
10
19.270911
20
0.4437513
40
0.6343885
50
185.1411642
51
193.0079639
0
ARC
8
DEFAULT_255_1_234
10
19.0065582
20
0.3812641
40
0.3627568
50
192.7897626
51
205.2507664
0
ARC
8
DEFAULT_255_1_234
10
18.9019129
20
0.3345415
40
0.2481908
50
205.8005384
51
211.2537509
0
ARC
8
DEFAULT_255_1_234
10
18.849557
20
0.299458
40
0.1852521
50
210.3789793
51
238.4008143
0
ARC
8
DEFAULT_255_1_234
10
18.8476092
20
0.3041376
40
0.1882621
50
239.6520629
51
265.9793761
0
ARC
8
DEFAULT_255_1_234
10
18.8561292
20
0.3713427
40
0.2559272
50
265.1315437
51
270.060332
0
ARC
8
DEFAULT_255_1_234
10
18.8590071
20
0.3389534
40
0.2235528
50
269.3314664
51
287.2178029
0
ARC
8
DEFAULT_255_1_234
10
18.8727923
20
0.2886279
40
0.1714108
50
287.7958004
51
329.080874
0
ARC
8
DEFAULT_255_1_234
10
18.7770379
20
0.348393
40
0.2842745
50
328.6634704
51
343.3325132
0
ARC
8
DEFAULT_255_1_234
10
18.5597399
20
0.4160863
40
0.5118644
50
343.0499468
51
351.9393422
0
ARC
8
DEFAULT_255_1_234
10
18.2130699
20
0.4671949
40
0.8622784
50
351.8069023
51
357.7959224
0
ARC
8
DEFAULT_255_1_234
10
17.8895255
20
0.4839721
40
1.1862365
50
357.5871873
51
359.2677531
0
LINE
8
DEFAULT_255_1_234
10
20.2105498
20
0.0102
11
20.0989086
21
0.3154061
0
LINE
8
DEFAULT_255_1_234
10
20.0989086
20
0.3154061
11
19.6089726
21
0.3154061
0
LINE
8
DEFAULT_255_1_234
10
19.6089726
20
0.3154061
11
19.4989377
21
0.0102
0
LINE
8
DEFAULT_255_1_234
10
19.4989377
20
0.0102
11
19.3399093
21
0.0102
0
LINE
8
DEFAULT_255_1_234
10
19.3399093
20
0.0102
11
19.786474
21
1.1796211
0
LINE
8
DEFAULT_255_1_234
10
19.786474
20
1.1796211
11
19.9214072
21
1.1796211
0
LINE
8
DEFAULT_255_1_234
10
19.9214072
20
1.1796211
11
20.368775
21
0.0102
0
LINE
8
DEFAULT_255_1_234
10
20.368775
20
0.0102
11
20.2105498
21
0.0102
0
LINE
8
DEFAULT_255_1_234
10
19.8539406
20
0.9892689
11
19.6555566
21
0.4423075
0
LINE
8
DEFAULT_255_1_234
10
19.6555566
20
0.4423075
11
20.0531277
21
0.4423075
0
LINE
8
DEFAULT_255_1_234
10
20.0531277
20
0.4423075
11
19.8539406
21
0.9892689
0
LINE
8
DEFAULT_255_1_234
10
20.9317999
20
0.0102
11
20.5261971
21
0.0102
0
LINE
8
DEFAULT_255_1_234
10
20.5261971
20
0.0102
11
20.5261971
21
1.1796211
0
LINE
8
DEFAULT_255_1_234
10
20.5261971
20
1.1796211
11
20.9085078
21
1.1796211
0
LINE
8
DEFAULT_255_1_234
10
20.9374221
20
0.5571614
11
20.6804064
21
0.5571614
0
LINE
8
DEFAULT_255_1_234
10
20.6804064
20
0.5571614
11
20.6804064
21
0.1362983
0
LINE
8
DEFAULT_255_1_234
10
20.6804064
20
0.1362983
11
20.9350125
21
0.1362983
0
LINE
8
DEFAULT_255_1_234
10
20.6804064
20
1.0527196
11
20.6804064
21
0.6808501
0
LINE
8
DEFAULT_255_1_234
10
20.6804064
20
0.6808501
11
20.9133269
21
0.6808501
0
LINE
8
DEFAULT_255_1_234
10
20.9085078
20
1.0527196
11
20.6804064
21
1.0527196
0
ARC
8
DEFAULT_255_1_234
10
20.9122787
20
0.4428901
40
0.7367406
50
82.1257326
51
90.2932599
0
ARC
8
DEFAULT_255_1_234
10
20.9511742
20
0.7147013
40
0.4621653
50
69.9044149
51
82.2857423
0
ARC
8
DEFAULT_255_1_234
10
21.008242
20
0.8689637
40
0.2976871
50
51.1838526
51
70.0181538
0
ARC
8
DEFAULT_255_1_234
10
21.0337386
20
0.906024
40
0.2528517
50
12.1017251
51
50.4214761
0
ARC
8
DEFAULT_255_1_234
10
20.8953259
20
0.8712676
40
0.3955061
50
359.5251267
51
12.8211707
0
ARC
8
DEFAULT_255_1_234
10
21.0533186
20
0.8643344
40
0.2375281
50
323.4908128
51
0.8817314
0
ARC
8
DEFAULT_255_1_234
10
21.0114873
20
0.896655
40
0.2903817
50
298.6825083
51
323.2756573
0
ARC
8
DEFAULT_255_1_234
10
20.9753236
20
0.9567649
40
0.3604842
50
293.1999386
51
299.1396394
0
ARC
8
DEFAULT_255_1_234
10
21.0426209
20
0.3482126
40
0.2871098
50
54.0011765
51
74.9167975
0
ARC
8
DEFAULT_255_1_234
10
21.0542568
20
0.3679332
40
0.2643248
50
36.3580696
51
53.5291921
0
ARC
8
DEFAULT_255_1_234
10
21.041581
20
0.3588998
40
0.2798884
50
4.8189881
51
36.3089977
0
ARC
8
DEFAULT_255_1_234
10
20.9636645
20
0.347927
40
0.358478
50
359.9370252
51
5.5204067
0
ARC
8
DEFAULT_255_1_234
10
20.9312167
20
0.3438667
40
0.3909429
50
344.7478609
51
0.5373281
0
ARC
8
DEFAULT_255_1_234
10
21.0303138
20
0.3171544
40
0.2883093
50
311.1786488
51
344.6886812
0
ARC
8
DEFAULT_255_1_234
10
21.0011185
20
0.3534987
40
0.3348923
50
286.0418249
51
310.8441291
0
ARC
8
DEFAULT_255_1_234
10
20.9504017
20
0.5181807
40
0.5071869
50
274.1042341
51
286.4071509
0
ARC
8
DEFAULT_255_1_234
10
20.9327273
20
0.7065229
40
0.6963234
50
269.9236873
51
274.445647
0
ARC
8
DEFAULT_255_1_234
10
20.9373274
20
0.4725537
40
0.3362634
50
269.6055768
51
281.3740047
0
ARC
8
DEFAULT_255_1_234
10
20.9603912
20
0.3632353
40
0.224546
50
281.1055983
51
302.5132223
0
ARC
8
DEFAULT_255_1_234
10
20.9750811
20
0.3368823
40
0.1944357
50
303.0368945
51
311.8811219
0
ARC
8
DEFAULT_255_1_234
10
20.9822218
20
0.328389
40
0.1833454
50
311.9916004
51
351.7143462
0
ARC
8
DEFAULT_255_1_234
10
20.9005448
20
0.344893
40
0.2665871
50
350.7339597
51
0.2221581
0
ARC
8
DEFAULT_255_1_234
10
20.8897894
20
0.3505467
40
0.2773789
50
359.0456241
51
17.2296242
0
ARC
8
DEFAULT_255_1_234
10
20.9937011
20
0.3814163
40
0.1689915
50
17.6685481
51
78.9940892
0
ARC
8
DEFAULT_255_1_234
10
20.9420175
20
0.1959224
40
0.3612658
50
76.5635957
51
90.6980921
0
LINE
8
DEFAULT_255_1_234
10
20.9376159
20
0.5571613
11
20.9374221
21
0.5571614
0
ARC
8
DEFAULT_255_1_234
10
20.9155835
20
1.0094036
40
0.3285612
50
269.6064736
51
281.4533503
0
ARC
8
DEFAULT_255_1_234
10
20.9378655
20
0.9042688
40
0.2210975
50
281.2041486
51
302.5148063
0
ARC
8
DEFAULT_255_1_234
10
20.9515505
20
0.8796241
40
0.1929674
50
303.021671
51
309.8369575
0
ARC
8
DEFAULT_255_1_234
10
20.9698966
20
0.8590488
40
0.1654181
50
309.5228395
51
356.9509836
0
ARC
8
DEFAULT_255_1_234
10
20.9035549
20
0.8685932
40
0.2322512
50
355.4701227
51
0.0492546
0
ARC
8
DEFAULT_255_1_234
10
20.875664
20
0.8708094
40
0.2601498
50
359.5558597
51
11.2096359
0
ARC
8
DEFAULT_255_1_234
10
20.971393
20
0.890623
40
0.1623975
50
10.9182341
51
31.3230275
0
ARC
8
DEFAULT_255_1_234
10
20.9999663
20
0.9065214
40
0.1297302
50
31.8852677
51
52.1412565
0
ARC
8
DEFAULT_255_1_234
10
20.9725396
20
0.867775
40
0.1771663
50
52.8285564
51
71.9850297
0
ARC
8
DEFAULT_255_1_234
10
20.9349572
20
0.7571664
40
0.2939794
50
71.6863486
51
82.8455995
0
ARC
8
DEFAULT_255_1_234
10
20.9110108
20
0.5762149
40
0.476506
50
82.6984714
51
90.1729175
0
ARC
8
DEFAULT_255_1_234
10
20.9087743
20
0.6985623
40
0.3541573
50
89.8708275
51
90.0431131
0
LINE
8
DEFAULT_255_1_234
10
22.2449891
20
0.7017327
11
22.2449891
21
0.5089709
0
LINE
8
DEFAULT_255_1_234
10
21.5068723
20
0.4888916
11
21.5068723
21
0.6872755
0
LINE
8
DEFAULT_255_1_234
10
22.0964019
20
0.4688123
11
22.0964019
21
0.7121739
0
LINE
8
DEFAULT_255_1_234
10
21.6554595
20
0.7234184
11
21.6554595
21
0.4856789
0
ARC
8
DEFAULT_255_1_234
10
21.020278
20
0.5040805
40
1.2247208
50
353.8441951
51
0.2287902
0
ARC
8
DEFAULT_255_1_234
10
21.4842284
20
0.4522806
40
0.7578929
50
344.4934747
51
353.9765454
0
ARC
8
DEFAULT_255_1_234
10
21.7834874
20
0.3671981
40
0.4467846
50
329.2803592
51
344.7472793
0
ARC
8
DEFAULT_255_1_234
10
21.8827699
20
0.3127018
40
0.3336173
50
324.9352394
51
328.6160465
0
ARC
8
DEFAULT_255_1_234
10
21.9204808
20
0.2863427
40
0.2876076
50
280.580143
51
324.9173126
0
ARC
8
DEFAULT_255_1_234
10
21.88036
20
0.4534099
40
0.4592847
50
269.5977311
51
281.6734359
0
ARC
8
DEFAULT_255_1_234
10
21.8731506
20
0.4414173
40
0.4472986
50
256.6228859
51
270.51044
0
ARC
8
DEFAULT_255_1_234
10
21.8329484
20
0.2865877
40
0.2873874
50
215.8618325
51
257.2788573
0
ARC
8
DEFAULT_255_1_234
10
21.9350515
20
0.3550977
40
0.4102928
50
197.9693508
51
215.2623606
0
ARC
8
DEFAULT_255_1_234
10
22.1835631
20
0.4389709
40
0.6725652
50
187.8816417
51
198.2346507
0
ARC
8
DEFAULT_255_1_234
10
22.5793839
20
0.4961079
40
1.0724845
50
180.8976217
51
188.0055519
0
ARC
8
DEFAULT_255_1_234
10
22.8594027
20
0.5064777
40
1.3526448
50
180.7449369
51
181.1510016
0
ARC
8
DEFAULT_255_1_234
10
22.7016756
20
0.6921042
40
1.1948131
50
173.7675579
51
180.231553
0
ARC
8
DEFAULT_255_1_234
10
22.2498903
20
0.7431666
40
0.7401564
50
164.3058563
51
173.9002247
0
ARC
8
DEFAULT_255_1_234
10
21.9586972
20
0.8270656
40
0.4371288
50
148.7922025
51
164.568378
0
ARC
8
DEFAULT_255_1_234
10
21.8635424
20
0.8801929
40
0.3282386
50
144.5883898
51
148.1176286
0
ARC
8
DEFAULT_255_1_234
10
21.8292322
20
0.9041315
40
0.2864044
50
101.6440918
51
144.514236
0
ARC
8
DEFAULT_255_1_234
10
21.8717389
20
0.7352069
40
0.4604934
50
89.5284041
51
102.5819763
0
ARC
8
DEFAULT_255_1_234
10
21.8796476
20
0.7313018
40
0.464401
50
77.0437873
51
90.5081339
0
ARC
8
DEFAULT_255_1_234
10
21.9198478
20
0.8955615
40
0.2953195
50
48.2778575
51
77.4994676
0
ARC
8
DEFAULT_255_1_234
10
21.9271109
20
0.9084746
40
0.2808655
50
36.3142134
51
47.6305865
0
ARC
8
DEFAULT_255_1_234
10
21.8402416
20
0.8499515
40
0.3855453
50
18.2931786
51
35.6769206
0
ARC
8
DEFAULT_255_1_234
10
21.5859175
20
0.7626593
40
0.654423
50
8.024666
51
18.5605216
0
ARC
8
DEFAULT_255_1_234
10
21.1696095
20
0.7011792
40
1.0752407
50
1.1274072
51
8.1718305
0
ARC
8
DEFAULT_255_1_234
10
20.8460286
20
0.6884885
40
1.3990231
50
0.5424119
51
1.3863029
0
ARC
8
DEFAULT_255_1_234
10
21.0281664
20
0.7157342
40
1.0682415
50
359.8090433
51
4.9407866
0
ARC
8
DEFAULT_255_1_234
10
21.4491678
20
0.7533113
40
0.6455691
50
4.8362157
51
12.2904523
0
ARC
8
DEFAULT_255_1_234
10
21.7246793
20
0.8146965
40
0.3633074
50
12.0805627
51
23.8173984
0
ARC
8
DEFAULT_255_1_234
10
21.8420498
20
0.8643919
40
0.2358723
50
24.2871213
51
31.3935614
0
ARC
8
DEFAULT_255_1_234
10
21.8945195
20
0.8987233
40
0.1732111
50
30.7407893
51
82.4657128
0
ARC
8
DEFAULT_255_1_234
10
21.8765329
20
0.8103691
40
0.263235
50
81.1060089
51
90.2184952
0
ARC
8
DEFAULT_255_1_234
10
21.8729628
20
0.8361924
40
0.2374236
50
89.3806855
51
105.6762551
0
ARC
8
DEFAULT_255_1_234
10
21.8546259
20
0.9028567
40
0.1682847
50
105.7981136
51
149.7388061
0
ARC
8
DEFAULT_255_1_234
10
21.9610337
20
0.838895
40
0.2924306
50
149.4208916
51
163.6286378
0
ARC
8
DEFAULT_255_1_234
10
22.1701225
20
0.775125
40
0.5110213
50
163.3763315
51
172.1410975
0
ARC
8
DEFAULT_255_1_234
10
22.5001944
20
0.7278518
40
0.8444586
50
172.0259487
51
178.0703232
0
ARC
8
DEFAULT_255_1_234
10
22.8032034
20
0.7134906
40
1.1477868
50
177.8631668
51
179.5044149
0
ARC
8
DEFAULT_255_1_234
10
22.6959438
20
0.4820389
40
1.0404907
50
179.7995573
51
185.2460446
0
ARC
8
DEFAULT_255_1_234
10
22.2916478
20
0.4437513
40
0.6343885
50
185.1411642
51
193.0079639
0
ARC
8
DEFAULT_255_1_234
10
22.027295
20
0.3812641
40
0.3627568
50
192.7897626
51
205.2507664
0
ARC
8
DEFAULT_255_1_234
10
21.9226497
20
0.3345415
40
0.2481908
50
205.8005384
51
211.2537509
0
ARC
8
DEFAULT_255_1_234
10
21.8702938
20
0.299458
40
0.1852521
50
210.3789793
51
238.4008143
0
ARC
8
DEFAULT_255_1_234
10
21.8683459
20
0.3041376
40
0.1882621
50
239.6520629
51
265.9793761
0
ARC
8
DEFAULT_255_1_234
10
21.876866
20
0.3713427
40
0.2559272
50
265.1315437
51
270.060332
0
ARC
8
DEFAULT_255_1_234
10
21.8797438
20
0.3389534
40
0.2235528
50
269.3314664
51
287.2178029
0
ARC
8
DEFAULT_255_1_234
10
21.893529
20
0.2886279
40
0.1714108
50
287.7958004
51
329.080874
0
ARC
8
DEFAULT_255_1_234
10
21.7977747
20
0.348393
40
0.2842745
50
328.6634704
51
343.3325132
0
ARC
8
DEFAULT_255_1_234
10
21.5804767
20
0.4160863
40
0.5118644
50
343.0499468
51
351.9393422
0
ARC
8
DEFAULT_255_1_234
10
21.2338067
20
0.4671949
40
0.8622784
50
351.8069023
51
357.7959224
0
ARC
8
DEFAULT_255_1_234
10
20.9102623
20
0.4839721
40
1.1862365
50
357.5871873
51
359.2677531
0
ARC
8
DEFAULT_255_2_778
10
7.7537439
20
60.2323128
40
3.0466403
50
251.6724781
51
258.5987661
0
ARC
8
DEFAULT_255_2_778
10
7.5394558
20
59.1511316
40
1.9444375
50
258.4907215
51
268.3974115
0
ARC
8
DEFAULT_255_2_778
10
7.5171542
20
58.7204995
40
1.5133848
50
268.7854544
51
269.9953942
0
ARC
8
DEFAULT_255_2_778
10
7.5274263
20
58.2711726
40
1.0641086
50
269.4403512
51
279.6841037
0
ARC
8
DEFAULT_255_2_778
10
7.6415978
20
57.6416567
40
0.4244099
50
278.7863046
51
300.3428271
0
ARC
8
DEFAULT_255_2_778
10
7.7606279
20
57.43903
40
0.1894089
50
300.2328316
51
1.9014863
0
ARC
8
DEFAULT_255_2_778
10
7.745908
20
57.4481715
40
0.2040445
50
359.1977832
51
359.9996968
0
ARC
8
DEFAULT_255_2_778
10
7.752475
20
57.4490013
40
0.1974794
50
359.7589479
51
47.2071953
0
ARC
8
DEFAULT_255_2_778
10
7.618413
20
57.3000429
40
0.3978723
50
47.6130098
51
60.824453
0
ARC
8
DEFAULT_255_2_778
10
7.0178997
20
56.2830677
40
1.5788249
50
59.7878046
51
64.8721208
0
ARC
8
DEFAULT_255_2_778
10
6.0919837
20
54.3518461
40
3.7205057
50
64.5916011
51
66.820345
0
ARC
8
DEFAULT_255_2_778
10
9.6372482
20
62.7099609
40
5.3584611
50
244.3087082
51
247.1497851
0
ARC
8
DEFAULT_255_2_778
10
8.548378
20
60.454372
40
2.8538059
50
240.2312866
51
244.3765687
0
ARC
8
DEFAULT_255_2_778
10
7.7790999
20
59.1199805
40
1.3135689
50
233.2094737
51
240.4596791
0
ARC
8
DEFAULT_255_2_778
10
7.3558445
20
58.5499409
40
0.603585
50
225.678902
51
232.9782433
0
ARC
8
DEFAULT_255_2_778
10
7.396101
20
58.5747518
40
0.6495632
50
178.2741582
51
224.667467
0
ARC
8
DEFAULT_255_2_778
10
7.506051
20
58.6081559
40
0.7593447
50
157.036112
51
181.044431
0
ARC
8
DEFAULT_255_2_778
10
7.3786854
20
58.6489246
40
0.6262846
50
124.9253006
51
155.9241303
0
ARC
8
DEFAULT_255_2_778
10
7.5959789
20
58.3405358
40
1.0035357
50
100.4079723
51
125.0168617
0
ARC
8
DEFAULT_255_2_778
10
7.6990521
20
57.8464723
40
1.5081396
50
89.6483922
51
100.8684975
0
ARC
8
DEFAULT_255_2_778
10
7.7082565
20
57.4942665
40
1.8603169
50
89.5079487
51
89.9984402
0
ARC
8
DEFAULT_255_2_778
10
7.7098896
20
57.4290371
40
1.9255311
50
83.9170631
51
89.5732113
0
ARC
8
DEFAULT_255_2_778
10
7.507084
20
55.4214635
40
3.9433074
50
80.7325723
51
84.0779772
0
ARC
8
DEFAULT_255_2_778
10
7.020778
20
52.3985497
40
7.0050837
50
78.5086351
51
80.7886813
0
ARC
8
DEFAULT_255_2_778
10
7.66195
20
56.9980221
40
1.9415426
50
67.135818
51
78.0934208
0
ARC
8
DEFAULT_255_2_778
10
7.7851137
20
57.5684486
40
1.3579807
50
78.2126325
51
89.7333975
0
ARC
8
DEFAULT_255_2_778
10
7.7793169
20
57.9828048
40
0.9436877
50
89.2643807
51
100.5577599
0
ARC
8
DEFAULT_255_2_778
10
7.6665349
20
58.5515957
40
0.3639224
50
99.5099416
51
124.0285213
0
ARC
8
DEFAULT_255_2_778
10
7.57032
20
58.7016933
40
0.1857341
50
125.3416971
51
182.2767689
0
ARC
8
DEFAULT_255_2_778
10
7.5498732
20
58.6950853
40
0.1651425
50
180.2673353
51
239.6912529
0
ARC
8
DEFAULT_255_2_778
10
7.9317524
20
59.293404
40
0.8748407
50
237.8744287
51
242.8176978
0
ARC
8
DEFAULT_255_2_778
10
9.4128979
20
62.1040997
40
4.0518771
50
242.3429481
51
244.0446069
0
ARC
8
DEFAULT_255_2_778
10
12.366878
20
68.1379499
40
10.7700062
50
243.963828
51
244.8175572
0
ARC
8
DEFAULT_255_2_778
10
15.3890528
20
74.5296513
40
17.8401724
50
244.7685545
51
244.971514
0
ARC
8
DEFAULT_255_2_778
10
5.8608283
20
54.0348652
40
4.7613433
50
62.2451122
51
65.4192096
0
ARC
8
DEFAULT_255_2_778
10
6.9253351
20
56.046774
40
2.4851839
50
57.2979848
51
62.3628589
0
ARC
8
DEFAULT_255_2_778
10
7.6799627
20
57.212458
40
1.0965802
50
48.7493094
51
57.571194
0
ARC
8
DEFAULT_255_2_778
10
8.0114821
20
57.6007759
40
0.586081
50
44.3424824
51
48.0852666
0
ARC
8
DEFAULT_255_2_778
10
7.9782325
20
57.5812146
40
0.6236013
50
1.3523843
51
43.4925744
0
ARC
8
DEFAULT_255_2_778
10
7.7102854
20
57.5482828
40
0.8926473
50
359.9763756
51
3.0599076
0
ARC
8
DEFAULT_255_2_778
10
7.8642098
20
57.5331968
40
0.7388693
50
333.0409438
51
1.1413791
0
ARC
8
DEFAULT_255_2_778
10
7.8947469
20
57.5400035
40
0.7150136
50
300.8436672
51
331.44521
0
ARC
8
DEFAULT_255_2_778
10
7.6945587
20
57.8540479
40
1.0873327
50
281.4188469
51
301.4162372
0
ARC
8
DEFAULT_255_2_778
10
7.5631994
20
58.4628698
40
1.7101299
50
270.2272327
51
281.6944092
0
ARC
8
DEFAULT_255_2_778
10
7.5453128
20
58.9385692
40
2.185955
50
269.9983113
51
270.6466065
0
LINE
8
DEFAULT_255_2_778
10
7.5452484
20
56.7526142
11
7.5437325
21
56.7526147
0
ARC
8
DEFAULT_255_2_778
10
7.5508484
20
59.9355647
40
3.1829579
50
256.2431122
51
269.871909
0
ARC
8
DEFAULT_255_2_778
10
21.7540021
20
60.1543817
40
2.9666503
50
251.5318157
51
258.7258279
0
ARC
8
DEFAULT_255_2_778
10
21.5537563
20
59.132451
40
1.9252941
50
258.62435
51
268.8252909
0
ARC
8
DEFAULT_255_2_778
10
21.5354665
20
58.7375972
40
1.5301823
50
269.2068806
51
269.9987259
0
ARC
8
DEFAULT_255_2_778
10
21.5473171
20
58.2733861
40
1.0660376
50
269.3612297
51
279.5899087
0
ARC
8
DEFAULT_255_2_778
10
21.6607762
20
57.6419001
40
0.424527
50
278.6895227
51
300.2363944
0
ARC
8
DEFAULT_255_2_778
10
21.7798406
20
57.438447
40
0.188796
50
300.1108484
51
1.9024905
0
ARC
8
DEFAULT_255_2_778
10
21.74389
20
57.4490898
40
0.2246851
50
358.8842611
51
0.0019649
0
ARC
8
DEFAULT_255_2_778
10
21.7769114
20
57.4530062
40
0.1917038
50
358.831716
51
47.0900458
0
ARC
8
DEFAULT_255_2_778
10
21.6376597
20
57.2945519
40
0.402612
50
47.9285592
51
61.0836101
0
ARC
8
DEFAULT_255_2_778
10
21.0429796
20
56.2762787
40
1.5817315
50
60.0631222
51
65.1602386
0
ARC
8
DEFAULT_255_2_778
10
20.1314272
20
54.350206
40
3.7125866
50
64.8807046
51
67.1209578
0
ARC
8
DEFAULT_255_2_778
10
23.627479
20
62.6396565
40
5.2839333
50
244.2656926
51
247.1407051
0
ARC
8
DEFAULT_255_2_778
10
22.559432
20
60.4314327
40
2.8309849
50
240.1545061
51
244.3326325
0
ARC
8
DEFAULT_255_2_778
10
21.7855871
20
59.0954023
40
1.2870531
50
232.697515
51
240.4357497
0
ARC
8
DEFAULT_255_2_778
10
21.3704829
20
58.5443895
40
0.5972006
50
225.5850892
51
232.3393736
0
ARC
8
DEFAULT_255_2_778
10
21.4133264
20
58.573961
40
0.6483829
50
178.7795739
51
224.7095916
0
ARC
8
DEFAULT_255_2_778
10
21.6668642
20
58.5979812
40
0.9018316
50
179.997867
51
180.6487041
0
ARC
8
DEFAULT_255_2_778
10
21.5167061
20
58.6117926
40
0.7517998
50
156.9195758
51
181.050088
0
ARC
8
DEFAULT_255_2_778
10
21.3927805
20
58.6512389
40
0.6224513
50
124.7111133
51
155.7879672
0
ARC
8
DEFAULT_255_2_778
10
21.6049077
20
58.3609843
40
0.9818859
50
101.7943006
51
125.2417472
0
ARC
8
DEFAULT_255_2_778
10
21.7294568
20
57.8075359
40
1.5491324
50
89.5237779
51
102.119608
0
ARC
8
DEFAULT_255_2_778
10
21.727965
20
57.2527684
40
2.1038954
50
83.2897778
51
89.6087235
0
ARC
8
DEFAULT_255_2_778
10
21.5234013
20
55.4404907
40
3.9276711
50
79.3121016
51
83.4152109
0
ARC
8
DEFAULT_255_2_778
10
21.2067148
20
53.6758502
40
5.7204535
50
78.2244786
51
79.4731175
0
ARC
8
DEFAULT_255_2_778
10
21.6833903
20
57.0095601
40
1.9313541
50
67.1320052
51
78.3124693
0
ARC
8
DEFAULT_255_2_778
10
21.8010805
20
57.561809
40
1.3667182
50
78.4541134
51
89.7546716
0
ARC
8
DEFAULT_255_2_778
10
21.7948662
20
57.9904688
40
0.9381236
50
89.263032
51
100.5789495
0
ARC
8
DEFAULT_255_2_778
10
21.6820638
20
58.5571991
40
0.3603816
50
99.4915893
51
124.3627674
0
ARC
8
DEFAULT_255_2_778
10
21.5871509
20
58.7042673
40
0.1854666
50
125.8028369
51
182.2896157
0
ARC
8
DEFAULT_255_2_778
10
21.5489799
20
58.696772
40
0.1471476
50
179.9666171
51
180.1001736
0
ARC
8
DEFAULT_255_2_778
10
21.5659745
20
58.6966091
40
0.164142
50
180.032935
51
239.8907271
0
ARC
8
DEFAULT_255_2_778
10
21.9354551
20
59.278813
40
0.8535847
50
238.0402264
51
243.0370307
0
ARC
8
DEFAULT_255_2_778
10
23.4787463
20
62.2309461
40
4.1847343
50
242.5305029
51
244.1852103
0
ARC
8
DEFAULT_255_2_778
10
26.6265515
20
68.7011116
40
11.3799845
50
244.1038809
51
244.9214171
0
ARC
8
DEFAULT_255_2_778
10
29.8771528
20
75.609826
40
19.0152051
50
244.8737354
51
245.0669821
0
ARC
8
DEFAULT_255_2_778
10
19.8876742
20
54.076571
40
4.7223648
50
62.036831
51
65.2981624
0
ARC
8
DEFAULT_255_2_778
10
20.9516164
20
56.0711714
40
2.4617531
50
57.1110762
51
62.1404081
0
ARC
8
DEFAULT_255_2_778
10
21.7042272
20
57.224297
40
1.0847836
50
48.3568195
51
57.4187314
0
ARC
8
DEFAULT_255_2_778
10
22.028946
20
57.6006639
40
0.5878002
50
44.453022
51
47.6325253
0
ARC
8
DEFAULT_255_2_778
10
21.9973779
20
57.5824098
40
0.6231843
50
1.0876759
51
43.6183889
0
ARC
8
DEFAULT_255_2_778
10
21.7304111
20
57.5503301
40
0.8911213
50
359.9797211
51
2.8243422
0
ARC
8
DEFAULT_255_2_778
10
21.8798151
20
57.5352736
40
0.7418639
50
333.2156265
51
1.138567
0
ARC
8
DEFAULT_255_2_778
10
21.9146495
20
57.5397363
40
0.7130495
50
300.9658303
51
331.6339563
0
ARC
8
DEFAULT_255_2_778
10
21.7181382
20
57.84897
40
1.0793606
50
281.9136331
51
301.4645182
0
ARC
8
DEFAULT_255_2_778
10
21.5849532
20
58.4461054
40
1.6911426
50
270.5804277
51
282.1523279
0
ARC
8
DEFAULT_255_2_778
10
21.5638102
20
58.9400177
40
2.1853034
50
269.9959061
51
271.0035609
0
LINE
8
DEFAULT_255_2_778
10
21.5636541
20
56.7547142
11
21.5621325
21
56.7547147
0
ARC
8
DEFAULT_255_2_778
10
21.5690949
20
59.9388913
40
3.1841842
50
256.2458002
51
269.8747201
0
LINE
8
DEFAULT_255_2_778
10
6.7957325
20
56.8454147
11
6.7957325
21
57.3402147
0
LINE
8
DEFAULT_255_2_778
10
8.4163325
20
59.2632147
11
8.4163325
21
58.7870147
0
LINE
8
DEFAULT_255_2_778
10
6.7939325
20
56.8439147
11
6.7957325
21
56.8454147
0
LINE
8
DEFAULT_255_2_778
10
8.9865325
20
59.3127147
11
9.6628325
21
59.3127147
0
LINE
8
DEFAULT_255_2_778
10
9.6628325
20
59.3127147
11
9.6628325
21
56.8052147
0
LINE
8
DEFAULT_255_2_778
10
9.6628325
20
56.8052147
11
8.9865325
21
56.8052147
0
LINE
8
DEFAULT_255_2_778
10
8.9865325
20
56.8052147
11
8.9865325
21
59.3127147
0
LINE
8
DEFAULT_255_2_778
10
10.2808325
20
56.8052147
11
10.2808325
21
59.3127147
0
LINE
8
DEFAULT_255_2_778
10
10.2808325
20
59.3127147
11
12.0131325
21
59.3127147
0
LINE
8
DEFAULT_255_2_778
10
12.0131325
20
59.3127147
11
12.0131325
21
58.8589147
0
LINE
8
DEFAULT_255_2_778
10
12.0131325
20
58.8589147
11
10.9320325
21
58.8589147
0
LINE
8
DEFAULT_255_2_778
10
10.9320325
20
58.8589147
11
10.9320325
21
58.2927147
0
LINE
8
DEFAULT_255_2_778
10
10.9320325
20
58.2927147
11
11.8734325
21
58.2927147
0
LINE
8
DEFAULT_255_2_778
10
11.8734325
20
58.2927147
11
11.8734325
21
57.8792147
0
LINE
8
DEFAULT_255_2_778
10
11.8734325
20
57.8792147
11
10.9320325
21
57.8792147
0
LINE
8
DEFAULT_255_2_778
10
10.9320325
20
57.8792147
11
10.9320325
21
57.2839147
0
LINE
8
DEFAULT_255_2_778
10
10.9320325
20
57.2839147
11
12.0411325
21
57.2839147
0
LINE
8
DEFAULT_255_2_778
10
12.0411325
20
57.2839147
11
12.0411325
21
56.8036147
0
LINE
8
DEFAULT_255_2_778
10
12.0411325
20
56.8036147
11
10.2808325
21
56.8052147
0
LINE
8
DEFAULT_255_2_778
10
12.4816325
20
56.8052147
11
12.4816325
21
59.3127147
0
LINE
8
DEFAULT_255_2_778
10
12.4816325
20
59.3127147
11
13.3574325
21
59.3127147
0
LINE
8
DEFAULT_255_2_778
10
13.3574325
20
59.3127147
11
13.9670325
21
57.7104147
0
LINE
8
DEFAULT_255_2_778
10
13.9670325
20
57.7104147
11
14.5896325
21
59.3127147
0
LINE
8
DEFAULT_255_2_778
10
14.5896325
20
59.3127147
11
15.4214325
21
59.3127147
0
LINE
8
DEFAULT_255_2_778
10
15.4214325
20
59.3127147
11
15.4214325
21
56.8052147
0
LINE
8
DEFAULT_255_2_778
10
15.4214325
20
56.8052147
11
14.7811325
21
56.8052147
0
LINE
8
DEFAULT_255_2_778
10
14.7811325
20
56.8052147
11
14.7811325
21
58.5811147
0
LINE
8
DEFAULT_255_2_778
10
14.7811325
20
58.5811147
11
14.0723325
21
56.7809147
0
LINE
8
DEFAULT_255_2_778
10
14.0723325
20
56.7809147
11
13.6514325
21
56.7809147
0
LINE
8
DEFAULT_255_2_778
10
13.6514325
20
56.7809147
11
12.9558325
21
58.5811147
0
LINE
8
DEFAULT_255_2_778
10
12.9558325
20
58.5811147
11
12.9558325
21
56.8050147
0
LINE
8
DEFAULT_255_2_778
10
12.9558325
20
56.8050147
11
12.4816325
21
56.8052147
0
LINE
8
DEFAULT_255_2_778
10
16.0408325
20
56.8052147
11
16.0408325
21
59.3127147
0
LINE
8
DEFAULT_255_2_778
10
16.0408325
20
59.3127147
11
17.7730325
21
59.3127147
0
LINE
8
DEFAULT_255_2_778
10
17.7730325
20
59.3127147
11
17.7730325
21
58.8589147
0
LINE
8
DEFAULT_255_2_778
10
17.7730325
20
58.8589147
11
16.6920325
21
58.8589147
0
LINE
8
DEFAULT_255_2_778
10
16.6920325
20
58.8589147
11
16.6920325
21
58.2927147
0
LINE
8
DEFAULT_255_2_778
10
16.6920325
20
58.2927147
11
17.6333325
21
58.2927147
0
LINE
8
DEFAULT_255_2_778
10
17.6333325
20
58.2927147
11
17.6333325
21
57.8792147
0
LINE
8
DEFAULT_255_2_778
10
17.6333325
20
57.8792147
11
16.6920325
21
57.8792147
0
LINE
8
DEFAULT_255_2_778
10
16.6920325
20
57.8792147
11
16.6920325
21
57.2839147
0
LINE
8
DEFAULT_255_2_778
10
16.6920325
20
57.2839147
11
17.8029325
21
57.2839147
0
LINE
8
DEFAULT_255_2_778
10
17.8029325
20
57.2839147
11
17.8029325
21
56.8036147
0
LINE
8
DEFAULT_255_2_778
10
17.8029325
20
56.8036147
11
16.0408325
21
56.8052147
0
LINE
8
DEFAULT_255_2_778
10
18.2453325
20
56.8052147
11
18.2453325
21
59.3127147
0
LINE
8
DEFAULT_255_2_778
10
18.2453325
20
59.3127147
11
19.0282325
21
59.3127147
0
LINE
8
DEFAULT_255_2_778
10
19.0282325
20
59.3127147
11
19.8585325
21
57.6339147
0
LINE
8
DEFAULT_255_2_778
10
19.8585325
20
57.6339147
11
19.8585325
21
59.3127147
0
LINE
8
DEFAULT_255_2_778
10
19.8585325
20
59.3127147
11
20.3342325
21
59.3127147
0
LINE
8
DEFAULT_255_2_778
10
20.3342325
20
59.3127147
11
20.3342325
21
56.8052147
0
LINE
8
DEFAULT_255_2_778
10
20.3342325
20
56.8052147
11
19.5738325
21
56.8052147
0
LINE
8
DEFAULT_255_2_778
10
19.5738325
20
56.8052147
11
18.7213325
21
58.5065147
0
LINE
8
DEFAULT_255_2_778
10
18.7213325
20
58.5065147
11
18.7213325
21
56.8052147
0
LINE
8
DEFAULT_255_2_778
10
18.7213325
20
56.8052147
11
18.2453325
21
56.8052147
0
LINE
8
DEFAULT_255_2_778
10
20.8142325
20
56.8457147
11
20.8142325
21
57.3405147
0
LINE
8
DEFAULT_255_2_778
10
22.3741325
20
59.2759147
11
22.4339325
21
59.2653147
0
LINE
8
DEFAULT_255_2_778
10
22.4339325
20
59.2653147
11
22.4339325
21
58.7891147
0
LINE
8
DEFAULT_255_2_778
10
20.8120325
20
56.8460147
11
20.8142325
21
56.8457147
0
LINE
8
DEFAULT_255_1_234
10
8.6693023
20
55.0809849
11
8.5142897
21
55.0809849
0
LINE
8
DEFAULT_255_1_234
10
7.8219539
20
54.5886394
11
7.9769665
21
54.5886394
0
ARC
8
DEFAULT_255_1_234
10
8.580171
20
55.9756768
40
1.252368
50
248.9199003
51
254.1439814
0
ARC
8
DEFAULT_255_1_234
10
8.4121205
20
55.5430234
40
0.788226
50
241.633709
51
249.0064503
0
ARC
8
DEFAULT_255_1_234
10
8.25926
20
55.2629317
40
0.4691427
50
230.498225
51
241.8087113
0
ARC
8
DEFAULT_255_1_234
10
8.1808174
20
55.1629906
40
0.3421437
50
227.4064532
51
229.9881192
0
ARC
8
DEFAULT_255_1_234
10
8.1320694
20
55.1154088
40
0.2741476
50
200.6781896
51
228.1763934
0
ARC
8
DEFAULT_255_1_234
10
8.1393005
20
55.1139077
40
0.2804109
50
179.5061581
51
199.8694617
0
ARC
8
DEFAULT_255_1_234
10
8.1383757
20
55.121321
40
0.2795204
50
132.4834203
51
181.0242172
0
ARC
8
DEFAULT_255_1_234
10
8.1979339
20
55.0650704
40
0.3612768
50
129.2532479
51
133.4242687
0
ARC
8
DEFAULT_255_1_234
10
8.2125789
20
55.0430965
40
0.3875675
50
101.98776
51
128.8742646
0
ARC
8
DEFAULT_255_1_234
10
8.2524399
20
54.8709741
40
0.5642249
50
89.5906553
51
102.3169264
0
ARC
8
DEFAULT_255_1_234
10
8.2594891
20
54.9028148
40
0.5323783
50
77.2360837
51
90.3248275
0
ARC
8
DEFAULT_255_1_234
10
8.2801971
20
54.99954
40
0.4334697
50
63.837784
51
77.0809408
0
ARC
8
DEFAULT_255_1_234
10
8.3079732
20
55.0512911
40
0.3747796
50
45.9864267
51
64.1607727
0
ARC
8
DEFAULT_255_1_234
10
8.3340614
20
55.0810866
40
0.3352302
50
32.2747395
51
45.6547121
0
ARC
8
DEFAULT_255_1_234
10
8.3407054
20
55.082988
40
0.328603
50
359.6507365
51
32.6130309
0
ARC
8
DEFAULT_255_1_234
10
8.246415
20
55.083466
40
0.2678863
50
359.469343
51
14.9832209
0
ARC
8
DEFAULT_255_1_234
10
8.3169212
20
55.1023539
40
0.1948938
50
14.9781179
51
48.2004265
0
ARC
8
DEFAULT_255_1_234
10
8.3004856
20
55.0816983
40
0.2212521
50
48.5927837
51
74.1241538
0
ARC
8
DEFAULT_255_1_234
10
8.2671346
20
54.9716248
40
0.3362561
50
73.7888341
51
86.6652678
0
ARC
8
DEFAULT_255_1_234
10
8.2568911
20
54.8508881
40
0.4573953
50
86.2640471
51
90.0526343
0
ARC
8
DEFAULT_255_1_234
10
8.2540624
20
54.8904192
40
0.4178709
50
89.6697524
51
99.2309573
0
ARC
8
DEFAULT_255_1_234
10
8.2298075
20
55.0348964
40
0.2713749
50
99.069534
51
113.7658566
0
ARC
8
DEFAULT_255_1_234
10
8.2024266
20
55.0994677
40
0.2012469
50
114.0401004
51
127.9850673
0
ARC
8
DEFAULT_255_1_234
10
8.178383
20
55.129073
40
0.1631167
50
127.7287463
51
176.7105154
0
ARC
8
DEFAULT_255_1_234
10
8.2462547
20
55.1189693
40
0.2315392
50
175.1779447
51
180.0581938
0
ARC
8
DEFAULT_255_1_234
10
8.1619394
20
55.1177428
40
0.1472271
50
179.6142195
51
228.1246017
0
ARC
8
DEFAULT_255_1_234
10
8.2061063
20
55.1586308
40
0.2072299
50
226.5779593
51
230.8800004
0
ARC
8
DEFAULT_255_1_234
10
8.2532141
20
55.2211636
40
0.2854818
50
231.4635071
51
241.9260842
0
ARC
8
DEFAULT_255_1_234
10
8.3729319
20
55.44148
40
0.53622
50
241.7178533
51
248.3259551
0
ARC
8
DEFAULT_255_1_234
10
8.5114691
20
55.7847064
40
0.9063478
50
248.2007737
51
252.4528373
0
ARC
8
DEFAULT_255_1_234
10
8.6318416
20
56.1568441
40
1.2974635
50
252.3391078
51
254.3469452
0
ARC
8
DEFAULT_255_1_234
10
7.8776119
20
53.4591148
40
1.5037162
50
71.0197183
51
74.4087047
0
ARC
8
DEFAULT_255_1_234
10
8.0470804
20
53.9483111
40
0.9859993
50
66.1847285
51
71.086374
0
ARC
8
DEFAULT_255_1_234
10
8.2027116
20
54.29872
40
0.6025855
50
59.3536294
51
66.2691831
0
ARC
8
DEFAULT_255_1_234
10
8.2915769
20
54.4490609
40
0.4279449
50
49.1020879
51
59.3293958
0
ARC
8
DEFAULT_255_1_234
10
8.3734509
20
54.5423834
40
0.3038015
50
32.7919921
51
49.2505539
0
ARC
8
DEFAULT_255_1_234
10
8.4055599
20
54.5652191
40
0.264448
50
31.1181161
51
32.4005348
0
ARC
8
DEFAULT_255_1_234
10
8.3967136
20
54.5616779
40
0.2738556
50
8.1116974
51
30.7958831
0
ARC
8
DEFAULT_255_1_234
10
8.3156804
20
54.5478753
40
0.3560327
50
359.8389159
51
8.4706516
0
ARC
8
DEFAULT_255_1_234
10
8.3782596
20
54.5430137
40
0.2934776
50
337.4731098
51
0.7537279
0
ARC
8
DEFAULT_255_1_234
10
8.3961291
20
54.5410387
40
0.2762607
50
307.5917067
51
336.4315538
0
ARC
8
DEFAULT_255_1_234
10
8.3501119
20
54.5923102
40
0.3449979
50
307.6551545
51
308.4529766
0
ARC
8
DEFAULT_255_1_234
10
8.3270838
20
54.627825
40
0.3871988
50
284.3734338
51
307.1424381
0
ARC
8
DEFAULT_255_1_234
10
8.2775668
20
54.8099932
40
0.5759636
50
272.4382747
51
284.646547
0
ARC
8
DEFAULT_255_1_234
10
8.2648876
20
54.9899893
40
0.7563528
50
269.9708387
51
272.8178037
0
ARC
8
DEFAULT_255_1_234
10
8.2605916
20
54.7861716
40
0.5525489
50
248.2707594
51
270.4055579
0
ARC
8
DEFAULT_255_1_234
10
8.2551657
20
54.7671192
40
0.5328452
50
246.1383403
51
248.0542782
0
ARC
8
DEFAULT_255_1_234
10
8.2133036
20
54.6791843
40
0.4355005
50
233.1670131
51
246.4950969
0
ARC
8
DEFAULT_255_1_234
10
8.1578941
20
54.6043812
40
0.3424126
50
215.3403242
51
233.0843104
0
ARC
8
DEFAULT_255_1_234
10
8.1306372
20
54.5845549
40
0.3087104
50
179.2419209
51
215.2648451
0
ARC
8
DEFAULT_255_1_234
10
8.2073966
20
54.5859666
40
0.2304457
50
179.335461
51
199.1045811
0
ARC
8
DEFAULT_255_1_234
10
8.1741643
20
54.5772766
40
0.1962176
50
199.8828939
51
232.7063202
0
ARC
8
DEFAULT_255_1_234
10
8.2213911
20
54.6366788
40
0.2720938
50
232.3738199
51
255.5136649
0
ARC
8
DEFAULT_255_1_234
10
8.2554778
20
54.7610835
40
0.4010747
50
255.2446292
51
267.5320849
0
ARC
8
DEFAULT_255_1_234
10
8.2642401
20
54.8843702
40
0.5246356
50
267.1557994
51
270.0286766
0
ARC
8
DEFAULT_255_1_234
10
8.2670173
20
54.839995
40
0.4802668
50
269.7000017
51
278.1660162
0
ARC
8
DEFAULT_255_1_234
10
8.2926178
20
54.6669515
40
0.3053425
50
278.0231263
51
290.625471
0
ARC
8
DEFAULT_255_1_234
10
8.3273865
20
54.5742025
40
0.206291
50
290.6619762
51
307.0370976
0
ARC
8
DEFAULT_255_1_234
10
8.3574254
20
54.5373504
40
0.1587906
50
306.3943566
51
355.3030547
0
ARC
8
DEFAULT_255_1_234
10
8.3062186
20
54.5450113
40
0.2104809
50
354.3660432
51
0.0698737
0
ARC
8
DEFAULT_255_1_234
10
8.3204531
20
54.5472617
40
0.1962563
50
359.417946
51
16.1971788
0
ARC
8
DEFAULT_255_1_234
10
8.3659841
20
54.5597418
40
0.149053
50
16.4723299
51
52.6262157
0
ARC
8
DEFAULT_255_1_234
10
8.2838895
20
54.4513433
40
0.2850296
50
52.7386432
51
62.4979148
0
ARC
8
DEFAULT_255_1_234
10
8.1453972
20
54.1907283
40
0.5801521
50
62.2515216
51
68.1220564
0
ARC
8
DEFAULT_255_1_234
10
7.9733883
20
53.7679872
40
1.0365451
50
68.0062803
51
71.8053402
0
ARC
8
DEFAULT_255_1_234
10
7.7938255
20
53.2294758
40
1.6042013
50
71.7183119
51
73.9258742
0
LINE
8
DEFAULT_255_1_234
10
9.0347464
20
55.4191211
11
9.0347464
21
54.2497
0
LINE
8
DEFAULT_255_1_234
10
9.0347464
20
54.2497
11
8.880537
21
54.2497
0
LINE
8
DEFAULT_255_1_234
10
8.880537
20
54.2497
11
8.880537
21
55.4191211
0
LINE
8
DEFAULT_255_1_234
10
8.880537
20
55.4191211
11
9.0347464
21
55.4191211
0
LINE
8
DEFAULT_255_1_234
10
9.3166604
20
55.4191211
11
9.5158475
21
55.4191211
0
LINE
8
DEFAULT_255_1_234
10
9.5158475
20
55.4191211
11
9.8981583
21
54.4649506
0
LINE
8
DEFAULT_255_1_234
10
9.8981583
20
54.4649506
11
10.280469
21
55.4191211
0
LINE
8
DEFAULT_255_1_234
10
10.280469
20
55.4191211
11
10.4804593
21
55.4191211
0
LINE
8
DEFAULT_255_1_234
10
10.4804593
20
55.4191211
11
10.4804593
21
54.2497
0
LINE
8
DEFAULT_255_1_234
10
10.4804593
20
54.2497
11
10.3262499
21
54.2497
0
LINE
8
DEFAULT_255_1_234
10
10.3262499
20
54.2497
11
10.3262499
21
54.7050996
0
LINE
8
DEFAULT_255_1_234
10
10.3262499
20
54.7050996
11
10.340707
21
55.1966419
0
LINE
8
DEFAULT_255_1_234
10
10.340707
20
55.1966419
11
9.9567899
21
54.2497
0
LINE
8
DEFAULT_255_1_234
10
9.9567899
20
54.2497
11
9.8387234
21
54.2497
0
LINE
8
DEFAULT_255_1_234
10
9.8387234
20
54.2497
11
9.4556095
21
55.1942324
0
LINE
8
DEFAULT_255_1_234
10
9.4556095
20
55.1942324
11
9.4708698
21
54.7050996
0
LINE
8
DEFAULT_255_1_234
10
9.4708698
20
54.7050996
11
9.4708698
21
54.2497
0
LINE
8
DEFAULT_255_1_234
10
9.4708698
20
54.2497
11
9.3166604
21
54.2497
0
LINE
8
DEFAULT_255_1_234
10
9.3166604
20
54.2497
11
9.3166604
21
55.4191211
0
LINE
8
DEFAULT_255_1_234
10
11.5245853
20
54.2497
11
11.4129441
21
54.5549061
0
LINE
8
DEFAULT_255_1_234
10
11.4129441
20
54.5549061
11
10.9230081
21
54.5549061
0
LINE
8
DEFAULT_255_1_234
10
10.9230081
20
54.5549061
11
10.8129732
21
54.2497
0
LINE
8
DEFAULT_255_1_234
10
10.8129732
20
54.2497
11
10.6539448
21
54.2497
0
LINE
8
DEFAULT_255_1_234
10
10.6539448
20
54.2497
11
11.1005095
21
55.4191211
0
LINE
8
DEFAULT_255_1_234
10
11.1005095
20
55.4191211
11
11.2354427
21
55.4191211
0
LINE
8
DEFAULT_255_1_234
10
11.2354427
20
55.4191211
11
11.6828105
21
54.2497
0
LINE
8
DEFAULT_255_1_234
10
11.6828105
20
54.2497
11
11.5245853
21
54.2497
0
LINE
8
DEFAULT_255_1_234
10
11.1679761
20
55.2287689
11
10.9695921
21
54.6818075
0
LINE
8
DEFAULT_255_1_234
10
10.9695921
20
54.6818075
11
11.3671632
21
54.6818075
0
LINE
8
DEFAULT_255_1_234
10
11.3671632
20
54.6818075
11
11.1679761
21
55.2287689
0
LINE
8
DEFAULT_255_1_234
10
12.544616
20
55.4191211
11
12.544616
21
55.2922196
0
LINE
8
DEFAULT_255_1_234
10
12.544616
20
55.2922196
11
12.1687307
21
55.2922196
0
LINE
8
DEFAULT_255_1_234
10
12.1687307
20
55.2922196
11
12.1687307
21
54.2497
0
LINE
8
DEFAULT_255_1_234
10
12.1687307
20
54.2497
11
12.0153245
21
54.2497
0
LINE
8
DEFAULT_255_1_234
10
12.0153245
20
54.2497
11
12.0153245
21
55.2922196
0
LINE
8
DEFAULT_255_1_234
10
12.0153245
20
55.2922196
11
11.6402423
21
55.2922196
0
LINE
8
DEFAULT_255_1_234
10
11.6402423
20
55.2922196
11
11.6402423
21
55.4191211
0
LINE
8
DEFAULT_255_1_234
10
11.6402423
20
55.4191211
11
12.544616
21
55.4191211
0
LINE
8
DEFAULT_255_1_234
10
12.8835554
20
55.4191211
11
12.8835554
21
54.2497
0
LINE
8
DEFAULT_255_1_234
10
12.8835554
20
54.2497
11
12.729346
21
54.2497
0
LINE
8
DEFAULT_255_1_234
10
12.729346
20
54.2497
11
12.729346
21
55.4191211
0
LINE
8
DEFAULT_255_1_234
10
12.729346
20
55.4191211
11
12.8835554
21
55.4191211
0
LINE
8
DEFAULT_255_1_234
10
13.870656
20
54.6207663
11
14.0256686
21
54.6207663
0
LINE
8
DEFAULT_255_1_234
10
13.1253107
20
54.7797947
11
13.1253107
21
54.8922391
0
LINE
8
DEFAULT_255_1_234
10
14.0256686
20
55.0432357
11
13.870656
21
55.0432357
0
LINE
8
DEFAULT_255_1_234
10
13.2803232
20
54.8882232
11
13.2803232
21
54.7749757
0
ARC
8
DEFAULT_255_1_234
10
13.4776072
20
54.6804846
40
0.5513052
50
340.1774281
51
353.7814284
0
ARC
8
DEFAULT_255_1_234
10
13.6347425
20
54.6219582
40
0.3836379
50
311.4558989
51
340.4421614
0
ARC
8
DEFAULT_255_1_234
10
13.6314093
20
54.6330528
40
0.3941894
50
282.4333181
51
310.7513653
0
ARC
8
DEFAULT_255_1_234
10
13.5874832
20
54.8145679
40
0.5809175
50
269.9358511
51
282.809604
0
ARC
8
DEFAULT_255_1_234
10
13.5822899
20
54.9603212
40
0.7266847
50
270.0021091
51
270.3581957
0
ARC
8
DEFAULT_255_1_234
10
13.5770315
20
54.7002585
40
0.4666519
50
250.7884749
51
270.6489167
0
ARC
8
DEFAULT_255_1_234
10
13.560215
20
54.6365319
40
0.4009729
50
219.3627325
51
250.0611886
0
ARC
8
DEFAULT_255_1_234
10
13.6431361
20
54.7070042
40
0.5097822
50
193.5479632
51
219.5756669
0
ARC
8
DEFAULT_255_1_234
10
13.8802982
20
54.7685919
40
0.7547848
50
181.1218675
51
193.87563
0
ARC
8
DEFAULT_255_1_234
10
14.0873163
20
54.779658
40
0.9620055
50
179.9918545
51
181.5394234
0
ARC
8
DEFAULT_255_1_234
10
13.9022265
20
54.8959788
40
0.7769248
50
169.5837241
51
180.2757934
0
ARC
8
DEFAULT_255_1_234
10
13.7185203
20
54.9299229
40
0.590109
50
155.0365899
51
169.6003176
0
ARC
8
DEFAULT_255_1_234
10
13.6049667
20
54.9846677
40
0.4640625
50
136.783148
51
155.2472683
0
ARC
8
DEFAULT_255_1_234
10
13.5660144
20
55.0177562
40
0.4130255
50
121.7633186
51
136.428115
0
ARC
8
DEFAULT_255_1_234
10
13.5795106
20
54.9928227
40
0.4413323
50
95.6459699
51
121.5490577
0
ARC
8
DEFAULT_255_1_234
10
13.5952388
20
54.8819949
40
0.55319
50
89.924208
51
96.1377933
0
ARC
8
DEFAULT_255_1_234
10
13.6002821
20
54.8938542
40
0.5413475
50
76.6779277
51
90.4563316
0
ARC
8
DEFAULT_255_1_234
10
13.6396444
20
55.0529114
40
0.3775041
50
47.485847
51
76.9287264
0
ARC
8
DEFAULT_255_1_234
10
13.6249417
20
55.0429159
40
0.3948286
50
16.5424086
51
46.8933463
0
ARC
8
DEFAULT_255_1_234
10
13.4641574
20
54.9900861
40
0.564021
50
5.4072051
51
17.0365086
0
ARC
8
DEFAULT_255_1_234
10
13.3202591
20
54.9669679
40
0.5556559
50
7.8891745
51
15.9239216
0
ARC
8
DEFAULT_255_1_234
10
13.5189605
20
55.0246631
40
0.3487515
50
15.7653144
51
27.9410532
0
ARC
8
DEFAULT_255_1_234
10
13.6293822
20
55.083779
40
0.2235026
50
27.8166557
51
46.4008329
0
ARC
8
DEFAULT_255_1_234
10
13.6343465
20
55.0832082
40
0.2205286
50
47.4371857
51
75.0698205
0
ARC
8
DEFAULT_255_1_234
10
13.603486
20
54.9757765
40
0.3322915
50
74.7008593
51
87.8124495
0
ARC
8
DEFAULT_255_1_234
10
13.5961547
20
54.8701844
40
0.4380987
50
87.3814673
51
90.0240855
0
ARC
8
DEFAULT_255_1_234
10
13.5923091
20
54.9879291
40
0.3203749
50
89.3451631
51
108.5745436
0
ARC
8
DEFAULT_255_1_234
10
13.5786196
20
55.0392908
40
0.2673494
50
109.2998449
51
143.3037509
0
ARC
8
DEFAULT_255_1_234
10
13.6548268
20
54.9806881
40
0.3634757
50
143.0753173
51
163.1916937
0
ARC
8
DEFAULT_255_1_234
10
13.8499996
20
54.9190967
40
0.5681262
50
162.9373603
51
174.6208611
0
ARC
8
DEFAULT_255_1_234
10
14.1126038
20
54.890301
40
0.8322832
50
174.3419979
51
180.1430411
0
ARC
8
DEFAULT_255_1_234
10
14.0195194
20
54.7708698
40
0.7392076
50
179.6817502
51
189.150529
0
ARC
8
DEFAULT_255_1_234
10
13.7694443
20
54.729219
40
0.4856932
50
188.9910863
51
203.5773039
0
ARC
8
DEFAULT_255_1_234
10
13.6614775
20
54.6844211
40
0.3688271
50
203.9077269
51
215.1312379
0
ARC
8
DEFAULT_255_1_234
10
13.5691869
20
54.6128941
40
0.2522457
50
213.9071664
51
263.8849284
0
ARC
8
DEFAULT_255_1_234
10
13.5817198
20
54.6913518
40
0.3316174
50
263.1758525
51
270.1031083
0
ARC
8
DEFAULT_255_1_234
10
13.584929
20
54.8160365
40
0.4563091
50
269.6719807
51
279.0609165
0
ARC
8
DEFAULT_255_1_234
10
13.6116058
20
54.6547907
40
0.2928759
50
278.8750225
51
293.6346586
0
ARC
8
DEFAULT_255_1_234
10
13.6436266
20
54.57959
40
0.2111472
50
293.8553404
51
310.0518804
0
ARC
8
DEFAULT_255_1_234
10
13.644112
20
54.5733516
40
0.2060917
50
311.0646779
51
332.0108348
0
ARC
8
DEFAULT_255_1_234
10
13.5248847
20
54.6390978
40
0.3422352
50
331.6588543
51
343.2878891
0
ARC
8
DEFAULT_255_1_234
10
13.3186362
20
54.7024798
40
0.5580003
50
343.1446044
51
351.010618
0
ARC
8
DEFAULT_255_1_234
10
13.1645008
20
54.7305871
40
0.7146438
50
350.7157277
51
351.1602153
0
LINE
8
DEFAULT_255_1_234
10
15.4191751
20
55.0809849
11
15.2641626
21
55.0809849
0
LINE
8
DEFAULT_255_1_234
10
14.5718268
20
54.5886394
11
14.7268393
21
54.5886394
0
ARC
8
DEFAULT_255_1_234
10
15.3300439
20
55.9756768
40
1.252368
50
248.9199003
51
254.1439814
0
ARC
8
DEFAULT_255_1_234
10
15.1619934
20
55.5430234
40
0.788226
50
241.633709
51
249.0064503
0
ARC
8
DEFAULT_255_1_234
10
15.0091328
20
55.2629317
40
0.4691427
50
230.498225
51
241.8087113
0
ARC
8
DEFAULT_255_1_234
10
14.9306902
20
55.1629906
40
0.3421437
50
227.4064532
51
229.9881192
0
ARC
8
DEFAULT_255_1_234
10
14.8819423
20
55.1154088
40
0.2741476
50
200.6781896
51
228.1763934
0
ARC
8
DEFAULT_255_1_234
10
14.8891734
20
55.1139077
40
0.2804109
50
179.5061581
51
199.8694617
0
ARC
8
DEFAULT_255_1_234
10
14.8882485
20
55.121321
40
0.2795204
50
132.4834203
51
181.0242172
0
ARC
8
DEFAULT_255_1_234
10
14.9478068
20
55.0650704
40
0.3612768
50
129.2532479
51
133.4242687
0
ARC
8
DEFAULT_255_1_234
10
14.9624517
20
55.0430965
40
0.3875675
50
101.98776
51
128.8742646
0
ARC
8
DEFAULT_255_1_234
10
15.0023128
20
54.8709741
40
0.5642249
50
89.5906553
51
102.3169264
0
ARC
8
DEFAULT_255_1_234
10
15.009362
20
54.9028148
40
0.5323783
50
77.2360837
51
90.3248275
0
ARC
8
DEFAULT_255_1_234
10
15.0300699
20
54.99954
40
0.4334697
50
63.837784
51
77.0809408
0
ARC
8
DEFAULT_255_1_234
10
15.0578461
20
55.0512911
40
0.3747796
50
45.9864267
51
64.1607727
0
ARC
8
DEFAULT_255_1_234
10
15.0839342
20
55.0810866
40
0.3352302
50
32.2747395
51
45.6547121
0
ARC
8
DEFAULT_255_1_234
10
15.0905783
20
55.082988
40
0.328603
50
359.6507365
51
32.6130309
0
ARC
8
DEFAULT_255_1_234
10
14.9962878
20
55.083466
40
0.2678863
50
359.469343
51
14.9832209
0
ARC
8
DEFAULT_255_1_234
10
15.0667941
20
55.1023539
40
0.1948938
50
14.9781179
51
48.2004265
0
ARC
8
DEFAULT_255_1_234
10
15.0503585
20
55.0816983
40
0.2212521
50
48.5927837
51
74.1241538
0
ARC
8
DEFAULT_255_1_234
10
15.0170074
20
54.9716248
40
0.3362561
50
73.7888341
51
86.6652678
0
ARC
8
DEFAULT_255_1_234
10
15.006764
20
54.8508881
40
0.4573953
50
86.2640471
51
90.0526343
0
ARC
8
DEFAULT_255_1_234
10
15.0039352
20
54.8904192
40
0.4178709
50
89.6697524
51
99.2309573
0
ARC
8
DEFAULT_255_1_234
10
14.9796803
20
55.0348964
40
0.2713749
50
99.069534
51
113.7658566
0
ARC
8
DEFAULT_255_1_234
10
14.9522994
20
55.0994677
40
0.2012469
50
114.0401004
51
127.9850673
0
ARC
8
DEFAULT_255_1_234
10
14.9282558
20
55.129073
40
0.1631167
50
127.7287463
51
176.7105154
0
ARC
8
DEFAULT_255_1_234
10
14.9961276
20
55.1189693
40
0.2315392
50
175.1779447
51
180.0581938
0
ARC
8
DEFAULT_255_1_234
10
14.9118123
20
55.1177428
40
0.1472271
50
179.6142195
51
228.1246017
0
ARC
8
DEFAULT_255_1_234
10
14.9559791
20
55.1586308
40
0.2072299
50
226.5779593
51
230.8800004
0
ARC
8
DEFAULT_255_1_234
10
15.003087
20
55.2211636
40
0.2854818
50
231.4635071
51
241.9260842
0
ARC
8
DEFAULT_255_1_234
10
15.1228048
20
55.44148
40
0.53622
50
241.7178533
51
248.3259551
0
ARC
8
DEFAULT_255_1_234
10
15.261342
20
55.7847064
40
0.9063478
50
248.2007737
51
252.4528373
0
ARC
8
DEFAULT_255_1_234
10
15.3817145
20
56.1568441
40
1.2974635
50
252.3391078
51
254.3469452
0
ARC
8
DEFAULT_255_1_234
10
14.6274847
20
53.4591148
40
1.5037162
50
71.0197183
51
74.4087047
0
ARC
8
DEFAULT_255_1_234
10
14.7969532
20
53.9483111
40
0.9859993
50
66.1847285
51
71.086374
0
ARC
8
DEFAULT_255_1_234
10
14.9525845
20
54.29872
40
0.6025855
50
59.3536294
51
66.2691831
0
ARC
8
DEFAULT_255_1_234
10
15.0414497
20
54.4490609
40
0.4279449
50
49.1020879
51
59.3293958
0
ARC
8
DEFAULT_255_1_234
10
15.1233237
20
54.5423834
40
0.3038015
50
32.7919921
51
49.2505539
0
ARC
8
DEFAULT_255_1_234
10
15.1554327
20
54.5652191
40
0.264448
50
31.1181161
51
32.4005348
0
ARC
8
DEFAULT_255_1_234
10
15.1465865
20
54.5616779
40
0.2738556
50
8.1116974
51
30.7958831
0
ARC
8
DEFAULT_255_1_234
10
15.0655533
20
54.5478753
40
0.3560327
50
359.8389159
51
8.4706516
0
ARC
8
DEFAULT_255_1_234
10
15.1281324
20
54.5430137
40
0.2934776
50
337.4731098
51
0.7537279
0
ARC
8
DEFAULT_255_1_234
10
15.1460019
20
54.5410387
40
0.2762607
50
307.5917067
51
336.4315538
0
ARC
8
DEFAULT_255_1_234
10
15.0999847
20
54.5923102
40
0.3449979
50
307.6551545
51
308.4529766
0
ARC
8
DEFAULT_255_1_234
10
15.0769566
20
54.627825
40
0.3871988
50
284.3734338
51
307.1424381
0
ARC
8
DEFAULT_255_1_234
10
15.0274396
20
54.8099932
40
0.5759636
50
272.4382747
51
284.646547
0
ARC
8
DEFAULT_255_1_234
10
15.0147605
20
54.9899893
40
0.7563528
50
269.9708387
51
272.8178037
0
ARC
8
DEFAULT_255_1_234
10
15.0104645
20
54.7861716
40
0.5525489
50
248.2707594
51
270.4055579
0
ARC
8
DEFAULT_255_1_234
10
15.0050386
20
54.7671192
40
0.5328452
50
246.1383403
51
248.0542782
0
ARC
8
DEFAULT_255_1_234
10
14.9631765
20
54.6791843
40
0.4355005
50
233.1670131
51
246.4950969
0
ARC
8
DEFAULT_255_1_234
10
14.907767
20
54.6043812
40
0.3424126
50
215.3403242
51
233.0843104
0
ARC
8
DEFAULT_255_1_234
10
14.8805101
20
54.5845549
40
0.3087104
50
179.2419209
51
215.2648451
0
ARC
8
DEFAULT_255_1_234
10
14.9572695
20
54.5859666
40
0.2304457
50
179.335461
51
199.1045811
0
ARC
8
DEFAULT_255_1_234
10
14.9240371
20
54.5772766
40
0.1962176
50
199.8828939
51
232.7063202
0
ARC
8
DEFAULT_255_1_234
10
14.971264
20
54.6366788
40
0.2720938
50
232.3738199
51
255.5136649
0
ARC
8
DEFAULT_255_1_234
10
15.0053506
20
54.7610835
40
0.4010747
50
255.2446292
51
267.5320849
0
ARC
8
DEFAULT_255_1_234
10
15.014113
20
54.8843702
40
0.5246356
50
267.1557994
51
270.0286766
0
ARC
8
DEFAULT_255_1_234
10
15.0168902
20
54.839995
40
0.4802668
50
269.7000017
51
278.1660162
0
ARC
8
DEFAULT_255_1_234
10
15.0424907
20
54.6669515
40
0.3053425
50
278.0231263
51
290.625471
0
ARC
8
DEFAULT_255_1_234
10
15.0772594
20
54.5742025
40
0.206291
50
290.6619762
51
307.0370976
0
ARC
8
DEFAULT_255_1_234
10
15.1072983
20
54.5373504
40
0.1587906
50
306.3943566
51
355.3030547
0
ARC
8
DEFAULT_255_1_234
10
15.0560914
20
54.5450113
40
0.2104809
50
354.3660432
51
0.0698737
0
ARC
8
DEFAULT_255_1_234
10
15.070326
20
54.5472617
40
0.1962563
50
359.417946
51
16.1971788
0
ARC
8
DEFAULT_255_1_234
10
15.115857
20
54.5597418
40
0.149053
50
16.4723299
51
52.6262157
0
ARC
8
DEFAULT_255_1_234
10
15.0337624
20
54.4513433
40
0.2850296
50
52.7386432
51
62.4979148
0
ARC
8
DEFAULT_255_1_234
10
14.8952701
20
54.1907283
40
0.5801521
50
62.2515216
51
68.1220564
0
ARC
8
DEFAULT_255_1_234
10
14.7232612
20
53.7679872
40
1.0365451
50
68.0062803
51
71.8053402
0
ARC
8
DEFAULT_255_1_234
10
14.5436983
20
53.2294758
40
1.6042013
50
71.7183119
51
73.9258742
0
LINE
8
DEFAULT_255_1_234
10
16.3355965
20
55.4191211
11
16.3355965
21
55.335591
0
LINE
8
DEFAULT_255_1_234
10
16.3355965
20
55.335591
11
15.8512827
21
54.2497
0
LINE
8
DEFAULT_255_1_234
10
15.8512827
20
54.2497
11
15.6954669
21
54.2497
0
LINE
8
DEFAULT_255_1_234
10
15.6954669
20
54.2497
11
16.1781744
21
55.2970387
0
LINE
8
DEFAULT_255_1_234
10
16.1781744
20
55.2970387
11
15.5452734
21
55.2970387
0
LINE
8
DEFAULT_255_1_234
10
15.5452734
20
55.2970387
11
15.5452734
21
55.4191211
0
LINE
8
DEFAULT_255_1_234
10
15.5452734
20
55.4191211
11
16.3355965
21
55.4191211
0
LINE
8
DEFAULT_255_1_234
10
16.8287452
20
54.8071026
11
16.8287452
21
54.6858234
0
LINE
8
DEFAULT_255_1_234
10
16.8287452
20
54.6858234
11
16.4367964
21
54.6858234
0
LINE
8
DEFAULT_255_1_234
10
16.4367964
20
54.6858234
11
16.4367964
21
54.8071026
0
LINE
8
DEFAULT_255_1_234
10
16.4367964
20
54.8071026
11
16.8287452
21
54.8071026
0
LINE
8
DEFAULT_255_1_234
10
17.4463859
20
55.4247433
11
17.4463859
21
54.2497
0
LINE
8
DEFAULT_255_1_234
10
17.4463859
20
54.2497
11
17.2969956
21
54.2497
0
LINE
8
DEFAULT_255_1_234
10
17.2969956
20
54.2497
11
17.2969956
21
55.2400133
0
LINE
8
DEFAULT_255_1_234
10
17.2969956
20
55.2400133
11
16.9974117
21
55.1299785
0
LINE
8
DEFAULT_255_1_234
10
16.9974117
20
55.1299785
11
16.9974117
21
55.2649117
0
LINE
8
DEFAULT_255_1_234
10
16.9974117
20
55.2649117
11
17.4230938
21
55.4247433
0
LINE
8
DEFAULT_255_1_234
10
17.4230938
20
55.4247433
11
17.4463859
21
55.4247433
0
LINE
8
DEFAULT_255_1_234
10
18.0688456
20
54.8054963
11
17.9499759
21
54.8360169
0
LINE
8
DEFAULT_255_1_234
10
17.9499759
20
54.8360169
11
18.0094107
21
55.4191211
0
LINE
8
DEFAULT_255_1_234
10
18.0094107
20
55.4191211
11
18.6085784
21
55.4191211
0
LINE
8
DEFAULT_255_1_234
10
18.6085784
20
55.4191211
11
18.6085784
21
55.2817784
0
LINE
8
DEFAULT_255_1_234
10
18.6085784
20
55.2817784
11
18.135509
21
55.2817784
0
LINE
8
DEFAULT_255_1_234
10
18.135509
20
55.2817784
11
18.1001694
21
54.9629184
0
LINE
8
DEFAULT_255_1_234
10
17.9082108
20
54.5573156
11
18.0487663
21
54.5573156
0
LINE
8
DEFAULT_255_1_234
10
18.1082011
20
54.8376232
11
18.0688456
21
54.8054963
0
ARC
8
DEFAULT_255_1_234
10
18.2856478
20
54.644923
40
0.3681349
50
93.7182161
51
120.2538958
0
ARC
8
DEFAULT_255_1_234
10
18.2950741
20
54.5641394
40
0.449379
50
89.9660152
51
94.2496022
0
ARC
8
DEFAULT_255_1_234
10
18.2991475
20
54.6230549
40
0.390482
50
73.8043271
51
90.5585896
0
ARC
8
DEFAULT_255_1_234
10
18.3226372
20
54.7088602
40
0.3015334
50
41.3071453
51
73.5430202
0
ARC
8
DEFAULT_255_1_234
10
18.2810199
20
54.6730324
40
0.3564457
50
13.5075983
51
41.2174222
0
ARC
8
DEFAULT_255_1_234
10
18.1168403
20
54.6300486
40
0.5261351
50
1.1331335
51
13.8829381
0
ARC
8
DEFAULT_255_1_234
10
17.9756772
20
54.6224665
40
0.6674378
50
359.9919444
51
1.544251
0
ARC
8
DEFAULT_255_1_234
10
18.1033598
20
54.618328
40
0.5397702
50
347.8572367
51
0.4293338
0
ARC
8
DEFAULT_255_1_234
10
18.2783916
20
54.5786736
40
0.3603188
50
323.673004
51
348.1672506
0
ARC
8
DEFAULT_255_1_234
10
18.3078424
20
54.5607168
40
0.3259678
50
316.8171152
51
323.1492751
0
ARC
8
DEFAULT_255_1_234
10
18.3139613
20
54.557046
40
0.3189975
50
281.8396411
51
316.5457803
0
ARC
8
DEFAULT_255_1_234
10
18.2763876
20
54.7125762
40
0.4789527
50
269.5770101
51
282.4214771
0
ARC
8
DEFAULT_255_1_234
10
18.2692688
20
54.6912125
40
0.45759
50
256.2427136
51
270.4486331
0
ARC
8
DEFAULT_255_1_234
10
18.239359
20
54.5712229
40
0.3339303
50
228.9023911
51
256.3314342
0
ARC
8
DEFAULT_255_1_234
10
18.2319823
20
54.5595746
40
0.32031
50
193.753695
51
228.5271154
0
ARC
8
DEFAULT_255_1_234
10
18.3557777
20
54.59588
40
0.4492253
50
184.924711
51
194.497588
0
ARC
8
DEFAULT_255_1_234
10
18.3750344
20
54.5994591
40
0.3289787
50
187.3600538
51
198.6732863
0
ARC
8
DEFAULT_255_1_234
10
18.2700638
20
54.5630674
40
0.217884
50
198.4451669
51
217.794479
0
ARC
8
DEFAULT_255_1_234
10
18.2404813
20
54.5421085
40
0.1816698
50
218.2887171
51
228.5612368
0
ARC
8
DEFAULT_255_1_234
10
18.25026
20
54.5552963
40
0.1980329
50
228.9654866
51
258.1234728
0
ARC
8
DEFAULT_255_1_234
10
18.270831
20
54.6433833
40
0.2884748
50
257.7258293
51
270.401361
0
ARC
8
DEFAULT_255_1_234
10
18.2753196
20
54.5988821
40
0.2439788
50
269.4204404
51
286.4209037
0
ARC
8
DEFAULT_255_1_234
10
18.2901684
20
54.5449657
40
0.1880666
50
286.7251356
51
320.600362
0
ARC
8
DEFAULT_255_1_234
10
18.2518509
20
54.5760595
40
0.2374121
50
320.6712579
51
344.5441685
0
ARC
8
DEFAULT_255_1_234
10
18.1361835
20
54.6100045
40
0.3579479
50
344.2412205
51
356.7357071
0
ARC
8
DEFAULT_255_1_234
10
18.0112983
20
54.6203444
40
0.4832297
50
356.3548756
51
0.0500261
0
ARC
8
DEFAULT_255_1_234
10
18.1449493
20
54.623465
40
0.3495889
50
359.5576869
51
12.953486
0
ARC
8
DEFAULT_255_1_234
10
18.250439
20
54.6490434
40
0.2410532
50
12.6490276
51
41.6081334
0
ARC
8
DEFAULT_255_1_234
10
18.2734761
20
54.6686321
40
0.2108218
50
41.7850273
51
85.9892764
0
ARC
8
DEFAULT_255_1_234
10
18.2611498
20
54.5873462
40
0.2928454
50
84.6957577
51
90.0676183
0
ARC
8
DEFAULT_255_1_234
10
18.2587982
20
54.5204716
40
0.3597255
50
89.6804936
51
99.1614436
0
ARC
8
DEFAULT_255_1_234
10
18.2382613
20
54.6432131
40
0.235281
50
98.9830931
51
113.8908934
0
ARC
8
DEFAULT_255_1_234
10
18.2153023
20
54.6973587
40
0.176479
50
114.1950727
51
127.3641004
0
LINE
8
DEFAULT_255_1_234
10
19.5386537
20
54.9412327
11
19.5386537
21
54.7484709
0
LINE
8
DEFAULT_255_1_234
10
18.800537
20
54.7283916
11
18.800537
21
54.9267755
0
LINE
8
DEFAULT_255_1_234
10
19.3900666
20
54.7083123
11
19.3900666
21
54.9516739
0
LINE
8
DEFAULT_255_1_234
10
18.9491241
20
54.9629184
11
18.9491241
21
54.7251789
0
ARC
8
DEFAULT_255_1_234
10
18.3139427
20
54.7435805
40
1.2247208
50
353.8441951
51
0.2287902
0
ARC
8
DEFAULT_255_1_234
10
18.777893
20
54.6917806
40
0.7578929
50
344.4934747
51
353.9765454
0
ARC
8
DEFAULT_255_1_234
10
19.0771521
20
54.6066981
40
0.4467846
50
329.2803592
51
344.7472793
0
ARC
8
DEFAULT_255_1_234
10
19.1764345
20
54.5522018
40
0.3336173
50
324.9352394
51
328.6160465
0
ARC
8
DEFAULT_255_1_234
10
19.2141454
20
54.5258427
40
0.2876076
50
280.580143
51
324.9173126
0
ARC
8
DEFAULT_255_1_234
10
19.1740247
20
54.6929099
40
0.4592847
50
269.5977311
51
281.6734359
0
ARC
8
DEFAULT_255_1_234
10
19.1668152
20
54.6809173
40
0.4472986
50
256.6228859
51
270.51044
0
ARC
8
DEFAULT_255_1_234
10
19.126613
20
54.5260877
40
0.2873874
50
215.8618325
51
257.2788573
0
ARC
8
DEFAULT_255_1_234
10
19.2287162
20
54.5945977
40
0.4102928
50
197.9693508
51
215.2623606
0
ARC
8
DEFAULT_255_1_234
10
19.4772277
20
54.6784709
40
0.6725652
50
187.8816417
51
198.2346507
0
ARC
8
DEFAULT_255_1_234
10
19.8730486
20
54.7356079
40
1.0724845
50
180.8976217
51
188.0055519
0
ARC
8
DEFAULT_255_1_234
10
20.1530674
20
54.7459777
40
1.3526448
50
180.7449369
51
181.1510016
0
ARC
8
DEFAULT_255_1_234
10
19.9953403
20
54.9316042
40
1.1948131
50
173.7675579
51
180.231553
0
ARC
8
DEFAULT_255_1_234
10
19.5435549
20
54.9826666
40
0.7401564
50
164.3058563
51
173.9002247
0
ARC
8
DEFAULT_255_1_234
10
19.2523618
20
55.0665656
40
0.4371288
50
148.7922025
51
164.568378
0
ARC
8
DEFAULT_255_1_234
10
19.157207
20
55.1196929
40
0.3282386
50
144.5883898
51
148.1176286
0
ARC
8
DEFAULT_255_1_234
10
19.1228968
20
55.1436315
40
0.2864044
50
101.6440918
51
144.514236
0
ARC
8
DEFAULT_255_1_234
10
19.1654035
20
54.9747069
40
0.4604934
50
89.5284041
51
102.5819763
0
ARC
8
DEFAULT_255_1_234
10
19.1733123
20
54.9708018
40
0.464401
50
77.0437873
51
90.5081339
0
ARC
8
DEFAULT_255_1_234
10
19.2135125
20
55.1350615
40
0.2953195
50
48.2778575
51
77.4994676
0
ARC
8
DEFAULT_255_1_234
10
19.2207756
20
55.1479746
40
0.2808655
50
36.3142134
51
47.6305865
0
ARC
8
DEFAULT_255_1_234
10
19.1339063
20
55.0894515
40
0.3855453
50
18.2931786
51
35.6769206
0
ARC
8
DEFAULT_255_1_234
10
18.8795822
20
55.0021593
40
0.654423
50
8.024666
51
18.5605216
0
ARC
8
DEFAULT_255_1_234
10
18.4632742
20
54.9406792
40
1.0752407
50
1.1274072
51
8.1718305
0
ARC
8
DEFAULT_255_1_234
10
18.1396932
20
54.9279885
40
1.3990231
50
0.5424119
51
1.3863029
0
ARC
8
DEFAULT_255_1_234
10
18.321831
20
54.9552342
40
1.0682415
50
359.8090433
51
4.9407866
0
ARC
8
DEFAULT_255_1_234
10
18.7428324
20
54.9928113
40
0.6455691
50
4.8362157
51
12.2904523
0
ARC
8
DEFAULT_255_1_234
10
19.0183439
20
55.0541965
40
0.3633074
50
12.0805627
51
23.8173984
0
ARC
8
DEFAULT_255_1_234
10
19.1357144
20
55.1038919
40
0.2358723
50
24.2871213
51
31.3935614
0
ARC
8
DEFAULT_255_1_234
10
19.1881841
20
55.1382233
40
0.1732111
50
30.7407893
51
82.4657128
0
ARC
8
DEFAULT_255_1_234
10
19.1701976
20
55.0498691
40
0.263235
50
81.1060089
51
90.2184952
0
ARC
8
DEFAULT_255_1_234
10
19.1666275
20
55.0756924
40
0.2374236
50
89.3806855
51
105.6762551
0
ARC
8
DEFAULT_255_1_234
10
19.1482905
20
55.1423567
40
0.1682847
50
105.7981136
51
149.7388061
0
ARC
8
DEFAULT_255_1_234
10
19.2546984
20
55.078395
40
0.2924306
50
149.4208916
51
163.6286378
0
ARC
8
DEFAULT_255_1_234
10
19.4637872
20
55.014625
40
0.5110213
50
163.3763315
51
172.1410975
0
ARC
8
DEFAULT_255_1_234
10
19.7938591
20
54.9673518
40
0.8444586
50
172.0259487
51
178.0703232
0
ARC
8
DEFAULT_255_1_234
10
20.096868
20
54.9529906
40
1.1477868
50
177.8631668
51
179.5044149
0
ARC
8
DEFAULT_255_1_234
10
19.9896085
20
54.7215389
40
1.0404907
50
179.7995573
51
185.2460446
0
ARC
8
DEFAULT_255_1_234
10
19.5853124
20
54.6832513
40
0.6343885
50
185.1411642
51
193.0079639
0
ARC
8
DEFAULT_255_1_234
10
19.3209596
20
54.6207641
40
0.3627568
50
192.7897626
51
205.2507664
0
ARC
8
DEFAULT_255_1_234
10
19.2163143
20
54.5740415
40
0.2481908
50
205.8005384
51
211.2537509
0
ARC
8
DEFAULT_255_1_234
10
19.1639584
20
54.538958
40
0.1852521
50
210.3789793
51
238.4008143
0
ARC
8
DEFAULT_255_1_234
10
19.1620106
20
54.5436376
40
0.1882621
50
239.6520629
51
265.9793761
0
ARC
8
DEFAULT_255_1_234
10
19.1705306
20
54.6108427
40
0.2559272
50
265.1315437
51
270.060332
0
ARC
8
DEFAULT_255_1_234
10
19.1734085
20
54.5784534
40
0.2235528
50
269.3314664
51
287.2178029
0
ARC
8
DEFAULT_255_1_234
10
19.1871937
20
54.5281279
40
0.1714108
50
287.7958004
51
329.080874
0
ARC
8
DEFAULT_255_1_234
10
19.0914394
20
54.587893
40
0.2842745
50
328.6634704
51
343.3325132
0
ARC
8
DEFAULT_255_1_234
10
18.8741414
20
54.6555863
40
0.5118644
50
343.0499468
51
351.9393422
0
ARC
8
DEFAULT_255_1_234
10
18.5274714
20
54.7066949
40
0.8622784
50
351.8069023
51
357.7959224
0
ARC
8
DEFAULT_255_1_234
10
18.203927
20
54.7234721
40
1.1862365
50
357.5871873
51
359.2677531
0
LINE
8
DEFAULT_255_1_234
10
20.4623036
20
54.9412327
11
20.4623036
21
54.7484709
0
LINE
8
DEFAULT_255_1_234
10
19.7241869
20
54.7283916
11
19.7241869
21
54.9267755
0
LINE
8
DEFAULT_255_1_234
10
20.3137165
20
54.7083123
11
20.3137165
21
54.9516739
0
LINE
8
DEFAULT_255_1_234
10
19.872774
20
54.9629184
11
19.872774
21
54.7251789
0
ARC
8
DEFAULT_255_1_234
10
19.2375926
20
54.7435805
40
1.2247208
50
353.8441951
51
0.2287902
0
ARC
8
DEFAULT_255_1_234
10
19.7015429
20
54.6917806
40
0.7578929
50
344.4934747
51
353.9765454
0
ARC
8
DEFAULT_255_1_234
10
20.000802
20
54.6066981
40
0.4467846
50
329.2803592
51
344.7472793
0
ARC
8
DEFAULT_255_1_234
10
20.1000844
20
54.5522018
40
0.3336173
50
324.9352394
51
328.6160465
0
ARC
8
DEFAULT_255_1_234
10
20.1377953
20
54.5258427
40
0.2876076
50
280.580143
51
324.9173126
0
ARC
8
DEFAULT_255_1_234
10
20.0976746
20
54.6929099
40
0.4592847
50
269.5977311
51
281.6734359
0
ARC
8
DEFAULT_255_1_234
10
20.0904651
20
54.6809173
40
0.4472986
50
256.6228859
51
270.51044
0
ARC
8
DEFAULT_255_1_234
10
20.0502629
20
54.5260877
40
0.2873874
50
215.8618325
51
257.2788573
0
ARC
8
DEFAULT_255_1_234
10
20.1523661
20
54.5945977
40
0.4102928
50
197.9693508
51
215.2623606
0
ARC
8
DEFAULT_255_1_234
10
20.4008776
20
54.6784709
40
0.6725652
50
187.8816417
51
198.2346507
0
ARC
8
DEFAULT_255_1_234
10
20.7966985
20
54.7356079
40
1.0724845
50
180.8976217
51
188.0055519
0
ARC
8
DEFAULT_255_1_234
10
21.0767173
20
54.7459777
40
1.3526448
50
180.7449369
51
181.1510016
0
ARC
8
DEFAULT_255_1_234
10
20.9189902
20
54.9316042
40
1.1948131
50
173.7675579
51
180.231553
0
ARC
8
DEFAULT_255_1_234
10
20.4672048
20
54.9826666
40
0.7401564
50
164.3058563
51
173.9002247
0
ARC
8
DEFAULT_255_1_234
10
20.1760117
20
55.0665656
40
0.4371288
50
148.7922025
51
164.568378
0
ARC
8
DEFAULT_255_1_234
10
20.0808569
20
55.1196929
40
0.3282386
50
144.5883898
51
148.1176286
0
ARC
8
DEFAULT_255_1_234
10
20.0465467
20
55.1436315
40
0.2864044
50
101.6440918
51
144.514236
0
ARC
8
DEFAULT_255_1_234
10
20.0890534
20
54.9747069
40
0.4604934
50
89.5284041
51
102.5819763
0
ARC
8
DEFAULT_255_1_234
10
20.0969622
20
54.9708018
40
0.464401
50
77.0437873
51
90.5081339
0
ARC
8
DEFAULT_255_1_234
10
20.1371624
20
55.1350615
40
0.2953195
50
48.2778575
51
77.4994676
0
ARC
8
DEFAULT_255_1_234
10
20.1444255
20
55.1479746
40
0.2808655
50
36.3142134
51
47.6305865
0
ARC
8
DEFAULT_255_1_234
10
20.0575562
20
55.0894515
40
0.3855453
50
18.2931786
51
35.6769206
0
ARC
8
DEFAULT_255_1_234
10
19.8032321
20
55.0021593
40
0.654423
50
8.024666
51
18.5605216
0
ARC
8
DEFAULT_255_1_234
10
19.3869241
20
54.9406792
40
1.0752407
50
1.1274072
51
8.1718305
0
ARC
8
DEFAULT_255_1_234
10
19.0633431
20
54.9279885
40
1.3990231
50
0.5424119
51
1.3863029
0
ARC
8
DEFAULT_255_1_234
10
19.2454809
20
54.9552342
40
1.0682415
50
359.8090433
51
4.9407866
0
ARC
8
DEFAULT_255_1_234
10
19.6664823
20
54.9928113
40
0.6455691
50
4.8362157
51
12.2904523
0
ARC
8
DEFAULT_255_1_234
10
19.9419938
20
55.0541965
40
0.3633074
50
12.0805627
51
23.8173984
0
ARC
8
DEFAULT_255_1_234
10
20.0593643
20
55.1038919
40
0.2358723
50
24.2871213
51
31.3935614
0
ARC
8
DEFAULT_255_1_234
10
20.111834
20
55.1382233
40
0.1732111
50
30.7407893
51
82.4657128
0
ARC
8
DEFAULT_255_1_234
10
20.0938475
20
55.0498691
40
0.263235
50
81.1060089
51
90.2184952
0
ARC
8
DEFAULT_255_1_234
10
20.0902774
20
55.0756924
40
0.2374236
50
89.3806855
51
105.6762551
0
ARC
8
DEFAULT_255_1_234
10
20.0719404
20
55.1423567
40
0.1682847
50
105.7981136
51
149.7388061
0
ARC
8
DEFAULT_255_1_234
10
20.1783483
20
55.078395
40
0.2924306
50
149.4208916
51
163.6286378
0
ARC
8
DEFAULT_255_1_234
10
20.3874371
20
55.014625
40
0.5110213
50
163.3763315
51
172.1410975
0
ARC
8
DEFAULT_255_1_234
10
20.717509
20
54.9673518
40
0.8444586
50
172.0259487
51
178.0703232
0
ARC
8
DEFAULT_255_1_234
10
21.0205179
20
54.9529906
40
1.1477868
50
177.8631668
51
179.5044149
0
ARC
8
DEFAULT_255_1_234
10
20.9132584
20
54.7215389
40
1.0404907
50
179.7995573
51
185.2460446
0
ARC
8
DEFAULT_255_1_234
10
20.5089623
20
54.6832513
40
0.6343885
50
185.1411642
51
193.0079639
0
ARC
8
DEFAULT_255_1_234
10
20.2446095
20
54.6207641
40
0.3627568
50
192.7897626
51
205.2507664
0
ARC
8
DEFAULT_255_1_234
10
20.1399642
20
54.5740415
40
0.2481908
50
205.8005384
51
211.2537509
0
ARC
8
DEFAULT_255_1_234
10
20.0876083
20
54.538958
40
0.1852521
50
210.3789793
51
238.4008143
0
ARC
8
DEFAULT_255_1_234
10
20.0856605
20
54.5436376
40
0.1882621
50
239.6520629
51
265.9793761
0
ARC
8
DEFAULT_255_1_234
10
20.0941805
20
54.6108427
40
0.2559272
50
265.1315437
51
270.060332
0
ARC
8
DEFAULT_255_1_234
10
20.0970584
20
54.5784534
40
0.2235528
50
269.3314664
51
287.2178029
0
ARC
8
DEFAULT_255_1_234
10
20.1108436
20
54.5281279
40
0.1714108
50
287.7958004
51
329.080874
0
ARC
8
DEFAULT_255_1_234
10
20.0150893
20
54.587893
40
0.2842745
50
328.6634704
51
343.3325132
0
ARC
8
DEFAULT_255_1_234
10
19.7977913
20
54.6555863
40
0.5118644
50
343.0499468
51
351.9393422
0
ARC
8
DEFAULT_255_1_234
10
19.4511213
20
54.7066949
40
0.8622784
50
351.8069023
51
357.7959224
0
ARC
8
DEFAULT_255_1_234
10
19.1275769
20
54.7234721
40
1.1862365
50
357.5871873
51
359.2677531
0
LINE
8
DEFAULT_255_1_234
10
4.5992137
20
53.4404433
11
4.5992137
21
52.2654
0
LINE
8
DEFAULT_255_1_234
10
4.5992137
20
52.2654
11
4.4498234
21
52.2654
0
LINE
8
DEFAULT_255_1_234
10
4.4498234
20
52.2654
11
4.4498234
21
53.2557133
0
LINE
8
DEFAULT_255_1_234
10
4.4498234
20
53.2557133
11
4.1502396
21
53.1456785
0
LINE
8
DEFAULT_255_1_234
10
4.1502396
20
53.1456785
11
4.1502396
21
53.2806117
0
LINE
8
DEFAULT_255_1_234
10
4.1502396
20
53.2806117
11
4.5759217
21
53.4404433
0
LINE
8
DEFAULT_255_1_234
10
4.5759217
20
53.4404433
11
4.5992137
21
53.4404433
0
LINE
8
DEFAULT_255_1_234
10
5.2280988
20
53.4348211
11
5.2280988
21
52.3914983
0
LINE
8
DEFAULT_255_1_234
10
5.2280988
20
52.3914983
11
5.7822888
21
52.3914983
0
LINE
8
DEFAULT_255_1_234
10
5.7822888
20
52.3914983
11
5.7822888
21
52.2654
0
LINE
8
DEFAULT_255_1_234
10
5.7822888
20
52.2654
11
5.0730863
21
52.2654
0
LINE
8
DEFAULT_255_1_234
10
5.0730863
20
52.2654
11
5.0730863
21
53.4348211
0
LINE
8
DEFAULT_255_1_234
10
5.0730863
20
53.4348211
11
5.2280988
21
53.4348211
0
LINE
8
DEFAULT_255_1_234
10
6.3605739
20
53.2340276
11
6.3605739
21
52.8926788
0
LINE
8
DEFAULT_255_1_234
10
6.3605739
20
52.8926788
11
6.6866625
21
52.8926788
0
LINE
8
DEFAULT_255_1_234
10
6.6866625
20
52.8926788
11
6.6866625
21
52.7521233
0
LINE
8
DEFAULT_255_1_234
10
6.6866625
20
52.7521233
11
6.3605739
21
52.7521233
0
LINE
8
DEFAULT_255_1_234
10
6.3605739
20
52.7521233
11
6.3605739
21
52.3826634
0
LINE
8
DEFAULT_255_1_234
10
6.3605739
20
52.3826634
11
6.2111836
21
52.3826634
0
LINE
8
DEFAULT_255_1_234
10
6.2111836
20
52.3826634
11
6.2111836
21
52.7521233
0
LINE
8
DEFAULT_255_1_234
10
6.2111836
20
52.7521233
11
5.885095
21
52.7521233
0
LINE
8
DEFAULT_255_1_234
10
5.885095
20
52.7521233
11
5.885095
21
52.8926788
0
LINE
8
DEFAULT_255_1_234
10
5.885095
20
52.8926788
11
6.2111836
21
52.8926788
0
LINE
8
DEFAULT_255_1_234
10
6.2111836
20
52.8926788
11
6.2111836
21
53.2340276
0
LINE
8
DEFAULT_255_1_234
10
6.2111836
20
53.2340276
11
6.3605739
21
53.2340276
0
LINE
8
DEFAULT_255_1_234
10
4.777323
20
3.9001663
11
4.9323355
21
3.9001663
0
LINE
8
DEFAULT_255_1_234
10
4.0319777
20
4.0591947
11
4.0319777
21
4.1716391
0
LINE
8
DEFAULT_255_1_234
10
4.9323355
20
4.3226357
11
4.777323
21
4.3226357
0
LINE
8
DEFAULT_255_1_234
10
4.1869902
20
4.1676232
11
4.1869902
21
4.0543757
0
ARC
8
DEFAULT_255_1_234
10
4.3842742
20
3.9598846
40
0.5513052
50
340.1774281
51
353.7814284
0
ARC
8
DEFAULT_255_1_234
10
4.5414095
20
3.9013582
40
0.3836379
50
311.4558989
51
340.4421614
0
ARC
8
DEFAULT_255_1_234
10
4.5380763
20
3.9124528
40
0.3941894
50
282.4333181
51
310.7513653
0
ARC
8
DEFAULT_255_1_234
10
4.4941502
20
4.0939679
40
0.5809175
50
269.9358511
51
282.809604
0
ARC
8
DEFAULT_255_1_234
10
4.4889568
20
4.2397212
40
0.7266847
50
270.0021091
51
270.3581957
0
ARC
8
DEFAULT_255_1_234
10
4.4836985
20
3.9796585
40
0.4666519
50
250.7884749
51
270.6489167
0
ARC
8
DEFAULT_255_1_234
10
4.466882
20
3.9159319
40
0.4009729
50
219.3627325
51
250.0611886
0
ARC
8
DEFAULT_255_1_234
10
4.5498031
20
3.9864042
40
0.5097822
50
193.5479632
51
219.5756669
0
ARC
8
DEFAULT_255_1_234
10
4.7869652
20
4.0479919
40
0.7547848
50
181.1218675
51
193.87563
0
ARC
8
DEFAULT_255_1_234
10
4.9939833
20
4.059058
40
0.9620055
50
179.9918545
51
181.5394234
0
ARC
8
DEFAULT_255_1_234
10
4.8088935
20
4.1753788
40
0.7769248
50
169.5837241
51
180.2757934
0
ARC
8
DEFAULT_255_1_234
10
4.6251873
20
4.2093229
40
0.590109
50
155.0365899
51
169.6003176
0
ARC
8
DEFAULT_255_1_234
10
4.5116337
20
4.2640677
40
0.4640625
50
136.783148
51
155.2472683
0
ARC
8
DEFAULT_255_1_234
10
4.4726814
20
4.2971562
40
0.4130255
50
121.7633186
51
136.428115
0
ARC
8
DEFAULT_255_1_234
10
4.4861776
20
4.2722227
40
0.4413323
50
95.6459699
51
121.5490577
0
ARC
8
DEFAULT_255_1_234
10
4.5019058
20
4.1613949
40
0.55319
50
89.924208
51
96.1377933
0
ARC
8
DEFAULT_255_1_234
10
4.5069491
20
4.1732542
40
0.5413475
50
76.6779277
51
90.4563316
0
ARC
8
DEFAULT_255_1_234
10
4.5463114
20
4.3323114
40
0.3775041
50
47.485847
51
76.9287264
0
ARC
8
DEFAULT_255_1_234
10
4.5316087
20
4.3223159
40
0.3948286
50
16.5424086
51
46.8933463
0
ARC
8
DEFAULT_255_1_234
10
4.3708244
20
4.2694861
40
0.564021
50
5.4072051
51
17.0365086
0
ARC
8
DEFAULT_255_1_234
10
4.2269261
20
4.2463679
40
0.5556559
50
7.8891745
51
15.9239216
0
ARC
8
DEFAULT_255_1_234
10
4.4256274
20
4.3040631
40
0.3487515
50
15.7653144
51
27.9410532
0
ARC
8
DEFAULT_255_1_234
10
4.5360492
20
4.363179
40
0.2235026
50
27.8166557
51
46.4008329
0
ARC
8
DEFAULT_255_1_234
10
4.5410135
20
4.3626082
40
0.2205286
50
47.4371857
51
75.0698205
0
ARC
8
DEFAULT_255_1_234
10
4.5101529
20
4.2551765
40
0.3322915
50
74.7008593
51
87.8124495
0
ARC
8
DEFAULT_255_1_234
10
4.5028217
20
4.1495844
40
0.4380987
50
87.3814673
51
90.0240855
0
ARC
8
DEFAULT_255_1_234
10
4.498976
20
4.2673291
40
0.3203749
50
89.3451631
51
108.5745436
0
ARC
8
DEFAULT_255_1_234
10
4.4852865
20
4.3186908
40
0.2673494
50
109.2998449
51
143.3037509
0
ARC
8
DEFAULT_255_1_234
10
4.5614938
20
4.2600881
40
0.3634757
50
143.0753173
51
163.1916937
0
ARC
8
DEFAULT_255_1_234
10
4.7566666
20
4.1984967
40
0.5681262
50
162.9373603
51
174.6208611
0
ARC
8
DEFAULT_255_1_234
10
5.0192708
20
4.169701
40
0.8322832
50
174.3419979
51
180.1430411
0
ARC
8
DEFAULT_255_1_234
10
4.9261864
20
4.0502698
40
0.7392076
50
179.6817502
51
189.150529
0
ARC
8
DEFAULT_255_1_234
10
4.6761112
20
4.008619
40
0.4856932
50
188.9910863
51
203.5773039
0
ARC
8
DEFAULT_255_1_234
10
4.5681445
20
3.9638211
40
0.3688271
50
203.9077269
51
215.1312379
0
ARC
8
DEFAULT_255_1_234
10
4.4758539
20
3.8922941
40
0.2522457
50
213.9071664
51
263.8849284
0
ARC
8
DEFAULT_255_1_234
10
4.4883868
20
3.9707518
40
0.3316174
50
263.1758525
51
270.1031083
0
ARC
8
DEFAULT_255_1_234
10
4.491596
20
4.0954365
40
0.4563091
50
269.6719807
51
279.0609165
0
ARC
8
DEFAULT_255_1_234
10
4.5182728
20
3.9341907
40
0.2928759
50
278.8750225
51
293.6346586
0
ARC
8
DEFAULT_255_1_234
10
4.5502936
20
3.85899
40
0.2111472
50
293.8553404
51
310.0518804
0
ARC
8
DEFAULT_255_1_234
10
4.550779
20
3.8527516
40
0.2060917
50
311.0646779
51
332.0108348
0
ARC
8
DEFAULT_255_1_234
10
4.4315517
20
3.9184978
40
0.3422352
50
331.6588543
51
343.2878891
0
ARC
8
DEFAULT_255_1_234
10
4.2253032
20
3.9818798
40
0.5580003
50
343.1446044
51
351.010618
0
ARC
8
DEFAULT_255_1_234
10
4.0711678
20
4.0099871
40
0.7146438
50
350.7157277
51
351.1602153
0
LINE
8
DEFAULT_255_1_234
10
5.1431879
20
6.9210211
11
5.1431879
21
5.7516
0
LINE
8
DEFAULT_255_1_234
10
5.1431879
20
5.7516
11
4.9881753
21
5.7516
0
LINE
8
DEFAULT_255_1_234
10
4.9881753
20
5.7516
11
4.9881753
21
6.292136
0
LINE
8
DEFAULT_255_1_234
10
4.9881753
20
6.292136
11
4.3986458
21
6.292136
0
LINE
8
DEFAULT_255_1_234
10
4.3986458
20
6.292136
11
4.3986458
21
5.7516
0
LINE
8
DEFAULT_255_1_234
10
4.3986458
20
5.7516
11
4.2444364
21
5.7516
0
LINE
8
DEFAULT_255_1_234
10
4.2444364
20
5.7516
11
4.2444364
21
6.9210211
0
LINE
8
DEFAULT_255_1_234
10
4.2444364
20
6.9210211
11
4.3986458
21
6.9210211
0
LINE
8
DEFAULT_255_1_234
10
4.3986458
20
6.9210211
11
4.3986458
21
6.4182343
0
LINE
8
DEFAULT_255_1_234
10
4.3986458
20
6.4182343
11
4.9881753
21
6.4182343
0
LINE
8
DEFAULT_255_1_234
10
4.9881753
20
6.4182343
11
4.9881753
21
6.9210211
0
LINE
8
DEFAULT_255_1_234
10
4.9881753
20
6.9210211
11
5.1431879
21
6.9210211
0
LINE
8
DEFAULT_255_1_234
10
6.1929361
20
6.5828849
11
6.0379235
21
6.5828849
0
LINE
8
DEFAULT_255_1_234
10
5.3455877
20
6.0905394
11
5.5006002
21
6.0905394
0
ARC
8
DEFAULT_255_1_234
10
6.1038048
20
7.4775768
40
1.252368
50
248.9199003
51
254.1439814
0
ARC
8
DEFAULT_255_1_234
10
5.9357543
20
7.0449234
40
0.788226
50
241.633709
51
249.0064503
0
ARC
8
DEFAULT_255_1_234
10
5.7828937
20
6.7648317
40
0.4691427
50
230.498225
51
241.8087113
0
ARC
8
DEFAULT_255_1_234
10
5.7044512
20
6.6648906
40
0.3421437
50
227.4064532
51
229.9881192
0
ARC
8
DEFAULT_255_1_234
10
5.6557032
20
6.6173088
40
0.2741476
50
200.6781896
51
228.1763934
0
ARC
8
DEFAULT_255_1_234
10
5.6629343
20
6.6158077
40
0.2804109
50
179.5061581
51
199.8694617
0
ARC
8
DEFAULT_255_1_234
10
5.6620095
20
6.623221
40
0.2795204
50
132.4834203
51
181.0242172
0
ARC
8
DEFAULT_255_1_234
10
5.7215677
20
6.5669704
40
0.3612768
50
129.2532479
51
133.4242687
0
ARC
8
DEFAULT_255_1_234
10
5.7362127
20
6.5449965
40
0.3875675
50
101.98776
51
128.8742646
0
ARC
8
DEFAULT_255_1_234
10
5.7760737
20
6.3728741
40
0.5642249
50
89.5906553
51
102.3169264
0
ARC
8
DEFAULT_255_1_234
10
5.7831229
20
6.4047148
40
0.5323783
50
77.2360837
51
90.3248275
0
ARC
8
DEFAULT_255_1_234
10
5.8038308
20
6.50144
40
0.4334697
50
63.837784
51
77.0809408
0
ARC
8
DEFAULT_255_1_234
10
5.831607
20
6.5531911
40
0.3747796
50
45.9864267
51
64.1607727
0
ARC
8
DEFAULT_255_1_234
10
5.8576951
20
6.5829866
40
0.3352302
50
32.2747395
51
45.6547121
0
ARC
8
DEFAULT_255_1_234
10
5.8643392
20
6.584888
40
0.328603
50
359.6507365
51
32.6130309
0
ARC
8
DEFAULT_255_1_234
10
5.7700487
20
6.585366
40
0.2678863
50
359.469343
51
14.9832209
0
ARC
8
DEFAULT_255_1_234
10
5.840555
20
6.6042539
40
0.1948938
50
14.9781179
51
48.2004265
0
ARC
8
DEFAULT_255_1_234
10
5.8241194
20
6.5835983
40
0.2212521
50
48.5927837
51
74.1241538
0
ARC
8
DEFAULT_255_1_234
10
5.7907684
20
6.4735248
40
0.3362561
50
73.7888341
51
86.6652678
0
ARC
8
DEFAULT_255_1_234
10
5.7805249
20
6.3527881
40
0.4573953
50
86.2640471
51
90.0526343
0
ARC
8
DEFAULT_255_1_234
10
5.7776962
20
6.3923192
40
0.4178709
50
89.6697524
51
99.2309573
0
ARC
8
DEFAULT_255_1_234
10
5.7534413
20
6.5367964
40
0.2713749
50
99.069534
51
113.7658566
0
ARC
8
DEFAULT_255_1_234
10
5.7260604
20
6.6013677
40
0.2012469
50
114.0401004
51
127.9850673
0
ARC
8
DEFAULT_255_1_234
10
5.7020168
20
6.630973
40
0.1631167
50
127.7287463
51
176.7105154
0
ARC
8
DEFAULT_255_1_234
10
5.7698885
20
6.6208693
40
0.2315392
50
175.1779447
51
180.0581938
0
ARC
8
DEFAULT_255_1_234
10
5.6855732
20
6.6196428
40
0.1472271
50
179.6142195
51
228.1246017
0
ARC
8
DEFAULT_255_1_234
10
5.7297401
20
6.6605308
40
0.2072299
50
226.5779593
51
230.8800004
0
ARC
8
DEFAULT_255_1_234
10
5.7768479
20
6.7230636
40
0.2854818
50
231.4635071
51
241.9260842
0
ARC
8
DEFAULT_255_1_234
10
5.8965657
20
6.94338
40
0.53622
50
241.7178533
51
248.3259551
0
ARC
8
DEFAULT_255_1_234
10
6.0351029
20
7.2866064
40
0.9063478
50
248.2007737
51
252.4528373
0
ARC
8
DEFAULT_255_1_234
10
6.1554754
20
7.6587441
40
1.2974635
50
252.3391078
51
254.3469452
0
ARC
8
DEFAULT_255_1_234
10
5.4012457
20
4.9610148
40
1.5037162
50
71.0197183
51
74.4087047
0
ARC
8
DEFAULT_255_1_234
10
5.5707142
20
5.4502111
40
0.9859993
50
66.1847285
51
71.086374
0
ARC
8
DEFAULT_255_1_234
10
5.7263454
20
5.80062
40
0.6025855
50
59.3536294
51
66.2691831
0
ARC
8
DEFAULT_255_1_234
10
5.8152107
20
5.9509609
40
0.4279449
50
49.1020879
51
59.3293958
0
ARC
8
DEFAULT_255_1_234
10
5.8970847
20
6.0442834
40
0.3038015
50
32.7919921
51
49.2505539
0
ARC
8
DEFAULT_255_1_234
10
5.9291936
20
6.0671191
40
0.264448
50
31.1181161
51
32.4005348
0
ARC
8
DEFAULT_255_1_234
10
5.9203474
20
6.0635779
40
0.2738556
50
8.1116974
51
30.7958831
0
ARC
8
DEFAULT_255_1_234
10
5.8393142
20
6.0497753
40
0.3560327
50
359.8389159
51
8.4706516
0
ARC
8
DEFAULT_255_1_234
10
5.9018934
20
6.0449137
40
0.2934776
50
337.4731098
51
0.7537279
0
ARC
8
DEFAULT_255_1_234
10
5.9197629
20
6.0429387
40
0.2762607
50
307.5917067
51
336.4315538
0
ARC
8
DEFAULT_255_1_234
10
5.8737457
20
6.0942102
40
0.3449979
50
307.6551545
51
308.4529766
0
ARC
8
DEFAULT_255_1_234
10
5.8507175
20
6.129725
40
0.3871988
50
284.3734338
51
307.1424381
0
ARC
8
DEFAULT_255_1_234
10
5.8012006
20
6.3118932
40
0.5759636
50
272.4382747
51
284.646547
0
ARC
8
DEFAULT_255_1_234
10
5.7885214
20
6.4918893
40
0.7563528
50
269.9708387
51
272.8178037
0
ARC
8
DEFAULT_255_1_234
10
5.7842254
20
6.2880716
40
0.5525489
50
248.2707594
51
270.4055579
0
ARC
8
DEFAULT_255_1_234
10
5.7787995
20
6.2690192
40
0.5328452
50
246.1383403
51
248.0542782
0
ARC
8
DEFAULT_255_1_234
10
5.7369374
20
6.1810843
40
0.4355005
50
233.1670131
51
246.4950969
0
ARC
8
DEFAULT_255_1_234
10
5.6815279
20
6.1062812
40
0.3424126
50
215.3403242
51
233.0843104
0
ARC
8
DEFAULT_255_1_234
10
5.654271
20
6.0864549
40
0.3087104
50
179.2419209
51
215.2648451
0
ARC
8
DEFAULT_255_1_234
10
5.7310304
20
6.0878666
40
0.2304457
50
179.335461
51
199.1045811
0
ARC
8
DEFAULT_255_1_234
10
5.6977981
20
6.0791766
40
0.1962176
50
199.8828939
51
232.7063202
0
ARC
8
DEFAULT_255_1_234
10
5.7450249
20
6.1385788
40
0.2720938
50
232.3738199
51
255.5136649
0
ARC
8
DEFAULT_255_1_234
10
5.7791116
20
6.2629835
40
0.4010747
50
255.2446292
51
267.5320849
0
ARC
8
DEFAULT_255_1_234
10
5.7878739
20
6.3862702
40
0.5246356
50
267.1557994
51
270.0286766
0
ARC
8
DEFAULT_255_1_234
10
5.7906511
20
6.341895
40
0.4802668
50
269.7000017
51
278.1660162
0
ARC
8
DEFAULT_255_1_234
10
5.8162516
20
6.1688515
40
0.3053425
50
278.0231263
51
290.625471
0
ARC
8
DEFAULT_255_1_234
10
5.8510203
20
6.0761025
40
0.206291
50
290.6619762
51
307.0370976
0
ARC
8
DEFAULT_255_1_234
10
5.8810592
20
6.0392504
40
0.1587906
50
306.3943566
51
355.3030547
0
ARC
8
DEFAULT_255_1_234
10
5.8298524
20
6.0469113
40
0.2104809
50
354.3660432
51
0.0698737
0
ARC
8
DEFAULT_255_1_234
10
5.8440869
20
6.0491617
40
0.1962563
50
359.417946
51
16.1971788
0
ARC
8
DEFAULT_255_1_234
10
5.8896179
20
6.0616418
40
0.149053
50
16.4723299
51
52.6262157
0
ARC
8
DEFAULT_255_1_234
10
5.8075233
20
5.9532433
40
0.2850296
50
52.7386432
51
62.4979148
0
ARC
8
DEFAULT_255_1_234
10
5.669031
20
5.6926283
40
0.5801521
50
62.2515216
51
68.1220564
0
ARC
8
DEFAULT_255_1_234
10
5.4970221
20
5.2698872
40
1.0365451
50
68.0062803
51
71.8053402
0
ARC
8
DEFAULT_255_1_234
10
5.3174593
20
4.7313758
40
1.6042013
50
71.7183119
51
73.9258742
0
LINE
8
DEFAULT_255_1_234
10
6.4459358
20
6.9210211
11
6.7495355
21
6.333901
0
LINE
8
DEFAULT_255_1_234
10
6.7495355
20
6.333901
11
7.0547416
21
6.9210211
0
LINE
8
DEFAULT_255_1_234
10
7.0547416
20
6.9210211
11
7.2298335
21
6.9210211
0
LINE
8
DEFAULT_255_1_234
10
7.2298335
20
6.9210211
11
6.8266402
21
6.1877234
0
LINE
8
DEFAULT_255_1_234
10
6.8266402
20
6.1877234
11
6.8266402
21
5.7516
0
LINE
8
DEFAULT_255_1_234
10
6.8266402
20
5.7516
11
6.6724309
21
5.7516
0
LINE
8
DEFAULT_255_1_234
10
6.6724309
20
5.7516
11
6.6724309
21
6.1877234
0
LINE
8
DEFAULT_255_1_234
10
6.6724309
20
6.1877234
11
6.2692376
21
6.9210211
0
LINE
8
DEFAULT_255_1_234
10
6.2692376
20
6.9210211
11
6.4459358
21
6.9210211
0
LINE
8
DEFAULT_255_1_234
10
8.2795817
20
6.9210211
11
8.2795817
21
5.7516
0
LINE
8
DEFAULT_255_1_234
10
8.2795817
20
5.7516
11
8.1245691
21
5.7516
0
LINE
8
DEFAULT_255_1_234
10
8.1245691
20
5.7516
11
7.5358427
21
6.652761
0
LINE
8
DEFAULT_255_1_234
10
7.5358427
20
6.652761
11
7.5358427
21
5.7516
0
LINE
8
DEFAULT_255_1_234
10
7.5358427
20
5.7516
11
7.3808302
21
5.7516
0
LINE
8
DEFAULT_255_1_234
10
7.3808302
20
5.7516
11
7.3808302
21
6.9210211
0
LINE
8
DEFAULT_255_1_234
10
7.3808302
20
6.9210211
11
7.5358427
21
6.9210211
0
LINE
8
DEFAULT_255_1_234
10
7.5358427
20
6.9210211
11
8.1261755
21
6.0158442
0
LINE
8
DEFAULT_255_1_234
10
8.1261755
20
6.0158442
11
8.1261755
21
6.9210211
0
LINE
8
DEFAULT_255_1_234
10
8.1261755
20
6.9210211
11
8.2795817
21
6.9210211
0
LINE
8
DEFAULT_255_1_234
10
4.777323
20
11.8376663
11
4.9323355
21
11.8376663
0
LINE
8
DEFAULT_255_1_234
10
4.0319777
20
11.9966947
11
4.0319777
21
12.1091391
0
LINE
8
DEFAULT_255_1_234
10
4.9323355
20
12.2601357
11
4.777323
21
12.2601357
0
LINE
8
DEFAULT_255_1_234
10
4.1869902
20
12.1051232
11
4.1869902
21
11.9918757
0
ARC
8
DEFAULT_255_1_234
10
4.3842742
20
11.8973846
40
0.5513052
50
340.1774281
51
353.7814284
0
ARC
8
DEFAULT_255_1_234
10
4.5414095
20
11.8388582
40
0.3836379
50
311.4558989
51
340.4421614
0
ARC
8
DEFAULT_255_1_234
10
4.5380763
20
11.8499528
40
0.3941894
50
282.4333181
51
310.7513653
0
ARC
8
DEFAULT_255_1_234
10
4.4941502
20
12.0314679
40
0.5809175
50
269.9358511
51
282.809604
0
ARC
8
DEFAULT_255_1_234
10
4.4889568
20
12.1772212
40
0.7266847
50
270.0021091
51
270.3581957
0
ARC
8
DEFAULT_255_1_234
10
4.4836985
20
11.9171585
40
0.4666519
50
250.7884749
51
270.6489167
0
ARC
8
DEFAULT_255_1_234
10
4.466882
20
11.8534319
40
0.4009729
50
219.3627325
51
250.0611886
0
ARC
8
DEFAULT_255_1_234
10
4.5498031
20
11.9239042
40
0.5097822
50
193.5479632
51
219.5756669
0
ARC
8
DEFAULT_255_1_234
10
4.7869652
20
11.9854919
40
0.7547848
50
181.1218675
51
193.87563
0
ARC
8
DEFAULT_255_1_234
10
4.9939833
20
11.996558
40
0.9620055
50
179.9918545
51
181.5394234
0
ARC
8
DEFAULT_255_1_234
10
4.8088935
20
12.1128788
40
0.7769248
50
169.5837241
51
180.2757934
0
ARC
8
DEFAULT_255_1_234
10
4.6251873
20
12.1468229
40
0.590109
50
155.0365899
51
169.6003176
0
ARC
8
DEFAULT_255_1_234
10
4.5116337
20
12.2015677
40
0.4640625
50
136.783148
51
155.2472683
0
ARC
8
DEFAULT_255_1_234
10
4.4726814
20
12.2346562
40
0.4130255
50
121.7633186
51
136.428115
0
ARC
8
DEFAULT_255_1_234
10
4.4861776
20
12.2097227
40
0.4413323
50
95.6459699
51
121.5490577
0
ARC
8
DEFAULT_255_1_234
10
4.5019058
20
12.0988949
40
0.55319
50
89.924208
51
96.1377933
0
ARC
8
DEFAULT_255_1_234
10
4.5069491
20
12.1107542
40
0.5413475
50
76.6779277
51
90.4563316
0
ARC
8
DEFAULT_255_1_234
10
4.5463114
20
12.2698114
40
0.3775041
50
47.485847
51
76.9287264
0
ARC
8
DEFAULT_255_1_234
10
4.5316087
20
12.2598159
40
0.3948286
50
16.5424086
51
46.8933463
0
ARC
8
DEFAULT_255_1_234
10
4.3708244
20
12.2069861
40
0.564021
50
5.4072051
51
17.0365086
0
ARC
8
DEFAULT_255_1_234
10
4.2269261
20
12.1838679
40
0.5556559
50
7.8891745
51
15.9239216
0
ARC
8
DEFAULT_255_1_234
10
4.4256274
20
12.2415631
40
0.3487515
50
15.7653144
51
27.9410532
0
ARC
8
DEFAULT_255_1_234
10
4.5360492
20
12.300679
40
0.2235026
50
27.8166557
51
46.4008329
0
ARC
8
DEFAULT_255_1_234
10
4.5410135
20
12.3001082
40
0.2205286
50
47.4371857
51
75.0698205
0
ARC
8
DEFAULT_255_1_234
10
4.5101529
20
12.1926765
40
0.3322915
50
74.7008593
51
87.8124495
0
ARC
8
DEFAULT_255_1_234
10
4.5028217
20
12.0870844
40
0.4380987
50
87.3814673
51
90.0240855
0
ARC
8
DEFAULT_255_1_234
10
4.498976
20
12.2048291
40
0.3203749
50
89.3451631
51
108.5745436
0
ARC
8
DEFAULT_255_1_234
10
4.4852865
20
12.2561908
40
0.2673494
50
109.2998449
51
143.3037509
0
ARC
8
DEFAULT_255_1_234
10
4.5614938
20
12.1975881
40
0.3634757
50
143.0753173
51
163.1916937
0
ARC
8
DEFAULT_255_1_234
10
4.7566666
20
12.1359967
40
0.5681262
50
162.9373603
51
174.6208611
0
ARC
8
DEFAULT_255_1_234
10
5.0192708
20
12.107201
40
0.8322832
50
174.3419979
51
180.1430411
0
ARC
8
DEFAULT_255_1_234
10
4.9261864
20
11.9877698
40
0.7392076
50
179.6817502
51
189.150529
0
ARC
8
DEFAULT_255_1_234
10
4.6761112
20
11.946119
40
0.4856932
50
188.9910863
51
203.5773039
0
ARC
8
DEFAULT_255_1_234
10
4.5681445
20
11.9013211
40
0.3688271
50
203.9077269
51
215.1312379
0
ARC
8
DEFAULT_255_1_234
10
4.4758539
20
11.8297941
40
0.2522457
50
213.9071664
51
263.8849284
0
ARC
8
DEFAULT_255_1_234
10
4.4883868
20
11.9082518
40
0.3316174
50
263.1758525
51
270.1031083
0
ARC
8
DEFAULT_255_1_234
10
4.491596
20
12.0329365
40
0.4563091
50
269.6719807
51
279.0609165
0
ARC
8
DEFAULT_255_1_234
10
4.5182728
20
11.8716907
40
0.2928759
50
278.8750225
51
293.6346586
0
ARC
8
DEFAULT_255_1_234
10
4.5502936
20
11.79649
40
0.2111472
50
293.8553404
51
310.0518804
0
ARC
8
DEFAULT_255_1_234
10
4.550779
20
11.7902516
40
0.2060917
50
311.0646779
51
332.0108348
0
ARC
8
DEFAULT_255_1_234
10
4.4315517
20
11.8559978
40
0.3422352
50
331.6588543
51
343.2878891
0
ARC
8
DEFAULT_255_1_234
10
4.2253032
20
11.9193798
40
0.5580003
50
343.1446044
51
351.010618
0
ARC
8
DEFAULT_255_1_234
10
4.0711678
20
11.9474871
40
0.7146438
50
350.7157277
51
351.1602153
0
LINE
8
DEFAULT_255_1_234
10
5.1431879
20
14.8585211
11
5.1431879
21
13.6891
0
LINE
8
DEFAULT_255_1_234
10
5.1431879
20
13.6891
11
4.9881753
21
13.6891
0
LINE
8
DEFAULT_255_1_234
10
4.9881753
20
13.6891
11
4.9881753
21
14.229636
0
LINE
8
DEFAULT_255_1_234
10
4.9881753
20
14.229636
11
4.3986458
21
14.229636
0
LINE
8
DEFAULT_255_1_234
10
4.3986458
20
14.229636
11
4.3986458
21
13.6891
0
LINE
8
DEFAULT_255_1_234
10
4.3986458
20
13.6891
11
4.2444364
21
13.6891
0
LINE
8
DEFAULT_255_1_234
10
4.2444364
20
13.6891
11
4.2444364
21
14.8585211
0
LINE
8
DEFAULT_255_1_234
10
4.2444364
20
14.8585211
11
4.3986458
21
14.8585211
0
LINE
8
DEFAULT_255_1_234
10
4.3986458
20
14.8585211
11
4.3986458
21
14.3557343
0
LINE
8
DEFAULT_255_1_234
10
4.3986458
20
14.3557343
11
4.9881753
21
14.3557343
0
LINE
8
DEFAULT_255_1_234
10
4.9881753
20
14.3557343
11
4.9881753
21
14.8585211
0
LINE
8
DEFAULT_255_1_234
10
4.9881753
20
14.8585211
11
5.1431879
21
14.8585211
0
LINE
8
DEFAULT_255_1_234
10
6.1929361
20
14.5203849
11
6.0379235
21
14.5203849
0
LINE
8
DEFAULT_255_1_234
10
5.3455877
20
14.0280394
11
5.5006002
21
14.0280394
0
ARC
8
DEFAULT_255_1_234
10
6.1038048
20
15.4150768
40
1.252368
50
248.9199003
51
254.1439814
0
ARC
8
DEFAULT_255_1_234
10
5.9357543
20
14.9824234
40
0.788226
50
241.633709
51
249.0064503
0
ARC
8
DEFAULT_255_1_234
10
5.7828937
20
14.7023317
40
0.4691427
50
230.498225
51
241.8087113
0
ARC
8
DEFAULT_255_1_234
10
5.7044512
20
14.6023906
40
0.3421437
50
227.4064532
51
229.9881192
0
ARC
8
DEFAULT_255_1_234
10
5.6557032
20
14.5548088
40
0.2741476
50
200.6781896
51
228.1763934
0
ARC
8
DEFAULT_255_1_234
10
5.6629343
20
14.5533077
40
0.2804109
50
179.5061581
51
199.8694617
0
ARC
8
DEFAULT_255_1_234
10
5.6620095
20
14.560721
40
0.2795204
50
132.4834203
51
181.0242172
0
ARC
8
DEFAULT_255_1_234
10
5.7215677
20
14.5044704
40
0.3612768
50
129.2532479
51
133.4242687
0
ARC
8
DEFAULT_255_1_234
10
5.7362127
20
14.4824965
40
0.3875675
50
101.98776
51
128.8742646
0
ARC
8
DEFAULT_255_1_234
10
5.7760737
20
14.3103741
40
0.5642249
50
89.5906553
51
102.3169264
0
ARC
8
DEFAULT_255_1_234
10
5.7831229
20
14.3422148
40
0.5323783
50
77.2360837
51
90.3248275
0
ARC
8
DEFAULT_255_1_234
10
5.8038308
20
14.43894
40
0.4334697
50
63.837784
51
77.0809408
0
ARC
8
DEFAULT_255_1_234
10
5.831607
20
14.4906911
40
0.3747796
50
45.9864267
51
64.1607727
0
ARC
8
DEFAULT_255_1_234
10
5.8576951
20
14.5204866
40
0.3352302
50
32.2747395
51
45.6547121
0
ARC
8
DEFAULT_255_1_234
10
5.8643392
20
14.522388
40
0.328603
50
359.6507365
51
32.6130309
0
ARC
8
DEFAULT_255_1_234
10
5.7700487
20
14.522866
40
0.2678863
50
359.469343
51
14.9832209
0
ARC
8
DEFAULT_255_1_234
10
5.840555
20
14.5417539
40
0.1948938
50
14.9781179
51
48.2004265
0
ARC
8
DEFAULT_255_1_234
10
5.8241194
20
14.5210983
40
0.2212521
50
48.5927837
51
74.1241538
0
ARC
8
DEFAULT_255_1_234
10
5.7907684
20
14.4110248
40
0.3362561
50
73.7888341
51
86.6652678
0
ARC
8
DEFAULT_255_1_234
10
5.7805249
20
14.2902881
40
0.4573953
50
86.2640471
51
90.0526343
0
ARC
8
DEFAULT_255_1_234
10
5.7776962
20
14.3298192
40
0.4178709
50
89.6697524
51
99.2309573
0
ARC
8
DEFAULT_255_1_234
10
5.7534413
20
14.4742964
40
0.2713749
50
99.069534
51
113.7658566
0
ARC
8
DEFAULT_255_1_234
10
5.7260604
20
14.5388677
40
0.2012469
50
114.0401004
51
127.9850673
0
ARC
8
DEFAULT_255_1_234
10
5.7020168
20
14.568473
40
0.1631167
50
127.7287463
51
176.7105154
0
ARC
8
DEFAULT_255_1_234
10
5.7698885
20
14.5583693
40
0.2315392
50
175.1779447
51
180.0581938
0
ARC
8
DEFAULT_255_1_234
10
5.6855732
20
14.5571428
40
0.1472271
50
179.6142195
51
228.1246017
0
ARC
8
DEFAULT_255_1_234
10
5.7297401
20
14.5980308
40
0.2072299
50
226.5779593
51
230.8800004
0
ARC
8
DEFAULT_255_1_234
10
5.7768479
20
14.6605636
40
0.2854818
50
231.4635071
51
241.9260842
0
ARC
8
DEFAULT_255_1_234
10
5.8965657
20
14.88088
40
0.53622
50
241.7178533
51
248.3259551
0
ARC
8
DEFAULT_255_1_234
10
6.0351029
20
15.2241064
40
0.9063478
50
248.2007737
51
252.4528373
0
ARC
8
DEFAULT_255_1_234
10
6.1554754
20
15.5962441
40
1.2974635
50
252.3391078
51
254.3469452
0
ARC
8
DEFAULT_255_1_234
10
5.4012457
20
12.8985148
40
1.5037162
50
71.0197183
51
74.4087047
0
ARC
8
DEFAULT_255_1_234
10
5.5707142
20
13.3877111
40
0.9859993
50
66.1847285
51
71.086374
0
ARC
8
DEFAULT_255_1_234
10
5.7263454
20
13.73812
40
0.6025855
50
59.3536294
51
66.2691831
0
ARC
8
DEFAULT_255_1_234
10
5.8152107
20
13.8884609
40
0.4279449
50
49.1020879
51
59.3293958
0
ARC
8
DEFAULT_255_1_234
10
5.8970847
20
13.9817834
40
0.3038015
50
32.7919921
51
49.2505539
0
ARC
8
DEFAULT_255_1_234
10
5.9291936
20
14.0046191
40
0.264448
50
31.1181161
51
32.4005348
0
ARC
8
DEFAULT_255_1_234
10
5.9203474
20
14.0010779
40
0.2738556
50
8.1116974
51
30.7958831
0
ARC
8
DEFAULT_255_1_234
10
5.8393142
20
13.9872753
40
0.3560327
50
359.8389159
51
8.4706516
0
ARC
8
DEFAULT_255_1_234
10
5.9018934
20
13.9824137
40
0.2934776
50
337.4731098
51
0.7537279
0
ARC
8
DEFAULT_255_1_234
10
5.9197629
20
13.9804387
40
0.2762607
50
307.5917067
51
336.4315538
0
ARC
8
DEFAULT_255_1_234
10
5.8737457
20
14.0317102
40
0.3449979
50
307.6551545
51
308.4529766
0
ARC
8
DEFAULT_255_1_234
10
5.8507175
20
14.067225
40
0.3871988
50
284.3734338
51
307.1424381
0
ARC
8
DEFAULT_255_1_234
10
5.8012006
20
14.2493932
40
0.5759636
50
272.4382747
51
284.646547
0
ARC
8
DEFAULT_255_1_234
10
5.7885214
20
14.4293893
40
0.7563528
50
269.9708387
51
272.8178037
0
ARC
8
DEFAULT_255_1_234
10
5.7842254
20
14.2255716
40
0.5525489
50
248.2707594
51
270.4055579
0
ARC
8
DEFAULT_255_1_234
10
5.7787995
20
14.2065192
40
0.5328452
50
246.1383403
51
248.0542782
0
ARC
8
DEFAULT_255_1_234
10
5.7369374
20
14.1185843
40
0.4355005
50
233.1670131
51
246.4950969
0
ARC
8
DEFAULT_255_1_234
10
5.6815279
20
14.0437812
40
0.3424126
50
215.3403242
51
233.0843104
0
ARC
8
DEFAULT_255_1_234
10
5.654271
20
14.0239549
40
0.3087104
50
179.2419209
51
215.2648451
0
ARC
8
DEFAULT_255_1_234
10
5.7310304
20
14.0253666
40
0.2304457
50
179.335461
51
199.1045811
0
ARC
8
DEFAULT_255_1_234
10
5.6977981
20
14.0166766
40
0.1962176
50
199.8828939
51
232.7063202
0
ARC
8
DEFAULT_255_1_234
10
5.7450249
20
14.0760788
40
0.2720938
50
232.3738199
51
255.5136649
0
ARC
8
DEFAULT_255_1_234
10
5.7791116
20
14.2004835
40
0.4010747
50
255.2446292
51
267.5320849
0
ARC
8
DEFAULT_255_1_234
10
5.7878739
20
14.3237702
40
0.5246356
50
267.1557994
51
270.0286766
0
ARC
8
DEFAULT_255_1_234
10
5.7906511
20
14.279395
40
0.4802668
50
269.7000017
51
278.1660162
0
ARC
8
DEFAULT_255_1_234
10
5.8162516
20
14.1063515
40
0.3053425
50
278.0231263
51
290.625471
0
ARC
8
DEFAULT_255_1_234
10
5.8510203
20
14.0136025
40
0.206291
50
290.6619762
51
307.0370976
0
ARC
8
DEFAULT_255_1_234
10
5.8810592
20
13.9767504
40
0.1587906
50
306.3943566
51
355.3030547
0
ARC
8
DEFAULT_255_1_234
10
5.8298524
20
13.9844113
40
0.2104809
50
354.3660432
51
0.0698737
0
ARC
8
DEFAULT_255_1_234
10
5.8440869
20
13.9866617
40
0.1962563
50
359.417946
51
16.1971788
0
ARC
8
DEFAULT_255_1_234
10
5.8896179
20
13.9991418
40
0.149053
50
16.4723299
51
52.6262157
0
ARC
8
DEFAULT_255_1_234
10
5.8075233
20
13.8907433
40
0.2850296
50
52.7386432
51
62.4979148
0
ARC
8
DEFAULT_255_1_234
10
5.669031
20
13.6301283
40
0.5801521
50
62.2515216
51
68.1220564
0
ARC
8
DEFAULT_255_1_234
10
5.4970221
20
13.2073872
40
1.0365451
50
68.0062803
51
71.8053402
0
ARC
8
DEFAULT_255_1_234
10
5.3174593
20
12.6688758
40
1.6042013
50
71.7183119
51
73.9258742
0
LINE
8
DEFAULT_255_1_234
10
6.4459358
20
14.8585211
11
6.7495355
21
14.271401
0
LINE
8
DEFAULT_255_1_234
10
6.7495355
20
14.271401
11
7.0547416
21
14.8585211
0
LINE
8
DEFAULT_255_1_234
10
7.0547416
20
14.8585211
11
7.2298335
21
14.8585211
0
LINE
8
DEFAULT_255_1_234
10
7.2298335
20
14.8585211
11
6.8266402
21
14.1252234
0
LINE
8
DEFAULT_255_1_234
10
6.8266402
20
14.1252234
11
6.8266402
21
13.6891
0
LINE
8
DEFAULT_255_1_234
10
6.8266402
20
13.6891
11
6.6724309
21
13.6891
0
LINE
8
DEFAULT_255_1_234
10
6.6724309
20
13.6891
11
6.6724309
21
14.1252234
0
LINE
8
DEFAULT_255_1_234
10
6.6724309
20
14.1252234
11
6.2692376
21
14.8585211
0
LINE
8
DEFAULT_255_1_234
10
6.2692376
20
14.8585211
11
6.4459358
21
14.8585211
0
LINE
8
DEFAULT_255_1_234
10
8.2795817
20
14.8585211
11
8.2795817
21
13.6891
0
LINE
8
DEFAULT_255_1_234
10
8.2795817
20
13.6891
11
8.1245691
21
13.6891
0
LINE
8
DEFAULT_255_1_234
10
8.1245691
20
13.6891
11
7.5358427
21
14.590261
0
LINE
8
DEFAULT_255_1_234
10
7.5358427
20
14.590261
11
7.5358427
21
13.6891
0
LINE
8
DEFAULT_255_1_234
10
7.5358427
20
13.6891
11
7.3808302
21
13.6891
0
LINE
8
DEFAULT_255_1_234
10
7.3808302
20
13.6891
11
7.3808302
21
14.8585211
0
LINE
8
DEFAULT_255_1_234
10
7.3808302
20
14.8585211
11
7.5358427
21
14.8585211
0
LINE
8
DEFAULT_255_1_234
10
7.5358427
20
14.8585211
11
8.1261755
21
13.9533442
0
LINE
8
DEFAULT_255_1_234
10
8.1261755
20
13.9533442
11
8.1261755
21
14.8585211
0
LINE
8
DEFAULT_255_1_234
10
8.1261755
20
14.8585211
11
8.2795817
21
14.8585211
0
LINE
8
DEFAULT_255_1_234
10
4.5425344
20
20.9732091
11
4.2670458
21
20.9732091
0
LINE
8
DEFAULT_255_1_234
10
4.2670458
20
20.9732091
11
4.2670458
21
20.5154
0
LINE
8
DEFAULT_255_1_234
10
4.2670458
20
20.5154
11
4.1128364
21
20.5154
0
LINE
8
DEFAULT_255_1_234
10
4.1128364
20
20.5154
11
4.1128364
21
21.6848211
0
LINE
8
DEFAULT_255_1_234
10
4.1128364
20
21.6848211
11
4.5441407
21
21.6848211
0
LINE
8
DEFAULT_255_1_234
10
4.2670458
20
21.5579196
11
4.2670458
21
21.0993074
0
LINE
8
DEFAULT_255_1_234
10
4.2670458
20
21.0993074
11
4.5441407
21
21.0993074
0
LINE
8
DEFAULT_255_1_234
10
4.5529756
20
21.5579196
11
4.2670458
21
21.5579196
0
ARC
8
DEFAULT_255_1_234
10
4.5483534
20
21.0789195
40
0.6059162
50
78.8378113
51
90.3983573
0
ARC
8
DEFAULT_255_1_234
10
4.5899548
20
21.2809879
40
0.3996205
50
58.9632738
51
79.0810598
0
ARC
8
DEFAULT_255_1_234
10
4.620109
20
21.3369721
40
0.3361177
50
48.0197965
51
58.447194
0
ARC
8
DEFAULT_255_1_234
10
4.6289951
20
21.3455225
40
0.3238191
50
3.3375044
51
48.1766626
0
ARC
8
DEFAULT_255_1_234
10
4.505979
20
21.3278171
40
0.4477806
50
359.9477528
51
4.6829065
0
ARC
8
DEFAULT_255_1_234
10
4.5183107
20
21.3235628
40
0.4354656
50
346.1877825
51
0.5060252
0
ARC
8
DEFAULT_255_1_234
10
4.6541975
20
21.2882731
40
0.295089
50
310.8831995
51
346.5426355
0
ARC
8
DEFAULT_255_1_234
10
4.6233395
20
21.3299695
40
0.3468331
50
286.6925341
51
310.2288297
0
ARC
8
DEFAULT_255_1_234
10
4.5664226
20
21.5089882
40
0.5346654
50
274.6850312
51
287.0245141
0
ARC
8
DEFAULT_255_1_234
10
4.5438949
20
21.7298932
40
0.7566852
50
269.8969846
51
275.018904
0
ARC
8
DEFAULT_255_1_234
10
4.546654
20
21.5219707
40
0.4226708
50
269.6593078
51
279.4153575
0
ARC
8
DEFAULT_255_1_234
10
4.5723815
20
21.3729133
40
0.2714146
50
279.2049762
51
294.9900808
0
ARC
8
DEFAULT_255_1_234
10
4.6014141
20
21.3081508
40
0.2004525
50
295.2888114
51
311.2911209
0
ARC
8
DEFAULT_255_1_234
10
4.6085035
20
21.297622
40
0.1878703
50
311.7854996
51
347.2861051
0
ARC
8
DEFAULT_255_1_234
10
4.5101194
20
21.3229092
40
0.2894234
50
346.6893224
51
0.1059443
0
ARC
8
DEFAULT_255_1_234
10
4.4346089
20
21.3257685
40
0.3649409
50
359.6350983
51
0.0053152
0
ARC
8
DEFAULT_255_1_234
10
4.5316417
20
21.3282937
40
0.2679199
50
359.4672059
51
15.5933957
0
ARC
8
DEFAULT_255_1_234
10
4.5941306
20
21.3451779
40
0.2031932
50
15.7442113
51
46.6203375
0
ARC
8
DEFAULT_255_1_234
10
4.5793527
20
21.3281484
40
0.2257226
50
46.8628658
51
75.6676503
0
ARC
8
DEFAULT_255_1_234
10
4.5499347
20
21.2222718
40
0.3355939
50
75.276167
51
88.2915297
0
ARC
8
DEFAULT_255_1_234
10
4.5441054
20
21.1344524
40
0.4235602
50
87.8575022
51
88.8000139
0
LINE
8
DEFAULT_255_1_234
10
6.0492885
20
21.6848211
11
6.0492885
21
20.5154
0
LINE
8
DEFAULT_255_1_234
10
6.0492885
20
20.5154
11
5.8942759
21
20.5154
0
LINE
8
DEFAULT_255_1_234
10
5.8942759
20
20.5154
11
5.3055495
21
21.416561
0
LINE
8
DEFAULT_255_1_234
10
5.3055495
20
21.416561
11
5.3055495
21
20.5154
0
LINE
8
DEFAULT_255_1_234
10
5.3055495
20
20.5154
11
5.150537
21
20.5154
0
LINE
8
DEFAULT_255_1_234
10
5.150537
20
20.5154
11
5.150537
21
21.6848211
0
LINE
8
DEFAULT_255_1_234
10
5.150537
20
21.6848211
11
5.3055495
21
21.6848211
0
LINE
8
DEFAULT_255_1_234
10
5.3055495
20
21.6848211
11
5.8958823
21
20.7796442
0
LINE
8
DEFAULT_255_1_234
10
5.8958823
20
20.7796442
11
5.8958823
21
21.6848211
0
LINE
8
DEFAULT_255_1_234
10
5.8958823
20
21.6848211
11
6.0492885
21
21.6848211
0
LINE
8
DEFAULT_255_1_234
10
4.5425344
20
28.9107091
11
4.2670458
21
28.9107091
0
LINE
8
DEFAULT_255_1_234
10
4.2670458
20
28.9107091
11
4.2670458
21
28.4529
0
LINE
8
DEFAULT_255_1_234
10
4.2670458
20
28.4529
11
4.1128364
21
28.4529
0
LINE
8
DEFAULT_255_1_234
10
4.1128364
20
28.4529
11
4.1128364
21
29.6223211
0
LINE
8
DEFAULT_255_1_234
10
4.1128364
20
29.6223211
11
4.5441407
21
29.6223211
0
LINE
8
DEFAULT_255_1_234
10
4.2670458
20
29.4954196
11
4.2670458
21
29.0368074
0
LINE
8
DEFAULT_255_1_234
10
4.2670458
20
29.0368074
11
4.5441407
21
29.0368074
0
LINE
8
DEFAULT_255_1_234
10
4.5529756
20
29.4954196
11
4.2670458
21
29.4954196
0
ARC
8
DEFAULT_255_1_234
10
4.5483534
20
29.0164195
40
0.6059162
50
78.8378113
51
90.3983573
0
ARC
8
DEFAULT_255_1_234
10
4.5899548
20
29.2184879
40
0.3996205
50
58.9632738
51
79.0810598
0
ARC
8
DEFAULT_255_1_234
10
4.620109
20
29.2744721
40
0.3361177
50
48.0197965
51
58.447194
0
ARC
8
DEFAULT_255_1_234
10
4.6289951
20
29.2830225
40
0.3238191
50
3.3375044
51
48.1766626
0
ARC
8
DEFAULT_255_1_234
10
4.505979
20
29.2653171
40
0.4477806
50
359.9477528
51
4.6829065
0
ARC
8
DEFAULT_255_1_234
10
4.5183107
20
29.2610628
40
0.4354656
50
346.1877825
51
0.5060252
0
ARC
8
DEFAULT_255_1_234
10
4.6541975
20
29.2257731
40
0.295089
50
310.8831995
51
346.5426355
0
ARC
8
DEFAULT_255_1_234
10
4.6233395
20
29.2674695
40
0.3468331
50
286.6925341
51
310.2288297
0
ARC
8
DEFAULT_255_1_234
10
4.5664226
20
29.4464882
40
0.5346654
50
274.6850312
51
287.0245141
0
ARC
8
DEFAULT_255_1_234
10
4.5438949
20
29.6673932
40
0.7566852
50
269.8969846
51
275.018904
0
ARC
8
DEFAULT_255_1_234
10
4.546654
20
29.4594707
40
0.4226708
50
269.6593078
51
279.4153575
0
ARC
8
DEFAULT_255_1_234
10
4.5723815
20
29.3104133
40
0.2714146
50
279.2049762
51
294.9900808
0
ARC
8
DEFAULT_255_1_234
10
4.6014141
20
29.2456508
40
0.2004525
50
295.2888114
51
311.2911209
0
ARC
8
DEFAULT_255_1_234
10
4.6085035
20
29.235122
40
0.1878703
50
311.7854996
51
347.2861051
0
ARC
8
DEFAULT_255_1_234
10
4.5101194
20
29.2604092
40
0.2894234
50
346.6893224
51
0.1059443
0
ARC
8
DEFAULT_255_1_234
10
4.4346089
20
29.2632685
40
0.3649409
50
359.6350983
51
0.0053152
0
ARC
8
DEFAULT_255_1_234
10
4.5316417
20
29.2657937
40
0.2679199
50
359.4672059
51
15.5933957
0
ARC
8
DEFAULT_255_1_234
10
4.5941306
20
29.2826779
40
0.2031932
50
15.7442113
51
46.6203375
0
ARC
8
DEFAULT_255_1_234
10
4.5793527
20
29.2656484
40
0.2257226
50
46.8628658
51
75.6676503
0
ARC
8
DEFAULT_255_1_234
10
4.5499347
20
29.1597718
40
0.3355939
50
75.276167
51
88.2915297
0
ARC
8
DEFAULT_255_1_234
10
4.5441054
20
29.0719524
40
0.4235602
50
87.8575022
51
88.8000139
0
LINE
8
DEFAULT_255_1_234
10
6.0492885
20
29.6223211
11
6.0492885
21
28.4529
0
LINE
8
DEFAULT_255_1_234
10
6.0492885
20
28.4529
11
5.8942759
21
28.4529
0
LINE
8
DEFAULT_255_1_234
10
5.8942759
20
28.4529
11
5.3055495
21
29.354061
0
LINE
8
DEFAULT_255_1_234
10
5.3055495
20
29.354061
11
5.3055495
21
28.4529
0
LINE
8
DEFAULT_255_1_234
10
5.3055495
20
28.4529
11
5.150537
21
28.4529
0
LINE
8
DEFAULT_255_1_234
10
5.150537
20
28.4529
11
5.150537
21
29.6223211
0
LINE
8
DEFAULT_255_1_234
10
5.150537
20
29.6223211
11
5.3055495
21
29.6223211
0
LINE
8
DEFAULT_255_1_234
10
5.3055495
20
29.6223211
11
5.8958823
21
28.7171442
0
LINE
8
DEFAULT_255_1_234
10
5.8958823
20
28.7171442
11
5.8958823
21
29.6223211
0
LINE
8
DEFAULT_255_1_234
10
5.8958823
20
29.6223211
11
6.0492885
21
29.6223211
0
LINE
8
DEFAULT_255_1_234
10
4.5425344
20
36.8482091
11
4.2670458
21
36.8482091
0
LINE
8
DEFAULT_255_1_234
10
4.2670458
20
36.8482091
11
4.2670458
21
36.3904
0
LINE
8
DEFAULT_255_1_234
10
4.2670458
20
36.3904
11
4.1128364
21
36.3904
0
LINE
8
DEFAULT_255_1_234
10
4.1128364
20
36.3904
11
4.1128364
21
37.5598211
0
LINE
8
DEFAULT_255_1_234
10
4.1128364
20
37.5598211
11
4.5441407
21
37.5598211
0
LINE
8
DEFAULT_255_1_234
10
4.2670458
20
37.4329196
11
4.2670458
21
36.9743074
0
LINE
8
DEFAULT_255_1_234
10
4.2670458
20
36.9743074
11
4.5441407
21
36.9743074
0
LINE
8
DEFAULT_255_1_234
10
4.5529756
20
37.4329196
11
4.2670458
21
37.4329196
0
ARC
8
DEFAULT_255_1_234
10
4.5483534
20
36.9539195
40
0.6059162
50
78.8378113
51
90.3983573
0
ARC
8
DEFAULT_255_1_234
10
4.5899548
20
37.1559879
40
0.3996205
50
58.9632738
51
79.0810598
0
ARC
8
DEFAULT_255_1_234
10
4.620109
20
37.2119721
40
0.3361177
50
48.0197965
51
58.447194
0
ARC
8
DEFAULT_255_1_234
10
4.6289951
20
37.2205225
40
0.3238191
50
3.3375044
51
48.1766626
0
ARC
8
DEFAULT_255_1_234
10
4.505979
20
37.2028171
40
0.4477806
50
359.9477528
51
4.6829065
0
ARC
8
DEFAULT_255_1_234
10
4.5183107
20
37.1985628
40
0.4354656
50
346.1877825
51
0.5060252
0
ARC
8
DEFAULT_255_1_234
10
4.6541975
20
37.1632731
40
0.295089
50
310.8831995
51
346.5426355
0
ARC
8
DEFAULT_255_1_234
10
4.6233395
20
37.2049695
40
0.3468331
50
286.6925341
51
310.2288297
0
ARC
8
DEFAULT_255_1_234
10
4.5664226
20
37.3839882
40
0.5346654
50
274.6850312
51
287.0245141
0
ARC
8
DEFAULT_255_1_234
10
4.5438949
20
37.6048932
40
0.7566852
50
269.8969846
51
275.018904
0
ARC
8
DEFAULT_255_1_234
10
4.546654
20
37.3969707
40
0.4226708
50
269.6593078
51
279.4153575
0
ARC
8
DEFAULT_255_1_234
10
4.5723815
20
37.2479133
40
0.2714146
50
279.2049762
51
294.9900808
0
ARC
8
DEFAULT_255_1_234
10
4.6014141
20
37.1831508
40
0.2004525
50
295.2888114
51
311.2911209
0
ARC
8
DEFAULT_255_1_234
10
4.6085035
20
37.172622
40
0.1878703
50
311.7854996
51
347.2861051
0
ARC
8
DEFAULT_255_1_234
10
4.5101194
20
37.1979092
40
0.2894234
50
346.6893224
51
0.1059443
0
ARC
8
DEFAULT_255_1_234
10
4.4346089
20
37.2007685
40
0.3649409
50
359.6350983
51
0.0053152
0
ARC
8
DEFAULT_255_1_234
10
4.5316417
20
37.2032937
40
0.2679199
50
359.4672059
51
15.5933957
0
ARC
8
DEFAULT_255_1_234
10
4.5941306
20
37.2201779
40
0.2031932
50
15.7442113
51
46.6203375
0
ARC
8
DEFAULT_255_1_234
10
4.5793527
20
37.2031484
40
0.2257226
50
46.8628658
51
75.6676503
0
ARC
8
DEFAULT_255_1_234
10
4.5499347
20
37.0972718
40
0.3355939
50
75.276167
51
88.2915297
0
ARC
8
DEFAULT_255_1_234
10
4.5441054
20
37.0094524
40
0.4235602
50
87.8575022
51
88.8000139
0
LINE
8
DEFAULT_255_1_234
10
6.0492885
20
37.5598211
11
6.0492885
21
36.3904
0
LINE
8
DEFAULT_255_1_234
10
6.0492885
20
36.3904
11
5.8942759
21
36.3904
0
LINE
8
DEFAULT_255_1_234
10
5.8942759
20
36.3904
11
5.3055495
21
37.291561
0
LINE
8
DEFAULT_255_1_234
10
5.3055495
20
37.291561
11
5.3055495
21
36.3904
0
LINE
8
DEFAULT_255_1_234
10
5.3055495
20
36.3904
11
5.150537
21
36.3904
0
LINE
8
DEFAULT_255_1_234
10
5.150537
20
36.3904
11
5.150537
21
37.5598211
0
LINE
8
DEFAULT_255_1_234
10
5.150537
20
37.5598211
11
5.3055495
21
37.5598211
0
LINE
8
DEFAULT_255_1_234
10
5.3055495
20
37.5598211
11
5.8958823
21
36.6546442
0
LINE
8
DEFAULT_255_1_234
10
5.8958823
20
36.6546442
11
5.8958823
21
37.5598211
0
LINE
8
DEFAULT_255_1_234
10
5.8958823
20
37.5598211
11
6.0492885
21
37.5598211
0
LINE
8
DEFAULT_255_1_234
10
4.8771119
20
44.4491792
11
4.8771119
21
44.3279
0
LINE
8
DEFAULT_255_1_234
10
4.8771119
20
44.3279
11
4.110884
21
44.3279
0
LINE
8
DEFAULT_255_1_234
10
4.110884
20
44.3279
11
4.110884
21
44.4347221
0
LINE
8
DEFAULT_255_1_234
10
4.110884
20
44.4347221
11
4.5156836
21
44.8844995
0
LINE
8
DEFAULT_255_1_234
10
4.2369823
20
45.1527595
11
4.0883952
21
45.1527595
0
LINE
8
DEFAULT_255_1_234
10
4.6032296
20
44.7889218
11
4.2899918
21
44.4491792
0
LINE
8
DEFAULT_255_1_234
10
4.2899918
20
44.4491792
11
4.8771119
21
44.4491792
0
ARC
8
DEFAULT_255_1_234
10
3.166667
20
46.0774527
40
1.8008286
50
318.5132453
51
320.7828378
0
ARC
8
DEFAULT_255_1_234
10
3.6953644
20
45.6471426
40
1.1191493
50
320.7372736
51
323.9737074
0
ARC
8
DEFAULT_255_1_234
10
4.0873501
20
45.3631361
40
0.6350923
50
323.8961724
51
328.6421089
0
ARC
8
DEFAULT_255_1_234
10
4.2920096
20
45.2369031
40
0.3946393
50
328.8299013
51
331.789948
0
ARC
8
DEFAULT_255_1_234
10
4.3917274
20
45.1854509
40
0.2824501
50
331.4255242
51
352.9364833
0
ARC
8
DEFAULT_255_1_234
10
4.4053775
20
45.1823976
40
0.2685315
50
353.2248685
51
0.0169286
0
ARC
8
DEFAULT_255_1_234
10
4.4263652
20
45.184695
40
0.2475536
50
359.4866256
51
15.9339782
0
ARC
8
DEFAULT_255_1_234
10
4.4770637
20
45.1983286
40
0.1950618
50
16.1714718
51
43.5284424
0
ARC
8
DEFAULT_255_1_234
10
4.4847946
20
45.2060573
40
0.184134
50
43.4415429
51
83.1661404
0
ARC
8
DEFAULT_255_1_234
10
4.4713864
20
45.1323771
40
0.258926
50
82.160215
51
90.1505798
0
ARC
8
DEFAULT_255_1_234
10
4.4682291
20
45.0786865
40
0.3126255
50
89.5460705
51
102.5418777
0
ARC
8
DEFAULT_255_1_234
10
4.4439377
20
45.1817665
40
0.2067346
50
102.1739365
51
129.2061916
0
ARC
8
DEFAULT_255_1_234
10
4.4360449
20
45.1942094
40
0.1921118
50
129.7279328
51
135.7542026
0
ARC
8
DEFAULT_255_1_234
10
4.4481977
20
45.1845045
40
0.2075944
50
136.175737
51
166.3674722
0
ARC
8
DEFAULT_255_1_234
10
4.5488896
20
45.1575182
40
0.3118201
50
165.9092917
51
178.8683903
0
ARC
8
DEFAULT_255_1_234
10
4.6353757
20
45.1528179
40
0.3983935
50
178.438168
51
180.0083905
0
ARC
8
DEFAULT_255_1_234
10
4.4952359
20
45.1567231
40
0.4068601
50
163.2878735
51
180.5581814
0
ARC
8
DEFAULT_255_1_234
10
4.4150621
20
45.178784
40
0.3237344
50
133.454115
51
162.9470031
0
ARC
8
DEFAULT_255_1_234
10
4.4329162
20
45.1598
40
0.349795
50
100.7869394
51
133.4384016
0
ARC
8
DEFAULT_255_1_234
10
4.4676934
20
45.0049319
40
0.5084616
50
89.6605301
51
101.3704185
0
ARC
8
DEFAULT_255_1_234
10
4.4743273
20
45.0110496
40
0.502348
50
78.2171172
51
90.4130393
0
ARC
8
DEFAULT_255_1_234
10
4.5098351
20
45.1734637
40
0.3361092
50
55.9268222
51
78.4888551
0
ARC
8
DEFAULT_255_1_234
10
4.5294791
20
45.2073324
40
0.2970617
50
47.9292255
51
55.4054003
0
ARC
8
DEFAULT_255_1_234
10
4.5396352
20
45.2176502
40
0.2825983
50
4.3347696
51
48.0560701
0
ARC
8
DEFAULT_255_1_234
10
4.4300745
20
45.2006601
40
0.393225
50
359.925209
51
5.5967654
0
ARC
8
DEFAULT_255_1_234
10
4.4729637
20
45.2062816
40
0.3503892
50
337.8914096
51
358.9967724
0
ARC
8
DEFAULT_255_1_234
10
4.2016049
20
45.3109706
40
0.6412172
50
326.9135351
51
338.3505194
0
ARC
8
DEFAULT_255_1_234
10
3.8030353
20
45.5664284
40
1.1146189
50
319.6472867
51
327.095818
0
ARC
8
DEFAULT_255_1_234
10
3.4197356
20
45.8826
40
1.6114559
50
317.2586784
51
319.9046139
0
LINE
8
DEFAULT_255_1_234
10
5.2280988
20
45.4973211
11
5.2280988
21
44.4539983
0
LINE
8
DEFAULT_255_1_234
10
5.2280988
20
44.4539983
11
5.7822888
21
44.4539983
0
LINE
8
DEFAULT_255_1_234
10
5.7822888
20
44.4539983
11
5.7822888
21
44.3279
0
LINE
8
DEFAULT_255_1_234
10
5.7822888
20
44.3279
11
5.0730863
21
44.3279
0
LINE
8
DEFAULT_255_1_234
10
5.0730863
20
44.3279
11
5.0730863
21
45.4973211
0
LINE
8
DEFAULT_255_1_234
10
5.0730863
20
45.4973211
11
5.2280988
21
45.4973211
0
LINE
8
DEFAULT_255_1_234
10
6.3605739
20
45.2965276
11
6.3605739
21
44.9551788
0
LINE
8
DEFAULT_255_1_234
10
6.3605739
20
44.9551788
11
6.6866625
21
44.9551788
0
LINE
8
DEFAULT_255_1_234
10
6.6866625
20
44.9551788
11
6.6866625
21
44.8146233
0
LINE
8
DEFAULT_255_1_234
10
6.6866625
20
44.8146233
11
6.3605739
21
44.8146233
0
LINE
8
DEFAULT_255_1_234
10
6.3605739
20
44.8146233
11
6.3605739
21
44.4451634
0
LINE
8
DEFAULT_255_1_234
10
6.3605739
20
44.4451634
11
6.2111836
21
44.4451634
0
LINE
8
DEFAULT_255_1_234
10
6.2111836
20
44.4451634
11
6.2111836
21
44.8146233
0
LINE
8
DEFAULT_255_1_234
10
6.2111836
20
44.8146233
11
5.885095
21
44.8146233
0
LINE
8
DEFAULT_255_1_234
10
5.885095
20
44.8146233
11
5.885095
21
44.9551788
0
LINE
8
DEFAULT_255_1_234
10
5.885095
20
44.9551788
11
6.2111836
21
44.9551788
0
LINE
8
DEFAULT_255_1_234
10
6.2111836
20
44.9551788
11
6.2111836
21
45.2965276
0
LINE
8
DEFAULT_255_1_234
10
6.2111836
20
45.2965276
11
6.3605739
21
45.2965276
0
LINE
8
DEFAULT_255_1_234
10
22.5123137
20
53.4404433
11
22.5123137
21
52.2654
0
LINE
8
DEFAULT_255_1_234
10
22.5123137
20
52.2654
11
22.3629234
21
52.2654
0
LINE
8
DEFAULT_255_1_234
10
22.3629234
20
52.2654
11
22.3629234
21
53.2557133
0
LINE
8
DEFAULT_255_1_234
10
22.3629234
20
53.2557133
11
22.0633396
21
53.1456785
0
LINE
8
DEFAULT_255_1_234
10
22.0633396
20
53.1456785
11
22.0633396
21
53.2806117
0
LINE
8
DEFAULT_255_1_234
10
22.0633396
20
53.2806117
11
22.4890217
21
53.4404433
0
LINE
8
DEFAULT_255_1_234
10
22.4890217
20
53.4404433
11
22.5123137
21
53.4404433
0
LINE
8
DEFAULT_255_1_234
10
22.9861863
20
53.4348211
11
23.1853734
21
53.4348211
0
LINE
8
DEFAULT_255_1_234
10
23.1853734
20
53.4348211
11
23.5676841
21
52.4806506
0
LINE
8
DEFAULT_255_1_234
10
23.5676841
20
52.4806506
11
23.9499949
21
53.4348211
0
LINE
8
DEFAULT_255_1_234
10
23.9499949
20
53.4348211
11
24.1499852
21
53.4348211
0
LINE
8
DEFAULT_255_1_234
10
24.1499852
20
53.4348211
11
24.1499852
21
52.2654
0
LINE
8
DEFAULT_255_1_234
10
24.1499852
20
52.2654
11
23.9957758
21
52.2654
0
LINE
8
DEFAULT_255_1_234
10
23.9957758
20
52.2654
11
23.9957758
21
52.7207996
0
LINE
8
DEFAULT_255_1_234
10
23.9957758
20
52.7207996
11
24.0102329
21
53.2123419
0
LINE
8
DEFAULT_255_1_234
10
24.0102329
20
53.2123419
11
23.6263158
21
52.2654
0
LINE
8
DEFAULT_255_1_234
10
23.6263158
20
52.2654
11
23.5082493
21
52.2654
0
LINE
8
DEFAULT_255_1_234
10
23.5082493
20
52.2654
11
23.1251354
21
53.2099324
0
LINE
8
DEFAULT_255_1_234
10
23.1251354
20
53.2099324
11
23.1403957
21
52.7207996
0
LINE
8
DEFAULT_255_1_234
10
23.1403957
20
52.7207996
11
23.1403957
21
52.2654
0
LINE
8
DEFAULT_255_1_234
10
23.1403957
20
52.2654
11
22.9861863
21
52.2654
0
LINE
8
DEFAULT_255_1_234
10
22.9861863
20
52.2654
11
22.9861863
21
53.4348211
0
LINE
8
DEFAULT_255_1_234
10
22.7902119
20
44.4491792
11
22.7902119
21
44.3279
0
LINE
8
DEFAULT_255_1_234
10
22.7902119
20
44.3279
11
22.023984
21
44.3279
0
LINE
8
DEFAULT_255_1_234
10
22.023984
20
44.3279
11
22.023984
21
44.4347221
0
LINE
8
DEFAULT_255_1_234
10
22.023984
20
44.4347221
11
22.4287836
21
44.8844995
0
LINE
8
DEFAULT_255_1_234
10
22.1500823
20
45.1527595
11
22.0014952
21
45.1527595
0
LINE
8
DEFAULT_255_1_234
10
22.5163296
20
44.7889218
11
22.2030918
21
44.4491792
0
LINE
8
DEFAULT_255_1_234
10
22.2030918
20
44.4491792
11
22.7902119
21
44.4491792
0
ARC
8
DEFAULT_255_1_234
10
21.079767
20
46.0774527
40
1.8008286
50
318.5132453
51
320.7828378
0
ARC
8
DEFAULT_255_1_234
10
21.6084644
20
45.6471426
40
1.1191493
50
320.7372736
51
323.9737074
0
ARC
8
DEFAULT_255_1_234
10
22.0004501
20
45.3631361
40
0.6350923
50
323.8961724
51
328.6421089
0
ARC
8
DEFAULT_255_1_234
10
22.2051096
20
45.2369031
40
0.3946393
50
328.8299013
51
331.789948
0
ARC
8
DEFAULT_255_1_234
10
22.3048274
20
45.1854509
40
0.2824501
50
331.4255242
51
352.9364833
0
ARC
8
DEFAULT_255_1_234
10
22.3184775
20
45.1823976
40
0.2685315
50
353.2248685
51
0.0169286
0
ARC
8
DEFAULT_255_1_234
10
22.3394652
20
45.184695
40
0.2475536
50
359.4866256
51
15.9339782
0
ARC
8
DEFAULT_255_1_234
10
22.3901637
20
45.1983286
40
0.1950618
50
16.1714718
51
43.5284424
0
ARC
8
DEFAULT_255_1_234
10
22.3978946
20
45.2060573
40
0.184134
50
43.4415429
51
83.1661404
0
ARC
8
DEFAULT_255_1_234
10
22.3844864
20
45.1323771
40
0.258926
50
82.160215
51
90.1505798
0
ARC
8
DEFAULT_255_1_234
10
22.3813291
20
45.0786865
40
0.3126255
50
89.5460705
51
102.5418777
0
ARC
8
DEFAULT_255_1_234
10
22.3570377
20
45.1817665
40
0.2067346
50
102.1739365
51
129.2061916
0
ARC
8
DEFAULT_255_1_234
10
22.3491449
20
45.1942094
40
0.1921118
50
129.7279328
51
135.7542026
0
ARC
8
DEFAULT_255_1_234
10
22.3612977
20
45.1845045
40
0.2075944
50
136.175737
51
166.3674722
0
ARC
8
DEFAULT_255_1_234
10
22.4619896
20
45.1575182
40
0.3118201
50
165.9092917
51
178.8683903
0
ARC
8
DEFAULT_255_1_234
10
22.5484757
20
45.1528179
40
0.3983935
50
178.438168
51
180.0083905
0
ARC
8
DEFAULT_255_1_234
10
22.4083359
20
45.1567231
40
0.4068601
50
163.2878735
51
180.5581814
0
ARC
8
DEFAULT_255_1_234
10
22.3281621
20
45.178784
40
0.3237344
50
133.454115
51
162.9470031
0
ARC
8
DEFAULT_255_1_234
10
22.3460162
20
45.1598
40
0.349795
50
100.7869394
51
133.4384016
0
ARC
8
DEFAULT_255_1_234
10
22.3807934
20
45.0049319
40
0.5084616
50
89.6605301
51
101.3704185
0
ARC
8
DEFAULT_255_1_234
10
22.3874273
20
45.0110496
40
0.502348
50
78.2171172
51
90.4130393
0
ARC
8
DEFAULT_255_1_234
10
22.4229351
20
45.1734637
40
0.3361092
50
55.9268222
51
78.4888551
0
ARC
8
DEFAULT_255_1_234
10
22.4425791
20
45.2073324
40
0.2970617
50
47.9292255
51
55.4054003
0
ARC
8
DEFAULT_255_1_234
10
22.4527352
20
45.2176502
40
0.2825983
50
4.3347696
51
48.0560701
0
ARC
8
DEFAULT_255_1_234
10
22.3431745
20
45.2006601
40
0.393225
50
359.925209
51
5.5967654
0
ARC
8
DEFAULT_255_1_234
10
22.3860637
20
45.2062816
40
0.3503892
50
337.8914096
51
358.9967724
0
ARC
8
DEFAULT_255_1_234
10
22.1147049
20
45.3109706
40
0.6412172
50
326.9135351
51
338.3505194
0
ARC
8
DEFAULT_255_1_234
10
21.7161353
20
45.5664284
40
1.1146189
50
319.6472867
51
327.095818
0
ARC
8
DEFAULT_255_1_234
10
21.3328356
20
45.8826
40
1.6114559
50
317.2586784
51
319.9046139
0
LINE
8
DEFAULT_255_1_234
10
22.9861863
20
45.4973211
11
23.1853734
21
45.4973211
0
LINE
8
DEFAULT_255_1_234
10
23.1853734
20
45.4973211
11
23.5676841
21
44.5431506
0
LINE
8
DEFAULT_255_1_234
10
23.5676841
20
44.5431506
11
23.9499949
21
45.4973211
0
LINE
8
DEFAULT_255_1_234
10
23.9499949
20
45.4973211
11
24.1499852
21
45.4973211
0
LINE
8
DEFAULT_255_1_234
10
24.1499852
20
45.4973211
11
24.1499852
21
44.3279
0
LINE
8
DEFAULT_255_1_234
10
24.1499852
20
44.3279
11
23.9957758
21
44.3279
0
LINE
8
DEFAULT_255_1_234
10
23.9957758
20
44.3279
11
23.9957758
21
44.7832996
0
LINE
8
DEFAULT_255_1_234
10
23.9957758
20
44.7832996
11
24.0102329
21
45.2748419
0
LINE
8
DEFAULT_255_1_234
10
24.0102329
20
45.2748419
11
23.6263158
21
44.3279
0
LINE
8
DEFAULT_255_1_234
10
23.6263158
20
44.3279
11
23.5082493
21
44.3279
0
LINE
8
DEFAULT_255_1_234
10
23.5082493
20
44.3279
11
23.1251354
21
45.2724324
0
LINE
8
DEFAULT_255_1_234
10
23.1251354
20
45.2724324
11
23.1403957
21
44.7832996
0
LINE
8
DEFAULT_255_1_234
10
23.1403957
20
44.7832996
11
23.1403957
21
44.3279
0
LINE
8
DEFAULT_255_1_234
10
23.1403957
20
44.3279
11
22.9861863
21
44.3279
0
LINE
8
DEFAULT_255_1_234
10
22.9861863
20
44.3279
11
22.9861863
21
45.4973211
0
ENDSEC
0
EOF