0
SECTION
2
HEADER
9
$MEASUREMENT
70
1
0
ENDSEC
0
SECTION
2
TABLES
0
TABLE
2
LTYPE
0
LTYPE
72
65
70
64
2
CONTINUOUS
3
______
73
0
40
0
0
ENDTAB
0
TABLE
2
LAYER
0
LAYER
2
DEFAULT_255_2_778
70
0
62
255
6
CONTINUOUS
0
LAYER
2
DEFAULT_255_1_234
70
0
62
255
6
CONTINUOUS
0
ENDTAB
0
ENDSEC
0
SECTION
2
ENTITIES
0
ARC
8
DEFAULT_255_2_778
10
3.5695693
20
28.1802037
40
0.7914215
50
129.1312896
51
180.1450914
0
ARC
8
DEFAULT_255_2_778
10
3.5698345
20
28.1806908
40
0.7912112
50
89.854026
51
129.1684493
0
ARC
8
DEFAULT_255_2_778
10
25.7988937
20
28.1803773
40
0.7915249
50
39.4792447
51
90.147911
0
ARC
8
DEFAULT_255_2_778
10
25.7994935
20
28.180224
40
0.7911595
50
359.8533901
51
39.5154338
0
ARC
8
DEFAULT_255_2_778
10
25.7991693
20
-1.9863486
40
0.7914836
50
309.4761667
51
0.1482649
0
ARC
8
DEFAULT_255_2_778
10
25.798898
20
-1.9867797
40
0.7913235
50
269.8517415
51
309.511178
0
ARC
8
DEFAULT_255_2_778
10
3.569842
20
-1.9867215
40
0.7913815
50
219.1282118
51
270.1454017
0
ARC
8
DEFAULT_255_2_778
10
3.5695247
20
-1.986339
40
0.7913769
50
179.8524075
51
219.1641908
0
LINE
8
DEFAULT_255_2_778
10
3.5718503
20
28.9718996
11
25.7968503
21
28.9718996
0
LINE
8
DEFAULT_255_2_778
10
26.5906503
20
28.1781996
11
26.5906503
21
-1.9843004
0
LINE
8
DEFAULT_255_2_778
10
25.7968503
20
-2.7781004
11
3.5718503
21
-2.7781004
0
LINE
8
DEFAULT_255_2_778
10
2.7781503
20
-1.9843004
11
2.7781503
21
28.1781996
0
LINE
8
DEFAULT_255_1_234
10
6.6851835
20
1.1804243
11
6.7116882
21
1.1804243
0
LINE
8
DEFAULT_255_1_234
10
6.7116882
20
1.1804243
11
6.7116882
21
1.054326
0
LINE
8
DEFAULT_255_1_234
10
6.7116882
20
1.054326
11
6.6843803
21
1.054326
0
LINE
8
DEFAULT_255_1_234
10
6.1374189
20
0.4551583
11
6.1374189
21
0.5121836
0
LINE
8
DEFAULT_255_1_234
10
6.2868093
20
0.4929075
11
6.2868093
21
0.4382917
0
ARC
8
DEFAULT_255_1_234
10
6.6896151
20
0.5545455
40
0.4998079
50
90.6001036
51
104.514704
0
ARC
8
DEFAULT_255_1_234
10
6.6507667
20
0.6990131
40
0.3502176
50
104.2855254
51
133.862935
0
ARC
8
DEFAULT_255_1_234
10
6.6671424
20
0.688183
40
0.3693984
50
134.5302688
51
161.6210873
0
ARC
8
DEFAULT_255_1_234
10
6.8324613
20
0.6298895
40
0.5446739
50
161.2849839
51
174.2076652
0
ARC
8
DEFAULT_255_1_234
10
6.973155
20
0.6104787
40
0.6866274
50
173.7810589
51
174.9254635
0
ARC
8
DEFAULT_255_1_234
10
6.5181382
20
0.4721839
40
0.3033419
50
95.8330959
51
138.9954921
0
ARC
8
DEFAULT_255_1_234
10
6.5404738
20
0.3443375
40
0.4328947
50
89.8753725
51
97.0544009
0
ARC
8
DEFAULT_255_1_234
10
6.5452204
20
0.4278748
40
0.3493769
50
71.6407809
51
90.6240094
0
ARC
8
DEFAULT_255_1_234
10
6.5602777
20
0.4833082
40
0.2920396
50
39.6367836
51
71.019018
0
ARC
8
DEFAULT_255_1_234
10
6.496625
20
0.4282998
40
0.3761538
50
10.658731
51
39.9043955
0
ARC
8
DEFAULT_255_1_234
10
6.3418333
20
0.3946686
40
0.5345136
50
359.682601
51
11.132623
0
ARC
8
DEFAULT_255_1_234
10
6.3378464
20
0.387601
40
0.5385081
50
347.2486944
51
0.4369317
0
ARC
8
DEFAULT_255_1_234
10
6.5045941
20
0.3474807
40
0.3670249
50
318.1409698
51
347.6118597
0
ARC
8
DEFAULT_255_1_234
10
6.5370934
20
0.3207702
40
0.3250007
50
275.6342139
51
317.8248465
0
ARC
8
DEFAULT_255_1_234
10
6.5150045
20
0.4507219
40
0.4565864
50
269.8874292
51
276.7917694
0
ARC
8
DEFAULT_255_1_234
10
6.5095116
20
0.3481743
40
0.3540676
50
246.9140195
51
270.7437342
0
ARC
8
DEFAULT_255_1_234
10
6.5101506
20
0.3339384
40
0.3412781
50
218.1665114
51
245.878116
0
ARC
8
DEFAULT_255_1_234
10
6.5980967
20
0.4075279
40
0.455911
50
191.4115814
51
218.6077802
0
ARC
8
DEFAULT_255_1_234
10
6.7919056
20
0.4509833
40
0.6545001
50
179.6345085
51
191.7836486
0
ARC
8
DEFAULT_255_1_234
10
7.3501393
20
0.5188697
40
1.2127388
50
171.4525249
51
180.3158839
0
ARC
8
DEFAULT_255_1_234
10
6.9106269
20
0.5872608
40
0.7679464
50
157.9802646
51
171.6246686
0
ARC
8
DEFAULT_255_1_234
10
6.689229
20
0.6755421
40
0.5296008
50
141.4298019
51
157.854097
0
ARC
8
DEFAULT_255_1_234
10
6.625061
20
0.7209381
40
0.4511509
50
102.8715806
51
140.8564722
0
ARC
8
DEFAULT_255_1_234
10
6.6898226
20
0.4769552
40
0.7034845
50
90.3778349
51
103.5869322
0
ARC
8
DEFAULT_255_1_234
10
6.5160002
20
0.416473
40
0.2370698
50
89.8751008
51
126.2071704
0
ARC
8
DEFAULT_255_1_234
10
6.5205792
20
0.4010303
40
0.2522934
50
124.9745049
51
144.895901
0
ARC
8
DEFAULT_255_1_234
10
6.5029982
20
0.415356
40
0.2296779
50
145.2974905
51
160.2660252
0
ARC
8
DEFAULT_255_1_234
10
6.8102521
20
0.4351071
40
0.5234525
50
179.6514266
51
190.2855912
0
ARC
8
DEFAULT_255_1_234
10
6.6408658
20
0.4031786
40
0.3510893
50
190.0945431
51
207.5098196
0
ARC
8
DEFAULT_255_1_234
10
6.5842928
20
0.3762623
40
0.288489
50
207.9583163
51
216.3251085
0
ARC
8
DEFAULT_255_1_234
10
6.5503036
20
0.3483105
40
0.2445587
50
215.7661442
51
232.5456785
0
ARC
8
DEFAULT_255_1_234
10
6.5120019
20
0.2996482
40
0.1826382
50
232.8005391
51
270.6605633
0
ARC
8
DEFAULT_255_1_234
10
6.516572
20
0.3360612
40
0.2190529
50
269.35537
51
288.4744281
0
ARC
8
DEFAULT_255_1_234
10
6.5258617
20
0.3011118
40
0.1829749
50
289.1833337
51
322.9683818
0
ARC
8
DEFAULT_255_1_234
10
6.4647139
20
0.3493391
40
0.2608399
50
322.6007884
51
346.5182367
0
ARC
8
DEFAULT_255_1_234
10
6.3489735
20
0.3788616
40
0.3802777
50
346.2582162
51
358.7741648
0
ARC
8
DEFAULT_255_1_234
10
6.2471404
20
0.3843965
40
0.4822176
50
358.3755224
51
0.0098023
0
ARC
8
DEFAULT_255_1_234
10
6.3227591
20
0.3871657
40
0.4066078
50
359.6214041
51
11.2839074
0
ARC
8
DEFAULT_255_1_234
10
6.4504738
20
0.4138066
40
0.2761514
50
11.0482309
51
31.8146458
0
ARC
8
DEFAULT_255_1_234
10
6.4813781
20
0.4305584
40
0.2410679
50
32.3035391
51
38.082671
0
ARC
8
DEFAULT_255_1_234
10
6.5234441
20
0.4686662
40
0.1844966
50
36.825067
51
85.7415724
0
ARC
8
DEFAULT_255_1_234
10
6.5167274
20
0.4186301
40
0.2349122
50
85.0140713
51
90.0513278
0
LINE
8
DEFAULT_255_1_234
10
7.7517983
20
0.6768343
11
7.7517983
21
0.550736
0
LINE
8
DEFAULT_255_1_234
10
7.7517983
20
0.550736
11
7.2449957
21
0.550736
0
LINE
8
DEFAULT_255_1_234
10
7.2449957
20
0.550736
11
7.2449957
21
0.1362983
0
LINE
8
DEFAULT_255_1_234
10
7.2449957
20
0.1362983
11
7.8337221
21
0.1362983
0
LINE
8
DEFAULT_255_1_234
10
7.8337221
20
0.1362983
11
7.8337221
21
0.0102
0
LINE
8
DEFAULT_255_1_234
10
7.8337221
20
0.0102
11
7.0907863
21
0.0102
0
LINE
8
DEFAULT_255_1_234
10
7.0907863
20
0.0102
11
7.0907863
21
1.1796211
0
LINE
8
DEFAULT_255_1_234
10
7.0907863
20
1.1796211
11
7.8256903
21
1.1796211
0
LINE
8
DEFAULT_255_1_234
10
7.8256903
20
1.1796211
11
7.8256903
21
1.0527196
0
LINE
8
DEFAULT_255_1_234
10
7.8256903
20
1.0527196
11
7.2449957
21
1.0527196
0
LINE
8
DEFAULT_255_1_234
10
7.2449957
20
1.0527196
11
7.2449957
21
0.6768343
0
LINE
8
DEFAULT_255_1_234
10
7.2449957
20
0.6768343
11
7.7517983
21
0.6768343
0
LINE
8
DEFAULT_255_1_234
10
8.8015465
20
0.8414849
11
8.646534
21
0.8414849
0
LINE
8
DEFAULT_255_1_234
10
7.9541981
20
0.3491394
11
8.1092107
21
0.3491394
0
ARC
8
DEFAULT_255_1_234
10
8.7124153
20
1.7361768
40
1.252368
50
248.9199003
51
254.1439814
0
ARC
8
DEFAULT_255_1_234
10
8.5443648
20
1.3035234
40
0.788226
50
241.633709
51
249.0064503
0
ARC
8
DEFAULT_255_1_234
10
8.3915042
20
1.0234317
40
0.4691427
50
230.498225
51
241.8087113
0
ARC
8
DEFAULT_255_1_234
10
8.3130616
20
0.9234906
40
0.3421437
50
227.4064532
51
229.9881192
0
ARC
8
DEFAULT_255_1_234
10
8.2643137
20
0.8759088
40
0.2741476
50
200.6781896
51
228.1763934
0
ARC
8
DEFAULT_255_1_234
10
8.2715447
20
0.8744077
40
0.2804109
50
179.5061581
51
199.8694617
0
ARC
8
DEFAULT_255_1_234
10
8.2706199
20
0.881821
40
0.2795204
50
132.4834203
51
181.0242172
0
ARC
8
DEFAULT_255_1_234
10
8.3301782
20
0.8255704
40
0.3612768
50
129.2532479
51
133.4242687
0
ARC
8
DEFAULT_255_1_234
10
8.3448231
20
0.8035965
40
0.3875675
50
101.98776
51
128.8742646
0
ARC
8
DEFAULT_255_1_234
10
8.3846842
20
0.6314741
40
0.5642249
50
89.5906553
51
102.3169264
0
ARC
8
DEFAULT_255_1_234
10
8.3917334
20
0.6633148
40
0.5323783
50
77.2360837
51
90.3248275
0
ARC
8
DEFAULT_255_1_234
10
8.4124413
20
0.76004
40
0.4334697
50
63.837784
51
77.0809408
0
ARC
8
DEFAULT_255_1_234
10
8.4402175
20
0.8117911
40
0.3747796
50
45.9864267
51
64.1607727
0
ARC
8
DEFAULT_255_1_234
10
8.4663056
20
0.8415866
40
0.3352302
50
32.2747395
51
45.6547121
0
ARC
8
DEFAULT_255_1_234
10
8.4729497
20
0.843488
40
0.328603
50
359.6507365
51
32.6130309
0
ARC
8
DEFAULT_255_1_234
10
8.3786592
20
0.843966
40
0.2678863
50
359.469343
51
14.9832209
0
ARC
8
DEFAULT_255_1_234
10
8.4491654
20
0.8628539
40
0.1948938
50
14.9781179
51
48.2004265
0
ARC
8
DEFAULT_255_1_234
10
8.4327299
20
0.8421983
40
0.2212521
50
48.5927837
51
74.1241538
0
ARC
8
DEFAULT_255_1_234
10
8.3993788
20
0.7321248
40
0.3362561
50
73.7888341
51
86.6652678
0
ARC
8
DEFAULT_255_1_234
10
8.3891354
20
0.6113881
40
0.4573953
50
86.2640471
51
90.0526343
0
ARC
8
DEFAULT_255_1_234
10
8.3863066
20
0.6509192
40
0.4178709
50
89.6697524
51
99.2309573
0
ARC
8
DEFAULT_255_1_234
10
8.3620517
20
0.7953964
40
0.2713749
50
99.069534
51
113.7658566
0
ARC
8
DEFAULT_255_1_234
10
8.3346708
20
0.8599677
40
0.2012469
50
114.0401004
51
127.9850673
0
ARC
8
DEFAULT_255_1_234
10
8.3106272
20
0.889573
40
0.1631167
50
127.7287463
51
176.7105154
0
ARC
8
DEFAULT_255_1_234
10
8.378499
20
0.8794693
40
0.2315392
50
175.1779447
51
180.0581938
0
ARC
8
DEFAULT_255_1_234
10
8.2941836
20
0.8782428
40
0.1472271
50
179.6142195
51
228.1246017
0
ARC
8
DEFAULT_255_1_234
10
8.3383505
20
0.9191308
40
0.2072299
50
226.5779593
51
230.8800004
0
ARC
8
DEFAULT_255_1_234
10
8.3854584
20
0.9816636
40
0.2854818
50
231.4635071
51
241.9260842
0
ARC
8
DEFAULT_255_1_234
10
8.5051762
20
1.20198
40
0.53622
50
241.7178533
51
248.3259551
0
ARC
8
DEFAULT_255_1_234
10
8.6437134
20
1.5452064
40
0.9063478
50
248.2007737
51
252.4528373
0
ARC
8
DEFAULT_255_1_234
10
8.7640858
20
1.9173441
40
1.2974635
50
252.3391078
51
254.3469452
0
ARC
8
DEFAULT_255_1_234
10
8.0098561
20
-0.7803852
40
1.5037162
50
71.0197183
51
74.4087047
0
ARC
8
DEFAULT_255_1_234
10
8.1793246
20
-0.2911889
40
0.9859993
50
66.1847285
51
71.086374
0
ARC
8
DEFAULT_255_1_234
10
8.3349559
20
0.05922
40
0.6025855
50
59.3536294
51
66.2691831
0
ARC
8
DEFAULT_255_1_234
10
8.4238211
20
0.2095609
40
0.4279449
50
49.1020879
51
59.3293958
0
ARC
8
DEFAULT_255_1_234
10
8.5056951
20
0.3028834
40
0.3038015
50
32.7919921
51
49.2505539
0
ARC
8
DEFAULT_255_1_234
10
8.5378041
20
0.3257191
40
0.264448
50
31.1181161
51
32.4005348
0
ARC
8
DEFAULT_255_1_234
10
8.5289579
20
0.3221779
40
0.2738556
50
8.1116974
51
30.7958831
0
ARC
8
DEFAULT_255_1_234
10
8.4479247
20
0.3083753
40
0.3560327
50
359.8389159
51
8.4706516
0
ARC
8
DEFAULT_255_1_234
10
8.5105038
20
0.3035137
40
0.2934776
50
337.4731098
51
0.7537279
0
ARC
8
DEFAULT_255_1_234
10
8.5283733
20
0.3015387
40
0.2762607
50
307.5917067
51
336.4315538
0
ARC
8
DEFAULT_255_1_234
10
8.4823561
20
0.3528102
40
0.3449979
50
307.6551545
51
308.4529766
0
ARC
8
DEFAULT_255_1_234
10
8.459328
20
0.388325
40
0.3871988
50
284.3734338
51
307.1424381
0
ARC
8
DEFAULT_255_1_234
10
8.409811
20
0.5704932
40
0.5759636
50
272.4382747
51
284.646547
0
ARC
8
DEFAULT_255_1_234
10
8.3971319
20
0.7504893
40
0.7563528
50
269.9708387
51
272.8178037
0
ARC
8
DEFAULT_255_1_234
10
8.3928358
20
0.5466716
40
0.5525489
50
248.2707594
51
270.4055579
0
ARC
8
DEFAULT_255_1_234
10
8.38741
20
0.5276192
40
0.5328452
50
246.1383403
51
248.0542782
0
ARC
8
DEFAULT_255_1_234
10
8.3455478
20
0.4396843
40
0.4355005
50
233.1670131
51
246.4950969
0
ARC
8
DEFAULT_255_1_234
10
8.2901383
20
0.3648812
40
0.3424126
50
215.3403242
51
233.0843104
0
ARC
8
DEFAULT_255_1_234
10
8.2628815
20
0.3450549
40
0.3087104
50
179.2419209
51
215.2648451
0
ARC
8
DEFAULT_255_1_234
10
8.3396409
20
0.3464666
40
0.2304457
50
179.335461
51
199.1045811
0
ARC
8
DEFAULT_255_1_234
10
8.3064085
20
0.3377766
40
0.1962176
50
199.8828939
51
232.7063202
0
ARC
8
DEFAULT_255_1_234
10
8.3536353
20
0.3971788
40
0.2720938
50
232.3738199
51
255.5136649
0
ARC
8
DEFAULT_255_1_234
10
8.387722
20
0.5215835
40
0.4010747
50
255.2446292
51
267.5320849
0
ARC
8
DEFAULT_255_1_234
10
8.3964843
20
0.6448702
40
0.5246356
50
267.1557994
51
270.0286766
0
ARC
8
DEFAULT_255_1_234
10
8.3992616
20
0.600495
40
0.4802668
50
269.7000017
51
278.1660162
0
ARC
8
DEFAULT_255_1_234
10
8.424862
20
0.4274515
40
0.3053425
50
278.0231263
51
290.625471
0
ARC
8
DEFAULT_255_1_234
10
8.4596308
20
0.3347025
40
0.206291
50
290.6619762
51
307.0370976
0
ARC
8
DEFAULT_255_1_234
10
8.4896697
20
0.2978504
40
0.1587906
50
306.3943566
51
355.3030547
0
ARC
8
DEFAULT_255_1_234
10
8.4384628
20
0.3055113
40
0.2104809
50
354.3660432
51
0.0698737
0
ARC
8
DEFAULT_255_1_234
10
8.4526973
20
0.3077617
40
0.1962563
50
359.417946
51
16.1971788
0
ARC
8
DEFAULT_255_1_234
10
8.4982284
20
0.3202418
40
0.149053
50
16.4723299
51
52.6262157
0
ARC
8
DEFAULT_255_1_234
10
8.4161338
20
0.2118433
40
0.2850296
50
52.7386432
51
62.4979148
0
ARC
8
DEFAULT_255_1_234
10
8.2776415
20
-0.0487717
40
0.5801521
50
62.2515216
51
68.1220564
0
ARC
8
DEFAULT_255_1_234
10
8.1056325
20
-0.4715128
40
1.0365451
50
68.0062803
51
71.8053402
0
ARC
8
DEFAULT_255_1_234
10
7.9260697
20
-1.0100242
40
1.6042013
50
71.7183119
51
73.9258742
0
LINE
8
DEFAULT_255_1_234
10
9.7179679
20
1.1796211
11
9.7179679
21
1.096091
0
LINE
8
DEFAULT_255_1_234
10
9.7179679
20
1.096091
11
9.2336541
21
0.0102
0
LINE
8
DEFAULT_255_1_234
10
9.2336541
20
0.0102
11
9.0778383
21
0.0102
0
LINE
8
DEFAULT_255_1_234
10
9.0778383
20
0.0102
11
9.5605458
21
1.0575387
0
LINE
8
DEFAULT_255_1_234
10
9.5605458
20
1.0575387
11
8.9276448
21
1.0575387
0
LINE
8
DEFAULT_255_1_234
10
8.9276448
20
1.0575387
11
8.9276448
21
1.1796211
0
LINE
8
DEFAULT_255_1_234
10
8.9276448
20
1.1796211
11
9.7179679
21
1.1796211
0
LINE
8
DEFAULT_255_1_234
10
10.0737739
20
0.5659963
11
9.9549042
21
0.5965169
0
LINE
8
DEFAULT_255_1_234
10
9.9549042
20
0.5965169
11
10.014339
21
1.1796211
0
LINE
8
DEFAULT_255_1_234
10
10.014339
20
1.1796211
11
10.6135067
21
1.1796211
0
LINE
8
DEFAULT_255_1_234
10
10.6135067
20
1.1796211
11
10.6135067
21
1.0422784
0
LINE
8
DEFAULT_255_1_234
10
10.6135067
20
1.0422784
11
10.1404373
21
1.0422784
0
LINE
8
DEFAULT_255_1_234
10
10.1404373
20
1.0422784
11
10.1050977
21
0.7234184
0
LINE
8
DEFAULT_255_1_234
10
9.9131391
20
0.3178156
11
10.0536945
21
0.3178156
0
LINE
8
DEFAULT_255_1_234
10
10.1131294
20
0.5981232
11
10.0737739
21
0.5659963
0
ARC
8
DEFAULT_255_1_234
10
10.2905761
20
0.405423
40
0.3681349
50
93.7182161
51
120.2538958
0
ARC
8
DEFAULT_255_1_234
10
10.3000023
20
0.3246394
40
0.449379
50
89.9660152
51
94.2496022
0
ARC
8
DEFAULT_255_1_234
10
10.3040757
20
0.3835549
40
0.390482
50
73.8043271
51
90.5585896
0
ARC
8
DEFAULT_255_1_234
10
10.3275654
20
0.4693602
40
0.3015334
50
41.3071453
51
73.5430202
0
ARC
8
DEFAULT_255_1_234
10
10.2859482
20
0.4335324
40
0.3564457
50
13.5075983
51
41.2174222
0
ARC
8
DEFAULT_255_1_234
10
10.1217685
20
0.3905486
40
0.5261351
50
1.1331335
51
13.8829381
0
ARC
8
DEFAULT_255_1_234
10
9.9806054
20
0.3829665
40
0.6674378
50
359.9919444
51
1.544251
0
ARC
8
DEFAULT_255_1_234
10
10.1082881
20
0.378828
40
0.5397702
50
347.8572367
51
0.4293338
0
ARC
8
DEFAULT_255_1_234
10
10.2833198
20
0.3391736
40
0.3603188
50
323.673004
51
348.1672506
0
ARC
8
DEFAULT_255_1_234
10
10.3127707
20
0.3212168
40
0.3259678
50
316.8171152
51
323.1492751
0
ARC
8
DEFAULT_255_1_234
10
10.3188895
20
0.317546
40
0.3189975
50
281.8396411
51
316.5457803
0
ARC
8
DEFAULT_255_1_234
10
10.2813159
20
0.4730762
40
0.4789527
50
269.5770101
51
282.4214771
0
ARC
8
DEFAULT_255_1_234
10
10.2741971
20
0.4517125
40
0.45759
50
256.2427136
51
270.4486331
0
ARC
8
DEFAULT_255_1_234
10
10.2442873
20
0.3317229
40
0.3339303
50
228.9023911
51
256.3314342
0
ARC
8
DEFAULT_255_1_234
10
10.2369106
20
0.3200746
40
0.32031
50
193.753695
51
228.5271154
0
ARC
8
DEFAULT_255_1_234
10
10.360706
20
0.35638
40
0.4492253
50
184.924711
51
194.497588
0
ARC
8
DEFAULT_255_1_234
10
10.3799626
20
0.3599591
40
0.3289787
50
187.3600538
51
198.6732863
0
ARC
8
DEFAULT_255_1_234
10
10.274992
20
0.3235674
40
0.217884
50
198.4451669
51
217.794479
0
ARC
8
DEFAULT_255_1_234
10
10.2454096
20
0.3026085
40
0.1816698
50
218.2887171
51
228.5612368
0
ARC
8
DEFAULT_255_1_234
10
10.2551883
20
0.3157963
40
0.1980329
50
228.9654866
51
258.1234728
0
ARC
8
DEFAULT_255_1_234
10
10.2757593
20
0.4038833
40
0.2884748
50
257.7258293
51
270.401361
0
ARC
8
DEFAULT_255_1_234
10
10.2802479
20
0.3593821
40
0.2439788
50
269.4204404
51
286.4209037
0
ARC
8
DEFAULT_255_1_234
10
10.2950966
20
0.3054657
40
0.1880666
50
286.7251356
51
320.600362
0
ARC
8
DEFAULT_255_1_234
10
10.2567791
20
0.3365595
40
0.2374121
50
320.6712579
51
344.5441685
0
ARC
8
DEFAULT_255_1_234
10
10.1411118
20
0.3705045
40
0.3579479
50
344.2412205
51
356.7357071
0
ARC
8
DEFAULT_255_1_234
10
10.0162266
20
0.3808444
40
0.4832297
50
356.3548756
51
0.0500261
0
ARC
8
DEFAULT_255_1_234
10
10.1498775
20
0.383965
40
0.3495889
50
359.5576869
51
12.953486
0
ARC
8
DEFAULT_255_1_234
10
10.2553673
20
0.4095434
40
0.2410532
50
12.6490276
51
41.6081334
0
ARC
8
DEFAULT_255_1_234
10
10.2784044
20
0.4291321
40
0.2108218
50
41.7850273
51
85.9892764
0
ARC
8
DEFAULT_255_1_234
10
10.266078
20
0.3478462
40
0.2928454
50
84.6957577
51
90.0676183
0
ARC
8
DEFAULT_255_1_234
10
10.2637264
20
0.2809716
40
0.3597255
50
89.6804936
51
99.1614436
0
ARC
8
DEFAULT_255_1_234
10
10.2431896
20
0.4037131
40
0.235281
50
98.9830931
51
113.8908934
0
ARC
8
DEFAULT_255_1_234
10
10.2202306
20
0.4578587
40
0.176479
50
114.1950727
51
127.3641004
0
LINE
8
DEFAULT_255_1_234
10
11.298614
20
1.1852433
11
11.298614
21
0.0102
0
LINE
8
DEFAULT_255_1_234
10
11.298614
20
0.0102
11
11.1492236
21
0.0102
0
LINE
8
DEFAULT_255_1_234
10
11.1492236
20
0.0102
11
11.1492236
21
1.0005133
0
LINE
8
DEFAULT_255_1_234
10
11.1492236
20
1.0005133
11
10.8496398
21
0.8904785
0
LINE
8
DEFAULT_255_1_234
10
10.8496398
20
0.8904785
11
10.8496398
21
1.0254117
0
LINE
8
DEFAULT_255_1_234
10
10.8496398
20
1.0254117
11
11.2753219
21
1.1852433
0
LINE
8
DEFAULT_255_1_234
10
11.2753219
20
1.1852433
11
11.298614
21
1.1852433
0
LINE
8
DEFAULT_255_1_234
10
12.2222639
20
1.1852433
11
12.2222639
21
0.0102
0
LINE
8
DEFAULT_255_1_234
10
12.2222639
20
0.0102
11
12.0728735
21
0.0102
0
LINE
8
DEFAULT_255_1_234
10
12.0728735
20
0.0102
11
12.0728735
21
1.0005133
0
LINE
8
DEFAULT_255_1_234
10
12.0728735
20
1.0005133
11
11.7732897
21
0.8904785
0
LINE
8
DEFAULT_255_1_234
10
11.7732897
20
0.8904785
11
11.7732897
21
1.0254117
0
LINE
8
DEFAULT_255_1_234
10
11.7732897
20
1.0254117
11
12.1989718
21
1.1852433
0
LINE
8
DEFAULT_255_1_234
10
12.1989718
20
1.1852433
11
12.2222639
21
1.1852433
0
LINE
8
DEFAULT_255_1_234
10
12.9820663
20
0.5676026
11
12.9820663
21
0.4463234
0
LINE
8
DEFAULT_255_1_234
10
12.9820663
20
0.4463234
11
12.5901175
21
0.4463234
0
LINE
8
DEFAULT_255_1_234
10
12.5901175
20
0.4463234
11
12.5901175
21
0.5676026
0
LINE
8
DEFAULT_255_1_234
10
12.5901175
20
0.5676026
11
12.9820663
21
0.5676026
0
LINE
8
DEFAULT_255_1_234
10
13.599707
20
1.1852433
11
13.599707
21
0.0102
0
LINE
8
DEFAULT_255_1_234
10
13.599707
20
0.0102
11
13.4503167
21
0.0102
0
LINE
8
DEFAULT_255_1_234
10
13.4503167
20
0.0102
11
13.4503167
21
1.0005133
0
LINE
8
DEFAULT_255_1_234
10
13.4503167
20
1.0005133
11
13.1507328
21
0.8904785
0
LINE
8
DEFAULT_255_1_234
10
13.1507328
20
0.8904785
11
13.1507328
21
1.0254117
0
LINE
8
DEFAULT_255_1_234
10
13.1507328
20
1.0254117
11
13.5764149
21
1.1852433
0
LINE
8
DEFAULT_255_1_234
10
13.5764149
20
1.1852433
11
13.599707
21
1.1852433
0
LINE
8
DEFAULT_255_1_234
10
14.7418202
20
1.1796211
11
14.8968327
21
1.1796211
0
LINE
8
DEFAULT_255_1_234
10
14.8968327
20
1.1796211
11
14.8968327
21
0.384479
0
LINE
8
DEFAULT_255_1_234
10
14.5129156
20
-0.0042571
11
14.4719538
21
-0.0058635
0
LINE
8
DEFAULT_255_1_234
10
14.0502875
20
0.3828727
11
14.0502875
21
1.1796211
0
LINE
8
DEFAULT_255_1_234
10
14.0502875
20
1.1796211
11
14.2028905
21
1.1796211
0
LINE
8
DEFAULT_255_1_234
10
14.2028905
20
1.1796211
11
14.2028905
21
0.3876917
0
LINE
8
DEFAULT_255_1_234
10
14.7418202
20
0.3868885
11
14.7418202
21
1.1796211
0
ARC
8
DEFAULT_255_1_234
10
14.4615226
20
0.3824928
40
0.4353147
50
343.0898354
51
0.2614217
0
ARC
8
DEFAULT_255_1_234
10
14.5443627
20
0.3593837
40
0.3493402
50
315.3345598
51
342.7641223
0
ARC
8
DEFAULT_255_1_234
10
14.5220076
20
0.3825682
40
0.3815385
50
284.6606969
51
315.2182466
0
ARC
8
DEFAULT_255_1_234
10
14.4764788
20
0.5371755
40
0.5426573
50
273.8500273
51
285.1797701
0
ARC
8
DEFAULT_255_1_234
10
14.4676839
20
0.5713475
40
0.5772268
50
257.6317484
51
270.4238298
0
ARC
8
DEFAULT_255_1_234
10
14.4252037
20
0.3892198
40
0.3902347
50
230.6087562
51
257.9964012
0
ARC
8
DEFAULT_255_1_234
10
14.4120039
20
0.3685802
40
0.3659186
50
227.7440991
51
230.1551448
0
ARC
8
DEFAULT_255_1_234
10
14.3985871
20
0.3524471
40
0.3449568
50
189.2524587
51
227.5916061
0
ARC
8
DEFAULT_255_1_234
10
14.5507557
20
0.3852013
40
0.5004737
50
180.2665968
51
190.1525252
0
ARC
8
DEFAULT_255_1_234
10
14.5729577
20
0.3848918
40
0.3700778
50
179.5665184
51
191.9952995
0
ARC
8
DEFAULT_255_1_234
10
14.4501683
20
0.3575043
40
0.2442808
50
191.6974072
51
215.1404042
0
ARC
8
DEFAULT_255_1_234
10
14.4263598
20
0.3433108
40
0.2166522
50
215.6950207
51
224.8513522
0
ARC
8
DEFAULT_255_1_234
10
14.4319342
20
0.3512697
40
0.2262237
50
225.2846858
51
255.0111758
0
ARC
8
DEFAULT_255_1_234
10
14.4643302
20
0.4626455
40
0.3421979
50
254.5944985
51
267.9129803
0
ARC
8
DEFAULT_255_1_234
10
14.4717783
20
0.5710903
40
0.4508556
50
267.4689655
51
270.0223026
0
ARC
8
DEFAULT_255_1_234
10
14.4747928
20
0.5121849
40
0.3919604
50
269.5849941
51
281.1843768
0
ARC
8
DEFAULT_255_1_234
10
14.5026693
20
0.3769059
40
0.2538457
50
280.9344262
51
300.9743589
0
ARC
8
DEFAULT_255_1_234
10
14.5239298
20
0.3377688
40
0.2093566
50
301.4980046
51
315.1466847
0
ARC
8
DEFAULT_255_1_234
10
14.5094837
20
0.3496236
40
0.2279656
50
315.5952539
51
345.6678731
0
ARC
8
DEFAULT_255_1_234
10
14.3975353
20
0.3808009
40
0.3441564
50
345.2524969
51
358.6304371
0
ARC
8
DEFAULT_255_1_234
10
14.2957707
20
0.3867916
40
0.4460494
50
358.1735671
51
0.0124524
0
LINE
8
DEFAULT_255_1_234
10
15.8518064
20
0.0102
11
15.4373687
21
0.5539487
0
LINE
8
DEFAULT_255_1_234
10
15.4373687
20
0.5539487
11
15.2944038
21
0.4053615
0
LINE
8
DEFAULT_255_1_234
10
15.2944038
20
0.4053615
11
15.2944038
21
0.0102
0
LINE
8
DEFAULT_255_1_234
10
15.2944038
20
0.0102
11
15.1401944
21
0.0102
0
LINE
8
DEFAULT_255_1_234
10
15.1401944
20
0.0102
11
15.1401944
21
1.1796211
0
LINE
8
DEFAULT_255_1_234
10
15.1401944
20
1.1796211
11
15.2944038
21
1.1796211
0
LINE
8
DEFAULT_255_1_234
10
15.2944038
20
1.1796211
11
15.2944038
21
0.6013359
0
LINE
8
DEFAULT_255_1_234
10
15.2944038
20
0.6013359
11
15.8140572
21
1.1796211
0
LINE
8
DEFAULT_255_1_234
10
15.8140572
20
1.1796211
11
16.0003936
21
1.1796211
0
LINE
8
DEFAULT_255_1_234
10
16.0003936
20
1.1796211
11
15.540175
21
0.6631803
0
LINE
8
DEFAULT_255_1_234
10
15.540175
20
0.6631803
11
16.0365364
21
0.0102
0
LINE
8
DEFAULT_255_1_234
10
16.0365364
20
0.0102
11
15.8518064
21
0.0102
0
LINE
8
DEFAULT_255_1_234
10
16.8662149
20
0.7017327
11
16.8662149
21
0.5089709
0
LINE
8
DEFAULT_255_1_234
10
16.1280982
20
0.4888916
11
16.1280982
21
0.6872755
0
LINE
8
DEFAULT_255_1_234
10
16.7176278
20
0.4688123
11
16.7176278
21
0.7121739
0
LINE
8
DEFAULT_255_1_234
10
16.2766854
20
0.7234184
11
16.2766854
21
0.4856789
0
ARC
8
DEFAULT_255_1_234
10
15.6415039
20
0.5040805
40
1.2247208
50
353.8441951
51
0.2287902
0
ARC
8
DEFAULT_255_1_234
10
16.1054543
20
0.4522806
40
0.7578929
50
344.4934747
51
353.9765454
0
ARC
8
DEFAULT_255_1_234
10
16.4047133
20
0.3671981
40
0.4467846
50
329.2803592
51
344.7472793
0
ARC
8
DEFAULT_255_1_234
10
16.5039958
20
0.3127018
40
0.3336173
50
324.9352394
51
328.6160465
0
ARC
8
DEFAULT_255_1_234
10
16.5417066
20
0.2863427
40
0.2876076
50
280.580143
51
324.9173126
0
ARC
8
DEFAULT_255_1_234
10
16.5015859
20
0.4534099
40
0.4592847
50
269.5977311
51
281.6734359
0
ARC
8
DEFAULT_255_1_234
10
16.4943765
20
0.4414173
40
0.4472986
50
256.6228859
51
270.51044
0
ARC
8
DEFAULT_255_1_234
10
16.4541743
20
0.2865877
40
0.2873874
50
215.8618325
51
257.2788573
0
ARC
8
DEFAULT_255_1_234
10
16.5562774
20
0.3550977
40
0.4102928
50
197.9693508
51
215.2623606
0
ARC
8
DEFAULT_255_1_234
10
16.804789
20
0.4389709
40
0.6725652
50
187.8816417
51
198.2346507
0
ARC
8
DEFAULT_255_1_234
10
17.2006098
20
0.4961079
40
1.0724845
50
180.8976217
51
188.0055519
0
ARC
8
DEFAULT_255_1_234
10
17.4806286
20
0.5064777
40
1.3526448
50
180.7449369
51
181.1510016
0
ARC
8
DEFAULT_255_1_234
10
17.3229015
20
0.6921042
40
1.1948131
50
173.7675579
51
180.231553
0
ARC
8
DEFAULT_255_1_234
10
16.8711162
20
0.7431666
40
0.7401564
50
164.3058563
51
173.9002247
0
ARC
8
DEFAULT_255_1_234
10
16.5799231
20
0.8270656
40
0.4371288
50
148.7922025
51
164.568378
0
ARC
8
DEFAULT_255_1_234
10
16.4847683
20
0.8801929
40
0.3282386
50
144.5883898
51
148.1176286
0
ARC
8
DEFAULT_255_1_234
10
16.4504581
20
0.9041315
40
0.2864044
50
101.6440918
51
144.514236
0
ARC
8
DEFAULT_255_1_234
10
16.4929647
20
0.7352069
40
0.4604934
50
89.5284041
51
102.5819763
0
ARC
8
DEFAULT_255_1_234
10
16.5008735
20
0.7313018
40
0.464401
50
77.0437873
51
90.5081339
0
ARC
8
DEFAULT_255_1_234
10
16.5410737
20
0.8955615
40
0.2953195
50
48.2778575
51
77.4994676
0
ARC
8
DEFAULT_255_1_234
10
16.5483368
20
0.9084746
40
0.2808655
50
36.3142134
51
47.6305865
0
ARC
8
DEFAULT_255_1_234
10
16.4614675
20
0.8499515
40
0.3855453
50
18.2931786
51
35.6769206
0
ARC
8
DEFAULT_255_1_234
10
16.2071434
20
0.7626593
40
0.654423
50
8.024666
51
18.5605216
0
ARC
8
DEFAULT_255_1_234
10
15.7908354
20
0.7011792
40
1.0752407
50
1.1274072
51
8.1718305
0
ARC
8
DEFAULT_255_1_234
10
15.4672545
20
0.6884885
40
1.3990231
50
0.5424119
51
1.3863029
0
ARC
8
DEFAULT_255_1_234
10
15.6493922
20
0.7157342
40
1.0682415
50
359.8090433
51
4.9407866
0
ARC
8
DEFAULT_255_1_234
10
16.0703936
20
0.7533113
40
0.6455691
50
4.8362157
51
12.2904523
0
ARC
8
DEFAULT_255_1_234
10
16.3459051
20
0.8146965
40
0.3633074
50
12.0805627
51
23.8173984
0
ARC
8
DEFAULT_255_1_234
10
16.4632757
20
0.8643919
40
0.2358723
50
24.2871213
51
31.3935614
0
ARC
8
DEFAULT_255_1_234
10
16.5157454
20
0.8987233
40
0.1732111
50
30.7407893
51
82.4657128
0
ARC
8
DEFAULT_255_1_234
10
16.4977588
20
0.8103691
40
0.263235
50
81.1060089
51
90.2184952
0
ARC
8
DEFAULT_255_1_234
10
16.4941887
20
0.8361924
40
0.2374236
50
89.3806855
51
105.6762551
0
ARC
8
DEFAULT_255_1_234
10
16.4758518
20
0.9028567
40
0.1682847
50
105.7981136
51
149.7388061
0
ARC
8
DEFAULT_255_1_234
10
16.5822596
20
0.838895
40
0.2924306
50
149.4208916
51
163.6286378
0
ARC
8
DEFAULT_255_1_234
10
16.7913484
20
0.775125
40
0.5110213
50
163.3763315
51
172.1410975
0
ARC
8
DEFAULT_255_1_234
10
17.1214203
20
0.7278518
40
0.8444586
50
172.0259487
51
178.0703232
0
ARC
8
DEFAULT_255_1_234
10
17.4244293
20
0.7134906
40
1.1477868
50
177.8631668
51
179.5044149
0
ARC
8
DEFAULT_255_1_234
10
17.3171697
20
0.4820389
40
1.0404907
50
179.7995573
51
185.2460446
0
ARC
8
DEFAULT_255_1_234
10
16.9128736
20
0.4437513
40
0.6343885
50
185.1411642
51
193.0079639
0
ARC
8
DEFAULT_255_1_234
10
16.6485209
20
0.3812641
40
0.3627568
50
192.7897626
51
205.2507664
0
ARC
8
DEFAULT_255_1_234
10
16.5438756
20
0.3345415
40
0.2481908
50
205.8005384
51
211.2537509
0
ARC
8
DEFAULT_255_1_234
10
16.4915196
20
0.299458
40
0.1852521
50
210.3789793
51
238.4008143
0
ARC
8
DEFAULT_255_1_234
10
16.4895718
20
0.3041376
40
0.1882621
50
239.6520629
51
265.9793761
0
ARC
8
DEFAULT_255_1_234
10
16.4980918
20
0.3713427
40
0.2559272
50
265.1315437
51
270.060332
0
ARC
8
DEFAULT_255_1_234
10
16.5009697
20
0.3389534
40
0.2235528
50
269.3314664
51
287.2178029
0
ARC
8
DEFAULT_255_1_234
10
16.5147549
20
0.2886279
40
0.1714108
50
287.7958004
51
329.080874
0
ARC
8
DEFAULT_255_1_234
10
16.4190006
20
0.348393
40
0.2842745
50
328.6634704
51
343.3325132
0
ARC
8
DEFAULT_255_1_234
10
16.2017026
20
0.4160863
40
0.5118644
50
343.0499468
51
351.9393422
0
ARC
8
DEFAULT_255_1_234
10
15.8550326
20
0.4671949
40
0.8622784
50
351.8069023
51
357.7959224
0
ARC
8
DEFAULT_255_1_234
10
15.5314882
20
0.4839721
40
1.1862365
50
357.5871873
51
359.2677531
0
LINE
8
DEFAULT_255_1_234
10
17.5448968
20
1.1852433
11
17.5448968
21
0.0102
0
LINE
8
DEFAULT_255_1_234
10
17.5448968
20
0.0102
11
17.3955065
21
0.0102
0
LINE
8
DEFAULT_255_1_234
10
17.3955065
20
0.0102
11
17.3955065
21
1.0005133
0
LINE
8
DEFAULT_255_1_234
10
17.3955065
20
1.0005133
11
17.0959227
21
0.8904785
0
LINE
8
DEFAULT_255_1_234
10
17.0959227
20
0.8904785
11
17.0959227
21
1.0254117
0
LINE
8
DEFAULT_255_1_234
10
17.0959227
20
1.0254117
11
17.5216048
21
1.1852433
0
LINE
8
DEFAULT_255_1_234
10
17.5216048
20
1.1852433
11
17.5448968
21
1.1852433
0
LINE
8
DEFAULT_255_1_234
10
18.3046993
20
0.5676026
11
18.3046993
21
0.4463234
0
LINE
8
DEFAULT_255_1_234
10
18.3046993
20
0.4463234
11
17.9127504
21
0.4463234
0
LINE
8
DEFAULT_255_1_234
10
17.9127504
20
0.4463234
11
17.9127504
21
0.5676026
0
LINE
8
DEFAULT_255_1_234
10
17.9127504
20
0.5676026
11
18.3046993
21
0.5676026
0
LINE
8
DEFAULT_255_1_234
10
19.167308
20
0.7017327
11
19.167308
21
0.5089709
0
LINE
8
DEFAULT_255_1_234
10
18.4291912
20
0.4888916
11
18.4291912
21
0.6872755
0
LINE
8
DEFAULT_255_1_234
10
19.0187208
20
0.4688123
11
19.0187208
21
0.7121739
0
LINE
8
DEFAULT_255_1_234
10
18.5777784
20
0.7234184
11
18.5777784
21
0.4856789
0
ARC
8
DEFAULT_255_1_234
10
17.9425969
20
0.5040805
40
1.2247208
50
353.8441951
51
0.2287902
0
ARC
8
DEFAULT_255_1_234
10
18.4065473
20
0.4522806
40
0.7578929
50
344.4934747
51
353.9765454
0
ARC
8
DEFAULT_255_1_234
10
18.7058063
20
0.3671981
40
0.4467846
50
329.2803592
51
344.7472793
0
ARC
8
DEFAULT_255_1_234
10
18.8050888
20
0.3127018
40
0.3336173
50
324.9352394
51
328.6160465
0
ARC
8
DEFAULT_255_1_234
10
18.8427997
20
0.2863427
40
0.2876076
50
280.580143
51
324.9173126
0
ARC
8
DEFAULT_255_1_234
10
18.8026789
20
0.4534099
40
0.4592847
50
269.5977311
51
281.6734359
0
ARC
8
DEFAULT_255_1_234
10
18.7954695
20
0.4414173
40
0.4472986
50
256.6228859
51
270.51044
0
ARC
8
DEFAULT_255_1_234
10
18.7552673
20
0.2865877
40
0.2873874
50
215.8618325
51
257.2788573
0
ARC
8
DEFAULT_255_1_234
10
18.8573704
20
0.3550977
40
0.4102928
50
197.9693508
51
215.2623606
0
ARC
8
DEFAULT_255_1_234
10
19.105882
20
0.4389709
40
0.6725652
50
187.8816417
51
198.2346507
0
ARC
8
DEFAULT_255_1_234
10
19.5017028
20
0.4961079
40
1.0724845
50
180.8976217
51
188.0055519
0
ARC
8
DEFAULT_255_1_234
10
19.7817216
20
0.5064777
40
1.3526448
50
180.7449369
51
181.1510016
0
ARC
8
DEFAULT_255_1_234
10
19.6239945
20
0.6921042
40
1.1948131
50
173.7675579
51
180.231553
0
ARC
8
DEFAULT_255_1_234
10
19.1722092
20
0.7431666
40
0.7401564
50
164.3058563
51
173.9002247
0
ARC
8
DEFAULT_255_1_234
10
18.8810161
20
0.8270656
40
0.4371288
50
148.7922025
51
164.568378
0
ARC
8
DEFAULT_255_1_234
10
18.7858613
20
0.8801929
40
0.3282386
50
144.5883898
51
148.1176286
0
ARC
8
DEFAULT_255_1_234
10
18.7515511
20
0.9041315
40
0.2864044
50
101.6440918
51
144.514236
0
ARC
8
DEFAULT_255_1_234
10
18.7940578
20
0.7352069
40
0.4604934
50
89.5284041
51
102.5819763
0
ARC
8
DEFAULT_255_1_234
10
18.8019665
20
0.7313018
40
0.464401
50
77.0437873
51
90.5081339
0
ARC
8
DEFAULT_255_1_234
10
18.8421667
20
0.8955615
40
0.2953195
50
48.2778575
51
77.4994676
0
ARC
8
DEFAULT_255_1_234
10
18.8494298
20
0.9084746
40
0.2808655
50
36.3142134
51
47.6305865
0
ARC
8
DEFAULT_255_1_234
10
18.7625605
20
0.8499515
40
0.3855453
50
18.2931786
51
35.6769206
0
ARC
8
DEFAULT_255_1_234
10
18.5082364
20
0.7626593
40
0.654423
50
8.024666
51
18.5605216
0
ARC
8
DEFAULT_255_1_234
10
18.0919284
20
0.7011792
40
1.0752407
50
1.1274072
51
8.1718305
0
ARC
8
DEFAULT_255_1_234
10
17.7683475
20
0.6884885
40
1.3990231
50
0.5424119
51
1.3863029
0
ARC
8
DEFAULT_255_1_234
10
17.9504853
20
0.7157342
40
1.0682415
50
359.8090433
51
4.9407866
0
ARC
8
DEFAULT_255_1_234
10
18.3714867
20
0.7533113
40
0.6455691
50
4.8362157
51
12.2904523
0
ARC
8
DEFAULT_255_1_234
10
18.6469982
20
0.8146965
40
0.3633074
50
12.0805627
51
23.8173984
0
ARC
8
DEFAULT_255_1_234
10
18.7643687
20
0.8643919
40
0.2358723
50
24.2871213
51
31.3935614
0
ARC
8
DEFAULT_255_1_234
10
18.8168384
20
0.8987233
40
0.1732111
50
30.7407893
51
82.4657128
0
ARC
8
DEFAULT_255_1_234
10
18.7988518
20
0.8103691
40
0.263235
50
81.1060089
51
90.2184952
0
ARC
8
DEFAULT_255_1_234
10
18.7952817
20
0.8361924
40
0.2374236
50
89.3806855
51
105.6762551
0
ARC
8
DEFAULT_255_1_234
10
18.7769448
20
0.9028567
40
0.1682847
50
105.7981136
51
149.7388061
0
ARC
8
DEFAULT_255_1_234
10
18.8833526
20
0.838895
40
0.2924306
50
149.4208916
51
163.6286378
0
ARC
8
DEFAULT_255_1_234
10
19.0924414
20
0.775125
40
0.5110213
50
163.3763315
51
172.1410975
0
ARC
8
DEFAULT_255_1_234
10
19.4225133
20
0.7278518
40
0.8444586
50
172.0259487
51
178.0703232
0
ARC
8
DEFAULT_255_1_234
10
19.7255223
20
0.7134906
40
1.1477868
50
177.8631668
51
179.5044149
0
ARC
8
DEFAULT_255_1_234
10
19.6182627
20
0.4820389
40
1.0404907
50
179.7995573
51
185.2460446
0
ARC
8
DEFAULT_255_1_234
10
19.2139667
20
0.4437513
40
0.6343885
50
185.1411642
51
193.0079639
0
ARC
8
DEFAULT_255_1_234
10
18.9496139
20
0.3812641
40
0.3627568
50
192.7897626
51
205.2507664
0
ARC
8
DEFAULT_255_1_234
10
18.8449686
20
0.3345415
40
0.2481908
50
205.8005384
51
211.2537509
0
ARC
8
DEFAULT_255_1_234
10
18.7926126
20
0.299458
40
0.1852521
50
210.3789793
51
238.4008143
0
ARC
8
DEFAULT_255_1_234
10
18.7906648
20
0.3041376
40
0.1882621
50
239.6520629
51
265.9793761
0
ARC
8
DEFAULT_255_1_234
10
18.7991849
20
0.3713427
40
0.2559272
50
265.1315437
51
270.060332
0
ARC
8
DEFAULT_255_1_234
10
18.8020627
20
0.3389534
40
0.2235528
50
269.3314664
51
287.2178029
0
ARC
8
DEFAULT_255_1_234
10
18.8158479
20
0.2886279
40
0.1714108
50
287.7958004
51
329.080874
0
ARC
8
DEFAULT_255_1_234
10
18.7200936
20
0.348393
40
0.2842745
50
328.6634704
51
343.3325132
0
ARC
8
DEFAULT_255_1_234
10
18.5027956
20
0.4160863
40
0.5118644
50
343.0499468
51
351.9393422
0
ARC
8
DEFAULT_255_1_234
10
18.1561256
20
0.4671949
40
0.8622784
50
351.8069023
51
357.7959224
0
ARC
8
DEFAULT_255_1_234
10
17.8325812
20
0.4839721
40
1.1862365
50
357.5871873
51
359.2677531
0
LINE
8
DEFAULT_255_1_234
10
20.1536054
20
0.0102
11
20.0419643
21
0.3154061
0
LINE
8
DEFAULT_255_1_234
10
20.0419643
20
0.3154061
11
19.5520282
21
0.3154061
0
LINE
8
DEFAULT_255_1_234
10
19.5520282
20
0.3154061
11
19.4419934
21
0.0102
0
LINE
8
DEFAULT_255_1_234
10
19.4419934
20
0.0102
11
19.282965
21
0.0102
0
LINE
8
DEFAULT_255_1_234
10
19.282965
20
0.0102
11
19.7295296
21
1.1796211
0
LINE
8
DEFAULT_255_1_234
10
19.7295296
20
1.1796211
11
19.8644628
21
1.1796211
0
LINE
8
DEFAULT_255_1_234
10
19.8644628
20
1.1796211
11
20.3118307
21
0.0102
0
LINE
8
DEFAULT_255_1_234
10
20.3118307
20
0.0102
11
20.1536054
21
0.0102
0
LINE
8
DEFAULT_255_1_234
10
19.7969962
20
0.9892689
11
19.5986123
21
0.4423075
0
LINE
8
DEFAULT_255_1_234
10
19.5986123
20
0.4423075
11
19.9961833
21
0.4423075
0
LINE
8
DEFAULT_255_1_234
10
19.9961833
20
0.4423075
11
19.7969962
21
0.9892689
0
LINE
8
DEFAULT_255_1_234
10
20.8748555
20
0.0102
11
20.4692527
21
0.0102
0
LINE
8
DEFAULT_255_1_234
10
20.4692527
20
0.0102
11
20.4692527
21
1.1796211
0
LINE
8
DEFAULT_255_1_234
10
20.4692527
20
1.1796211
11
20.8515635
21
1.1796211
0
LINE
8
DEFAULT_255_1_234
10
20.8804777
20
0.5571614
11
20.6234621
21
0.5571614
0
LINE
8
DEFAULT_255_1_234
10
20.6234621
20
0.5571614
11
20.6234621
21
0.1362983
0
LINE
8
DEFAULT_255_1_234
10
20.6234621
20
0.1362983
11
20.8780682
21
0.1362983
0
LINE
8
DEFAULT_255_1_234
10
20.6234621
20
1.0527196
11
20.6234621
21
0.6808501
0
LINE
8
DEFAULT_255_1_234
10
20.6234621
20
0.6808501
11
20.8563825
21
0.6808501
0
LINE
8
DEFAULT_255_1_234
10
20.8515635
20
1.0527196
11
20.6234621
21
1.0527196
0
ARC
8
DEFAULT_255_1_234
10
20.8553344
20
0.4428901
40
0.7367406
50
82.1257326
51
90.2932599
0
ARC
8
DEFAULT_255_1_234
10
20.8942298
20
0.7147013
40
0.4621653
50
69.9044149
51
82.2857423
0
ARC
8
DEFAULT_255_1_234
10
20.9512976
20
0.8689637
40
0.2976871
50
51.1838526
51
70.0181538
0
ARC
8
DEFAULT_255_1_234
10
20.9767942
20
0.906024
40
0.2528517
50
12.1017251
51
50.4214761
0
ARC
8
DEFAULT_255_1_234
10
20.8383816
20
0.8712676
40
0.3955061
50
359.5251267
51
12.8211707
0
ARC
8
DEFAULT_255_1_234
10
20.9963743
20
0.8643344
40
0.2375281
50
323.4908128
51
0.8817314
0
ARC
8
DEFAULT_255_1_234
10
20.954543
20
0.896655
40
0.2903817
50
298.6825083
51
323.2756573
0
ARC
8
DEFAULT_255_1_234
10
20.9183793
20
0.9567649
40
0.3604842
50
293.1999386
51
299.1396394
0
ARC
8
DEFAULT_255_1_234
10
20.9856765
20
0.3482126
40
0.2871098
50
54.0011765
51
74.9167975
0
ARC
8
DEFAULT_255_1_234
10
20.9973125
20
0.3679332
40
0.2643248
50
36.3580696
51
53.5291921
0
ARC
8
DEFAULT_255_1_234
10
20.9846367
20
0.3588998
40
0.2798884
50
4.8189881
51
36.3089977
0
ARC
8
DEFAULT_255_1_234
10
20.9067202
20
0.347927
40
0.358478
50
359.9370252
51
5.5204067
0
ARC
8
DEFAULT_255_1_234
10
20.8742723
20
0.3438667
40
0.3909429
50
344.7478609
51
0.5373281
0
ARC
8
DEFAULT_255_1_234
10
20.9733695
20
0.3171544
40
0.2883093
50
311.1786488
51
344.6886812
0
ARC
8
DEFAULT_255_1_234
10
20.9441742
20
0.3534987
40
0.3348923
50
286.0418249
51
310.8441291
0
ARC
8
DEFAULT_255_1_234
10
20.8934574
20
0.5181807
40
0.5071869
50
274.1042341
51
286.4071509
0
ARC
8
DEFAULT_255_1_234
10
20.875783
20
0.7065229
40
0.6963234
50
269.9236873
51
274.445647
0
ARC
8
DEFAULT_255_1_234
10
20.880383
20
0.4725537
40
0.3362634
50
269.6055768
51
281.3740047
0
ARC
8
DEFAULT_255_1_234
10
20.9034468
20
0.3632353
40
0.224546
50
281.1055983
51
302.5132223
0
ARC
8
DEFAULT_255_1_234
10
20.9181368
20
0.3368823
40
0.1944357
50
303.0368945
51
311.8811219
0
ARC
8
DEFAULT_255_1_234
10
20.9252774
20
0.328389
40
0.1833454
50
311.9916004
51
351.7143462
0
ARC
8
DEFAULT_255_1_234
10
20.8436004
20
0.344893
40
0.2665871
50
350.7339597
51
0.2221581
0
ARC
8
DEFAULT_255_1_234
10
20.832845
20
0.3505467
40
0.2773789
50
359.0456241
51
17.2296242
0
ARC
8
DEFAULT_255_1_234
10
20.9367567
20
0.3814163
40
0.1689915
50
17.6685481
51
78.9940892
0
ARC
8
DEFAULT_255_1_234
10
20.8850731
20
0.1959224
40
0.3612658
50
76.5635957
51
90.6980921
0
LINE
8
DEFAULT_255_1_234
10
20.8806716
20
0.5571613
11
20.8804777
21
0.5571614
0
ARC
8
DEFAULT_255_1_234
10
20.8586392
20
1.0094036
40
0.3285612
50
269.6064736
51
281.4533503
0
ARC
8
DEFAULT_255_1_234
10
20.8809211
20
0.9042688
40
0.2210975
50
281.2041486
51
302.5148063
0
ARC
8
DEFAULT_255_1_234
10
20.8946061
20
0.8796241
40
0.1929674
50
303.021671
51
309.8369575
0
ARC
8
DEFAULT_255_1_234
10
20.9129523
20
0.8590488
40
0.1654181
50
309.5228395
51
356.9509836
0
ARC
8
DEFAULT_255_1_234
10
20.8466105
20
0.8685932
40
0.2322512
50
355.4701227
51
0.0492546
0
ARC
8
DEFAULT_255_1_234
10
20.8187197
20
0.8708094
40
0.2601498
50
359.5558597
51
11.2096359
0
ARC
8
DEFAULT_255_1_234
10
20.9144486
20
0.890623
40
0.1623975
50
10.9182341
51
31.3230275
0
ARC
8
DEFAULT_255_1_234
10
20.943022
20
0.9065214
40
0.1297302
50
31.8852677
51
52.1412565
0
ARC
8
DEFAULT_255_1_234
10
20.9155953
20
0.867775
40
0.1771663
50
52.8285564
51
71.9850297
0
ARC
8
DEFAULT_255_1_234
10
20.8780129
20
0.7571664
40
0.2939794
50
71.6863486
51
82.8455995
0
ARC
8
DEFAULT_255_1_234
10
20.8540665
20
0.5762149
40
0.476506
50
82.6984714
51
90.1729175
0
ARC
8
DEFAULT_255_1_234
10
20.85183
20
0.6985623
40
0.3541573
50
89.8708275
51
90.0431131
0
LINE
8
DEFAULT_255_1_234
10
22.1880447
20
0.7017327
11
22.1880447
21
0.5089709
0
LINE
8
DEFAULT_255_1_234
10
21.449928
20
0.4888916
11
21.449928
21
0.6872755
0
LINE
8
DEFAULT_255_1_234
10
22.0394576
20
0.4688123
11
22.0394576
21
0.7121739
0
LINE
8
DEFAULT_255_1_234
10
21.5985151
20
0.7234184
11
21.5985151
21
0.4856789
0
ARC
8
DEFAULT_255_1_234
10
20.9633337
20
0.5040805
40
1.2247208
50
353.8441951
51
0.2287902
0
ARC
8
DEFAULT_255_1_234
10
21.427284
20
0.4522806
40
0.7578929
50
344.4934747
51
353.9765454
0
ARC
8
DEFAULT_255_1_234
10
21.7265431
20
0.3671981
40
0.4467846
50
329.2803592
51
344.7472793
0
ARC
8
DEFAULT_255_1_234
10
21.8258256
20
0.3127018
40
0.3336173
50
324.9352394
51
328.6160465
0
ARC
8
DEFAULT_255_1_234
10
21.8635364
20
0.2863427
40
0.2876076
50
280.580143
51
324.9173126
0
ARC
8
DEFAULT_255_1_234
10
21.8234157
20
0.4534099
40
0.4592847
50
269.5977311
51
281.6734359
0
ARC
8
DEFAULT_255_1_234
10
21.8162062
20
0.4414173
40
0.4472986
50
256.6228859
51
270.51044
0
ARC
8
DEFAULT_255_1_234
10
21.776004
20
0.2865877
40
0.2873874
50
215.8618325
51
257.2788573
0
ARC
8
DEFAULT_255_1_234
10
21.8781072
20
0.3550977
40
0.4102928
50
197.9693508
51
215.2623606
0
ARC
8
DEFAULT_255_1_234
10
22.1266188
20
0.4389709
40
0.6725652
50
187.8816417
51
198.2346507
0
ARC
8
DEFAULT_255_1_234
10
22.5224396
20
0.4961079
40
1.0724845
50
180.8976217
51
188.0055519
0
ARC
8
DEFAULT_255_1_234
10
22.8024584
20
0.5064777
40
1.3526448
50
180.7449369
51
181.1510016
0
ARC
8
DEFAULT_255_1_234
10
22.6447313
20
0.6921042
40
1.1948131
50
173.7675579
51
180.231553
0
ARC
8
DEFAULT_255_1_234
10
22.192946
20
0.7431666
40
0.7401564
50
164.3058563
51
173.9002247
0
ARC
8
DEFAULT_255_1_234
10
21.9017528
20
0.8270656
40
0.4371288
50
148.7922025
51
164.568378
0
ARC
8
DEFAULT_255_1_234
10
21.8065981
20
0.8801929
40
0.3282386
50
144.5883898
51
148.1176286
0
ARC
8
DEFAULT_255_1_234
10
21.7722879
20
0.9041315
40
0.2864044
50
101.6440918
51
144.514236
0
ARC
8
DEFAULT_255_1_234
10
21.8147945
20
0.7352069
40
0.4604934
50
89.5284041
51
102.5819763
0
ARC
8
DEFAULT_255_1_234
10
21.8227033
20
0.7313018
40
0.464401
50
77.0437873
51
90.5081339
0
ARC
8
DEFAULT_255_1_234
10
21.8629035
20
0.8955615
40
0.2953195
50
48.2778575
51
77.4994676
0
ARC
8
DEFAULT_255_1_234
10
21.8701666
20
0.9084746
40
0.2808655
50
36.3142134
51
47.6305865
0
ARC
8
DEFAULT_255_1_234
10
21.7832973
20
0.8499515
40
0.3855453
50
18.2931786
51
35.6769206
0
ARC
8
DEFAULT_255_1_234
10
21.5289732
20
0.7626593
40
0.654423
50
8.024666
51
18.5605216
0
ARC
8
DEFAULT_255_1_234
10
21.1126652
20
0.7011792
40
1.0752407
50
1.1274072
51
8.1718305
0
ARC
8
DEFAULT_255_1_234
10
20.7890842
20
0.6884885
40
1.3990231
50
0.5424119
51
1.3863029
0
ARC
8
DEFAULT_255_1_234
10
20.971222
20
0.7157342
40
1.0682415
50
359.8090433
51
4.9407866
0
ARC
8
DEFAULT_255_1_234
10
21.3922234
20
0.7533113
40
0.6455691
50
4.8362157
51
12.2904523
0
ARC
8
DEFAULT_255_1_234
10
21.6677349
20
0.8146965
40
0.3633074
50
12.0805627
51
23.8173984
0
ARC
8
DEFAULT_255_1_234
10
21.7851054
20
0.8643919
40
0.2358723
50
24.2871213
51
31.3935614
0
ARC
8
DEFAULT_255_1_234
10
21.8375752
20
0.8987233
40
0.1732111
50
30.7407893
51
82.4657128
0
ARC
8
DEFAULT_255_1_234
10
21.8195886
20
0.8103691
40
0.263235
50
81.1060089
51
90.2184952
0
ARC
8
DEFAULT_255_1_234
10
21.8160185
20
0.8361924
40
0.2374236
50
89.3806855
51
105.6762551
0
ARC
8
DEFAULT_255_1_234
10
21.7976816
20
0.9028567
40
0.1682847
50
105.7981136
51
149.7388061
0
ARC
8
DEFAULT_255_1_234
10
21.9040894
20
0.838895
40
0.2924306
50
149.4208916
51
163.6286378
0
ARC
8
DEFAULT_255_1_234
10
22.1131782
20
0.775125
40
0.5110213
50
163.3763315
51
172.1410975
0
ARC
8
DEFAULT_255_1_234
10
22.4432501
20
0.7278518
40
0.8444586
50
172.0259487
51
178.0703232
0
ARC
8
DEFAULT_255_1_234
10
22.746259
20
0.7134906
40
1.1477868
50
177.8631668
51
179.5044149
0
ARC
8
DEFAULT_255_1_234
10
22.6389995
20
0.4820389
40
1.0404907
50
179.7995573
51
185.2460446
0
ARC
8
DEFAULT_255_1_234
10
22.2347034
20
0.4437513
40
0.6343885
50
185.1411642
51
193.0079639
0
ARC
8
DEFAULT_255_1_234
10
21.9703507
20
0.3812641
40
0.3627568
50
192.7897626
51
205.2507664
0
ARC
8
DEFAULT_255_1_234
10
21.8657054
20
0.3345415
40
0.2481908
50
205.8005384
51
211.2537509
0
ARC
8
DEFAULT_255_1_234
10
21.8133494
20
0.299458
40
0.1852521
50
210.3789793
51
238.4008143
0
ARC
8
DEFAULT_255_1_234
10
21.8114016
20
0.3041376
40
0.1882621
50
239.6520629
51
265.9793761
0
ARC
8
DEFAULT_255_1_234
10
21.8199216
20
0.3713427
40
0.2559272
50
265.1315437
51
270.060332
0
ARC
8
DEFAULT_255_1_234
10
21.8227995
20
0.3389534
40
0.2235528
50
269.3314664
51
287.2178029
0
ARC
8
DEFAULT_255_1_234
10
21.8365847
20
0.2886279
40
0.1714108
50
287.7958004
51
329.080874
0
ARC
8
DEFAULT_255_1_234
10
21.7408304
20
0.348393
40
0.2842745
50
328.6634704
51
343.3325132
0
ARC
8
DEFAULT_255_1_234
10
21.5235324
20
0.4160863
40
0.5118644
50
343.0499468
51
351.9393422
0
ARC
8
DEFAULT_255_1_234
10
21.1768624
20
0.4671949
40
0.8622784
50
351.8069023
51
357.7959224
0
ARC
8
DEFAULT_255_1_234
10
20.853318
20
0.4839721
40
1.1862365
50
357.5871873
51
359.2677531
0
ARC
8
DEFAULT_255_2_778
10
7.7537439
20
28.4823128
40
3.0466403
50
251.6724781
51
258.5987661
0
ARC
8
DEFAULT_255_2_778
10
7.5394558
20
27.4011316
40
1.9444375
50
258.4907215
51
268.3974115
0
ARC
8
DEFAULT_255_2_778
10
7.5171542
20
26.9704995
40
1.5133848
50
268.7854544
51
269.9953942
0
ARC
8
DEFAULT_255_2_778
10
7.5274263
20
26.5211726
40
1.0641086
50
269.4403512
51
279.6841037
0
ARC
8
DEFAULT_255_2_778
10
7.6415978
20
25.8916567
40
0.4244099
50
278.7863046
51
300.3428271
0
ARC
8
DEFAULT_255_2_778
10
7.7606279
20
25.68903
40
0.1894089
50
300.2328316
51
1.9014863
0
ARC
8
DEFAULT_255_2_778
10
7.745908
20
25.6981715
40
0.2040445
50
359.1977832
51
359.9996968
0
ARC
8
DEFAULT_255_2_778
10
7.752475
20
25.6990013
40
0.1974794
50
359.7589479
51
47.2071953
0
ARC
8
DEFAULT_255_2_778
10
7.618413
20
25.5500429
40
0.3978723
50
47.6130098
51
60.824453
0
ARC
8
DEFAULT_255_2_778
10
7.0178997
20
24.5330677
40
1.5788249
50
59.7878046
51
64.8721208
0
ARC
8
DEFAULT_255_2_778
10
6.0919837
20
22.6018461
40
3.7205057
50
64.5916011
51
66.820345
0
ARC
8
DEFAULT_255_2_778
10
9.6372482
20
30.9599609
40
5.3584611
50
244.3087082
51
247.1497851
0
ARC
8
DEFAULT_255_2_778
10
8.548378
20
28.704372
40
2.8538059
50
240.2312866
51
244.3765687
0
ARC
8
DEFAULT_255_2_778
10
7.7790999
20
27.3699805
40
1.3135689
50
233.2094737
51
240.4596791
0
ARC
8
DEFAULT_255_2_778
10
7.3558445
20
26.7999409
40
0.603585
50
225.678902
51
232.9782433
0
ARC
8
DEFAULT_255_2_778
10
7.396101
20
26.8247518
40
0.6495632
50
178.2741582
51
224.667467
0
ARC
8
DEFAULT_255_2_778
10
7.506051
20
26.8581559
40
0.7593447
50
157.036112
51
181.044431
0
ARC
8
DEFAULT_255_2_778
10
7.3786854
20
26.8989246
40
0.6262846
50
124.9253006
51
155.9241303
0
ARC
8
DEFAULT_255_2_778
10
7.5959789
20
26.5905358
40
1.0035357
50
100.4079723
51
125.0168617
0
ARC
8
DEFAULT_255_2_778
10
7.6990521
20
26.0964723
40
1.5081396
50
89.6483922
51
100.8684975
0
ARC
8
DEFAULT_255_2_778
10
7.7082565
20
25.7442665
40
1.8603169
50
89.5079487
51
89.9984402
0
ARC
8
DEFAULT_255_2_778
10
7.7098896
20
25.6790371
40
1.9255311
50
83.9170631
51
89.5732113
0
ARC
8
DEFAULT_255_2_778
10
7.507084
20
23.6714635
40
3.9433074
50
80.7325723
51
84.0779772
0
ARC
8
DEFAULT_255_2_778
10
7.020778
20
20.6485497
40
7.0050837
50
78.5086351
51
80.7886813
0
ARC
8
DEFAULT_255_2_778
10
7.66195
20
25.2480221
40
1.9415426
50
67.135818
51
78.0934208
0
ARC
8
DEFAULT_255_2_778
10
7.7851137
20
25.8184486
40
1.3579807
50
78.2126325
51
89.7333975
0
ARC
8
DEFAULT_255_2_778
10
7.7793169
20
26.2328048
40
0.9436877
50
89.2643807
51
100.5577599
0
ARC
8
DEFAULT_255_2_778
10
7.6665349
20
26.8015957
40
0.3639224
50
99.5099416
51
124.0285213
0
ARC
8
DEFAULT_255_2_778
10
7.57032
20
26.9516933
40
0.1857341
50
125.3416971
51
182.2767689
0
ARC
8
DEFAULT_255_2_778
10
7.5498732
20
26.9450853
40
0.1651425
50
180.2673353
51
239.6912529
0
ARC
8
DEFAULT_255_2_778
10
7.9317524
20
27.543404
40
0.8748407
50
237.8744287
51
242.8176978
0
ARC
8
DEFAULT_255_2_778
10
9.4128979
20
30.3540997
40
4.0518771
50
242.3429481
51
244.0446069
0
ARC
8
DEFAULT_255_2_778
10
12.366878
20
36.3879499
40
10.7700062
50
243.963828
51
244.8175572
0
ARC
8
DEFAULT_255_2_778
10
15.3890528
20
42.7796513
40
17.8401724
50
244.7685545
51
244.971514
0
ARC
8
DEFAULT_255_2_778
10
5.8608283
20
22.2848652
40
4.7613433
50
62.2451122
51
65.4192096
0
ARC
8
DEFAULT_255_2_778
10
6.9253351
20
24.296774
40
2.4851839
50
57.2979848
51
62.3628589
0
ARC
8
DEFAULT_255_2_778
10
7.6799627
20
25.462458
40
1.0965802
50
48.7493094
51
57.571194
0
ARC
8
DEFAULT_255_2_778
10
8.0114821
20
25.8507759
40
0.586081
50
44.3424824
51
48.0852666
0
ARC
8
DEFAULT_255_2_778
10
7.9782325
20
25.8312146
40
0.6236013
50
1.3523843
51
43.4925744
0
ARC
8
DEFAULT_255_2_778
10
7.7102854
20
25.7982828
40
0.8926473
50
359.9763756
51
3.0599076
0
ARC
8
DEFAULT_255_2_778
10
7.8642098
20
25.7831968
40
0.7388693
50
333.0409438
51
1.1413791
0
ARC
8
DEFAULT_255_2_778
10
7.8947469
20
25.7900035
40
0.7150136
50
300.8436672
51
331.44521
0
ARC
8
DEFAULT_255_2_778
10
7.6945587
20
26.1040479
40
1.0873327
50
281.4188469
51
301.4162372
0
ARC
8
DEFAULT_255_2_778
10
7.5631994
20
26.7128698
40
1.7101299
50
270.2272327
51
281.6944092
0
ARC
8
DEFAULT_255_2_778
10
7.5453128
20
27.1885692
40
2.185955
50
269.9983113
51
270.6466065
0
LINE
8
DEFAULT_255_2_778
10
7.5452484
20
25.0026142
11
7.5437325
21
25.0026147
0
ARC
8
DEFAULT_255_2_778
10
7.5508484
20
28.1855647
40
3.1829579
50
256.2431122
51
269.871909
0
ARC
8
DEFAULT_255_2_778
10
21.7540021
20
28.4043817
40
2.9666503
50
251.5318157
51
258.7258279
0
ARC
8
DEFAULT_255_2_778
10
21.5537563
20
27.382451
40
1.9252941
50
258.62435
51
268.8252909
0
ARC
8
DEFAULT_255_2_778
10
21.5354665
20
26.9875972
40
1.5301823
50
269.2068806
51
269.9987259
0
ARC
8
DEFAULT_255_2_778
10
21.5473171
20
26.5233861
40
1.0660376
50
269.3612297
51
279.5899087
0
ARC
8
DEFAULT_255_2_778
10
21.6607762
20
25.8919001
40
0.424527
50
278.6895227
51
300.2363944
0
ARC
8
DEFAULT_255_2_778
10
21.7798406
20
25.688447
40
0.188796
50
300.1108484
51
1.9024905
0
ARC
8
DEFAULT_255_2_778
10
21.74389
20
25.6990898
40
0.2246851
50
358.8842611
51
0.0019649
0
ARC
8
DEFAULT_255_2_778
10
21.7769114
20
25.7030062
40
0.1917038
50
358.831716
51
47.0900458
0
ARC
8
DEFAULT_255_2_778
10
21.6376597
20
25.5445519
40
0.402612
50
47.9285592
51
61.0836101
0
ARC
8
DEFAULT_255_2_778
10
21.0429796
20
24.5262787
40
1.5817315
50
60.0631222
51
65.1602386
0
ARC
8
DEFAULT_255_2_778
10
20.1314272
20
22.600206
40
3.7125866
50
64.8807046
51
67.1209578
0
ARC
8
DEFAULT_255_2_778
10
23.627479
20
30.8896565
40
5.2839333
50
244.2656926
51
247.1407051
0
ARC
8
DEFAULT_255_2_778
10
22.559432
20
28.6814327
40
2.8309849
50
240.1545061
51
244.3326325
0
ARC
8
DEFAULT_255_2_778
10
21.7855871
20
27.3454023
40
1.2870531
50
232.697515
51
240.4357497
0
ARC
8
DEFAULT_255_2_778
10
21.3704829
20
26.7943895
40
0.5972006
50
225.5850892
51
232.3393736
0
ARC
8
DEFAULT_255_2_778
10
21.4133264
20
26.823961
40
0.6483829
50
178.7795739
51
224.7095916
0
ARC
8
DEFAULT_255_2_778
10
21.6668642
20
26.8479812
40
0.9018316
50
179.997867
51
180.6487041
0
ARC
8
DEFAULT_255_2_778
10
21.5167061
20
26.8617926
40
0.7517998
50
156.9195758
51
181.050088
0
ARC
8
DEFAULT_255_2_778
10
21.3927805
20
26.9012389
40
0.6224513
50
124.7111133
51
155.7879672
0
ARC
8
DEFAULT_255_2_778
10
21.6049077
20
26.6109843
40
0.9818859
50
101.7943006
51
125.2417472
0
ARC
8
DEFAULT_255_2_778
10
21.7294568
20
26.0575359
40
1.5491324
50
89.5237779
51
102.119608
0
ARC
8
DEFAULT_255_2_778
10
21.727965
20
25.5027684
40
2.1038954
50
83.2897778
51
89.6087235
0
ARC
8
DEFAULT_255_2_778
10
21.5234013
20
23.6904907
40
3.9276711
50
79.3121016
51
83.4152109
0
ARC
8
DEFAULT_255_2_778
10
21.2067148
20
21.9258502
40
5.7204535
50
78.2244786
51
79.4731175
0
ARC
8
DEFAULT_255_2_778
10
21.6833903
20
25.2595601
40
1.9313541
50
67.1320052
51
78.3124693
0
ARC
8
DEFAULT_255_2_778
10
21.8010805
20
25.811809
40
1.3667182
50
78.4541134
51
89.7546716
0
ARC
8
DEFAULT_255_2_778
10
21.7948662
20
26.2404688
40
0.9381236
50
89.263032
51
100.5789495
0
ARC
8
DEFAULT_255_2_778
10
21.6820638
20
26.8071991
40
0.3603816
50
99.4915893
51
124.3627674
0
ARC
8
DEFAULT_255_2_778
10
21.5871509
20
26.9542673
40
0.1854666
50
125.8028369
51
182.2896157
0
ARC
8
DEFAULT_255_2_778
10
21.5489799
20
26.946772
40
0.1471476
50
179.9666171
51
180.1001736
0
ARC
8
DEFAULT_255_2_778
10
21.5659745
20
26.9466091
40
0.164142
50
180.032935
51
239.8907271
0
ARC
8
DEFAULT_255_2_778
10
21.9354551
20
27.528813
40
0.8535847
50
238.0402264
51
243.0370307
0
ARC
8
DEFAULT_255_2_778
10
23.4787463
20
30.4809461
40
4.1847343
50
242.5305029
51
244.1852103
0
ARC
8
DEFAULT_255_2_778
10
26.6265515
20
36.9511116
40
11.3799845
50
244.1038809
51
244.9214171
0
ARC
8
DEFAULT_255_2_778
10
29.8771528
20
43.859826
40
19.0152051
50
244.8737354
51
245.0669821
0
ARC
8
DEFAULT_255_2_778
10
19.8876742
20
22.326571
40
4.7223648
50
62.036831
51
65.2981624
0
ARC
8
DEFAULT_255_2_778
10
20.9516164
20
24.3211714
40
2.4617531
50
57.1110762
51
62.1404081
0
ARC
8
DEFAULT_255_2_778
10
21.7042272
20
25.474297
40
1.0847836
50
48.3568195
51
57.4187314
0
ARC
8
DEFAULT_255_2_778
10
22.028946
20
25.8506639
40
0.5878002
50
44.453022
51
47.6325253
0
ARC
8
DEFAULT_255_2_778
10
21.9973779
20
25.8324098
40
0.6231843
50
1.0876759
51
43.6183889
0
ARC
8
DEFAULT_255_2_778
10
21.7304111
20
25.8003301
40
0.8911213
50
359.9797211
51
2.8243422
0
ARC
8
DEFAULT_255_2_778
10
21.8798151
20
25.7852736
40
0.7418639
50
333.2156265
51
1.138567
0
ARC
8
DEFAULT_255_2_778
10
21.9146495
20
25.7897363
40
0.7130495
50
300.9658303
51
331.6339563
0
ARC
8
DEFAULT_255_2_778
10
21.7181382
20
26.09897
40
1.0793606
50
281.9136331
51
301.4645182
0
ARC
8
DEFAULT_255_2_778
10
21.5849532
20
26.6961054
40
1.6911426
50
270.5804277
51
282.1523279
0
ARC
8
DEFAULT_255_2_778
10
21.5638102
20
27.1900177
40
2.1853034
50
269.9959061
51
271.0035609
0
LINE
8
DEFAULT_255_2_778
10
21.5636541
20
25.0047142
11
21.5621325
21
25.0047147
0
ARC
8
DEFAULT_255_2_778
10
21.5690949
20
28.1888913
40
3.1841842
50
256.2458002
51
269.8747201
0
LINE
8
DEFAULT_255_2_778
10
6.7957325
20
25.0954147
11
6.7957325
21
25.5902147
0
LINE
8
DEFAULT_255_2_778
10
8.4163325
20
27.5132147
11
8.4163325
21
27.0370147
0
LINE
8
DEFAULT_255_2_778
10
6.7939325
20
25.0939147
11
6.7957325
21
25.0954147
0
LINE
8
DEFAULT_255_2_778
10
8.9865325
20
27.5627147
11
9.6628325
21
27.5627147
0
LINE
8
DEFAULT_255_2_778
10
9.6628325
20
27.5627147
11
9.6628325
21
25.0552147
0
LINE
8
DEFAULT_255_2_778
10
9.6628325
20
25.0552147
11
8.9865325
21
25.0552147
0
LINE
8
DEFAULT_255_2_778
10
8.9865325
20
25.0552147
11
8.9865325
21
27.5627147
0
LINE
8
DEFAULT_255_2_778
10
10.2808325
20
25.0552147
11
10.2808325
21
27.5627147
0
LINE
8
DEFAULT_255_2_778
10
10.2808325
20
27.5627147
11
12.0131325
21
27.5627147
0
LINE
8
DEFAULT_255_2_778
10
12.0131325
20
27.5627147
11
12.0131325
21
27.1089147
0
LINE
8
DEFAULT_255_2_778
10
12.0131325
20
27.1089147
11
10.9320325
21
27.1089147
0
LINE
8
DEFAULT_255_2_778
10
10.9320325
20
27.1089147
11
10.9320325
21
26.5427147
0
LINE
8
DEFAULT_255_2_778
10
10.9320325
20
26.5427147
11
11.8734325
21
26.5427147
0
LINE
8
DEFAULT_255_2_778
10
11.8734325
20
26.5427147
11
11.8734325
21
26.1292147
0
LINE
8
DEFAULT_255_2_778
10
11.8734325
20
26.1292147
11
10.9320325
21
26.1292147
0
LINE
8
DEFAULT_255_2_778
10
10.9320325
20
26.1292147
11
10.9320325
21
25.5339147
0
LINE
8
DEFAULT_255_2_778
10
10.9320325
20
25.5339147
11
12.0411325
21
25.5339147
0
LINE
8
DEFAULT_255_2_778
10
12.0411325
20
25.5339147
11
12.0411325
21
25.0536147
0
LINE
8
DEFAULT_255_2_778
10
12.0411325
20
25.0536147
11
10.2808325
21
25.0552147
0
LINE
8
DEFAULT_255_2_778
10
12.4816325
20
25.0552147
11
12.4816325
21
27.5627147
0
LINE
8
DEFAULT_255_2_778
10
12.4816325
20
27.5627147
11
13.3574325
21
27.5627147
0
LINE
8
DEFAULT_255_2_778
10
13.3574325
20
27.5627147
11
13.9670325
21
25.9604147
0
LINE
8
DEFAULT_255_2_778
10
13.9670325
20
25.9604147
11
14.5896325
21
27.5627147
0
LINE
8
DEFAULT_255_2_778
10
14.5896325
20
27.5627147
11
15.4214325
21
27.5627147
0
LINE
8
DEFAULT_255_2_778
10
15.4214325
20
27.5627147
11
15.4214325
21
25.0552147
0
LINE
8
DEFAULT_255_2_778
10
15.4214325
20
25.0552147
11
14.7811325
21
25.0552147
0
LINE
8
DEFAULT_255_2_778
10
14.7811325
20
25.0552147
11
14.7811325
21
26.8311147
0
LINE
8
DEFAULT_255_2_778
10
14.7811325
20
26.8311147
11
14.0723325
21
25.0309147
0
LINE
8
DEFAULT_255_2_778
10
14.0723325
20
25.0309147
11
13.6514325
21
25.0309147
0
LINE
8
DEFAULT_255_2_778
10
13.6514325
20
25.0309147
11
12.9558325
21
26.8311147
0
LINE
8
DEFAULT_255_2_778
10
12.9558325
20
26.8311147
11
12.9558325
21
25.0550147
0
LINE
8
DEFAULT_255_2_778
10
12.9558325
20
25.0550147
11
12.4816325
21
25.0552147
0
LINE
8
DEFAULT_255_2_778
10
16.0408325
20
25.0552147
11
16.0408325
21
27.5627147
0
LINE
8
DEFAULT_255_2_778
10
16.0408325
20
27.5627147
11
17.7730325
21
27.5627147
0
LINE
8
DEFAULT_255_2_778
10
17.7730325
20
27.5627147
11
17.7730325
21
27.1089147
0
LINE
8
DEFAULT_255_2_778
10
17.7730325
20
27.1089147
11
16.6920325
21
27.1089147
0
LINE
8
DEFAULT_255_2_778
10
16.6920325
20
27.1089147
11
16.6920325
21
26.5427147
0
LINE
8
DEFAULT_255_2_778
10
16.6920325
20
26.5427147
11
17.6333325
21
26.5427147
0
LINE
8
DEFAULT_255_2_778
10
17.6333325
20
26.5427147
11
17.6333325
21
26.1292147
0
LINE
8
DEFAULT_255_2_778
10
17.6333325
20
26.1292147
11
16.6920325
21
26.1292147
0
LINE
8
DEFAULT_255_2_778
10
16.6920325
20
26.1292147
11
16.6920325
21
25.5339147
0
LINE
8
DEFAULT_255_2_778
10
16.6920325
20
25.5339147
11
17.8029325
21
25.5339147
0
LINE
8
DEFAULT_255_2_778
10
17.8029325
20
25.5339147
11
17.8029325
21
25.0536147
0
LINE
8
DEFAULT_255_2_778
10
17.8029325
20
25.0536147
11
16.0408325
21
25.0552147
0
LINE
8
DEFAULT_255_2_778
10
18.2453325
20
25.0552147
11
18.2453325
21
27.5627147
0
LINE
8
DEFAULT_255_2_778
10
18.2453325
20
27.5627147
11
19.0282325
21
27.5627147
0
LINE
8
DEFAULT_255_2_778
10
19.0282325
20
27.5627147
11
19.8585325
21
25.8839147
0
LINE
8
DEFAULT_255_2_778
10
19.8585325
20
25.8839147
11
19.8585325
21
27.5627147
0
LINE
8
DEFAULT_255_2_778
10
19.8585325
20
27.5627147
11
20.3342325
21
27.5627147
0
LINE
8
DEFAULT_255_2_778
10
20.3342325
20
27.5627147
11
20.3342325
21
25.0552147
0
LINE
8
DEFAULT_255_2_778
10
20.3342325
20
25.0552147
11
19.5738325
21
25.0552147
0
LINE
8
DEFAULT_255_2_778
10
19.5738325
20
25.0552147
11
18.7213325
21
26.7565147
0
LINE
8
DEFAULT_255_2_778
10
18.7213325
20
26.7565147
11
18.7213325
21
25.0552147
0
LINE
8
DEFAULT_255_2_778
10
18.7213325
20
25.0552147
11
18.2453325
21
25.0552147
0
LINE
8
DEFAULT_255_2_778
10
20.8142325
20
25.0957147
11
20.8142325
21
25.5905147
0
LINE
8
DEFAULT_255_2_778
10
22.3741325
20
27.5259147
11
22.4339325
21
27.5153147
0
LINE
8
DEFAULT_255_2_778
10
22.4339325
20
27.5153147
11
22.4339325
21
27.0391147
0
LINE
8
DEFAULT_255_2_778
10
20.8120325
20
25.0960147
11
20.8142325
21
25.0957147
0
LINE
8
DEFAULT_255_1_234
10
8.6689023
20
23.3309849
11
8.5138897
21
23.3309849
0
LINE
8
DEFAULT_255_1_234
10
7.8215539
20
22.8386394
11
7.9765665
21
22.8386394
0
ARC
8
DEFAULT_255_1_234
10
8.579771
20
24.2256768
40
1.252368
50
248.9199003
51
254.1439814
0
ARC
8
DEFAULT_255_1_234
10
8.4117205
20
23.7930234
40
0.788226
50
241.633709
51
249.0064503
0
ARC
8
DEFAULT_255_1_234
10
8.25886
20
23.5129317
40
0.4691427
50
230.498225
51
241.8087113
0
ARC
8
DEFAULT_255_1_234
10
8.1804174
20
23.4129906
40
0.3421437
50
227.4064532
51
229.9881192
0
ARC
8
DEFAULT_255_1_234
10
8.1316694
20
23.3654088
40
0.2741476
50
200.6781896
51
228.1763934
0
ARC
8
DEFAULT_255_1_234
10
8.1389005
20
23.3639077
40
0.2804109
50
179.5061581
51
199.8694617
0
ARC
8
DEFAULT_255_1_234
10
8.1379757
20
23.371321
40
0.2795204
50
132.4834203
51
181.0242172
0
ARC
8
DEFAULT_255_1_234
10
8.1975339
20
23.3150704
40
0.3612768
50
129.2532479
51
133.4242687
0
ARC
8
DEFAULT_255_1_234
10
8.2121789
20
23.2930965
40
0.3875675
50
101.98776
51
128.8742646
0
ARC
8
DEFAULT_255_1_234
10
8.2520399
20
23.1209741
40
0.5642249
50
89.5906553
51
102.3169264
0
ARC
8
DEFAULT_255_1_234
10
8.2590891
20
23.1528148
40
0.5323783
50
77.2360837
51
90.3248275
0
ARC
8
DEFAULT_255_1_234
10
8.2797971
20
23.24954
40
0.4334697
50
63.837784
51
77.0809408
0
ARC
8
DEFAULT_255_1_234
10
8.3075732
20
23.3012911
40
0.3747796
50
45.9864267
51
64.1607727
0
ARC
8
DEFAULT_255_1_234
10
8.3336614
20
23.3310866
40
0.3352302
50
32.2747395
51
45.6547121
0
ARC
8
DEFAULT_255_1_234
10
8.3403054
20
23.332988
40
0.328603
50
359.6507365
51
32.6130309
0
ARC
8
DEFAULT_255_1_234
10
8.246015
20
23.333466
40
0.2678863
50
359.469343
51
14.9832209
0
ARC
8
DEFAULT_255_1_234
10
8.3165212
20
23.3523539
40
0.1948938
50
14.9781179
51
48.2004265
0
ARC
8
DEFAULT_255_1_234
10
8.3000856
20
23.3316983
40
0.2212521
50
48.5927837
51
74.1241538
0
ARC
8
DEFAULT_255_1_234
10
8.2667346
20
23.2216248
40
0.3362561
50
73.7888341
51
86.6652678
0
ARC
8
DEFAULT_255_1_234
10
8.2564911
20
23.1008881
40
0.4573953
50
86.2640471
51
90.0526343
0
ARC
8
DEFAULT_255_1_234
10
8.2536624
20
23.1404192
40
0.4178709
50
89.6697524
51
99.2309573
0
ARC
8
DEFAULT_255_1_234
10
8.2294075
20
23.2848964
40
0.2713749
50
99.069534
51
113.7658566
0
ARC
8
DEFAULT_255_1_234
10
8.2020266
20
23.3494677
40
0.2012469
50
114.0401004
51
127.9850673
0
ARC
8
DEFAULT_255_1_234
10
8.177983
20
23.379073
40
0.1631167
50
127.7287463
51
176.7105154
0
ARC
8
DEFAULT_255_1_234
10
8.2458547
20
23.3689693
40
0.2315392
50
175.1779447
51
180.0581938
0
ARC
8
DEFAULT_255_1_234
10
8.1615394
20
23.3677428
40
0.1472271
50
179.6142195
51
228.1246017
0
ARC
8
DEFAULT_255_1_234
10
8.2057063
20
23.4086308
40
0.2072299
50
226.5779593
51
230.8800004
0
ARC
8
DEFAULT_255_1_234
10
8.2528141
20
23.4711636
40
0.2854818
50
231.4635071
51
241.9260842
0
ARC
8
DEFAULT_255_1_234
10
8.3725319
20
23.69148
40
0.53622
50
241.7178533
51
248.3259551
0
ARC
8
DEFAULT_255_1_234
10
8.5110691
20
24.0347064
40
0.9063478
50
248.2007737
51
252.4528373
0
ARC
8
DEFAULT_255_1_234
10
8.6314416
20
24.4068441
40
1.2974635
50
252.3391078
51
254.3469452
0
ARC
8
DEFAULT_255_1_234
10
7.8772119
20
21.7091148
40
1.5037162
50
71.0197183
51
74.4087047
0
ARC
8
DEFAULT_255_1_234
10
8.0466804
20
22.1983111
40
0.9859993
50
66.1847285
51
71.086374
0
ARC
8
DEFAULT_255_1_234
10
8.2023116
20
22.54872
40
0.6025855
50
59.3536294
51
66.2691831
0
ARC
8
DEFAULT_255_1_234
10
8.2911769
20
22.6990609
40
0.4279449
50
49.1020879
51
59.3293958
0
ARC
8
DEFAULT_255_1_234
10
8.3730509
20
22.7923834
40
0.3038015
50
32.7919921
51
49.2505539
0
ARC
8
DEFAULT_255_1_234
10
8.4051599
20
22.8152191
40
0.264448
50
31.1181161
51
32.4005348
0
ARC
8
DEFAULT_255_1_234
10
8.3963136
20
22.8116779
40
0.2738556
50
8.1116974
51
30.7958831
0
ARC
8
DEFAULT_255_1_234
10
8.3152804
20
22.7978753
40
0.3560327
50
359.8389159
51
8.4706516
0
ARC
8
DEFAULT_255_1_234
10
8.3778596
20
22.7930137
40
0.2934776
50
337.4731098
51
0.7537279
0
ARC
8
DEFAULT_255_1_234
10
8.3957291
20
22.7910387
40
0.2762607
50
307.5917067
51
336.4315538
0
ARC
8
DEFAULT_255_1_234
10
8.3497119
20
22.8423102
40
0.3449979
50
307.6551545
51
308.4529766
0
ARC
8
DEFAULT_255_1_234
10
8.3266838
20
22.877825
40
0.3871988
50
284.3734338
51
307.1424381
0
ARC
8
DEFAULT_255_1_234
10
8.2771668
20
23.0599932
40
0.5759636
50
272.4382747
51
284.646547
0
ARC
8
DEFAULT_255_1_234
10
8.2644876
20
23.2399893
40
0.7563528
50
269.9708387
51
272.8178037
0
ARC
8
DEFAULT_255_1_234
10
8.2601916
20
23.0361716
40
0.5525489
50
248.2707594
51
270.4055579
0
ARC
8
DEFAULT_255_1_234
10
8.2547657
20
23.0171192
40
0.5328452
50
246.1383403
51
248.0542782
0
ARC
8
DEFAULT_255_1_234
10
8.2129036
20
22.9291843
40
0.4355005
50
233.1670131
51
246.4950969
0
ARC
8
DEFAULT_255_1_234
10
8.1574941
20
22.8543812
40
0.3424126
50
215.3403242
51
233.0843104
0
ARC
8
DEFAULT_255_1_234
10
8.1302372
20
22.8345549
40
0.3087104
50
179.2419209
51
215.2648451
0
ARC
8
DEFAULT_255_1_234
10
8.2069966
20
22.8359666
40
0.2304457
50
179.335461
51
199.1045811
0
ARC
8
DEFAULT_255_1_234
10
8.1737643
20
22.8272766
40
0.1962176
50
199.8828939
51
232.7063202
0
ARC
8
DEFAULT_255_1_234
10
8.2209911
20
22.8866788
40
0.2720938
50
232.3738199
51
255.5136649
0
ARC
8
DEFAULT_255_1_234
10
8.2550778
20
23.0110835
40
0.4010747
50
255.2446292
51
267.5320849
0
ARC
8
DEFAULT_255_1_234
10
8.2638401
20
23.1343702
40
0.5246356
50
267.1557994
51
270.0286766
0
ARC
8
DEFAULT_255_1_234
10
8.2666173
20
23.089995
40
0.4802668
50
269.7000017
51
278.1660162
0
ARC
8
DEFAULT_255_1_234
10
8.2922178
20
22.9169515
40
0.3053425
50
278.0231263
51
290.625471
0
ARC
8
DEFAULT_255_1_234
10
8.3269865
20
22.8242025
40
0.206291
50
290.6619762
51
307.0370976
0
ARC
8
DEFAULT_255_1_234
10
8.3570254
20
22.7873504
40
0.1587906
50
306.3943566
51
355.3030547
0
ARC
8
DEFAULT_255_1_234
10
8.3058186
20
22.7950113
40
0.2104809
50
354.3660432
51
0.0698737
0
ARC
8
DEFAULT_255_1_234
10
8.3200531
20
22.7972617
40
0.1962563
50
359.417946
51
16.1971788
0
ARC
8
DEFAULT_255_1_234
10
8.3655841
20
22.8097418
40
0.149053
50
16.4723299
51
52.6262157
0
ARC
8
DEFAULT_255_1_234
10
8.2834895
20
22.7013433
40
0.2850296
50
52.7386432
51
62.4979148
0
ARC
8
DEFAULT_255_1_234
10
8.1449972
20
22.4407283
40
0.5801521
50
62.2515216
51
68.1220564
0
ARC
8
DEFAULT_255_1_234
10
7.9729883
20
22.0179872
40
1.0365451
50
68.0062803
51
71.8053402
0
ARC
8
DEFAULT_255_1_234
10
7.7934255
20
21.4794758
40
1.6042013
50
71.7183119
51
73.9258742
0
LINE
8
DEFAULT_255_1_234
10
9.0343464
20
23.6691211
11
9.0343464
21
22.4997
0
LINE
8
DEFAULT_255_1_234
10
9.0343464
20
22.4997
11
8.880137
21
22.4997
0
LINE
8
DEFAULT_255_1_234
10
8.880137
20
22.4997
11
8.880137
21
23.6691211
0
LINE
8
DEFAULT_255_1_234
10
8.880137
20
23.6691211
11
9.0343464
21
23.6691211
0
LINE
8
DEFAULT_255_1_234
10
9.3162604
20
23.6691211
11
9.5154475
21
23.6691211
0
LINE
8
DEFAULT_255_1_234
10
9.5154475
20
23.6691211
11
9.8977583
21
22.7149506
0
LINE
8
DEFAULT_255_1_234
10
9.8977583
20
22.7149506
11
10.280069
21
23.6691211
0
LINE
8
DEFAULT_255_1_234
10
10.280069
20
23.6691211
11
10.4800593
21
23.6691211
0
LINE
8
DEFAULT_255_1_234
10
10.4800593
20
23.6691211
11
10.4800593
21
22.4997
0
LINE
8
DEFAULT_255_1_234
10
10.4800593
20
22.4997
11
10.3258499
21
22.4997
0
LINE
8
DEFAULT_255_1_234
10
10.3258499
20
22.4997
11
10.3258499
21
22.9550996
0
LINE
8
DEFAULT_255_1_234
10
10.3258499
20
22.9550996
11
10.340307
21
23.4466419
0
LINE
8
DEFAULT_255_1_234
10
10.340307
20
23.4466419
11
9.9563899
21
22.4997
0
LINE
8
DEFAULT_255_1_234
10
9.9563899
20
22.4997
11
9.8383234
21
22.4997
0
LINE
8
DEFAULT_255_1_234
10
9.8383234
20
22.4997
11
9.4552095
21
23.4442324
0
LINE
8
DEFAULT_255_1_234
10
9.4552095
20
23.4442324
11
9.4704698
21
22.9550996
0
LINE
8
DEFAULT_255_1_234
10
9.4704698
20
22.9550996
11
9.4704698
21
22.4997
0
LINE
8
DEFAULT_255_1_234
10
9.4704698
20
22.4997
11
9.3162604
21
22.4997
0
LINE
8
DEFAULT_255_1_234
10
9.3162604
20
22.4997
11
9.3162604
21
23.6691211
0
LINE
8
DEFAULT_255_1_234
10
11.5241853
20
22.4997
11
11.4125441
21
22.8049061
0
LINE
8
DEFAULT_255_1_234
10
11.4125441
20
22.8049061
11
10.9226081
21
22.8049061
0
LINE
8
DEFAULT_255_1_234
10
10.9226081
20
22.8049061
11
10.8125732
21
22.4997
0
LINE
8
DEFAULT_255_1_234
10
10.8125732
20
22.4997
11
10.6535448
21
22.4997
0
LINE
8
DEFAULT_255_1_234
10
10.6535448
20
22.4997
11
11.1001095
21
23.6691211
0
LINE
8
DEFAULT_255_1_234
10
11.1001095
20
23.6691211
11
11.2350427
21
23.6691211
0
LINE
8
DEFAULT_255_1_234
10
11.2350427
20
23.6691211
11
11.6824105
21
22.4997
0
LINE
8
DEFAULT_255_1_234
10
11.6824105
20
22.4997
11
11.5241853
21
22.4997
0
LINE
8
DEFAULT_255_1_234
10
11.1675761
20
23.4787689
11
10.9691921
21
22.9318075
0
LINE
8
DEFAULT_255_1_234
10
10.9691921
20
22.9318075
11
11.3667632
21
22.9318075
0
LINE
8
DEFAULT_255_1_234
10
11.3667632
20
22.9318075
11
11.1675761
21
23.4787689
0
LINE
8
DEFAULT_255_1_234
10
12.544216
20
23.6691211
11
12.544216
21
23.5422196
0
LINE
8
DEFAULT_255_1_234
10
12.544216
20
23.5422196
11
12.1683307
21
23.5422196
0
LINE
8
DEFAULT_255_1_234
10
12.1683307
20
23.5422196
11
12.1683307
21
22.4997
0
LINE
8
DEFAULT_255_1_234
10
12.1683307
20
22.4997
11
12.0149245
21
22.4997
0
LINE
8
DEFAULT_255_1_234
10
12.0149245
20
22.4997
11
12.0149245
21
23.5422196
0
LINE
8
DEFAULT_255_1_234
10
12.0149245
20
23.5422196
11
11.6398423
21
23.5422196
0
LINE
8
DEFAULT_255_1_234
10
11.6398423
20
23.5422196
11
11.6398423
21
23.6691211
0
LINE
8
DEFAULT_255_1_234
10
11.6398423
20
23.6691211
11
12.544216
21
23.6691211
0
LINE
8
DEFAULT_255_1_234
10
12.8831554
20
23.6691211
11
12.8831554
21
22.4997
0
LINE
8
DEFAULT_255_1_234
10
12.8831554
20
22.4997
11
12.728946
21
22.4997
0
LINE
8
DEFAULT_255_1_234
10
12.728946
20
22.4997
11
12.728946
21
23.6691211
0
LINE
8
DEFAULT_255_1_234
10
12.728946
20
23.6691211
11
12.8831554
21
23.6691211
0
LINE
8
DEFAULT_255_1_234
10
13.870256
20
22.8707663
11
14.0252686
21
22.8707663
0
LINE
8
DEFAULT_255_1_234
10
13.1249107
20
23.0297947
11
13.1249107
21
23.1422391
0
LINE
8
DEFAULT_255_1_234
10
14.0252686
20
23.2932357
11
13.870256
21
23.2932357
0
LINE
8
DEFAULT_255_1_234
10
13.2799232
20
23.1382232
11
13.2799232
21
23.0249757
0
ARC
8
DEFAULT_255_1_234
10
13.4772072
20
22.9304846
40
0.5513052
50
340.1774281
51
353.7814284
0
ARC
8
DEFAULT_255_1_234
10
13.6343425
20
22.8719582
40
0.3836379
50
311.4558989
51
340.4421614
0
ARC
8
DEFAULT_255_1_234
10
13.6310093
20
22.8830528
40
0.3941894
50
282.4333181
51
310.7513653
0
ARC
8
DEFAULT_255_1_234
10
13.5870832
20
23.0645679
40
0.5809175
50
269.9358511
51
282.809604
0
ARC
8
DEFAULT_255_1_234
10
13.5818899
20
23.2103212
40
0.7266847
50
270.0021091
51
270.3581957
0
ARC
8
DEFAULT_255_1_234
10
13.5766315
20
22.9502585
40
0.4666519
50
250.7884749
51
270.6489167
0
ARC
8
DEFAULT_255_1_234
10
13.559815
20
22.8865319
40
0.4009729
50
219.3627325
51
250.0611886
0
ARC
8
DEFAULT_255_1_234
10
13.6427361
20
22.9570042
40
0.5097822
50
193.5479632
51
219.5756669
0
ARC
8
DEFAULT_255_1_234
10
13.8798982
20
23.0185919
40
0.7547848
50
181.1218675
51
193.87563
0
ARC
8
DEFAULT_255_1_234
10
14.0869163
20
23.029658
40
0.9620055
50
179.9918545
51
181.5394234
0
ARC
8
DEFAULT_255_1_234
10
13.9018265
20
23.1459788
40
0.7769248
50
169.5837241
51
180.2757934
0
ARC
8
DEFAULT_255_1_234
10
13.7181203
20
23.1799229
40
0.590109
50
155.0365899
51
169.6003176
0
ARC
8
DEFAULT_255_1_234
10
13.6045667
20
23.2346677
40
0.4640625
50
136.783148
51
155.2472683
0
ARC
8
DEFAULT_255_1_234
10
13.5656144
20
23.2677562
40
0.4130255
50
121.7633186
51
136.428115
0
ARC
8
DEFAULT_255_1_234
10
13.5791106
20
23.2428227
40
0.4413323
50
95.6459699
51
121.5490577
0
ARC
8
DEFAULT_255_1_234
10
13.5948388
20
23.1319949
40
0.55319
50
89.924208
51
96.1377933
0
ARC
8
DEFAULT_255_1_234
10
13.5998821
20
23.1438542
40
0.5413475
50
76.6779277
51
90.4563316
0
ARC
8
DEFAULT_255_1_234
10
13.6392444
20
23.3029114
40
0.3775041
50
47.485847
51
76.9287264
0
ARC
8
DEFAULT_255_1_234
10
13.6245417
20
23.2929159
40
0.3948286
50
16.5424086
51
46.8933463
0
ARC
8
DEFAULT_255_1_234
10
13.4637574
20
23.2400861
40
0.564021
50
5.4072051
51
17.0365086
0
ARC
8
DEFAULT_255_1_234
10
13.3198591
20
23.2169679
40
0.5556559
50
7.8891745
51
15.9239216
0
ARC
8
DEFAULT_255_1_234
10
13.5185605
20
23.2746631
40
0.3487515
50
15.7653144
51
27.9410532
0
ARC
8
DEFAULT_255_1_234
10
13.6289822
20
23.333779
40
0.2235026
50
27.8166557
51
46.4008329
0
ARC
8
DEFAULT_255_1_234
10
13.6339465
20
23.3332082
40
0.2205286
50
47.4371857
51
75.0698205
0
ARC
8
DEFAULT_255_1_234
10
13.603086
20
23.2257765
40
0.3322915
50
74.7008593
51
87.8124495
0
ARC
8
DEFAULT_255_1_234
10
13.5957547
20
23.1201844
40
0.4380987
50
87.3814673
51
90.0240855
0
ARC
8
DEFAULT_255_1_234
10
13.5919091
20
23.2379291
40
0.3203749
50
89.3451631
51
108.5745436
0
ARC
8
DEFAULT_255_1_234
10
13.5782196
20
23.2892908
40
0.2673494
50
109.2998449
51
143.3037509
0
ARC
8
DEFAULT_255_1_234
10
13.6544268
20
23.2306881
40
0.3634757
50
143.0753173
51
163.1916937
0
ARC
8
DEFAULT_255_1_234
10
13.8495996
20
23.1690967
40
0.5681262
50
162.9373603
51
174.6208611
0
ARC
8
DEFAULT_255_1_234
10
14.1122038
20
23.140301
40
0.8322832
50
174.3419979
51
180.1430411
0
ARC
8
DEFAULT_255_1_234
10
14.0191194
20
23.0208698
40
0.7392076
50
179.6817502
51
189.150529
0
ARC
8
DEFAULT_255_1_234
10
13.7690443
20
22.979219
40
0.4856932
50
188.9910863
51
203.5773039
0
ARC
8
DEFAULT_255_1_234
10
13.6610775
20
22.9344211
40
0.3688271
50
203.9077269
51
215.1312379
0
ARC
8
DEFAULT_255_1_234
10
13.5687869
20
22.8628941
40
0.2522457
50
213.9071664
51
263.8849284
0
ARC
8
DEFAULT_255_1_234
10
13.5813198
20
22.9413518
40
0.3316174
50
263.1758525
51
270.1031083
0
ARC
8
DEFAULT_255_1_234
10
13.584529
20
23.0660365
40
0.4563091
50
269.6719807
51
279.0609165
0
ARC
8
DEFAULT_255_1_234
10
13.6112058
20
22.9047907
40
0.2928759
50
278.8750225
51
293.6346586
0
ARC
8
DEFAULT_255_1_234
10
13.6432266
20
22.82959
40
0.2111472
50
293.8553404
51
310.0518804
0
ARC
8
DEFAULT_255_1_234
10
13.643712
20
22.8233516
40
0.2060917
50
311.0646779
51
332.0108348
0
ARC
8
DEFAULT_255_1_234
10
13.5244847
20
22.8890978
40
0.3422352
50
331.6588543
51
343.2878891
0
ARC
8
DEFAULT_255_1_234
10
13.3182362
20
22.9524798
40
0.5580003
50
343.1446044
51
351.010618
0
ARC
8
DEFAULT_255_1_234
10
13.1641008
20
22.9805871
40
0.7146438
50
350.7157277
51
351.1602153
0
LINE
8
DEFAULT_255_1_234
10
15.4187751
20
23.3309849
11
15.2637626
21
23.3309849
0
LINE
8
DEFAULT_255_1_234
10
14.5714268
20
22.8386394
11
14.7264393
21
22.8386394
0
ARC
8
DEFAULT_255_1_234
10
15.3296439
20
24.2256768
40
1.252368
50
248.9199003
51
254.1439814
0
ARC
8
DEFAULT_255_1_234
10
15.1615934
20
23.7930234
40
0.788226
50
241.633709
51
249.0064503
0
ARC
8
DEFAULT_255_1_234
10
15.0087328
20
23.5129317
40
0.4691427
50
230.498225
51
241.8087113
0
ARC
8
DEFAULT_255_1_234
10
14.9302902
20
23.4129906
40
0.3421437
50
227.4064532
51
229.9881192
0
ARC
8
DEFAULT_255_1_234
10
14.8815423
20
23.3654088
40
0.2741476
50
200.6781896
51
228.1763934
0
ARC
8
DEFAULT_255_1_234
10
14.8887734
20
23.3639077
40
0.2804109
50
179.5061581
51
199.8694617
0
ARC
8
DEFAULT_255_1_234
10
14.8878485
20
23.371321
40
0.2795204
50
132.4834203
51
181.0242172
0
ARC
8
DEFAULT_255_1_234
10
14.9474068
20
23.3150704
40
0.3612768
50
129.2532479
51
133.4242687
0
ARC
8
DEFAULT_255_1_234
10
14.9620517
20
23.2930965
40
0.3875675
50
101.98776
51
128.8742646
0
ARC
8
DEFAULT_255_1_234
10
15.0019128
20
23.1209741
40
0.5642249
50
89.5906553
51
102.3169264
0
ARC
8
DEFAULT_255_1_234
10
15.008962
20
23.1528148
40
0.5323783
50
77.2360837
51
90.3248275
0
ARC
8
DEFAULT_255_1_234
10
15.0296699
20
23.24954
40
0.4334697
50
63.837784
51
77.0809408
0
ARC
8
DEFAULT_255_1_234
10
15.0574461
20
23.3012911
40
0.3747796
50
45.9864267
51
64.1607727
0
ARC
8
DEFAULT_255_1_234
10
15.0835342
20
23.3310866
40
0.3352302
50
32.2747395
51
45.6547121
0
ARC
8
DEFAULT_255_1_234
10
15.0901783
20
23.332988
40
0.328603
50
359.6507365
51
32.6130309
0
ARC
8
DEFAULT_255_1_234
10
14.9958878
20
23.333466
40
0.2678863
50
359.469343
51
14.9832209
0
ARC
8
DEFAULT_255_1_234
10
15.0663941
20
23.3523539
40
0.1948938
50
14.9781179
51
48.2004265
0
ARC
8
DEFAULT_255_1_234
10
15.0499585
20
23.3316983
40
0.2212521
50
48.5927837
51
74.1241538
0
ARC
8
DEFAULT_255_1_234
10
15.0166074
20
23.2216248
40
0.3362561
50
73.7888341
51
86.6652678
0
ARC
8
DEFAULT_255_1_234
10
15.006364
20
23.1008881
40
0.4573953
50
86.2640471
51
90.0526343
0
ARC
8
DEFAULT_255_1_234
10
15.0035352
20
23.1404192
40
0.4178709
50
89.6697524
51
99.2309573
0
ARC
8
DEFAULT_255_1_234
10
14.9792803
20
23.2848964
40
0.2713749
50
99.069534
51
113.7658566
0
ARC
8
DEFAULT_255_1_234
10
14.9518994
20
23.3494677
40
0.2012469
50
114.0401004
51
127.9850673
0
ARC
8
DEFAULT_255_1_234
10
14.9278558
20
23.379073
40
0.1631167
50
127.7287463
51
176.7105154
0
ARC
8
DEFAULT_255_1_234
10
14.9957276
20
23.3689693
40
0.2315392
50
175.1779447
51
180.0581938
0
ARC
8
DEFAULT_255_1_234
10
14.9114123
20
23.3677428
40
0.1472271
50
179.6142195
51
228.1246017
0
ARC
8
DEFAULT_255_1_234
10
14.9555791
20
23.4086308
40
0.2072299
50
226.5779593
51
230.8800004
0
ARC
8
DEFAULT_255_1_234
10
15.002687
20
23.4711636
40
0.2854818
50
231.4635071
51
241.9260842
0
ARC
8
DEFAULT_255_1_234
10
15.1224048
20
23.69148
40
0.53622
50
241.7178533
51
248.3259551
0
ARC
8
DEFAULT_255_1_234
10
15.260942
20
24.0347064
40
0.9063478
50
248.2007737
51
252.4528373
0
ARC
8
DEFAULT_255_1_234
10
15.3813145
20
24.4068441
40
1.2974635
50
252.3391078
51
254.3469452
0
ARC
8
DEFAULT_255_1_234
10
14.6270847
20
21.7091148
40
1.5037162
50
71.0197183
51
74.4087047
0
ARC
8
DEFAULT_255_1_234
10
14.7965532
20
22.1983111
40
0.9859993
50
66.1847285
51
71.086374
0
ARC
8
DEFAULT_255_1_234
10
14.9521845
20
22.54872
40
0.6025855
50
59.3536294
51
66.2691831
0
ARC
8
DEFAULT_255_1_234
10
15.0410497
20
22.6990609
40
0.4279449
50
49.1020879
51
59.3293958
0
ARC
8
DEFAULT_255_1_234
10
15.1229237
20
22.7923834
40
0.3038015
50
32.7919921
51
49.2505539
0
ARC
8
DEFAULT_255_1_234
10
15.1550327
20
22.8152191
40
0.264448
50
31.1181161
51
32.4005348
0
ARC
8
DEFAULT_255_1_234
10
15.1461865
20
22.8116779
40
0.2738556
50
8.1116974
51
30.7958831
0
ARC
8
DEFAULT_255_1_234
10
15.0651533
20
22.7978753
40
0.3560327
50
359.8389159
51
8.4706516
0
ARC
8
DEFAULT_255_1_234
10
15.1277324
20
22.7930137
40
0.2934776
50
337.4731098
51
0.7537279
0
ARC
8
DEFAULT_255_1_234
10
15.1456019
20
22.7910387
40
0.2762607
50
307.5917067
51
336.4315538
0
ARC
8
DEFAULT_255_1_234
10
15.0995847
20
22.8423102
40
0.3449979
50
307.6551545
51
308.4529766
0
ARC
8
DEFAULT_255_1_234
10
15.0765566
20
22.877825
40
0.3871988
50
284.3734338
51
307.1424381
0
ARC
8
DEFAULT_255_1_234
10
15.0270396
20
23.0599932
40
0.5759636
50
272.4382747
51
284.646547
0
ARC
8
DEFAULT_255_1_234
10
15.0143605
20
23.2399893
40
0.7563528
50
269.9708387
51
272.8178037
0
ARC
8
DEFAULT_255_1_234
10
15.0100645
20
23.0361716
40
0.5525489
50
248.2707594
51
270.4055579
0
ARC
8
DEFAULT_255_1_234
10
15.0046386
20
23.0171192
40
0.5328452
50
246.1383403
51
248.0542782
0
ARC
8
DEFAULT_255_1_234
10
14.9627765
20
22.9291843
40
0.4355005
50
233.1670131
51
246.4950969
0
ARC
8
DEFAULT_255_1_234
10
14.907367
20
22.8543812
40
0.3424126
50
215.3403242
51
233.0843104
0
ARC
8
DEFAULT_255_1_234
10
14.8801101
20
22.8345549
40
0.3087104
50
179.2419209
51
215.2648451
0
ARC
8
DEFAULT_255_1_234
10
14.9568695
20
22.8359666
40
0.2304457
50
179.335461
51
199.1045811
0
ARC
8
DEFAULT_255_1_234
10
14.9236371
20
22.8272766
40
0.1962176
50
199.8828939
51
232.7063202
0
ARC
8
DEFAULT_255_1_234
10
14.970864
20
22.8866788
40
0.2720938
50
232.3738199
51
255.5136649
0
ARC
8
DEFAULT_255_1_234
10
15.0049506
20
23.0110835
40
0.4010747
50
255.2446292
51
267.5320849
0
ARC
8
DEFAULT_255_1_234
10
15.013713
20
23.1343702
40
0.5246356
50
267.1557994
51
270.0286766
0
ARC
8
DEFAULT_255_1_234
10
15.0164902
20
23.089995
40
0.4802668
50
269.7000017
51
278.1660162
0
ARC
8
DEFAULT_255_1_234
10
15.0420907
20
22.9169515
40
0.3053425
50
278.0231263
51
290.625471
0
ARC
8
DEFAULT_255_1_234
10
15.0768594
20
22.8242025
40
0.206291
50
290.6619762
51
307.0370976
0
ARC
8
DEFAULT_255_1_234
10
15.1068983
20
22.7873504
40
0.1587906
50
306.3943566
51
355.3030547
0
ARC
8
DEFAULT_255_1_234
10
15.0556914
20
22.7950113
40
0.2104809
50
354.3660432
51
0.0698737
0
ARC
8
DEFAULT_255_1_234
10
15.069926
20
22.7972617
40
0.1962563
50
359.417946
51
16.1971788
0
ARC
8
DEFAULT_255_1_234
10
15.115457
20
22.8097418
40
0.149053
50
16.4723299
51
52.6262157
0
ARC
8
DEFAULT_255_1_234
10
15.0333624
20
22.7013433
40
0.2850296
50
52.7386432
51
62.4979148
0
ARC
8
DEFAULT_255_1_234
10
14.8948701
20
22.4407283
40
0.5801521
50
62.2515216
51
68.1220564
0
ARC
8
DEFAULT_255_1_234
10
14.7228612
20
22.0179872
40
1.0365451
50
68.0062803
51
71.8053402
0
ARC
8
DEFAULT_255_1_234
10
14.5432983
20
21.4794758
40
1.6042013
50
71.7183119
51
73.9258742
0
LINE
8
DEFAULT_255_1_234
10
16.3351965
20
23.6691211
11
16.3351965
21
23.585591
0
LINE
8
DEFAULT_255_1_234
10
16.3351965
20
23.585591
11
15.8508827
21
22.4997
0
LINE
8
DEFAULT_255_1_234
10
15.8508827
20
22.4997
11
15.6950669
21
22.4997
0
LINE
8
DEFAULT_255_1_234
10
15.6950669
20
22.4997
11
16.1777744
21
23.5470387
0
LINE
8
DEFAULT_255_1_234
10
16.1777744
20
23.5470387
11
15.5448734
21
23.5470387
0
LINE
8
DEFAULT_255_1_234
10
15.5448734
20
23.5470387
11
15.5448734
21
23.6691211
0
LINE
8
DEFAULT_255_1_234
10
15.5448734
20
23.6691211
11
16.3351965
21
23.6691211
0
LINE
8
DEFAULT_255_1_234
10
16.8283452
20
23.0571026
11
16.8283452
21
22.9358234
0
LINE
8
DEFAULT_255_1_234
10
16.8283452
20
22.9358234
11
16.4363964
21
22.9358234
0
LINE
8
DEFAULT_255_1_234
10
16.4363964
20
22.9358234
11
16.4363964
21
23.0571026
0
LINE
8
DEFAULT_255_1_234
10
16.4363964
20
23.0571026
11
16.8283452
21
23.0571026
0
LINE
8
DEFAULT_255_1_234
10
17.4459859
20
23.6747433
11
17.4459859
21
22.4997
0
LINE
8
DEFAULT_255_1_234
10
17.4459859
20
22.4997
11
17.2965956
21
22.4997
0
LINE
8
DEFAULT_255_1_234
10
17.2965956
20
22.4997
11
17.2965956
21
23.4900133
0
LINE
8
DEFAULT_255_1_234
10
17.2965956
20
23.4900133
11
16.9970117
21
23.3799785
0
LINE
8
DEFAULT_255_1_234
10
16.9970117
20
23.3799785
11
16.9970117
21
23.5149117
0
LINE
8
DEFAULT_255_1_234
10
16.9970117
20
23.5149117
11
17.4226938
21
23.6747433
0
LINE
8
DEFAULT_255_1_234
10
17.4226938
20
23.6747433
11
17.4459859
21
23.6747433
0
LINE
8
DEFAULT_255_1_234
10
18.0684456
20
23.0554963
11
17.9495759
21
23.0860169
0
LINE
8
DEFAULT_255_1_234
10
17.9495759
20
23.0860169
11
18.0090107
21
23.6691211
0
LINE
8
DEFAULT_255_1_234
10
18.0090107
20
23.6691211
11
18.6081784
21
23.6691211
0
LINE
8
DEFAULT_255_1_234
10
18.6081784
20
23.6691211
11
18.6081784
21
23.5317784
0
LINE
8
DEFAULT_255_1_234
10
18.6081784
20
23.5317784
11
18.135109
21
23.5317784
0
LINE
8
DEFAULT_255_1_234
10
18.135109
20
23.5317784
11
18.0997694
21
23.2129184
0
LINE
8
DEFAULT_255_1_234
10
17.9078108
20
22.8073156
11
18.0483663
21
22.8073156
0
LINE
8
DEFAULT_255_1_234
10
18.1078011
20
23.0876232
11
18.0684456
21
23.0554963
0
ARC
8
DEFAULT_255_1_234
10
18.2852478
20
22.894923
40
0.3681349
50
93.7182161
51
120.2538958
0
ARC
8
DEFAULT_255_1_234
10
18.2946741
20
22.8141394
40
0.449379
50
89.9660152
51
94.2496022
0
ARC
8
DEFAULT_255_1_234
10
18.2987475
20
22.8730549
40
0.390482
50
73.8043271
51
90.5585896
0
ARC
8
DEFAULT_255_1_234
10
18.3222372
20
22.9588602
40
0.3015334
50
41.3071453
51
73.5430202
0
ARC
8
DEFAULT_255_1_234
10
18.2806199
20
22.9230324
40
0.3564457
50
13.5075983
51
41.2174222
0
ARC
8
DEFAULT_255_1_234
10
18.1164403
20
22.8800486
40
0.5261351
50
1.1331335
51
13.8829381
0
ARC
8
DEFAULT_255_1_234
10
17.9752772
20
22.8724665
40
0.6674378
50
359.9919444
51
1.544251
0
ARC
8
DEFAULT_255_1_234
10
18.1029598
20
22.868328
40
0.5397702
50
347.8572367
51
0.4293338
0
ARC
8
DEFAULT_255_1_234
10
18.2779916
20
22.8286736
40
0.3603188
50
323.673004
51
348.1672506
0
ARC
8
DEFAULT_255_1_234
10
18.3074424
20
22.8107168
40
0.3259678
50
316.8171152
51
323.1492751
0
ARC
8
DEFAULT_255_1_234
10
18.3135613
20
22.807046
40
0.3189975
50
281.8396411
51
316.5457803
0
ARC
8
DEFAULT_255_1_234
10
18.2759876
20
22.9625762
40
0.4789527
50
269.5770101
51
282.4214771
0
ARC
8
DEFAULT_255_1_234
10
18.2688688
20
22.9412125
40
0.45759
50
256.2427136
51
270.4486331
0
ARC
8
DEFAULT_255_1_234
10
18.238959
20
22.8212229
40
0.3339303
50
228.9023911
51
256.3314342
0
ARC
8
DEFAULT_255_1_234
10
18.2315823
20
22.8095746
40
0.32031
50
193.753695
51
228.5271154
0
ARC
8
DEFAULT_255_1_234
10
18.3553777
20
22.84588
40
0.4492253
50
184.924711
51
194.497588
0
ARC
8
DEFAULT_255_1_234
10
18.3746344
20
22.8494591
40
0.3289787
50
187.3600538
51
198.6732863
0
ARC
8
DEFAULT_255_1_234
10
18.2696638
20
22.8130674
40
0.217884
50
198.4451669
51
217.794479
0
ARC
8
DEFAULT_255_1_234
10
18.2400813
20
22.7921085
40
0.1816698
50
218.2887171
51
228.5612368
0
ARC
8
DEFAULT_255_1_234
10
18.24986
20
22.8052963
40
0.1980329
50
228.9654866
51
258.1234728
0
ARC
8
DEFAULT_255_1_234
10
18.270431
20
22.8933833
40
0.2884748
50
257.7258293
51
270.401361
0
ARC
8
DEFAULT_255_1_234
10
18.2749196
20
22.8488821
40
0.2439788
50
269.4204404
51
286.4209037
0
ARC
8
DEFAULT_255_1_234
10
18.2897684
20
22.7949657
40
0.1880666
50
286.7251356
51
320.600362
0
ARC
8
DEFAULT_255_1_234
10
18.2514509
20
22.8260595
40
0.2374121
50
320.6712579
51
344.5441685
0
ARC
8
DEFAULT_255_1_234
10
18.1357835
20
22.8600045
40
0.3579479
50
344.2412205
51
356.7357071
0
ARC
8
DEFAULT_255_1_234
10
18.0108983
20
22.8703444
40
0.4832297
50
356.3548756
51
0.0500261
0
ARC
8
DEFAULT_255_1_234
10
18.1445493
20
22.873465
40
0.3495889
50
359.5576869
51
12.953486
0
ARC
8
DEFAULT_255_1_234
10
18.250039
20
22.8990434
40
0.2410532
50
12.6490276
51
41.6081334
0
ARC
8
DEFAULT_255_1_234
10
18.2730761
20
22.9186321
40
0.2108218
50
41.7850273
51
85.9892764
0
ARC
8
DEFAULT_255_1_234
10
18.2607498
20
22.8373462
40
0.2928454
50
84.6957577
51
90.0676183
0
ARC
8
DEFAULT_255_1_234
10
18.2583982
20
22.7704716
40
0.3597255
50
89.6804936
51
99.1614436
0
ARC
8
DEFAULT_255_1_234
10
18.2378613
20
22.8932131
40
0.235281
50
98.9830931
51
113.8908934
0
ARC
8
DEFAULT_255_1_234
10
18.2149023
20
22.9473587
40
0.176479
50
114.1950727
51
127.3641004
0
LINE
8
DEFAULT_255_1_234
10
19.5382537
20
23.1912327
11
19.5382537
21
22.9984709
0
LINE
8
DEFAULT_255_1_234
10
18.800137
20
22.9783916
11
18.800137
21
23.1767755
0
LINE
8
DEFAULT_255_1_234
10
19.3896666
20
22.9583123
11
19.3896666
21
23.2016739
0
LINE
8
DEFAULT_255_1_234
10
18.9487241
20
23.2129184
11
18.9487241
21
22.9751789
0
ARC
8
DEFAULT_255_1_234
10
18.3135427
20
22.9935805
40
1.2247208
50
353.8441951
51
0.2287902
0
ARC
8
DEFAULT_255_1_234
10
18.777493
20
22.9417806
40
0.7578929
50
344.4934747
51
353.9765454
0
ARC
8
DEFAULT_255_1_234
10
19.0767521
20
22.8566981
40
0.4467846
50
329.2803592
51
344.7472793
0
ARC
8
DEFAULT_255_1_234
10
19.1760345
20
22.8022018
40
0.3336173
50
324.9352394
51
328.6160465
0
ARC
8
DEFAULT_255_1_234
10
19.2137454
20
22.7758427
40
0.2876076
50
280.580143
51
324.9173126
0
ARC
8
DEFAULT_255_1_234
10
19.1736247
20
22.9429099
40
0.4592847
50
269.5977311
51
281.6734359
0
ARC
8
DEFAULT_255_1_234
10
19.1664152
20
22.9309173
40
0.4472986
50
256.6228859
51
270.51044
0
ARC
8
DEFAULT_255_1_234
10
19.126213
20
22.7760877
40
0.2873874
50
215.8618325
51
257.2788573
0
ARC
8
DEFAULT_255_1_234
10
19.2283162
20
22.8445977
40
0.4102928
50
197.9693508
51
215.2623606
0
ARC
8
DEFAULT_255_1_234
10
19.4768277
20
22.9284709
40
0.6725652
50
187.8816417
51
198.2346507
0
ARC
8
DEFAULT_255_1_234
10
19.8726486
20
22.9856079
40
1.0724845
50
180.8976217
51
188.0055519
0
ARC
8
DEFAULT_255_1_234
10
20.1526674
20
22.9959777
40
1.3526448
50
180.7449369
51
181.1510016
0
ARC
8
DEFAULT_255_1_234
10
19.9949403
20
23.1816042
40
1.1948131
50
173.7675579
51
180.231553
0
ARC
8
DEFAULT_255_1_234
10
19.5431549
20
23.2326666
40
0.7401564
50
164.3058563
51
173.9002247
0
ARC
8
DEFAULT_255_1_234
10
19.2519618
20
23.3165656
40
0.4371288
50
148.7922025
51
164.568378
0
ARC
8
DEFAULT_255_1_234
10
19.156807
20
23.3696929
40
0.3282386
50
144.5883898
51
148.1176286
0
ARC
8
DEFAULT_255_1_234
10
19.1224968
20
23.3936315
40
0.2864044
50
101.6440918
51
144.514236
0
ARC
8
DEFAULT_255_1_234
10
19.1650035
20
23.2247069
40
0.4604934
50
89.5284041
51
102.5819763
0
ARC
8
DEFAULT_255_1_234
10
19.1729123
20
23.2208018
40
0.464401
50
77.0437873
51
90.5081339
0
ARC
8
DEFAULT_255_1_234
10
19.2131125
20
23.3850615
40
0.2953195
50
48.2778575
51
77.4994676
0
ARC
8
DEFAULT_255_1_234
10
19.2203756
20
23.3979746
40
0.2808655
50
36.3142134
51
47.6305865
0
ARC
8
DEFAULT_255_1_234
10
19.1335063
20
23.3394515
40
0.3855453
50
18.2931786
51
35.6769206
0
ARC
8
DEFAULT_255_1_234
10
18.8791822
20
23.2521593
40
0.654423
50
8.024666
51
18.5605216
0
ARC
8
DEFAULT_255_1_234
10
18.4628742
20
23.1906792
40
1.0752407
50
1.1274072
51
8.1718305
0
ARC
8
DEFAULT_255_1_234
10
18.1392932
20
23.1779885
40
1.3990231
50
0.5424119
51
1.3863029
0
ARC
8
DEFAULT_255_1_234
10
18.321431
20
23.2052342
40
1.0682415
50
359.8090433
51
4.9407866
0
ARC
8
DEFAULT_255_1_234
10
18.7424324
20
23.2428113
40
0.6455691
50
4.8362157
51
12.2904523
0
ARC
8
DEFAULT_255_1_234
10
19.0179439
20
23.3041965
40
0.3633074
50
12.0805627
51
23.8173984
0
ARC
8
DEFAULT_255_1_234
10
19.1353144
20
23.3538919
40
0.2358723
50
24.2871213
51
31.3935614
0
ARC
8
DEFAULT_255_1_234
10
19.1877841
20
23.3882233
40
0.1732111
50
30.7407893
51
82.4657128
0
ARC
8
DEFAULT_255_1_234
10
19.1697976
20
23.2998691
40
0.263235
50
81.1060089
51
90.2184952
0
ARC
8
DEFAULT_255_1_234
10
19.1662275
20
23.3256924
40
0.2374236
50
89.3806855
51
105.6762551
0
ARC
8
DEFAULT_255_1_234
10
19.1478905
20
23.3923567
40
0.1682847
50
105.7981136
51
149.7388061
0
ARC
8
DEFAULT_255_1_234
10
19.2542984
20
23.328395
40
0.2924306
50
149.4208916
51
163.6286378
0
ARC
8
DEFAULT_255_1_234
10
19.4633872
20
23.264625
40
0.5110213
50
163.3763315
51
172.1410975
0
ARC
8
DEFAULT_255_1_234
10
19.7934591
20
23.2173518
40
0.8444586
50
172.0259487
51
178.0703232
0
ARC
8
DEFAULT_255_1_234
10
20.096468
20
23.2029906
40
1.1477868
50
177.8631668
51
179.5044149
0
ARC
8
DEFAULT_255_1_234
10
19.9892085
20
22.9715389
40
1.0404907
50
179.7995573
51
185.2460446
0
ARC
8
DEFAULT_255_1_234
10
19.5849124
20
22.9332513
40
0.6343885
50
185.1411642
51
193.0079639
0
ARC
8
DEFAULT_255_1_234
10
19.3205596
20
22.8707641
40
0.3627568
50
192.7897626
51
205.2507664
0
ARC
8
DEFAULT_255_1_234
10
19.2159143
20
22.8240415
40
0.2481908
50
205.8005384
51
211.2537509
0
ARC
8
DEFAULT_255_1_234
10
19.1635584
20
22.788958
40
0.1852521
50
210.3789793
51
238.4008143
0
ARC
8
DEFAULT_255_1_234
10
19.1616106
20
22.7936376
40
0.1882621
50
239.6520629
51
265.9793761
0
ARC
8
DEFAULT_255_1_234
10
19.1701306
20
22.8608427
40
0.2559272
50
265.1315437
51
270.060332
0
ARC
8
DEFAULT_255_1_234
10
19.1730085
20
22.8284534
40
0.2235528
50
269.3314664
51
287.2178029
0
ARC
8
DEFAULT_255_1_234
10
19.1867937
20
22.7781279
40
0.1714108
50
287.7958004
51
329.080874
0
ARC
8
DEFAULT_255_1_234
10
19.0910394
20
22.837893
40
0.2842745
50
328.6634704
51
343.3325132
0
ARC
8
DEFAULT_255_1_234
10
18.8737414
20
22.9055863
40
0.5118644
50
343.0499468
51
351.9393422
0
ARC
8
DEFAULT_255_1_234
10
18.5270714
20
22.9566949
40
0.8622784
50
351.8069023
51
357.7959224
0
ARC
8
DEFAULT_255_1_234
10
18.203527
20
22.9734721
40
1.1862365
50
357.5871873
51
359.2677531
0
LINE
8
DEFAULT_255_1_234
10
20.4619036
20
23.1912327
11
20.4619036
21
22.9984709
0
LINE
8
DEFAULT_255_1_234
10
19.7237869
20
22.9783916
11
19.7237869
21
23.1767755
0
LINE
8
DEFAULT_255_1_234
10
20.3133165
20
22.9583123
11
20.3133165
21
23.2016739
0
LINE
8
DEFAULT_255_1_234
10
19.872374
20
23.2129184
11
19.872374
21
22.9751789
0
ARC
8
DEFAULT_255_1_234
10
19.2371926
20
22.9935805
40
1.2247208
50
353.8441951
51
0.2287902
0
ARC
8
DEFAULT_255_1_234
10
19.7011429
20
22.9417806
40
0.7578929
50
344.4934747
51
353.9765454
0
ARC
8
DEFAULT_255_1_234
10
20.000402
20
22.8566981
40
0.4467846
50
329.2803592
51
344.7472793
0
ARC
8
DEFAULT_255_1_234
10
20.0996844
20
22.8022018
40
0.3336173
50
324.9352394
51
328.6160465
0
ARC
8
DEFAULT_255_1_234
10
20.1373953
20
22.7758427
40
0.2876076
50
280.580143
51
324.9173126
0
ARC
8
DEFAULT_255_1_234
10
20.0972746
20
22.9429099
40
0.4592847
50
269.5977311
51
281.6734359
0
ARC
8
DEFAULT_255_1_234
10
20.0900651
20
22.9309173
40
0.4472986
50
256.6228859
51
270.51044
0
ARC
8
DEFAULT_255_1_234
10
20.0498629
20
22.7760877
40
0.2873874
50
215.8618325
51
257.2788573
0
ARC
8
DEFAULT_255_1_234
10
20.1519661
20
22.8445977
40
0.4102928
50
197.9693508
51
215.2623606
0
ARC
8
DEFAULT_255_1_234
10
20.4004776
20
22.9284709
40
0.6725652
50
187.8816417
51
198.2346507
0
ARC
8
DEFAULT_255_1_234
10
20.7962985
20
22.9856079
40
1.0724845
50
180.8976217
51
188.0055519
0
ARC
8
DEFAULT_255_1_234
10
21.0763173
20
22.9959777
40
1.3526448
50
180.7449369
51
181.1510016
0
ARC
8
DEFAULT_255_1_234
10
20.9185902
20
23.1816042
40
1.1948131
50
173.7675579
51
180.231553
0
ARC
8
DEFAULT_255_1_234
10
20.4668048
20
23.2326666
40
0.7401564
50
164.3058563
51
173.9002247
0
ARC
8
DEFAULT_255_1_234
10
20.1756117
20
23.3165656
40
0.4371288
50
148.7922025
51
164.568378
0
ARC
8
DEFAULT_255_1_234
10
20.0804569
20
23.3696929
40
0.3282386
50
144.5883898
51
148.1176286
0
ARC
8
DEFAULT_255_1_234
10
20.0461467
20
23.3936315
40
0.2864044
50
101.6440918
51
144.514236
0
ARC
8
DEFAULT_255_1_234
10
20.0886534
20
23.2247069
40
0.4604934
50
89.5284041
51
102.5819763
0
ARC
8
DEFAULT_255_1_234
10
20.0965622
20
23.2208018
40
0.464401
50
77.0437873
51
90.5081339
0
ARC
8
DEFAULT_255_1_234
10
20.1367624
20
23.3850615
40
0.2953195
50
48.2778575
51
77.4994676
0
ARC
8
DEFAULT_255_1_234
10
20.1440255
20
23.3979746
40
0.2808655
50
36.3142134
51
47.6305865
0
ARC
8
DEFAULT_255_1_234
10
20.0571562
20
23.3394515
40
0.3855453
50
18.2931786
51
35.6769206
0
ARC
8
DEFAULT_255_1_234
10
19.8028321
20
23.2521593
40
0.654423
50
8.024666
51
18.5605216
0
ARC
8
DEFAULT_255_1_234
10
19.3865241
20
23.1906792
40
1.0752407
50
1.1274072
51
8.1718305
0
ARC
8
DEFAULT_255_1_234
10
19.0629431
20
23.1779885
40
1.3990231
50
0.5424119
51
1.3863029
0
ARC
8
DEFAULT_255_1_234
10
19.2450809
20
23.2052342
40
1.0682415
50
359.8090433
51
4.9407866
0
ARC
8
DEFAULT_255_1_234
10
19.6660823
20
23.2428113
40
0.6455691
50
4.8362157
51
12.2904523
0
ARC
8
DEFAULT_255_1_234
10
19.9415938
20
23.3041965
40
0.3633074
50
12.0805627
51
23.8173984
0
ARC
8
DEFAULT_255_1_234
10
20.0589643
20
23.3538919
40
0.2358723
50
24.2871213
51
31.3935614
0
ARC
8
DEFAULT_255_1_234
10
20.111434
20
23.3882233
40
0.1732111
50
30.7407893
51
82.4657128
0
ARC
8
DEFAULT_255_1_234
10
20.0934475
20
23.2998691
40
0.263235
50
81.1060089
51
90.2184952
0
ARC
8
DEFAULT_255_1_234
10
20.0898774
20
23.3256924
40
0.2374236
50
89.3806855
51
105.6762551
0
ARC
8
DEFAULT_255_1_234
10
20.0715404
20
23.3923567
40
0.1682847
50
105.7981136
51
149.7388061
0
ARC
8
DEFAULT_255_1_234
10
20.1779483
20
23.328395
40
0.2924306
50
149.4208916
51
163.6286378
0
ARC
8
DEFAULT_255_1_234
10
20.3870371
20
23.264625
40
0.5110213
50
163.3763315
51
172.1410975
0
ARC
8
DEFAULT_255_1_234
10
20.717109
20
23.2173518
40
0.8444586
50
172.0259487
51
178.0703232
0
ARC
8
DEFAULT_255_1_234
10
21.0201179
20
23.2029906
40
1.1477868
50
177.8631668
51
179.5044149
0
ARC
8
DEFAULT_255_1_234
10
20.9128584
20
22.9715389
40
1.0404907
50
179.7995573
51
185.2460446
0
ARC
8
DEFAULT_255_1_234
10
20.5085623
20
22.9332513
40
0.6343885
50
185.1411642
51
193.0079639
0
ARC
8
DEFAULT_255_1_234
10
20.2442095
20
22.8707641
40
0.3627568
50
192.7897626
51
205.2507664
0
ARC
8
DEFAULT_255_1_234
10
20.1395642
20
22.8240415
40
0.2481908
50
205.8005384
51
211.2537509
0
ARC
8
DEFAULT_255_1_234
10
20.0872083
20
22.788958
40
0.1852521
50
210.3789793
51
238.4008143
0
ARC
8
DEFAULT_255_1_234
10
20.0852605
20
22.7936376
40
0.1882621
50
239.6520629
51
265.9793761
0
ARC
8
DEFAULT_255_1_234
10
20.0937805
20
22.8608427
40
0.2559272
50
265.1315437
51
270.060332
0
ARC
8
DEFAULT_255_1_234
10
20.0966584
20
22.8284534
40
0.2235528
50
269.3314664
51
287.2178029
0
ARC
8
DEFAULT_255_1_234
10
20.1104436
20
22.7781279
40
0.1714108
50
287.7958004
51
329.080874
0
ARC
8
DEFAULT_255_1_234
10
20.0146893
20
22.837893
40
0.2842745
50
328.6634704
51
343.3325132
0
ARC
8
DEFAULT_255_1_234
10
19.7973913
20
22.9055863
40
0.5118644
50
343.0499468
51
351.9393422
0
ARC
8
DEFAULT_255_1_234
10
19.4507213
20
22.9566949
40
0.8622784
50
351.8069023
51
357.7959224
0
ARC
8
DEFAULT_255_1_234
10
19.1271769
20
22.9734721
40
1.1862365
50
357.5871873
51
359.2677531
0
LINE
8
DEFAULT_255_1_234
10
4.2459489
20
21.6848211
11
4.2459489
21
20.6414983
0
LINE
8
DEFAULT_255_1_234
10
4.2459489
20
20.6414983
11
4.8001389
21
20.6414983
0
LINE
8
DEFAULT_255_1_234
10
4.8001389
20
20.6414983
11
4.8001389
21
20.5154
0
LINE
8
DEFAULT_255_1_234
10
4.8001389
20
20.5154
11
4.0909364
21
20.5154
0
LINE
8
DEFAULT_255_1_234
10
4.0909364
20
20.5154
11
4.0909364
21
21.6848211
0
LINE
8
DEFAULT_255_1_234
10
4.0909364
20
21.6848211
11
4.2459489
21
21.6848211
0
LINE
8
DEFAULT_255_1_234
10
5.378424
20
21.4840276
11
5.378424
21
21.1426788
0
LINE
8
DEFAULT_255_1_234
10
5.378424
20
21.1426788
11
5.7045126
21
21.1426788
0
LINE
8
DEFAULT_255_1_234
10
5.7045126
20
21.1426788
11
5.7045126
21
21.0021233
0
LINE
8
DEFAULT_255_1_234
10
5.7045126
20
21.0021233
11
5.378424
21
21.0021233
0
LINE
8
DEFAULT_255_1_234
10
5.378424
20
21.0021233
11
5.378424
21
20.6326634
0
LINE
8
DEFAULT_255_1_234
10
5.378424
20
20.6326634
11
5.2290337
21
20.6326634
0
LINE
8
DEFAULT_255_1_234
10
5.2290337
20
20.6326634
11
5.2290337
21
21.0021233
0
LINE
8
DEFAULT_255_1_234
10
5.2290337
20
21.0021233
11
4.9029451
21
21.0021233
0
LINE
8
DEFAULT_255_1_234
10
4.9029451
20
21.0021233
11
4.9029451
21
21.1426788
0
LINE
8
DEFAULT_255_1_234
10
4.9029451
20
21.1426788
11
5.2290337
21
21.1426788
0
LINE
8
DEFAULT_255_1_234
10
5.2290337
20
21.1426788
11
5.2290337
21
21.4840276
0
LINE
8
DEFAULT_255_1_234
10
5.2290337
20
21.4840276
11
5.378424
21
21.4840276
0
LINE
8
DEFAULT_255_1_234
10
4.5421344
20
5.0982091
11
4.2666458
21
5.0982091
0
LINE
8
DEFAULT_255_1_234
10
4.2666458
20
5.0982091
11
4.2666458
21
4.6404
0
LINE
8
DEFAULT_255_1_234
10
4.2666458
20
4.6404
11
4.1124364
21
4.6404
0
LINE
8
DEFAULT_255_1_234
10
4.1124364
20
4.6404
11
4.1124364
21
5.8098211
0
LINE
8
DEFAULT_255_1_234
10
4.1124364
20
5.8098211
11
4.5437407
21
5.8098211
0
LINE
8
DEFAULT_255_1_234
10
4.2666458
20
5.6829196
11
4.2666458
21
5.2243074
0
LINE
8
DEFAULT_255_1_234
10
4.2666458
20
5.2243074
11
4.5437407
21
5.2243074
0
LINE
8
DEFAULT_255_1_234
10
4.5525756
20
5.6829196
11
4.2666458
21
5.6829196
0
ARC
8
DEFAULT_255_1_234
10
4.5479534
20
5.2039195
40
0.6059162
50
78.8378113
51
90.3983573
0
ARC
8
DEFAULT_255_1_234
10
4.5895548
20
5.4059879
40
0.3996205
50
58.9632738
51
79.0810598
0
ARC
8
DEFAULT_255_1_234
10
4.619709
20
5.4619721
40
0.3361177
50
48.0197965
51
58.447194
0
ARC
8
DEFAULT_255_1_234
10
4.6285951
20
5.4705225
40
0.3238191
50
3.3375044
51
48.1766626
0
ARC
8
DEFAULT_255_1_234
10
4.505579
20
5.4528171
40
0.4477806
50
359.9477528
51
4.6829065
0
ARC
8
DEFAULT_255_1_234
10
4.5179107
20
5.4485628
40
0.4354656
50
346.1877825
51
0.5060252
0
ARC
8
DEFAULT_255_1_234
10
4.6537975
20
5.4132731
40
0.295089
50
310.8831995
51
346.5426355
0
ARC
8
DEFAULT_255_1_234
10
4.6229395
20
5.4549695
40
0.3468331
50
286.6925341
51
310.2288297
0
ARC
8
DEFAULT_255_1_234
10
4.5660226
20
5.6339882
40
0.5346654
50
274.6850312
51
287.0245141
0
ARC
8
DEFAULT_255_1_234
10
4.5434949
20
5.8548932
40
0.7566852
50
269.8969846
51
275.018904
0
ARC
8
DEFAULT_255_1_234
10
4.546254
20
5.6469707
40
0.4226708
50
269.6593078
51
279.4153575
0
ARC
8
DEFAULT_255_1_234
10
4.5719815
20
5.4979133
40
0.2714146
50
279.2049762
51
294.9900808
0
ARC
8
DEFAULT_255_1_234
10
4.6010141
20
5.4331508
40
0.2004525
50
295.2888114
51
311.2911209
0
ARC
8
DEFAULT_255_1_234
10
4.6081035
20
5.422622
40
0.1878703
50
311.7854996
51
347.2861051
0
ARC
8
DEFAULT_255_1_234
10
4.5097194
20
5.4479092
40
0.2894234
50
346.6893224
51
0.1059443
0
ARC
8
DEFAULT_255_1_234
10
4.4342089
20
5.4507685
40
0.3649409
50
359.6350983
51
0.0053152
0
ARC
8
DEFAULT_255_1_234
10
4.5312417
20
5.4532937
40
0.2679199
50
359.4672059
51
15.5933957
0
ARC
8
DEFAULT_255_1_234
10
4.5937306
20
5.4701779
40
0.2031932
50
15.7442113
51
46.6203375
0
ARC
8
DEFAULT_255_1_234
10
4.5789527
20
5.4531484
40
0.2257226
50
46.8628658
51
75.6676503
0
ARC
8
DEFAULT_255_1_234
10
4.5495347
20
5.3472718
40
0.3355939
50
75.276167
51
88.2915297
0
ARC
8
DEFAULT_255_1_234
10
4.5437054
20
5.2594524
40
0.4235602
50
87.8575022
51
88.8000139
0
LINE
8
DEFAULT_255_1_234
10
6.0488885
20
5.8098211
11
6.0488885
21
4.6404
0
LINE
8
DEFAULT_255_1_234
10
6.0488885
20
4.6404
11
5.8938759
21
4.6404
0
LINE
8
DEFAULT_255_1_234
10
5.8938759
20
4.6404
11
5.3051495
21
5.541561
0
LINE
8
DEFAULT_255_1_234
10
5.3051495
20
5.541561
11
5.3051495
21
4.6404
0
LINE
8
DEFAULT_255_1_234
10
5.3051495
20
4.6404
11
5.150137
21
4.6404
0
LINE
8
DEFAULT_255_1_234
10
5.150137
20
4.6404
11
5.150137
21
5.8098211
0
LINE
8
DEFAULT_255_1_234
10
5.150137
20
5.8098211
11
5.3051495
21
5.8098211
0
LINE
8
DEFAULT_255_1_234
10
5.3051495
20
5.8098211
11
5.8954823
21
4.9046442
0
LINE
8
DEFAULT_255_1_234
10
5.8954823
20
4.9046442
11
5.8954823
21
5.8098211
0
LINE
8
DEFAULT_255_1_234
10
5.8954823
20
5.8098211
11
6.0488885
21
5.8098211
0
LINE
8
DEFAULT_255_1_234
10
4.5421344
20
13.0357091
11
4.2666458
21
13.0357091
0
LINE
8
DEFAULT_255_1_234
10
4.2666458
20
13.0357091
11
4.2666458
21
12.5779
0
LINE
8
DEFAULT_255_1_234
10
4.2666458
20
12.5779
11
4.1124364
21
12.5779
0
LINE
8
DEFAULT_255_1_234
10
4.1124364
20
12.5779
11
4.1124364
21
13.7473211
0
LINE
8
DEFAULT_255_1_234
10
4.1124364
20
13.7473211
11
4.5437407
21
13.7473211
0
LINE
8
DEFAULT_255_1_234
10
4.2666458
20
13.6204196
11
4.2666458
21
13.1618074
0
LINE
8
DEFAULT_255_1_234
10
4.2666458
20
13.1618074
11
4.5437407
21
13.1618074
0
LINE
8
DEFAULT_255_1_234
10
4.5525756
20
13.6204196
11
4.2666458
21
13.6204196
0
ARC
8
DEFAULT_255_1_234
10
4.5479534
20
13.1414195
40
0.6059162
50
78.8378113
51
90.3983573
0
ARC
8
DEFAULT_255_1_234
10
4.5895548
20
13.3434879
40
0.3996205
50
58.9632738
51
79.0810598
0
ARC
8
DEFAULT_255_1_234
10
4.619709
20
13.3994721
40
0.3361177
50
48.0197965
51
58.447194
0
ARC
8
DEFAULT_255_1_234
10
4.6285951
20
13.4080225
40
0.3238191
50
3.3375044
51
48.1766626
0
ARC
8
DEFAULT_255_1_234
10
4.505579
20
13.3903171
40
0.4477806
50
359.9477528
51
4.6829065
0
ARC
8
DEFAULT_255_1_234
10
4.5179107
20
13.3860628
40
0.4354656
50
346.1877825
51
0.5060252
0
ARC
8
DEFAULT_255_1_234
10
4.6537975
20
13.3507731
40
0.295089
50
310.8831995
51
346.5426355
0
ARC
8
DEFAULT_255_1_234
10
4.6229395
20
13.3924695
40
0.3468331
50
286.6925341
51
310.2288297
0
ARC
8
DEFAULT_255_1_234
10
4.5660226
20
13.5714882
40
0.5346654
50
274.6850312
51
287.0245141
0
ARC
8
DEFAULT_255_1_234
10
4.5434949
20
13.7923932
40
0.7566852
50
269.8969846
51
275.018904
0
ARC
8
DEFAULT_255_1_234
10
4.546254
20
13.5844707
40
0.4226708
50
269.6593078
51
279.4153575
0
ARC
8
DEFAULT_255_1_234
10
4.5719815
20
13.4354133
40
0.2714146
50
279.2049762
51
294.9900808
0
ARC
8
DEFAULT_255_1_234
10
4.6010141
20
13.3706508
40
0.2004525
50
295.2888114
51
311.2911209
0
ARC
8
DEFAULT_255_1_234
10
4.6081035
20
13.360122
40
0.1878703
50
311.7854996
51
347.2861051
0
ARC
8
DEFAULT_255_1_234
10
4.5097194
20
13.3854092
40
0.2894234
50
346.6893224
51
0.1059443
0
ARC
8
DEFAULT_255_1_234
10
4.4342089
20
13.3882685
40
0.3649409
50
359.6350983
51
0.0053152
0
ARC
8
DEFAULT_255_1_234
10
4.5312417
20
13.3907937
40
0.2679199
50
359.4672059
51
15.5933957
0
ARC
8
DEFAULT_255_1_234
10
4.5937306
20
13.4076779
40
0.2031932
50
15.7442113
51
46.6203375
0
ARC
8
DEFAULT_255_1_234
10
4.5789527
20
13.3906484
40
0.2257226
50
46.8628658
51
75.6676503
0
ARC
8
DEFAULT_255_1_234
10
4.5495347
20
13.2847718
40
0.3355939
50
75.276167
51
88.2915297
0
ARC
8
DEFAULT_255_1_234
10
4.5437054
20
13.1969524
40
0.4235602
50
87.8575022
51
88.8000139
0
LINE
8
DEFAULT_255_1_234
10
6.0488885
20
13.7473211
11
6.0488885
21
12.5779
0
LINE
8
DEFAULT_255_1_234
10
6.0488885
20
12.5779
11
5.8938759
21
12.5779
0
LINE
8
DEFAULT_255_1_234
10
5.8938759
20
12.5779
11
5.3051495
21
13.479061
0
LINE
8
DEFAULT_255_1_234
10
5.3051495
20
13.479061
11
5.3051495
21
12.5779
0
LINE
8
DEFAULT_255_1_234
10
5.3051495
20
12.5779
11
5.150137
21
12.5779
0
LINE
8
DEFAULT_255_1_234
10
5.150137
20
12.5779
11
5.150137
21
13.7473211
0
LINE
8
DEFAULT_255_1_234
10
5.150137
20
13.7473211
11
5.3051495
21
13.7473211
0
LINE
8
DEFAULT_255_1_234
10
5.3051495
20
13.7473211
11
5.8954823
21
12.8421442
0
LINE
8
DEFAULT_255_1_234
10
5.8954823
20
12.8421442
11
5.8954823
21
13.7473211
0
LINE
8
DEFAULT_255_1_234
10
5.8954823
20
13.7473211
11
6.0488885
21
13.7473211
0
LINE
8
DEFAULT_255_1_234
10
23.0445364
20
21.6848211
11
23.2437235
21
21.6848211
0
LINE
8
DEFAULT_255_1_234
10
23.2437235
20
21.6848211
11
23.6260342
21
20.7306506
0
LINE
8
DEFAULT_255_1_234
10
23.6260342
20
20.7306506
11
24.008345
21
21.6848211
0
LINE
8
DEFAULT_255_1_234
10
24.008345
20
21.6848211
11
24.2083353
21
21.6848211
0
LINE
8
DEFAULT_255_1_234
10
24.2083353
20
21.6848211
11
24.2083353
21
20.5154
0
LINE
8
DEFAULT_255_1_234
10
24.2083353
20
20.5154
11
24.0541259
21
20.5154
0
LINE
8
DEFAULT_255_1_234
10
24.0541259
20
20.5154
11
24.0541259
21
20.9707996
0
LINE
8
DEFAULT_255_1_234
10
24.0541259
20
20.9707996
11
24.068583
21
21.4623419
0
LINE
8
DEFAULT_255_1_234
10
24.068583
20
21.4623419
11
23.6846659
21
20.5154
0
LINE
8
DEFAULT_255_1_234
10
23.6846659
20
20.5154
11
23.5665994
21
20.5154
0
LINE
8
DEFAULT_255_1_234
10
23.5665994
20
20.5154
11
23.1834854
21
21.4599324
0
LINE
8
DEFAULT_255_1_234
10
23.1834854
20
21.4599324
11
23.1987458
21
20.9707996
0
LINE
8
DEFAULT_255_1_234
10
23.1987458
20
20.9707996
11
23.1987458
21
20.5154
0
LINE
8
DEFAULT_255_1_234
10
23.1987458
20
20.5154
11
23.0445364
21
20.5154
0
LINE
8
DEFAULT_255_1_234
10
23.0445364
20
20.5154
11
23.0445364
21
21.6848211
0
ENDSEC
0
EOF