0
SECTION
2
HEADER
9
$MEASUREMENT
70
1
0
ENDSEC
0
SECTION
2
TABLES
0
TABLE
2
LTYPE
0
LTYPE
72
65
70
64
2
CONTINUOUS
3
______
73
0
40
0
0
ENDTAB
0
TABLE
2
LAYER
0
LAYER
2
DEFAULT_255_2_778
70
0
62
255
6
CONTINUOUS
0
LAYER
2
DEFAULT_255_1_388
70
0
62
255
6
CONTINUOUS
0
ENDTAB
0
ENDSEC
0
SECTION
2
ENTITIES
0
ARC
8
DEFAULT_255_2_778
10
3.5695693
20
44.0552035
40
0.7914215
50
129.1312896
51
180.1450914
0
ARC
8
DEFAULT_255_2_778
10
3.5698345
20
44.0556906
40
0.7912112
50
89.854026
51
129.1684493
0
ARC
8
DEFAULT_255_2_778
10
25.7988937
20
44.0553771
40
0.7915249
50
39.4792447
51
90.147911
0
ARC
8
DEFAULT_255_2_778
10
25.7994935
20
44.0552238
40
0.7911595
50
359.8533901
51
39.5154338
0
ARC
8
DEFAULT_255_2_778
10
25.7991693
20
-1.9863488
40
0.7914836
50
309.4761667
51
0.1482649
0
ARC
8
DEFAULT_255_2_778
10
25.798898
20
-1.9867799
40
0.7913235
50
269.8517415
51
309.511178
0
ARC
8
DEFAULT_255_2_778
10
3.569842
20
-1.9867217
40
0.7913815
50
219.1282118
51
270.1454017
0
ARC
8
DEFAULT_255_2_778
10
3.5695247
20
-1.9863392
40
0.7913769
50
179.8524075
51
219.1641908
0
LINE
8
DEFAULT_255_2_778
10
3.5718503
20
44.8468993
11
25.7968503
21
44.8468993
0
LINE
8
DEFAULT_255_2_778
10
26.5906503
20
44.0531993
11
26.5906503
21
-1.9843007
0
LINE
8
DEFAULT_255_2_778
10
25.7968503
20
-2.7781007
11
3.5718503
21
-2.7781007
0
LINE
8
DEFAULT_255_2_778
10
2.7781503
20
-1.9843007
11
2.7781503
21
44.0531993
0
LINE
8
DEFAULT_255_1_388
10
5.6758015
20
1.3381934
11
5.7056191
21
1.3381934
0
LINE
8
DEFAULT_255_1_388
10
5.7056191
20
1.3381934
11
5.7056191
21
1.1963338
0
LINE
8
DEFAULT_255_1_388
10
5.7056191
20
1.1963338
11
5.6748979
21
1.1963338
0
LINE
8
DEFAULT_255_1_388
10
5.0595705
20
0.5222747
11
5.0595705
21
0.5864278
0
LINE
8
DEFAULT_255_1_388
10
5.2276335
20
0.5647422
11
5.2276335
21
0.5032999
0
ARC
8
DEFAULT_255_1_388
10
5.6807871
20
0.6340826
40
0.562282
50
90.6001079
51
104.5146616
0
ARC
8
DEFAULT_255_1_388
10
5.637083
20
0.79661
40
0.3939917
50
104.2855758
51
133.8630124
0
ARC
8
DEFAULT_255_1_388
10
5.6555083
20
0.7844243
40
0.4155734
50
134.5304124
51
161.6210222
0
ARC
8
DEFAULT_255_1_388
10
5.8415015
20
0.7188421
40
0.6127682
50
161.2850533
51
174.2074364
0
ARC
8
DEFAULT_255_1_388
10
6.0004582
20
0.6969437
40
0.7731446
50
173.7817938
51
174.9251711
0
ARC
8
DEFAULT_255_1_388
10
5.4878775
20
0.541427
40
0.3412588
50
95.8332067
51
138.995412
0
ARC
8
DEFAULT_255_1_388
10
5.5130056
20
0.3975695
40
0.4870358
50
89.8755506
51
97.0540979
0
ARC
8
DEFAULT_255_1_388
10
5.5183445
20
0.4915841
40
0.3930432
50
71.6407016
51
90.6240821
0
ARC
8
DEFAULT_255_1_388
10
5.5352838
20
0.5539433
40
0.3285421
50
39.6368051
51
71.0190743
0
ARC
8
DEFAULT_255_1_388
10
5.4636746
20
0.4920586
40
0.4231706
50
10.6588054
51
39.9044509
0
ARC
8
DEFAULT_255_1_388
10
5.2895291
20
0.4542223
40
0.60133
50
359.6827842
51
11.1326896
0
ARC
8
DEFAULT_255_1_388
10
5.2850627
20
0.4462715
40
0.6058047
50
347.2485908
51
0.4371098
0
ARC
8
DEFAULT_255_1_388
10
5.4726413
20
0.4011379
40
0.4128987
50
318.1408565
51
347.6118497
0
ARC
8
DEFAULT_255_1_388
10
5.5092009
20
0.3710903
40
0.3656244
50
275.6342406
51
317.824739
0
ARC
8
DEFAULT_255_1_388
10
5.484353
20
0.5172827
40
0.513655
50
269.8872513
51
276.7916069
0
ARC
8
DEFAULT_255_1_388
10
5.4781723
20
0.4019181
40
0.398323
50
246.9139443
51
270.7436787
0
ARC
8
DEFAULT_255_1_388
10
5.4788919
20
0.3859044
40
0.3839368
50
218.1665534
51
245.8780431
0
ARC
8
DEFAULT_255_1_388
10
5.5778291
20
0.4686903
40
0.5128958
50
191.4115343
51
218.6077624
0
ARC
8
DEFAULT_255_1_388
10
5.7958607
20
0.5175777
40
0.7363054
50
179.6344971
51
191.7836758
0
ARC
8
DEFAULT_255_1_388
10
6.4238482
20
0.5939495
40
1.3642984
50
171.4523743
51
180.3158856
0
ARC
8
DEFAULT_255_1_388
10
5.9294209
20
0.6708895
40
0.8639311
50
157.9802296
51
171.6246761
0
ARC
8
DEFAULT_255_1_388
10
5.6803559
20
0.7702038
40
0.5958004
50
141.4299236
51
157.8541251
0
ARC
8
DEFAULT_255_1_388
10
5.6081643
20
0.8212746
40
0.5075416
50
102.871586
51
140.8564533
0
ARC
8
DEFAULT_255_1_388
10
5.6810195
20
0.5467943
40
0.7914163
50
90.377773
51
103.5868422
0
ARC
8
DEFAULT_255_1_388
10
5.4854717
20
0.4787543
40
0.2667015
50
89.8751238
51
126.2072139
0
ARC
8
DEFAULT_255_1_388
10
5.4906188
20
0.4613847
40
0.2838229
50
124.9742447
51
144.8960197
0
ARC
8
DEFAULT_255_1_388
10
5.4708433
20
0.4774981
40
0.2583845
50
145.2974778
51
160.2660922
0
ARC
8
DEFAULT_255_1_388
10
5.8164921
20
0.4997151
40
0.5888695
50
179.6512124
51
190.285571
0
ARC
8
DEFAULT_255_1_388
10
5.6259401
20
0.4637968
40
0.3949683
50
190.0944895
51
207.5099647
0
ARC
8
DEFAULT_255_1_388
10
5.5622982
20
0.4335177
40
0.3245464
50
207.9585471
51
216.325377
0
ARC
8
DEFAULT_255_1_388
10
5.5240619
20
0.4020712
40
0.2751259
50
215.7661336
51
232.5457193
0
ARC
8
DEFAULT_255_1_388
10
5.4809735
20
0.3473273
40
0.2054668
50
232.8005815
51
270.6605497
0
ARC
8
DEFAULT_255_1_388
10
5.486116
20
0.3882853
40
0.2464268
50
269.3550767
51
288.474612
0
ARC
8
DEFAULT_255_1_388
10
5.4965667
20
0.3489721
40
0.2058436
50
289.1831976
51
322.9685307
0
ARC
8
DEFAULT_255_1_388
10
5.4277768
20
0.4032279
40
0.2934408
50
322.6007085
51
346.5183319
0
ARC
8
DEFAULT_255_1_388
10
5.2975524
20
0.4364434
40
0.4278249
50
346.2584622
51
358.7739592
0
ARC
8
DEFAULT_255_1_388
10
5.18241
20
0.4426829
40
0.5430876
50
358.3757628
51
0.0082477
0
ARC
8
DEFAULT_255_1_388
10
5.2680918
20
0.4457856
40
0.4574157
50
359.6211417
51
11.28403
0
ARC
8
DEFAULT_255_1_388
10
5.4117524
20
0.4757535
40
0.3106708
50
11.0483152
51
31.8145585
0
ARC
8
DEFAULT_255_1_388
10
5.4465229
20
0.4946045
40
0.2711963
50
32.3028554
51
38.0820598
0
ARC
8
DEFAULT_255_1_388
10
5.4938462
20
0.5374717
40
0.2075566
50
36.8249851
51
85.741667
0
ARC
8
DEFAULT_255_1_388
10
5.4862875
20
0.4811065
40
0.2643487
50
85.0150021
51
90.050843
0
LINE
8
DEFAULT_255_1_388
10
6.8757351
20
0.7716585
11
6.8757351
21
0.6297989
0
LINE
8
DEFAULT_255_1_388
10
6.8757351
20
0.6297989
11
6.3055859
21
0.6297989
0
LINE
8
DEFAULT_255_1_388
10
6.3055859
20
0.6297989
11
6.3055859
21
0.1635596
0
LINE
8
DEFAULT_255_1_388
10
6.3055859
20
0.1635596
11
6.9678986
21
0.1635596
0
LINE
8
DEFAULT_255_1_388
10
6.9678986
20
0.1635596
11
6.9678986
21
0.0217
0
LINE
8
DEFAULT_255_1_388
10
6.9678986
20
0.0217
11
6.1321015
21
0.0217
0
LINE
8
DEFAULT_255_1_388
10
6.1321015
20
0.0217
11
6.1321015
21
1.3372898
0
LINE
8
DEFAULT_255_1_388
10
6.1321015
20
1.3372898
11
6.958863
21
1.3372898
0
LINE
8
DEFAULT_255_1_388
10
6.958863
20
1.3372898
11
6.958863
21
1.1945267
0
LINE
8
DEFAULT_255_1_388
10
6.958863
20
1.1945267
11
6.3055859
21
1.1945267
0
LINE
8
DEFAULT_255_1_388
10
6.3055859
20
1.1945267
11
6.3055859
21
0.7716585
0
LINE
8
DEFAULT_255_1_388
10
6.3055859
20
0.7716585
11
6.8757351
21
0.7716585
0
LINE
8
DEFAULT_255_1_388
10
8.0566938
20
0.9568892
11
7.8823059
21
0.9568892
0
LINE
8
DEFAULT_255_1_388
10
7.1034333
20
0.4030042
11
7.2778212
21
0.4030042
0
ARC
8
DEFAULT_255_1_388
10
7.9563786
20
1.9632821
40
1.4087688
50
248.9196578
51
254.1442424
0
ARC
8
DEFAULT_255_1_388
10
7.7673666
20
1.4766805
40
0.8867498
50
241.6337352
51
249.0064643
0
ARC
8
DEFAULT_255_1_388
10
7.5953979
20
1.1615764
40
0.5277799
50
230.4982261
51
241.8087583
0
ARC
8
DEFAULT_255_1_388
10
7.507175
20
1.0491686
40
0.3849419
50
227.4062979
51
229.9877433
0
ARC
8
DEFAULT_255_1_388
10
7.4523097
20
0.9956155
40
0.3084129
50
200.6782127
51
228.1765252
0
ARC
8
DEFAULT_255_1_388
10
7.4604466
20
0.9939277
40
0.315461
50
179.506278
51
199.8695278
0
ARC
8
DEFAULT_255_1_388
10
7.4594054
20
1.0022671
40
0.3144584
50
132.4834401
51
181.0242352
0
ARC
8
DEFAULT_255_1_388
10
7.5263259
20
0.9390788
40
0.4063094
50
129.2526113
51
133.4249077
0
ARC
8
DEFAULT_255_1_388
10
7.5428851
20
0.9142619
40
0.436014
50
101.9878945
51
128.8741833
0
ARC
8
DEFAULT_255_1_388
10
7.5877267
20
0.720636
40
0.6347415
50
89.5906376
51
102.3170567
0
ARC
8
DEFAULT_255_1_388
10
7.5956578
20
0.7564586
40
0.5989122
50
77.2359491
51
90.3248968
0
ARC
8
DEFAULT_255_1_388
10
7.6189509
20
0.8652554
40
0.4876594
50
63.8379856
51
77.0808925
0
ARC
8
DEFAULT_255_1_388
10
7.6502043
20
0.9234882
40
0.4216191
50
45.9863127
51
64.1608798
0
ARC
8
DEFAULT_255_1_388
10
7.6795436
20
0.956999
40
0.3771394
50
32.2747934
51
45.6544796
0
ARC
8
DEFAULT_255_1_388
10
7.6870243
20
0.9591426
40
0.3696765
50
359.6507495
51
32.6129943
0
ARC
8
DEFAULT_255_1_388
10
7.5809425
20
0.9596788
40
0.3013762
50
359.469654
51
14.983205
0
ARC
8
DEFAULT_255_1_388
10
7.6602678
20
0.9809288
40
0.2192542
50
14.9781954
51
48.2004799
0
ARC
8
DEFAULT_255_1_388
10
7.6417788
20
0.9576937
40
0.2489048
50
48.5926661
51
74.1242559
0
ARC
8
DEFAULT_255_1_388
10
7.6042591
20
0.8338607
40
0.3782845
50
73.7889321
51
86.6653996
0
ARC
8
DEFAULT_255_1_388
10
7.5927405
20
0.6980955
40
0.5145025
50
86.2642725
51
90.0533288
0
ARC
8
DEFAULT_255_1_388
10
7.5895498
20
0.7425376
40
0.4700681
50
89.669455
51
99.2313411
0
ARC
8
DEFAULT_255_1_388
10
7.5622658
20
0.9050401
40
0.3052945
50
99.0695987
51
113.7659242
0
ARC
8
DEFAULT_255_1_388
10
7.5314652
20
0.9776772
40
0.226407
50
114.0402885
51
127.9848946
0
ARC
8
DEFAULT_255_1_388
10
7.5044129
20
1.0109884
40
0.1835045
50
127.7287217
51
176.7106493
0
ARC
8
DEFAULT_255_1_388
10
7.5807794
20
0.999621
40
0.2604907
50
175.1780759
51
180.0581213
0
ARC
8
DEFAULT_255_1_388
10
7.4859137
20
0.9982411
40
0.1656287
50
179.6140658
51
228.124674
0
ARC
8
DEFAULT_255_1_388
10
7.5356495
20
1.044294
40
0.2332038
50
226.5785315
51
230.8792476
0
ARC
8
DEFAULT_255_1_388
10
7.5885981
20
1.1145908
40
0.3211664
50
231.4636401
51
241.9261664
0
ARC
8
DEFAULT_255_1_388
10
7.7232765
20
1.3624349
40
0.6032345
50
241.7177136
51
248.3259138
0
ARC
8
DEFAULT_255_1_388
10
7.8791359
20
1.7485771
40
1.0196417
50
248.2007377
51
252.4527713
0
ARC
8
DEFAULT_255_1_388
10
8.0144886
20
2.1670092
40
1.4594143
50
252.3388938
51
254.347037
0
ARC
8
DEFAULT_255_1_388
10
7.1660187
20
-0.8677905
40
1.6917621
50
71.0197462
51
74.4085467
0
ARC
8
DEFAULT_255_1_388
10
7.3567275
20
-0.3172856
40
1.1091618
50
66.1845203
51
71.086519
0
ARC
8
DEFAULT_255_1_388
10
7.5317823
20
0.0768439
40
0.6779073
50
59.3537334
51
66.269255
0
ARC
8
DEFAULT_255_1_388
10
7.6317549
20
0.2459777
40
0.4814366
50
49.1021732
51
59.3294421
0
ARC
8
DEFAULT_255_1_388
10
7.7238538
20
0.3509575
40
0.3417875
50
32.7924183
51
49.2503526
0
ARC
8
DEFAULT_255_1_388
10
7.7588152
20
0.3759311
40
0.2988789
50
31.121225
51
32.3977355
0
ARC
8
DEFAULT_255_1_388
10
7.750033
20
0.3726728
40
0.3080861
50
8.1116803
51
30.7958224
0
ARC
8
DEFAULT_255_1_388
10
7.6588675
20
0.3571437
40
0.4005385
50
359.8390945
51
8.4707348
0
ARC
8
DEFAULT_255_1_388
10
7.7292723
20
0.3516751
40
0.3301608
50
337.4732479
51
0.7538283
0
ARC
8
DEFAULT_255_1_388
10
7.7493748
20
0.3494554
40
0.3107929
50
307.5917028
51
336.4313755
0
ARC
8
DEFAULT_255_1_388
10
7.6982806
20
0.4062509
40
0.3870096
50
307.6560665
51
308.4561779
0
ARC
8
DEFAULT_255_1_388
10
7.6717022
20
0.4470832
40
0.435591
50
284.3733666
51
307.1426212
0
ARC
8
DEFAULT_255_1_388
10
7.6159917
20
0.6520391
40
0.6479685
50
272.4384566
51
284.6464689
0
ARC
8
DEFAULT_255_1_388
10
7.6017302
20
0.8544434
40
0.8508149
50
269.9708517
51
272.8180721
0
ARC
8
DEFAULT_255_1_388
10
7.5968984
20
0.6252283
40
0.6216151
50
248.2707343
51
270.4054609
0
ARC
8
DEFAULT_255_1_388
10
7.5907856
20
0.6037673
40
0.5994203
50
246.1380358
51
248.054058
0
ARC
8
DEFAULT_255_1_388
10
7.5436998
20
0.5048705
40
0.4899388
50
233.1671897
51
246.4951656
0
ARC
8
DEFAULT_255_1_388
10
7.4813633
20
0.4207137
40
0.3852115
50
215.3403381
51
233.084328
0
ARC
8
DEFAULT_255_1_388
10
7.4506997
20
0.3984093
40
0.3472969
50
179.2419235
51
215.2648426
0
ARC
8
DEFAULT_255_1_388
10
7.5370548
20
0.3999979
40
0.259251
50
179.3355796
51
199.1045873
0
ARC
8
DEFAULT_255_1_388
10
7.499669
20
0.3902223
40
0.2207454
50
199.8830064
51
232.7061328
0
ARC
8
DEFAULT_255_1_388
10
7.5527965
20
0.4570456
40
0.306101
50
232.3736206
51
255.5136621
0
ARC
8
DEFAULT_255_1_388
10
7.591147
20
0.5970177
40
0.4512213
50
255.2447928
51
267.5318292
0
ARC
8
DEFAULT_255_1_388
10
7.6009937
20
0.7356709
40
0.5901825
50
267.1564563
51
270.0294721
0
ARC
8
DEFAULT_255_1_388
10
7.6041263
20
0.6857623
40
0.5402814
50
269.6999944
51
278.1662446
0
ARC
8
DEFAULT_255_1_388
10
7.632929
20
0.4910974
40
0.3435003
50
278.0229022
51
290.6255326
0
ARC
8
DEFAULT_255_1_388
10
7.6720457
20
0.3867547
40
0.2320666
50
290.6616368
51
307.0374127
0
ARC
8
DEFAULT_255_1_388
10
7.7058357
20
0.345304
40
0.1786372
50
306.3942078
51
355.303191
0
ARC
8
DEFAULT_255_1_388
10
7.648265
20
0.3539186
40
0.2367516
50
354.3662092
51
0.0709489
0
ARC
8
DEFAULT_255_1_388
10
7.6642518
20
0.3564561
40
0.2207761
50
359.4175379
51
16.1975911
0
ARC
8
DEFAULT_255_1_388
10
7.7154636
20
0.3704954
40
0.1676828
50
16.4721294
51
52.6261798
0
ARC
8
DEFAULT_255_1_388
10
7.6231144
20
0.2485606
40
0.3206412
50
52.7381828
51
62.4979144
0
ARC
8
DEFAULT_255_1_388
10
7.4672896
20
-0.0446764
40
0.6527035
50
62.2517425
51
68.1219454
0
ARC
8
DEFAULT_255_1_388
10
7.2738384
20
-0.5201049
40
1.1659797
50
68.006043
51
71.8055127
0
ARC
8
DEFAULT_255_1_388
10
7.0718292
20
-1.1259277
40
1.8045908
50
71.718361
51
73.9260743
0
LINE
8
DEFAULT_255_1_388
10
9.0876608
20
1.3372898
11
9.0876608
21
1.2433191
0
LINE
8
DEFAULT_255_1_388
10
9.0876608
20
1.2433191
11
8.5428115
21
0.0217
0
LINE
8
DEFAULT_255_1_388
10
8.5428115
20
0.0217
11
8.36752
21
0.0217
0
LINE
8
DEFAULT_255_1_388
10
8.36752
20
0.0217
11
8.9105622
21
1.199948
0
LINE
8
DEFAULT_255_1_388
10
8.9105622
20
1.199948
11
8.1985534
21
1.199948
0
LINE
8
DEFAULT_255_1_388
10
8.1985534
20
1.199948
11
8.1985534
21
1.3372898
0
LINE
8
DEFAULT_255_1_388
10
8.1985534
20
1.3372898
11
9.0876608
21
1.3372898
0
LINE
8
DEFAULT_255_1_388
10
9.4879399
20
0.6469666
11
9.3542124
21
0.6813021
0
LINE
8
DEFAULT_255_1_388
10
9.3542124
20
0.6813021
11
9.4210761
21
1.3372898
0
LINE
8
DEFAULT_255_1_388
10
9.4210761
20
1.3372898
11
10.0951352
21
1.3372898
0
LINE
8
DEFAULT_255_1_388
10
10.0951352
20
1.3372898
11
10.0951352
21
1.1827803
0
LINE
8
DEFAULT_255_1_388
10
10.0951352
20
1.1827803
11
9.5629357
21
1.1827803
0
LINE
8
DEFAULT_255_1_388
10
9.5629357
20
1.1827803
11
9.5231789
21
0.8240652
0
LINE
8
DEFAULT_255_1_388
10
9.307227
20
0.3677652
11
9.4653508
21
0.3677652
0
LINE
8
DEFAULT_255_1_388
10
9.5322146
20
0.6831092
11
9.4879399
21
0.6469666
0
ARC
8
DEFAULT_255_1_388
10
9.7318403
20
0.4663241
40
0.4141476
50
93.7181681
51
120.253934
0
ARC
8
DEFAULT_255_1_388
10
9.7424455
20
0.3754284
40
0.5055616
50
89.9660471
51
94.2495185
0
ARC
8
DEFAULT_255_1_388
10
9.7470277
20
0.4417154
40
0.4392953
50
73.8045384
51
90.5585736
0
ARC
8
DEFAULT_255_1_388
10
9.7734534
20
0.538252
40
0.3392225
50
41.3071072
51
73.543002
0
ARC
8
DEFAULT_255_1_388
10
9.7266354
20
0.4979461
40
0.4009977
50
13.5075837
51
41.2174839
0
ARC
8
DEFAULT_255_1_388
10
9.5419452
20
0.4495907
40
0.5918864
50
1.1330171
51
13.8830737
0
ARC
8
DEFAULT_255_1_388
10
9.3823098
20
0.4410522
40
0.7516787
50
359.9925091
51
1.5431298
0
ARC
8
DEFAULT_255_1_388
10
9.5267712
20
0.4364027
40
0.6072343
50
347.8572712
51
0.4294349
0
ARC
8
DEFAULT_255_1_388
10
9.7236847
20
0.3917898
40
0.4053482
50
323.6727442
51
348.1674594
0
ARC
8
DEFAULT_255_1_388
10
9.7567812
20
0.3716175
40
0.3667495
50
316.8171818
51
323.1486802
0
ARC
8
DEFAULT_255_1_388
10
9.7636935
20
0.3674612
40
0.358869
50
281.839603
51
316.5458142
0
ARC
8
DEFAULT_255_1_388
10
9.7214223
20
0.5424363
40
0.5388223
50
269.5770964
51
282.4214641
0
ARC
8
DEFAULT_255_1_388
10
9.7134144
20
0.518393
40
0.5147801
50
256.2425863
51
270.4486481
0
ARC
8
DEFAULT_255_1_388
10
9.6797671
20
0.3834124
40
0.3756708
50
228.9024379
51
256.33135
0
ARC
8
DEFAULT_255_1_388
10
9.6714652
20
0.3703054
40
0.360344
50
193.7536029
51
228.5272638
0
ARC
8
DEFAULT_255_1_388
10
9.8107217
20
0.4111463
40
0.5053599
50
184.9244437
51
194.4976052
0
ARC
8
DEFAULT_255_1_388
10
9.8323858
20
0.4151722
40
0.3700839
50
187.3596909
51
198.6733728
0
ARC
8
DEFAULT_255_1_388
10
9.7143101
20
0.3742373
40
0.2451195
50
198.4453795
51
217.7945479
0
ARC
8
DEFAULT_255_1_388
10
9.6810274
20
0.3506563
40
0.2043754
50
218.2887146
51
228.5613203
0
ARC
8
DEFAULT_255_1_388
10
9.6920281
20
0.3654902
40
0.2227819
50
228.9652423
51
258.1237049
0
ARC
8
DEFAULT_255_1_388
10
9.7151718
20
0.4645964
40
0.3245374
50
257.7260585
51
270.4013717
0
ARC
8
DEFAULT_255_1_388
10
9.7202216
20
0.4145255
40
0.2744726
50
269.4204315
51
286.420998
0
ARC
8
DEFAULT_255_1_388
10
9.7369272
20
0.3538705
40
0.2115721
50
286.7250065
51
320.6004665
0
ARC
8
DEFAULT_255_1_388
10
9.6938187
20
0.3888527
40
0.2670878
50
320.6712228
51
344.5440474
0
ARC
8
DEFAULT_255_1_388
10
9.5636901
20
0.4270394
40
0.4026927
50
344.241448
51
356.735803
0
ARC
8
DEFAULT_255_1_388
10
9.4233208
20
0.4386656
40
0.5435085
50
356.3547471
51
0.0507222
0
ARC
8
DEFAULT_255_1_388
10
9.5735473
20
0.4421812
40
0.3932934
50
359.5579289
51
12.9534322
0
ARC
8
DEFAULT_255_1_388
10
9.6922313
20
0.4709586
40
0.2711827
50
12.6489751
51
41.608121
0
ARC
8
DEFAULT_255_1_388
10
9.7181473
20
0.4929946
40
0.2371737
50
41.7851122
51
85.9892156
0
ARC
8
DEFAULT_255_1_388
10
9.7042784
20
0.4014738
40
0.3295244
50
84.6965848
51
90.0672125
0
ARC
8
DEFAULT_255_1_388
10
9.7016351
20
0.3263118
40
0.4046926
50
89.6804991
51
99.161352
0
ARC
8
DEFAULT_255_1_388
10
9.678536
20
0.4643848
40
0.2647044
50
98.9836248
51
113.8905702
0
ARC
8
DEFAULT_255_1_388
10
9.6527035
20
0.5253118
40
0.1985386
50
114.195234
51
127.3641866
0
LINE
8
DEFAULT_255_1_388
10
10.8658757
20
1.3436148
11
10.8658757
21
0.0217
0
LINE
8
DEFAULT_255_1_388
10
10.8658757
20
0.0217
11
10.6978127
21
0.0217
0
LINE
8
DEFAULT_255_1_388
10
10.6978127
20
0.0217
11
10.6978127
21
1.135795
0
LINE
8
DEFAULT_255_1_388
10
10.6978127
20
1.135795
11
10.3607832
21
1.0120066
0
LINE
8
DEFAULT_255_1_388
10
10.3607832
20
1.0120066
11
10.3607832
21
1.1638055
0
LINE
8
DEFAULT_255_1_388
10
10.3607832
20
1.1638055
11
10.8396723
21
1.3436148
0
LINE
8
DEFAULT_255_1_388
10
10.8396723
20
1.3436148
11
10.8658757
21
1.3436148
0
LINE
8
DEFAULT_255_1_388
10
11.9817778
20
1.3381934
11
12.0115954
21
1.3381934
0
LINE
8
DEFAULT_255_1_388
10
12.0115954
20
1.3381934
11
12.0115954
21
1.1963338
0
LINE
8
DEFAULT_255_1_388
10
12.0115954
20
1.1963338
11
11.9808742
21
1.1963338
0
LINE
8
DEFAULT_255_1_388
10
11.3655468
20
0.5222747
11
11.3655468
21
0.5864278
0
LINE
8
DEFAULT_255_1_388
10
11.5336098
20
0.5647422
11
11.5336098
21
0.5032999
0
ARC
8
DEFAULT_255_1_388
10
11.9867634
20
0.6340826
40
0.562282
50
90.6001079
51
104.5146616
0
ARC
8
DEFAULT_255_1_388
10
11.9430593
20
0.79661
40
0.3939917
50
104.2855758
51
133.8630124
0
ARC
8
DEFAULT_255_1_388
10
11.9614846
20
0.7844243
40
0.4155734
50
134.5304124
51
161.6210222
0
ARC
8
DEFAULT_255_1_388
10
12.1474778
20
0.7188421
40
0.6127682
50
161.2850533
51
174.2074364
0
ARC
8
DEFAULT_255_1_388
10
12.3064345
20
0.6969437
40
0.7731446
50
173.7817938
51
174.9251711
0
ARC
8
DEFAULT_255_1_388
10
11.7938539
20
0.541427
40
0.3412588
50
95.8332067
51
138.995412
0
ARC
8
DEFAULT_255_1_388
10
11.8189819
20
0.3975695
40
0.4870358
50
89.8755506
51
97.0540979
0
ARC
8
DEFAULT_255_1_388
10
11.8243208
20
0.4915841
40
0.3930432
50
71.6407016
51
90.6240821
0
ARC
8
DEFAULT_255_1_388
10
11.8412601
20
0.5539433
40
0.3285421
50
39.6368051
51
71.0190743
0
ARC
8
DEFAULT_255_1_388
10
11.7696509
20
0.4920586
40
0.4231706
50
10.6588054
51
39.9044509
0
ARC
8
DEFAULT_255_1_388
10
11.5955055
20
0.4542223
40
0.60133
50
359.6827842
51
11.1326896
0
ARC
8
DEFAULT_255_1_388
10
11.591039
20
0.4462715
40
0.6058047
50
347.2485908
51
0.4371098
0
ARC
8
DEFAULT_255_1_388
10
11.7786176
20
0.4011379
40
0.4128987
50
318.1408565
51
347.6118497
0
ARC
8
DEFAULT_255_1_388
10
11.8151773
20
0.3710903
40
0.3656244
50
275.6342406
51
317.824739
0
ARC
8
DEFAULT_255_1_388
10
11.7903293
20
0.5172827
40
0.513655
50
269.8872513
51
276.7916069
0
ARC
8
DEFAULT_255_1_388
10
11.7841486
20
0.4019181
40
0.398323
50
246.9139443
51
270.7436787
0
ARC
8
DEFAULT_255_1_388
10
11.7848682
20
0.3859044
40
0.3839368
50
218.1665534
51
245.8780431
0
ARC
8
DEFAULT_255_1_388
10
11.8838054
20
0.4686903
40
0.5128958
50
191.4115343
51
218.6077624
0
ARC
8
DEFAULT_255_1_388
10
12.101837
20
0.5175777
40
0.7363054
50
179.6344971
51
191.7836758
0
ARC
8
DEFAULT_255_1_388
10
12.7298245
20
0.5939495
40
1.3642984
50
171.4523743
51
180.3158856
0
ARC
8
DEFAULT_255_1_388
10
12.2353972
20
0.6708895
40
0.8639311
50
157.9802296
51
171.6246761
0
ARC
8
DEFAULT_255_1_388
10
11.9863322
20
0.7702038
40
0.5958004
50
141.4299236
51
157.8541251
0
ARC
8
DEFAULT_255_1_388
10
11.9141406
20
0.8212746
40
0.5075416
50
102.871586
51
140.8564533
0
ARC
8
DEFAULT_255_1_388
10
11.9869959
20
0.5467943
40
0.7914163
50
90.377773
51
103.5868422
0
ARC
8
DEFAULT_255_1_388
10
11.791448
20
0.4787543
40
0.2667015
50
89.8751238
51
126.2072139
0
ARC
8
DEFAULT_255_1_388
10
11.7965951
20
0.4613847
40
0.2838229
50
124.9742447
51
144.8960197
0
ARC
8
DEFAULT_255_1_388
10
11.7768196
20
0.4774981
40
0.2583845
50
145.2974778
51
160.2660922
0
ARC
8
DEFAULT_255_1_388
10
12.1224684
20
0.4997151
40
0.5888695
50
179.6512124
51
190.285571
0
ARC
8
DEFAULT_255_1_388
10
11.9319164
20
0.4637968
40
0.3949683
50
190.0944895
51
207.5099647
0
ARC
8
DEFAULT_255_1_388
10
11.8682745
20
0.4335177
40
0.3245464
50
207.9585471
51
216.325377
0
ARC
8
DEFAULT_255_1_388
10
11.8300383
20
0.4020712
40
0.2751259
50
215.7661336
51
232.5457193
0
ARC
8
DEFAULT_255_1_388
10
11.7869498
20
0.3473273
40
0.2054668
50
232.8005815
51
270.6605497
0
ARC
8
DEFAULT_255_1_388
10
11.7920923
20
0.3882853
40
0.2464268
50
269.3550767
51
288.474612
0
ARC
8
DEFAULT_255_1_388
10
11.802543
20
0.3489721
40
0.2058436
50
289.1831976
51
322.9685307
0
ARC
8
DEFAULT_255_1_388
10
11.7337531
20
0.4032279
40
0.2934408
50
322.6007085
51
346.5183319
0
ARC
8
DEFAULT_255_1_388
10
11.6035288
20
0.4364434
40
0.4278249
50
346.2584622
51
358.7739592
0
ARC
8
DEFAULT_255_1_388
10
11.4883863
20
0.4426829
40
0.5430876
50
358.3757628
51
0.0082477
0
ARC
8
DEFAULT_255_1_388
10
11.5740681
20
0.4457856
40
0.4574157
50
359.6211417
51
11.28403
0
ARC
8
DEFAULT_255_1_388
10
11.7177288
20
0.4757535
40
0.3106708
50
11.0483152
51
31.8145585
0
ARC
8
DEFAULT_255_1_388
10
11.7524993
20
0.4946045
40
0.2711963
50
32.3028554
51
38.0820598
0
ARC
8
DEFAULT_255_1_388
10
11.7998226
20
0.5374717
40
0.2075566
50
36.8249851
51
85.741667
0
ARC
8
DEFAULT_255_1_388
10
11.7922638
20
0.4811065
40
0.2643487
50
85.0150021
51
90.050843
0
LINE
8
DEFAULT_255_1_388
10
12.7597468
20
0.6487737
11
12.7597468
21
0.5123355
0
LINE
8
DEFAULT_255_1_388
10
12.7597468
20
0.5123355
11
12.3188073
21
0.5123355
0
LINE
8
DEFAULT_255_1_388
10
12.3188073
20
0.5123355
11
12.3188073
21
0.6487737
0
LINE
8
DEFAULT_255_1_388
10
12.3188073
20
0.6487737
11
12.7597468
21
0.6487737
0
LINE
8
DEFAULT_255_1_388
10
13.1482795
20
0.6243775
11
13.1482795
21
0.7608157
0
LINE
8
DEFAULT_255_1_388
10
13.1482795
20
0.7608157
11
13.273875
21
0.7608157
0
LINE
8
DEFAULT_255_1_388
10
13.0597302
20
0.9921282
11
12.8925708
21
0.9921282
0
LINE
8
DEFAULT_255_1_388
10
12.8808244
20
0.3686688
11
13.0488874
21
0.3686688
0
LINE
8
DEFAULT_255_1_388
10
13.273875
20
0.6243775
11
13.1482795
21
0.6243775
0
ARC
8
DEFAULT_255_1_388
10
13.2705976
20
1.1424922
40
0.3816905
50
270.491971
51
281.8953028
0
ARC
8
DEFAULT_255_1_388
10
13.2977403
20
1.0185199
40
0.2547877
50
281.6690378
51
301.2943765
0
ARC
8
DEFAULT_255_1_388
10
13.3168854
20
0.9834926
40
0.2149197
50
301.7834992
51
311.754567
0
ARC
8
DEFAULT_255_1_388
10
13.3271896
20
0.972065
40
0.1995326
50
311.7325027
51
354.2803031
0
ARC
8
DEFAULT_255_1_388
10
13.2454312
20
0.986128
40
0.2823461
50
353.0941646
51
0.1174696
0
ARC
8
DEFAULT_255_1_388
10
13.1935869
20
0.9914874
40
0.3342238
50
359.1804452
51
15.0452323
0
ARC
8
DEFAULT_255_1_388
10
13.3449928
20
1.0356546
40
0.1765747
50
13.957816
51
77.6713812
0
ARC
8
DEFAULT_255_1_388
10
13.3015164
20
0.8798464
40
0.3381982
50
76.111571
51
90.7028736
0
ARC
8
DEFAULT_255_1_388
10
13.2948576
20
0.910625
40
0.3074046
50
89.5321574
51
103.5319393
0
ARC
8
DEFAULT_255_1_388
10
13.2722959
20
1.0005443
40
0.2147041
50
103.2930114
51
133.5619756
0
ARC
8
DEFAULT_255_1_388
10
13.2672901
20
1.0072351
40
0.2064084
50
133.8349761
51
173.5343225
0
ARC
8
DEFAULT_255_1_388
10
13.3486558
20
0.9928144
40
0.2889266
50
172.5097183
51
180.1360699
0
ARC
8
DEFAULT_255_1_388
10
13.2416322
20
0.996688
40
0.3490913
50
155.3483706
51
180.7484035
0
ARC
8
DEFAULT_255_1_388
10
13.2361298
20
0.9934519
40
0.3454798
50
131.5745177
51
154.4799474
0
ARC
8
DEFAULT_255_1_388
10
13.2713581
20
0.9578422
40
0.3955058
50
96.9874487
51
131.9690874
0
ARC
8
DEFAULT_255_1_388
10
13.2960473
20
0.8177407
40
0.537622
50
89.8592909
51
97.7827481
0
ARC
8
DEFAULT_255_1_388
10
13.3014582
20
0.788236
40
0.5671399
50
78.3654493
51
90.4132586
0
ARC
8
DEFAULT_255_1_388
10
13.3417223
20
0.9748918
40
0.3762034
50
56.6229818
51
78.6387103
0
ARC
8
DEFAULT_255_1_388
10
13.3659053
20
1.0171846
40
0.3275964
50
47.0254604
51
56.085558
0
ARC
8
DEFAULT_255_1_388
10
13.3681304
20
1.0216189
40
0.3228382
50
10.9207523
51
46.777927
0
ARC
8
DEFAULT_255_1_388
10
13.2146898
20
0.9861401
40
0.4802559
50
359.6364235
51
11.6087615
0
ARC
8
DEFAULT_255_1_388
10
13.4211063
20
0.9844404
40
0.273833
50
332.3549969
51
359.7179765
0
ARC
8
DEFAULT_255_1_388
10
13.3479464
20
1.0191285
40
0.3547505
50
325.2332381
51
332.8746682
0
ARC
8
DEFAULT_255_1_388
10
13.3651047
20
1.0071763
40
0.3338396
50
292.9803892
51
325.2391113
0
ARC
8
DEFAULT_255_1_388
10
13.3340243
20
1.0676679
40
0.4016959
50
292.542178
51
293.6931461
0
ARC
8
DEFAULT_255_1_388
10
13.3783814
20
0.3411036
40
0.372079
50
57.643292
51
72.8626085
0
ARC
8
DEFAULT_255_1_388
10
13.4182649
20
0.4057273
40
0.2961455
50
36.7246661
51
57.4701329
0
ARC
8
DEFAULT_255_1_388
10
13.4169806
20
0.407147
40
0.2963321
50
8.054535
51
36.3561529
0
ARC
8
DEFAULT_255_1_388
10
13.3199478
20
0.3897073
40
0.3948682
50
359.8316595
51
8.5873361
0
ARC
8
DEFAULT_255_1_388
10
13.2776953
20
0.384297
40
0.4371398
50
343.9831631
51
0.557075
0
ARC
8
DEFAULT_255_1_388
10
13.3774002
20
0.3569963
40
0.3337749
50
311.6358204
51
343.7652116
0
ARC
8
DEFAULT_255_1_388
10
13.3348256
20
0.4049955
40
0.3979351
50
279.7829743
51
311.625622
0
ARC
8
DEFAULT_255_1_388
10
13.3009391
20
0.5666642
40
0.5630417
50
269.7285092
51
280.3857694
0
ARC
8
DEFAULT_255_1_388
10
13.2939704
20
0.5620241
40
0.5584119
50
256.6827433
51
270.4412869
0
ARC
8
DEFAULT_255_1_388
10
13.2558691
20
0.4062698
40
0.3980715
50
229.4223821
51
256.8554507
0
ARC
8
DEFAULT_255_1_388
10
13.2092244
20
0.3537683
40
0.3278564
50
181.8183354
51
229.6455015
0
ARC
8
DEFAULT_255_1_388
10
13.3261853
20
0.3684825
40
0.4453611
50
179.9760419
51
183.2330638
0
ARC
8
DEFAULT_255_1_388
10
13.3068406
20
0.3661781
40
0.2579652
50
179.4467996
51
196.2871626
0
ARC
8
DEFAULT_255_1_388
10
13.2519859
20
0.3511709
40
0.2011057
50
196.5661293
51
227.7059371
0
ARC
8
DEFAULT_255_1_388
10
13.2704467
20
0.3718155
40
0.2287994
50
227.7653015
51
257.8763321
0
ARC
8
DEFAULT_255_1_388
10
13.295755
20
0.4778961
40
0.3378385
50
257.4583525
51
270.4267406
0
ARC
8
DEFAULT_255_1_388
10
13.3008799
20
0.510523
40
0.3704652
50
269.5965319
51
280.8788143
0
ARC
8
DEFAULT_255_1_388
10
13.3267027
20
0.3815529
40
0.2389415
50
280.6347277
51
299.8594068
0
ARC
8
DEFAULT_255_1_388
10
13.3481797
20
0.3407736
40
0.19289
50
300.3575552
51
314.5515667
0
ARC
8
DEFAULT_255_1_388
10
13.3388473
20
0.3476025
40
0.204312
50
315.0730962
51
345.0429362
0
ARC
8
DEFAULT_255_1_388
10
13.234998
20
0.3778539
40
0.31246
50
344.598526
51
357.9270698
0
ARC
8
DEFAULT_255_1_388
10
13.1340285
20
0.3847705
40
0.4136265
50
357.4755098
51
0.0224936
0
ARC
8
DEFAULT_255_1_388
10
13.2493163
20
0.3875099
40
0.2983498
50
359.5051035
51
13.4236939
0
ARC
8
DEFAULT_255_1_388
10
13.3468253
20
0.4124637
40
0.1977186
50
12.9497905
51
48.7550905
0
ARC
8
DEFAULT_255_1_388
10
13.3263174
20
0.3844373
40
0.2323321
50
49.509109
51
72.1832965
0
ARC
8
DEFAULT_255_1_388
10
13.2860643
20
0.2649632
40
0.358397
50
71.9008458
51
84.3555134
0
ARC
8
DEFAULT_255_1_388
10
13.2679037
20
0.1117712
40
0.512641
50
84.019632
51
89.3326067
0
LINE
8
DEFAULT_255_1_388
10
14.7394565
20
1.3372898
11
14.9138444
21
1.3372898
0
LINE
8
DEFAULT_255_1_388
10
14.9138444
20
1.3372898
11
14.9138444
21
0.442761
0
LINE
8
DEFAULT_255_1_388
10
14.4819406
20
0.0054358
11
14.4358588
21
0.0036287
0
LINE
8
DEFAULT_255_1_388
10
13.9614875
20
0.4409539
11
13.9614875
21
1.3372898
0
LINE
8
DEFAULT_255_1_388
10
13.9614875
20
1.3372898
11
14.1331647
21
1.3372898
0
LINE
8
DEFAULT_255_1_388
10
14.1331647
20
1.3372898
11
14.1331647
21
0.4463753
0
LINE
8
DEFAULT_255_1_388
10
14.7394565
20
0.4454717
11
14.7394565
21
1.3372898
0
ARC
8
DEFAULT_255_1_388
10
14.4241243
20
0.440527
40
0.4897252
50
343.0897723
51
0.2613727
0
ARC
8
DEFAULT_255_1_388
10
14.5173214
20
0.414527
40
0.3930016
50
315.3344451
51
342.7642569
0
ARC
8
DEFAULT_255_1_388
10
14.492171
20
0.4406085
40
0.4292244
50
284.6605441
51
315.2183439
0
ARC
8
DEFAULT_255_1_388
10
14.4409489
20
0.6145508
40
0.6104926
50
273.8500371
51
285.1796441
0
ARC
8
DEFAULT_255_1_388
10
14.4310554
20
0.6529762
40
0.6493653
50
257.6315393
51
270.4238259
0
ARC
8
DEFAULT_255_1_388
10
14.3832637
20
0.4480915
40
0.4390079
50
230.6086859
51
257.9965362
0
ARC
8
DEFAULT_255_1_388
10
14.3686696
20
0.4251643
40
0.4120404
50
227.745033
51
230.1538266
0
ARC
8
DEFAULT_255_1_388
10
14.3533225
20
0.4067253
40
0.3880742
50
189.2524335
51
227.5915299
0
ARC
8
DEFAULT_255_1_388
10
14.5245096
20
0.4435735
40
0.5630282
50
180.2665782
51
190.1525221
0
ARC
8
DEFAULT_255_1_388
10
14.5494824
20
0.4432254
40
0.4163296
50
179.566507
51
191.9954402
0
ARC
8
DEFAULT_255_1_388
10
14.4113513
20
0.4124151
40
0.274815
50
191.6974619
51
215.1403758
0
ARC
8
DEFAULT_255_1_388
10
14.3845905
20
0.3964689
40
0.2437647
50
215.6958251
51
224.8509274
0
ARC
8
DEFAULT_255_1_388
10
14.3908381
20
0.4054016
40
0.2545012
50
225.2846515
51
255.0110023
0
ARC
8
DEFAULT_255_1_388
10
14.4272828
20
0.5307017
40
0.384974
50
254.5945979
51
267.9129427
0
ARC
8
DEFAULT_255_1_388
10
14.4356521
20
0.6524444
40
0.506956
50
267.4687563
51
270.0233681
0
ARC
8
DEFAULT_255_1_388
10
14.4390516
20
0.5864288
40
0.440952
50
269.5851384
51
281.1845308
0
ARC
8
DEFAULT_255_1_388
10
14.470412
20
0.4342469
40
0.2855802
50
280.9345159
51
300.9740496
0
ARC
8
DEFAULT_255_1_388
10
14.49433
20
0.3902128
40
0.2355257
50
301.4982546
51
315.1468616
0
ARC
8
DEFAULT_255_1_388
10
14.4780796
20
0.4035488
40
0.2564594
50
315.5952932
51
345.6679188
0
ARC
8
DEFAULT_255_1_388
10
14.3521353
20
0.4386235
40
0.3871766
50
345.2525685
51
358.6303941
0
ARC
8
DEFAULT_255_1_388
10
14.2377744
20
0.4453695
40
0.5016822
50
358.1723541
51
0.0116795
0
LINE
8
DEFAULT_255_1_388
10
16.1987131
20
1.3372898
11
16.1987131
21
0.0217
0
LINE
8
DEFAULT_255_1_388
10
16.1987131
20
0.0217
11
16.0243251
21
0.0217
0
LINE
8
DEFAULT_255_1_388
10
16.0243251
20
0.0217
11
15.3620124
21
1.0354993
0
LINE
8
DEFAULT_255_1_388
10
15.3620124
20
1.0354993
11
15.3620124
21
0.0217
0
LINE
8
DEFAULT_255_1_388
10
15.3620124
20
0.0217
11
15.1876245
21
0.0217
0
LINE
8
DEFAULT_255_1_388
10
15.1876245
20
0.0217
11
15.1876245
21
1.3372898
0
LINE
8
DEFAULT_255_1_388
10
15.1876245
20
1.3372898
11
15.3620124
21
1.3372898
0
LINE
8
DEFAULT_255_1_388
10
15.3620124
20
1.3372898
11
16.0261323
21
0.3189727
0
LINE
8
DEFAULT_255_1_388
10
16.0261323
20
0.3189727
11
16.0261323
21
1.3372898
0
LINE
8
DEFAULT_255_1_388
10
16.0261323
20
1.3372898
11
16.1987131
21
1.3372898
0
LINE
8
DEFAULT_255_1_388
10
17.2884118
20
0.799669
11
17.2884118
21
0.5828135
0
LINE
8
DEFAULT_255_1_388
10
16.4580361
20
0.5602244
11
16.4580361
21
0.7834048
0
LINE
8
DEFAULT_255_1_388
10
17.1212524
20
0.5376353
11
17.1212524
21
0.8114153
0
LINE
8
DEFAULT_255_1_388
10
16.6251955
20
0.8240652
11
16.6251955
21
0.5566102
0
ARC
8
DEFAULT_255_1_388
10
15.9106452
20
0.5773118
40
1.3777776
50
353.8440855
51
0.2287917
0
ARC
8
DEFAULT_255_1_388
10
16.432547
20
0.5190414
40
0.852639
50
344.4934746
51
353.9763743
0
ARC
8
DEFAULT_255_1_388
10
16.7692277
20
0.4233191
40
0.5026273
50
329.2803599
51
344.7473406
0
ARC
8
DEFAULT_255_1_388
10
16.8807772
20
0.3621038
40
0.3754848
50
324.9361395
51
328.6153007
0
ARC
8
DEFAULT_255_1_388
10
16.9233422
20
0.3323586
40
0.3235566
50
280.5801797
51
324.9173226
0
ARC
8
DEFAULT_255_1_388
10
16.8782051
20
0.5203236
40
0.5167077
50
269.5979457
51
281.6732777
0
ARC
8
DEFAULT_255_1_388
10
16.8700954
20
0.5068113
40
0.5032026
50
256.6228565
51
270.5105488
0
ARC
8
DEFAULT_255_1_388
10
16.8248697
20
0.3326345
40
0.3233092
50
215.8618351
51
257.2787793
0
ARC
8
DEFAULT_255_1_388
10
16.9397404
20
0.4097106
40
0.4615831
50
197.9695203
51
215.2622745
0
ARC
8
DEFAULT_255_1_388
10
17.219308
20
0.5040641
40
0.7566307
50
187.8816486
51
198.2346584
0
ARC
8
DEFAULT_255_1_388
10
17.6646318
20
0.5683453
40
1.2065653
50
180.8977266
51
188.0054894
0
ARC
8
DEFAULT_255_1_388
10
17.9696532
20
0.57984
40
1.5117443
50
180.7434591
51
181.152202
0
ARC
8
DEFAULT_255_1_388
10
17.8021528
20
0.7888371
40
1.3441277
50
173.7674302
51
180.2315596
0
ARC
8
DEFAULT_255_1_388
10
17.2939397
20
0.8462779
40
0.8326847
50
164.3058537
51
173.9000553
0
ARC
8
DEFAULT_255_1_388
10
16.9663397
20
0.9406652
40
0.4917711
50
148.7922028
51
164.5682288
0
ARC
8
DEFAULT_255_1_388
10
16.8594134
20
1.0003457
40
0.3694204
50
144.5883979
51
148.1161588
0
ARC
8
DEFAULT_255_1_388
10
16.8206879
20
1.0273667
40
0.322202
50
101.6440149
51
144.5142619
0
ARC
8
DEFAULT_255_1_388
10
16.8685072
20
0.8373337
40
0.5180451
50
89.528284
51
102.5820197
0
ARC
8
DEFAULT_255_1_388
10
16.8774063
20
0.8329376
40
0.5224441
50
77.0437914
51
90.508231
0
ARC
8
DEFAULT_255_1_388
10
16.9226317
20
1.0177272
40
0.3322297
50
48.2777708
51
77.4996087
0
ARC
8
DEFAULT_255_1_388
10
16.9308057
20
1.0322557
40
0.315966
50
36.3141586
51
47.6307332
0
ARC
8
DEFAULT_255_1_388
10
16.8330779
20
0.9664159
40
0.4337313
50
18.2931065
51
35.6770203
0
ARC
8
DEFAULT_255_1_388
10
16.546962
20
0.8682107
40
0.7362203
50
8.0246996
51
18.5605636
0
ARC
8
DEFAULT_255_1_388
10
16.0785976
20
0.7990432
40
1.2096583
50
1.127539
51
8.1718423
0
ARC
8
DEFAULT_255_1_388
10
15.7137109
20
0.7847374
40
1.5747719
50
0.5432713
51
1.38669
0
ARC
8
DEFAULT_255_1_388
10
15.9194488
20
0.8154163
40
1.2018103
50
359.8092569
51
4.9408001
0
ARC
8
DEFAULT_255_1_388
10
16.3931069
20
0.85769
40
0.7262727
50
4.8364937
51
12.2906017
0
ARC
8
DEFAULT_255_1_388
10
16.7030534
20
0.9267485
40
0.4087324
50
12.0806994
51
23.8171225
0
ARC
8
DEFAULT_255_1_388
10
16.835093
20
0.9826508
40
0.2653719
50
24.2874621
51
31.3934353
0
ARC
8
DEFAULT_255_1_388
10
16.8941366
20
1.0212822
40
0.1948607
50
30.7407708
51
82.4658033
0
ARC
8
DEFAULT_255_1_388
10
16.8739027
20
0.9219017
40
0.2961198
50
81.1057101
51
90.2187368
0
ARC
8
DEFAULT_255_1_388
10
16.8698838
20
0.9509421
40
0.2670929
50
89.380395
51
105.6763916
0
ARC
8
DEFAULT_255_1_388
10
16.849256
20
1.025932
40
0.1893189
50
105.7980655
51
149.7387869
0
ARC
8
DEFAULT_255_1_388
10
16.96897
20
0.9539719
40
0.3289892
50
149.4208441
51
163.628295
0
ARC
8
DEFAULT_255_1_388
10
17.204193
20
0.8822345
40
0.5749004
50
163.3764549
51
172.141138
0
ARC
8
DEFAULT_255_1_388
10
17.5754652
20
0.8290582
40
0.9499585
50
172.0258462
51
178.0705453
0
ARC
8
DEFAULT_255_1_388
10
17.9176204
20
0.8128682
40
1.2924734
50
177.8639301
51
179.5036263
0
ARC
8
DEFAULT_255_1_388
10
17.7957223
20
0.5525151
40
1.170534
50
179.7995545
51
185.246089
0
ARC
8
DEFAULT_255_1_388
10
17.3408816
20
0.5094404
40
0.7136613
50
185.1411911
51
193.0082205
0
ARC
8
DEFAULT_255_1_388
10
17.0435077
20
0.4391441
40
0.4080987
50
192.7897338
51
205.2507384
0
ARC
8
DEFAULT_255_1_388
10
16.9257287
20
0.3865538
40
0.2791522
50
205.8001921
51
211.2545876
0
ARC
8
DEFAULT_255_1_388
10
16.8668826
20
0.3471132
40
0.2084074
50
210.3789935
51
238.4007996
0
ARC
8
DEFAULT_255_1_388
10
16.8646912
20
0.3523786
40
0.2117943
50
239.6521916
51
265.9793852
0
ARC
8
DEFAULT_255_1_388
10
16.8742761
20
0.4280358
40
0.2879689
50
265.1324455
51
270.0603288
0
ARC
8
DEFAULT_255_1_388
10
16.8775138
20
0.3915418
40
0.2514919
50
269.3314378
51
287.2180039
0
ARC
8
DEFAULT_255_1_388
10
16.893022
20
0.3349291
40
0.1928357
50
287.7957942
51
329.0808983
0
ARC
8
DEFAULT_255_1_388
10
16.7852977
20
0.4021651
40
0.319808
50
328.6635261
51
343.3325043
0
ARC
8
DEFAULT_255_1_388
10
16.5408436
20
0.4783195
40
0.5758408
50
343.0498092
51
351.9392499
0
ARC
8
DEFAULT_255_1_388
10
16.1507757
20
0.5358205
40
0.9701202
50
351.8071632
51
357.7957897
0
ARC
8
DEFAULT_255_1_388
10
15.7873234
20
0.5546724
40
1.3340376
50
357.5870923
51
359.2682493
0
LINE
8
DEFAULT_255_1_388
10
18.3275109
20
0.799669
11
18.3275109
21
0.5828135
0
LINE
8
DEFAULT_255_1_388
10
17.4971352
20
0.5602244
11
17.4971352
21
0.7834048
0
LINE
8
DEFAULT_255_1_388
10
18.1603515
20
0.5376353
11
18.1603515
21
0.8114153
0
LINE
8
DEFAULT_255_1_388
10
17.6642946
20
0.8240652
11
17.6642946
21
0.5566102
0
ARC
8
DEFAULT_255_1_388
10
16.9497443
20
0.5773118
40
1.3777776
50
353.8440855
51
0.2287917
0
ARC
8
DEFAULT_255_1_388
10
17.4716461
20
0.5190414
40
0.852639
50
344.4934746
51
353.9763743
0
ARC
8
DEFAULT_255_1_388
10
17.8083268
20
0.4233191
40
0.5026273
50
329.2803599
51
344.7473406
0
ARC
8
DEFAULT_255_1_388
10
17.9198764
20
0.3621038
40
0.3754848
50
324.9361395
51
328.6153007
0
ARC
8
DEFAULT_255_1_388
10
17.9624413
20
0.3323586
40
0.3235566
50
280.5801797
51
324.9173226
0
ARC
8
DEFAULT_255_1_388
10
17.9173042
20
0.5203236
40
0.5167077
50
269.5979457
51
281.6732777
0
ARC
8
DEFAULT_255_1_388
10
17.9091946
20
0.5068113
40
0.5032026
50
256.6228565
51
270.5105488
0
ARC
8
DEFAULT_255_1_388
10
17.8639688
20
0.3326345
40
0.3233092
50
215.8618351
51
257.2787793
0
ARC
8
DEFAULT_255_1_388
10
17.9788395
20
0.4097106
40
0.4615831
50
197.9695203
51
215.2622745
0
ARC
8
DEFAULT_255_1_388
10
18.2584071
20
0.5040641
40
0.7566307
50
187.8816486
51
198.2346584
0
ARC
8
DEFAULT_255_1_388
10
18.7037309
20
0.5683453
40
1.2065653
50
180.8977266
51
188.0054894
0
ARC
8
DEFAULT_255_1_388
10
19.0087523
20
0.57984
40
1.5117443
50
180.7434591
51
181.152202
0
ARC
8
DEFAULT_255_1_388
10
18.8412519
20
0.7888371
40
1.3441277
50
173.7674302
51
180.2315596
0
ARC
8
DEFAULT_255_1_388
10
18.3330388
20
0.8462779
40
0.8326847
50
164.3058537
51
173.9000553
0
ARC
8
DEFAULT_255_1_388
10
18.0054388
20
0.9406652
40
0.4917711
50
148.7922028
51
164.5682288
0
ARC
8
DEFAULT_255_1_388
10
17.8985125
20
1.0003457
40
0.3694204
50
144.5883979
51
148.1161588
0
ARC
8
DEFAULT_255_1_388
10
17.859787
20
1.0273667
40
0.322202
50
101.6440149
51
144.5142619
0
ARC
8
DEFAULT_255_1_388
10
17.9076063
20
0.8373337
40
0.5180451
50
89.528284
51
102.5820197
0
ARC
8
DEFAULT_255_1_388
10
17.9165055
20
0.8329376
40
0.5224441
50
77.0437914
51
90.508231
0
ARC
8
DEFAULT_255_1_388
10
17.9617308
20
1.0177272
40
0.3322297
50
48.2777708
51
77.4996087
0
ARC
8
DEFAULT_255_1_388
10
17.9699048
20
1.0322557
40
0.315966
50
36.3141586
51
47.6307332
0
ARC
8
DEFAULT_255_1_388
10
17.872177
20
0.9664159
40
0.4337313
50
18.2931065
51
35.6770203
0
ARC
8
DEFAULT_255_1_388
10
17.5860611
20
0.8682107
40
0.7362203
50
8.0246996
51
18.5605636
0
ARC
8
DEFAULT_255_1_388
10
17.1176967
20
0.7990432
40
1.2096583
50
1.127539
51
8.1718423
0
ARC
8
DEFAULT_255_1_388
10
16.75281
20
0.7847374
40
1.5747719
50
0.5432713
51
1.38669
0
ARC
8
DEFAULT_255_1_388
10
16.9585479
20
0.8154163
40
1.2018103
50
359.8092569
51
4.9408001
0
ARC
8
DEFAULT_255_1_388
10
17.432206
20
0.85769
40
0.7262727
50
4.8364937
51
12.2906017
0
ARC
8
DEFAULT_255_1_388
10
17.7421525
20
0.9267485
40
0.4087324
50
12.0806994
51
23.8171225
0
ARC
8
DEFAULT_255_1_388
10
17.8741921
20
0.9826508
40
0.2653719
50
24.2874621
51
31.3934353
0
ARC
8
DEFAULT_255_1_388
10
17.9332357
20
1.0212822
40
0.1948607
50
30.7407708
51
82.4658033
0
ARC
8
DEFAULT_255_1_388
10
17.9130018
20
0.9219017
40
0.2961198
50
81.1057101
51
90.2187368
0
ARC
8
DEFAULT_255_1_388
10
17.908983
20
0.9509421
40
0.2670929
50
89.380395
51
105.6763916
0
ARC
8
DEFAULT_255_1_388
10
17.8883552
20
1.025932
40
0.1893189
50
105.7980655
51
149.7387869
0
ARC
8
DEFAULT_255_1_388
10
18.0080692
20
0.9539719
40
0.3289892
50
149.4208441
51
163.628295
0
ARC
8
DEFAULT_255_1_388
10
18.2432921
20
0.8822345
40
0.5749004
50
163.3764549
51
172.141138
0
ARC
8
DEFAULT_255_1_388
10
18.6145643
20
0.8290582
40
0.9499585
50
172.0258462
51
178.0705453
0
ARC
8
DEFAULT_255_1_388
10
18.9567196
20
0.8128682
40
1.2924734
50
177.8639301
51
179.5036263
0
ARC
8
DEFAULT_255_1_388
10
18.8348214
20
0.5525151
40
1.170534
50
179.7995545
51
185.246089
0
ARC
8
DEFAULT_255_1_388
10
18.3799807
20
0.5094404
40
0.7136613
50
185.1411911
51
193.0082205
0
ARC
8
DEFAULT_255_1_388
10
18.0826068
20
0.4391441
40
0.4080987
50
192.7897338
51
205.2507384
0
ARC
8
DEFAULT_255_1_388
10
17.9648278
20
0.3865538
40
0.2791522
50
205.8001921
51
211.2545876
0
ARC
8
DEFAULT_255_1_388
10
17.9059817
20
0.3471132
40
0.2084074
50
210.3789935
51
238.4007996
0
ARC
8
DEFAULT_255_1_388
10
17.9037903
20
0.3523786
40
0.2117943
50
239.6521916
51
265.9793852
0
ARC
8
DEFAULT_255_1_388
10
17.9133752
20
0.4280358
40
0.2879689
50
265.1324455
51
270.0603288
0
ARC
8
DEFAULT_255_1_388
10
17.9166129
20
0.3915418
40
0.2514919
50
269.3314378
51
287.2180039
0
ARC
8
DEFAULT_255_1_388
10
17.9321211
20
0.3349291
40
0.1928357
50
287.7957942
51
329.0808983
0
ARC
8
DEFAULT_255_1_388
10
17.8243968
20
0.4021651
40
0.319808
50
328.6635261
51
343.3325043
0
ARC
8
DEFAULT_255_1_388
10
17.5799427
20
0.4783195
40
0.5758408
50
343.0498092
51
351.9392499
0
ARC
8
DEFAULT_255_1_388
10
17.1898749
20
0.5358205
40
0.9701202
50
351.8071632
51
357.7957897
0
ARC
8
DEFAULT_255_1_388
10
16.8264226
20
0.5546724
40
1.3340376
50
357.5870923
51
359.2682493
0
LINE
8
DEFAULT_255_1_388
10
18.9066958
20
0.6487737
11
18.9066958
21
0.5123355
0
LINE
8
DEFAULT_255_1_388
10
18.9066958
20
0.5123355
11
18.4657563
21
0.5123355
0
LINE
8
DEFAULT_255_1_388
10
18.4657563
20
0.5123355
11
18.4657563
21
0.6487737
0
LINE
8
DEFAULT_255_1_388
10
18.4657563
20
0.6487737
11
18.9066958
21
0.6487737
0
LINE
8
DEFAULT_255_1_388
10
19.877124
20
0.799669
11
19.877124
21
0.5828135
0
LINE
8
DEFAULT_255_1_388
10
19.0467482
20
0.5602244
11
19.0467482
21
0.7834048
0
LINE
8
DEFAULT_255_1_388
10
19.7099646
20
0.5376353
11
19.7099646
21
0.8114153
0
LINE
8
DEFAULT_255_1_388
10
19.2139077
20
0.8240652
11
19.2139077
21
0.5566102
0
ARC
8
DEFAULT_255_1_388
10
18.4993574
20
0.5773118
40
1.3777776
50
353.8440855
51
0.2287917
0
ARC
8
DEFAULT_255_1_388
10
19.0212591
20
0.5190414
40
0.852639
50
344.4934746
51
353.9763743
0
ARC
8
DEFAULT_255_1_388
10
19.3579398
20
0.4233191
40
0.5026273
50
329.2803599
51
344.7473406
0
ARC
8
DEFAULT_255_1_388
10
19.4694894
20
0.3621038
40
0.3754848
50
324.9361395
51
328.6153007
0
ARC
8
DEFAULT_255_1_388
10
19.5120544
20
0.3323586
40
0.3235566
50
280.5801797
51
324.9173226
0
ARC
8
DEFAULT_255_1_388
10
19.4669173
20
0.5203236
40
0.5167077
50
269.5979457
51
281.6732777
0
ARC
8
DEFAULT_255_1_388
10
19.4588076
20
0.5068113
40
0.5032026
50
256.6228565
51
270.5105488
0
ARC
8
DEFAULT_255_1_388
10
19.4135819
20
0.3326345
40
0.3233092
50
215.8618351
51
257.2787793
0
ARC
8
DEFAULT_255_1_388
10
19.5284526
20
0.4097106
40
0.4615831
50
197.9695203
51
215.2622745
0
ARC
8
DEFAULT_255_1_388
10
19.8080201
20
0.5040641
40
0.7566307
50
187.8816486
51
198.2346584
0
ARC
8
DEFAULT_255_1_388
10
20.253344
20
0.5683453
40
1.2065653
50
180.8977266
51
188.0054894
0
ARC
8
DEFAULT_255_1_388
10
20.5583653
20
0.57984
40
1.5117443
50
180.7434591
51
181.152202
0
ARC
8
DEFAULT_255_1_388
10
20.3908649
20
0.7888371
40
1.3441277
50
173.7674302
51
180.2315596
0
ARC
8
DEFAULT_255_1_388
10
19.8826518
20
0.8462779
40
0.8326847
50
164.3058537
51
173.9000553
0
ARC
8
DEFAULT_255_1_388
10
19.5550518
20
0.9406652
40
0.4917711
50
148.7922028
51
164.5682288
0
ARC
8
DEFAULT_255_1_388
10
19.4481256
20
1.0003457
40
0.3694204
50
144.5883979
51
148.1161588
0
ARC
8
DEFAULT_255_1_388
10
19.4094001
20
1.0273667
40
0.322202
50
101.6440149
51
144.5142619
0
ARC
8
DEFAULT_255_1_388
10
19.4572193
20
0.8373337
40
0.5180451
50
89.528284
51
102.5820197
0
ARC
8
DEFAULT_255_1_388
10
19.4661185
20
0.8329376
40
0.5224441
50
77.0437914
51
90.508231
0
ARC
8
DEFAULT_255_1_388
10
19.5113439
20
1.0177272
40
0.3322297
50
48.2777708
51
77.4996087
0
ARC
8
DEFAULT_255_1_388
10
19.5195179
20
1.0322557
40
0.315966
50
36.3141586
51
47.6307332
0
ARC
8
DEFAULT_255_1_388
10
19.4217901
20
0.9664159
40
0.4337313
50
18.2931065
51
35.6770203
0
ARC
8
DEFAULT_255_1_388
10
19.1356742
20
0.8682107
40
0.7362203
50
8.0246996
51
18.5605636
0
ARC
8
DEFAULT_255_1_388
10
18.6673097
20
0.7990432
40
1.2096583
50
1.127539
51
8.1718423
0
ARC
8
DEFAULT_255_1_388
10
18.3024231
20
0.7847374
40
1.5747719
50
0.5432713
51
1.38669
0
ARC
8
DEFAULT_255_1_388
10
18.5081609
20
0.8154163
40
1.2018103
50
359.8092569
51
4.9408001
0
ARC
8
DEFAULT_255_1_388
10
18.9818191
20
0.85769
40
0.7262727
50
4.8364937
51
12.2906017
0
ARC
8
DEFAULT_255_1_388
10
19.2917655
20
0.9267485
40
0.4087324
50
12.0806994
51
23.8171225
0
ARC
8
DEFAULT_255_1_388
10
19.4238051
20
0.9826508
40
0.2653719
50
24.2874621
51
31.3934353
0
ARC
8
DEFAULT_255_1_388
10
19.4828487
20
1.0212822
40
0.1948607
50
30.7407708
51
82.4658033
0
ARC
8
DEFAULT_255_1_388
10
19.4626148
20
0.9219017
40
0.2961198
50
81.1057101
51
90.2187368
0
ARC
8
DEFAULT_255_1_388
10
19.458596
20
0.9509421
40
0.2670929
50
89.380395
51
105.6763916
0
ARC
8
DEFAULT_255_1_388
10
19.4379682
20
1.025932
40
0.1893189
50
105.7980655
51
149.7387869
0
ARC
8
DEFAULT_255_1_388
10
19.5576822
20
0.9539719
40
0.3289892
50
149.4208441
51
163.628295
0
ARC
8
DEFAULT_255_1_388
10
19.7929052
20
0.8822345
40
0.5749004
50
163.3764549
51
172.141138
0
ARC
8
DEFAULT_255_1_388
10
20.1641773
20
0.8290582
40
0.9499585
50
172.0258462
51
178.0705453
0
ARC
8
DEFAULT_255_1_388
10
20.5063326
20
0.8128682
40
1.2924734
50
177.8639301
51
179.5036263
0
ARC
8
DEFAULT_255_1_388
10
20.3844345
20
0.5525151
40
1.170534
50
179.7995545
51
185.246089
0
ARC
8
DEFAULT_255_1_388
10
19.9295938
20
0.5094404
40
0.7136613
50
185.1411911
51
193.0082205
0
ARC
8
DEFAULT_255_1_388
10
19.6322198
20
0.4391441
40
0.4080987
50
192.7897338
51
205.2507384
0
ARC
8
DEFAULT_255_1_388
10
19.5144408
20
0.3865538
40
0.2791522
50
205.8001921
51
211.2545876
0
ARC
8
DEFAULT_255_1_388
10
19.4555948
20
0.3471132
40
0.2084074
50
210.3789935
51
238.4007996
0
ARC
8
DEFAULT_255_1_388
10
19.4534034
20
0.3523786
40
0.2117943
50
239.6521916
51
265.9793852
0
ARC
8
DEFAULT_255_1_388
10
19.4629882
20
0.4280358
40
0.2879689
50
265.1324455
51
270.0603288
0
ARC
8
DEFAULT_255_1_388
10
19.466226
20
0.3915418
40
0.2514919
50
269.3314378
51
287.2180039
0
ARC
8
DEFAULT_255_1_388
10
19.4817342
20
0.3349291
40
0.1928357
50
287.7957942
51
329.0808983
0
ARC
8
DEFAULT_255_1_388
10
19.3740099
20
0.4021651
40
0.319808
50
328.6635261
51
343.3325043
0
ARC
8
DEFAULT_255_1_388
10
19.1295557
20
0.4783195
40
0.5758408
50
343.0498092
51
351.9392499
0
ARC
8
DEFAULT_255_1_388
10
18.7394879
20
0.5358205
40
0.9701202
50
351.8071632
51
357.7957897
0
ARC
8
DEFAULT_255_1_388
10
18.3760356
20
0.5546724
40
1.3340376
50
357.5870923
51
359.2682493
0
LINE
8
DEFAULT_255_1_388
10
20.9867011
20
0.0217
11
20.8611057
21
0.3650545
0
LINE
8
DEFAULT_255_1_388
10
20.8611057
20
0.3650545
11
20.3099313
21
0.3650545
0
LINE
8
DEFAULT_255_1_388
10
20.3099313
20
0.3650545
11
20.186143
21
0.0217
0
LINE
8
DEFAULT_255_1_388
10
20.186143
20
0.0217
11
20.0072373
21
0.0217
0
LINE
8
DEFAULT_255_1_388
10
20.0072373
20
0.0217
11
20.5096191
21
1.3372898
0
LINE
8
DEFAULT_255_1_388
10
20.5096191
20
1.3372898
11
20.6614179
21
1.3372898
0
LINE
8
DEFAULT_255_1_388
10
20.6614179
20
1.3372898
11
21.1647033
21
0.0217
0
LINE
8
DEFAULT_255_1_388
10
21.1647033
20
0.0217
11
20.9867011
21
0.0217
0
LINE
8
DEFAULT_255_1_388
10
20.5855185
20
1.1231451
11
20.3623381
21
0.5078177
0
LINE
8
DEFAULT_255_1_388
10
20.3623381
20
0.5078177
11
20.8096025
21
0.5078177
0
LINE
8
DEFAULT_255_1_388
10
20.8096025
20
0.5078177
11
20.5855185
21
1.1231451
0
LINE
8
DEFAULT_255_1_388
10
21.798102
20
0.0217
11
21.341802
21
0.0217
0
LINE
8
DEFAULT_255_1_388
10
21.341802
20
0.0217
11
21.341802
21
1.3372898
0
LINE
8
DEFAULT_255_1_388
10
21.341802
20
1.3372898
11
21.7718986
21
1.3372898
0
LINE
8
DEFAULT_255_1_388
10
21.804427
20
0.6370274
11
21.5152863
21
0.6370274
0
LINE
8
DEFAULT_255_1_388
10
21.5152863
20
0.6370274
11
21.5152863
21
0.1635596
0
LINE
8
DEFAULT_255_1_388
10
21.5152863
20
0.1635596
11
21.8017163
21
0.1635596
0
LINE
8
DEFAULT_255_1_388
10
21.5152863
20
1.1945267
11
21.5152863
21
0.7761763
0
LINE
8
DEFAULT_255_1_388
10
21.5152863
20
0.7761763
11
21.77732
21
0.7761763
0
LINE
8
DEFAULT_255_1_388
10
21.7718986
20
1.1945267
11
21.5152863
21
1.1945267
0
ARC
8
DEFAULT_255_1_388
10
21.7761407
20
0.5084824
40
0.8288183
50
82.1256322
51
90.2932506
0
ARC
8
DEFAULT_255_1_388
10
21.8198981
20
0.814259
40
0.5199321
50
69.9044202
51
82.2857574
0
ARC
8
DEFAULT_255_1_388
10
21.8840974
20
0.9877993
40
0.3348993
50
51.1840204
51
70.018125
0
ARC
8
DEFAULT_255_1_388
10
21.9127806
20
1.0294945
40
0.2844579
50
12.1018086
51
50.421322
0
ARC
8
DEFAULT_255_1_388
10
21.7570678
20
0.9903937
40
0.4449429
50
359.5252354
51
12.8212369
0
ARC
8
DEFAULT_255_1_388
10
21.9348108
20
0.9825943
40
0.2672162
50
323.4907456
51
0.8818258
0
ARC
8
DEFAULT_255_1_388
10
21.887752
20
1.0189523
40
0.3266736
50
298.6824053
51
323.2758285
0
ARC
8
DEFAULT_255_1_388
10
21.8470812
20
1.0865509
40
0.4055105
50
293.1994739
51
299.139634
0
ARC
8
DEFAULT_255_1_388
10
21.9227761
20
0.4019651
40
0.3229926
50
54.0009997
51
74.9168635
0
ARC
8
DEFAULT_255_1_388
10
21.9358688
20
0.4241511
40
0.2973581
50
36.3578854
51
53.5293172
0
ARC
8
DEFAULT_255_1_388
10
21.9216056
20
0.413985
40
0.3148715
50
4.8189348
51
36.3090187
0
ARC
8
DEFAULT_255_1_388
10
21.8339081
20
0.4016383
40
0.4033265
50
359.9373213
51
5.5201284
0
ARC
8
DEFAULT_255_1_388
10
21.7974411
20
0.3970733
40
0.4398126
50
344.7479357
51
0.5372278
0
ARC
8
DEFAULT_255_1_388
10
21.9089309
20
0.3670205
40
0.3243441
50
311.1785587
51
344.6887681
0
ARC
8
DEFAULT_255_1_388
10
21.8760853
20
0.4079084
40
0.3767511
50
286.0417804
51
310.8440924
0
ARC
8
DEFAULT_255_1_388
10
21.8190262
20
0.5931885
40
0.5705957
50
274.1044074
51
286.4070149
0
ARC
8
DEFAULT_255_1_388
10
21.7991477
20
0.8049901
40
0.7832907
50
269.9235077
51
274.4458593
0
ARC
8
DEFAULT_255_1_388
10
21.8043196
20
0.5418462
40
0.3782955
50
269.6057074
51
281.3740795
0
ARC
8
DEFAULT_255_1_388
10
21.8302694
20
0.4188569
40
0.2526069
50
281.105298
51
302.5134029
0
ARC
8
DEFAULT_255_1_388
10
21.8468081
20
0.3891944
40
0.2187131
50
303.0365425
51
311.8818034
0
ARC
8
DEFAULT_255_1_388
10
21.8548259
20
0.3796602
40
0.2062624
50
311.9916937
51
351.7143773
0
ARC
8
DEFAULT_255_1_388
10
21.7629284
20
0.3982271
40
0.2999202
50
350.7343295
51
0.2221526
0
ARC
8
DEFAULT_255_1_388
10
21.7508372
20
0.404587
40
0.3120525
50
359.045729
51
17.2295312
0
ARC
8
DEFAULT_255_1_388
10
21.8677402
20
0.4393155
40
0.1901144
50
17.6685208
51
78.9940245
0
ARC
8
DEFAULT_255_1_388
10
21.8095763
20
0.2305011
40
0.4065575
50
76.565218
51
90.7103392
0
LINE
8
DEFAULT_255_1_388
10
21.804536
20
0.6370274
11
21.804427
21
0.6370274
0
ARC
8
DEFAULT_255_1_388
10
21.7798589
20
1.1457949
40
0.3696273
50
269.6064514
51
281.4533785
0
ARC
8
DEFAULT_255_1_388
10
21.8049229
20
1.0275283
40
0.2487412
50
281.2044438
51
302.5143998
0
ARC
8
DEFAULT_255_1_388
10
21.8203483
20
0.9997576
40
0.2170405
50
303.0211308
51
309.8378766
0
ARC
8
DEFAULT_255_1_388
10
21.8409601
20
0.9766486
40
0.1860946
50
309.5229446
51
356.9509628
0
ARC
8
DEFAULT_255_1_388
10
21.7663727
20
0.9873831
40
0.2612347
50
355.4699226
51
0.0498632
0
ARC
8
DEFAULT_255_1_388
10
21.73494
20
0.9898789
40
0.2926762
50
359.5558955
51
11.2092924
0
ARC
8
DEFAULT_255_1_388
10
21.8426368
20
1.0121667
40
0.1827036
50
10.9185717
51
31.322519
0
ARC
8
DEFAULT_255_1_388
10
21.8747916
20
1.0300571
40
0.1459418
50
31.8850633
51
52.1415586
0
ARC
8
DEFAULT_255_1_388
10
21.8439345
20
0.9864674
40
0.1993088
50
52.8283418
51
71.9850132
0
ARC
8
DEFAULT_255_1_388
10
21.8016506
20
0.8620158
40
0.3307407
50
71.686634
51
82.8453416
0
ARC
8
DEFAULT_255_1_388
10
21.7747153
20
0.6584892
40
0.536039
50
82.6981895
51
90.1730083
0
ARC
8
DEFAULT_255_1_388
10
21.7721984
20
0.7463836
40
0.4481429
50
89.8851568
51
90.0383283
0
LINE
8
DEFAULT_255_1_388
10
23.2754299
20
0.799669
11
23.2754299
21
0.5828135
0
LINE
8
DEFAULT_255_1_388
10
22.4450542
20
0.5602244
11
22.4450542
21
0.7834048
0
LINE
8
DEFAULT_255_1_388
10
23.1082705
20
0.5376353
11
23.1082705
21
0.8114153
0
LINE
8
DEFAULT_255_1_388
10
22.6122136
20
0.8240652
11
22.6122136
21
0.5566102
0
ARC
8
DEFAULT_255_1_388
10
21.8976633
20
0.5773118
40
1.3777776
50
353.8440855
51
0.2287917
0
ARC
8
DEFAULT_255_1_388
10
22.419565
20
0.5190414
40
0.852639
50
344.4934746
51
353.9763743
0
ARC
8
DEFAULT_255_1_388
10
22.7562457
20
0.4233191
40
0.5026273
50
329.2803599
51
344.7473406
0
ARC
8
DEFAULT_255_1_388
10
22.8677953
20
0.3621038
40
0.3754848
50
324.9361395
51
328.6153007
0
ARC
8
DEFAULT_255_1_388
10
22.9103603
20
0.3323586
40
0.3235566
50
280.5801797
51
324.9173226
0
ARC
8
DEFAULT_255_1_388
10
22.8652232
20
0.5203236
40
0.5167077
50
269.5979457
51
281.6732777
0
ARC
8
DEFAULT_255_1_388
10
22.8571135
20
0.5068113
40
0.5032026
50
256.6228565
51
270.5105488
0
ARC
8
DEFAULT_255_1_388
10
22.8118878
20
0.3326345
40
0.3233092
50
215.8618351
51
257.2787793
0
ARC
8
DEFAULT_255_1_388
10
22.9267585
20
0.4097106
40
0.4615831
50
197.9695203
51
215.2622745
0
ARC
8
DEFAULT_255_1_388
10
23.206326
20
0.5040641
40
0.7566307
50
187.8816486
51
198.2346584
0
ARC
8
DEFAULT_255_1_388
10
23.6516499
20
0.5683453
40
1.2065653
50
180.8977266
51
188.0054894
0
ARC
8
DEFAULT_255_1_388
10
23.9566712
20
0.57984
40
1.5117443
50
180.7434591
51
181.152202
0
ARC
8
DEFAULT_255_1_388
10
23.7891708
20
0.7888371
40
1.3441277
50
173.7674302
51
180.2315596
0
ARC
8
DEFAULT_255_1_388
10
23.2809577
20
0.8462779
40
0.8326847
50
164.3058537
51
173.9000553
0
ARC
8
DEFAULT_255_1_388
10
22.9533577
20
0.9406652
40
0.4917711
50
148.7922028
51
164.5682288
0
ARC
8
DEFAULT_255_1_388
10
22.8464315
20
1.0003457
40
0.3694204
50
144.5883979
51
148.1161588
0
ARC
8
DEFAULT_255_1_388
10
22.807706
20
1.0273667
40
0.322202
50
101.6440149
51
144.5142619
0
ARC
8
DEFAULT_255_1_388
10
22.8555252
20
0.8373337
40
0.5180451
50
89.528284
51
102.5820197
0
ARC
8
DEFAULT_255_1_388
10
22.8644244
20
0.8329376
40
0.5224441
50
77.0437914
51
90.508231
0
ARC
8
DEFAULT_255_1_388
10
22.9096498
20
1.0177272
40
0.3322297
50
48.2777708
51
77.4996087
0
ARC
8
DEFAULT_255_1_388
10
22.9178238
20
1.0322557
40
0.315966
50
36.3141586
51
47.6307332
0
ARC
8
DEFAULT_255_1_388
10
22.820096
20
0.9664159
40
0.4337313
50
18.2931065
51
35.6770203
0
ARC
8
DEFAULT_255_1_388
10
22.5339801
20
0.8682107
40
0.7362203
50
8.0246996
51
18.5605636
0
ARC
8
DEFAULT_255_1_388
10
22.0656156
20
0.7990432
40
1.2096583
50
1.127539
51
8.1718423
0
ARC
8
DEFAULT_255_1_388
10
21.700729
20
0.7847374
40
1.5747719
50
0.5432713
51
1.38669
0
ARC
8
DEFAULT_255_1_388
10
21.9064668
20
0.8154163
40
1.2018103
50
359.8092569
51
4.9408001
0
ARC
8
DEFAULT_255_1_388
10
22.380125
20
0.85769
40
0.7262727
50
4.8364937
51
12.2906017
0
ARC
8
DEFAULT_255_1_388
10
22.6900715
20
0.9267485
40
0.4087324
50
12.0806994
51
23.8171225
0
ARC
8
DEFAULT_255_1_388
10
22.8221111
20
0.9826508
40
0.2653719
50
24.2874621
51
31.3934353
0
ARC
8
DEFAULT_255_1_388
10
22.8811546
20
1.0212822
40
0.1948607
50
30.7407708
51
82.4658033
0
ARC
8
DEFAULT_255_1_388
10
22.8609207
20
0.9219017
40
0.2961198
50
81.1057101
51
90.2187368
0
ARC
8
DEFAULT_255_1_388
10
22.8569019
20
0.9509421
40
0.2670929
50
89.380395
51
105.6763916
0
ARC
8
DEFAULT_255_1_388
10
22.8362741
20
1.025932
40
0.1893189
50
105.7980655
51
149.7387869
0
ARC
8
DEFAULT_255_1_388
10
22.9559881
20
0.9539719
40
0.3289892
50
149.4208441
51
163.628295
0
ARC
8
DEFAULT_255_1_388
10
23.1912111
20
0.8822345
40
0.5749004
50
163.3764549
51
172.141138
0
ARC
8
DEFAULT_255_1_388
10
23.5624832
20
0.8290582
40
0.9499585
50
172.0258462
51
178.0705453
0
ARC
8
DEFAULT_255_1_388
10
23.9046385
20
0.8128682
40
1.2924734
50
177.8639301
51
179.5036263
0
ARC
8
DEFAULT_255_1_388
10
23.7827404
20
0.5525151
40
1.170534
50
179.7995545
51
185.246089
0
ARC
8
DEFAULT_255_1_388
10
23.3278997
20
0.5094404
40
0.7136613
50
185.1411911
51
193.0082205
0
ARC
8
DEFAULT_255_1_388
10
23.0305257
20
0.4391441
40
0.4080987
50
192.7897338
51
205.2507384
0
ARC
8
DEFAULT_255_1_388
10
22.9127467
20
0.3865538
40
0.2791522
50
205.8001921
51
211.2545876
0
ARC
8
DEFAULT_255_1_388
10
22.8539007
20
0.3471132
40
0.2084074
50
210.3789935
51
238.4007996
0
ARC
8
DEFAULT_255_1_388
10
22.8517093
20
0.3523786
40
0.2117943
50
239.6521916
51
265.9793852
0
ARC
8
DEFAULT_255_1_388
10
22.8612942
20
0.4280358
40
0.2879689
50
265.1324455
51
270.0603288
0
ARC
8
DEFAULT_255_1_388
10
22.8645319
20
0.3915418
40
0.2514919
50
269.3314378
51
287.2180039
0
ARC
8
DEFAULT_255_1_388
10
22.8800401
20
0.3349291
40
0.1928357
50
287.7957942
51
329.0808983
0
ARC
8
DEFAULT_255_1_388
10
22.7723158
20
0.4021651
40
0.319808
50
328.6635261
51
343.3325043
0
ARC
8
DEFAULT_255_1_388
10
22.5278617
20
0.4783195
40
0.5758408
50
343.0498092
51
351.9392499
0
ARC
8
DEFAULT_255_1_388
10
22.1377938
20
0.5358205
40
0.9701202
50
351.8071632
51
357.7957897
0
ARC
8
DEFAULT_255_1_388
10
21.7743415
20
0.5546724
40
1.3340376
50
357.5870923
51
359.2682493
0
ARC
8
DEFAULT_255_2_778
10
7.7537439
20
44.3573128
40
3.0466403
50
251.6724781
51
258.5987661
0
ARC
8
DEFAULT_255_2_778
10
7.5394558
20
43.2761316
40
1.9444375
50
258.4907215
51
268.3974115
0
ARC
8
DEFAULT_255_2_778
10
7.5171542
20
42.8454995
40
1.5133848
50
268.7854544
51
269.9953942
0
ARC
8
DEFAULT_255_2_778
10
7.5274263
20
42.3961726
40
1.0641086
50
269.4403512
51
279.6841037
0
ARC
8
DEFAULT_255_2_778
10
7.6415978
20
41.7666567
40
0.4244099
50
278.7863046
51
300.3428271
0
ARC
8
DEFAULT_255_2_778
10
7.7606279
20
41.56403
40
0.1894089
50
300.2328316
51
1.9014863
0
ARC
8
DEFAULT_255_2_778
10
7.745908
20
41.5731715
40
0.2040445
50
359.1977832
51
359.9996968
0
ARC
8
DEFAULT_255_2_778
10
7.752475
20
41.5740013
40
0.1974794
50
359.7589479
51
47.2071953
0
ARC
8
DEFAULT_255_2_778
10
7.618413
20
41.4250429
40
0.3978723
50
47.6130098
51
60.824453
0
ARC
8
DEFAULT_255_2_778
10
7.0178997
20
40.4080677
40
1.5788249
50
59.7878046
51
64.8721208
0
ARC
8
DEFAULT_255_2_778
10
6.0919837
20
38.4768461
40
3.7205057
50
64.5916011
51
66.820345
0
ARC
8
DEFAULT_255_2_778
10
9.6372482
20
46.8349609
40
5.3584611
50
244.3087082
51
247.1497851
0
ARC
8
DEFAULT_255_2_778
10
8.548378
20
44.579372
40
2.8538059
50
240.2312866
51
244.3765687
0
ARC
8
DEFAULT_255_2_778
10
7.7790999
20
43.2449805
40
1.3135689
50
233.2094737
51
240.4596791
0
ARC
8
DEFAULT_255_2_778
10
7.3558445
20
42.6749409
40
0.603585
50
225.678902
51
232.9782433
0
ARC
8
DEFAULT_255_2_778
10
7.396101
20
42.6997518
40
0.6495632
50
178.2741582
51
224.667467
0
ARC
8
DEFAULT_255_2_778
10
7.506051
20
42.7331559
40
0.7593447
50
157.036112
51
181.044431
0
ARC
8
DEFAULT_255_2_778
10
7.3786854
20
42.7739246
40
0.6262846
50
124.9253006
51
155.9241303
0
ARC
8
DEFAULT_255_2_778
10
7.5959789
20
42.4655358
40
1.0035357
50
100.4079723
51
125.0168617
0
ARC
8
DEFAULT_255_2_778
10
7.6990521
20
41.9714723
40
1.5081396
50
89.6483922
51
100.8684975
0
ARC
8
DEFAULT_255_2_778
10
7.7082565
20
41.6192665
40
1.8603169
50
89.5079487
51
89.9984402
0
ARC
8
DEFAULT_255_2_778
10
7.7098896
20
41.5540371
40
1.9255311
50
83.9170631
51
89.5732113
0
ARC
8
DEFAULT_255_2_778
10
7.507084
20
39.5464635
40
3.9433074
50
80.7325723
51
84.0779772
0
ARC
8
DEFAULT_255_2_778
10
7.020778
20
36.5235497
40
7.0050837
50
78.5086351
51
80.7886813
0
ARC
8
DEFAULT_255_2_778
10
7.66195
20
41.1230221
40
1.9415426
50
67.135818
51
78.0934208
0
ARC
8
DEFAULT_255_2_778
10
7.7851137
20
41.6934486
40
1.3579807
50
78.2126325
51
89.7333975
0
ARC
8
DEFAULT_255_2_778
10
7.7793169
20
42.1078048
40
0.9436877
50
89.2643807
51
100.5577599
0
ARC
8
DEFAULT_255_2_778
10
7.6665349
20
42.6765957
40
0.3639224
50
99.5099416
51
124.0285213
0
ARC
8
DEFAULT_255_2_778
10
7.57032
20
42.8266933
40
0.1857341
50
125.3416971
51
182.2767689
0
ARC
8
DEFAULT_255_2_778
10
7.5498732
20
42.8200853
40
0.1651425
50
180.2673353
51
239.6912529
0
ARC
8
DEFAULT_255_2_778
10
7.9317524
20
43.418404
40
0.8748407
50
237.8744287
51
242.8176978
0
ARC
8
DEFAULT_255_2_778
10
9.4128979
20
46.2290997
40
4.0518771
50
242.3429481
51
244.0446069
0
ARC
8
DEFAULT_255_2_778
10
12.366878
20
52.2629499
40
10.7700062
50
243.963828
51
244.8175572
0
ARC
8
DEFAULT_255_2_778
10
15.3890528
20
58.6546513
40
17.8401724
50
244.7685545
51
244.971514
0
ARC
8
DEFAULT_255_2_778
10
5.8608283
20
38.1598652
40
4.7613433
50
62.2451122
51
65.4192096
0
ARC
8
DEFAULT_255_2_778
10
6.9253351
20
40.171774
40
2.4851839
50
57.2979848
51
62.3628589
0
ARC
8
DEFAULT_255_2_778
10
7.6799627
20
41.337458
40
1.0965802
50
48.7493094
51
57.571194
0
ARC
8
DEFAULT_255_2_778
10
8.0114821
20
41.7257759
40
0.586081
50
44.3424824
51
48.0852666
0
ARC
8
DEFAULT_255_2_778
10
7.9782325
20
41.7062146
40
0.6236013
50
1.3523843
51
43.4925744
0
ARC
8
DEFAULT_255_2_778
10
7.7102854
20
41.6732828
40
0.8926473
50
359.9763756
51
3.0599076
0
ARC
8
DEFAULT_255_2_778
10
7.8642098
20
41.6581968
40
0.7388693
50
333.0409438
51
1.1413791
0
ARC
8
DEFAULT_255_2_778
10
7.8947469
20
41.6650035
40
0.7150136
50
300.8436672
51
331.44521
0
ARC
8
DEFAULT_255_2_778
10
7.6945587
20
41.9790479
40
1.0873327
50
281.4188469
51
301.4162372
0
ARC
8
DEFAULT_255_2_778
10
7.5631994
20
42.5878698
40
1.7101299
50
270.2272327
51
281.6944092
0
ARC
8
DEFAULT_255_2_778
10
7.5453128
20
43.0635692
40
2.185955
50
269.9983113
51
270.6466065
0
LINE
8
DEFAULT_255_2_778
10
7.5452484
20
40.8776142
11
7.5437325
21
40.8776147
0
ARC
8
DEFAULT_255_2_778
10
7.5508484
20
44.0605647
40
3.1829579
50
256.2431122
51
269.871909
0
ARC
8
DEFAULT_255_2_778
10
21.7540021
20
44.2793817
40
2.9666503
50
251.5318157
51
258.7258279
0
ARC
8
DEFAULT_255_2_778
10
21.5537563
20
43.257451
40
1.9252941
50
258.62435
51
268.8252909
0
ARC
8
DEFAULT_255_2_778
10
21.5354665
20
42.8625972
40
1.5301823
50
269.2068806
51
269.9987259
0
ARC
8
DEFAULT_255_2_778
10
21.5473171
20
42.3983861
40
1.0660376
50
269.3612297
51
279.5899087
0
ARC
8
DEFAULT_255_2_778
10
21.6607762
20
41.7669001
40
0.424527
50
278.6895227
51
300.2363944
0
ARC
8
DEFAULT_255_2_778
10
21.7798406
20
41.563447
40
0.188796
50
300.1108484
51
1.9024905
0
ARC
8
DEFAULT_255_2_778
10
21.74389
20
41.5740898
40
0.2246851
50
358.8842611
51
0.0019649
0
ARC
8
DEFAULT_255_2_778
10
21.7769114
20
41.5780062
40
0.1917038
50
358.831716
51
47.0900458
0
ARC
8
DEFAULT_255_2_778
10
21.6376597
20
41.4195519
40
0.402612
50
47.9285592
51
61.0836101
0
ARC
8
DEFAULT_255_2_778
10
21.0429796
20
40.4012787
40
1.5817315
50
60.0631222
51
65.1602386
0
ARC
8
DEFAULT_255_2_778
10
20.1314272
20
38.475206
40
3.7125866
50
64.8807046
51
67.1209578
0
ARC
8
DEFAULT_255_2_778
10
23.627479
20
46.7646565
40
5.2839333
50
244.2656926
51
247.1407051
0
ARC
8
DEFAULT_255_2_778
10
22.559432
20
44.5564327
40
2.8309849
50
240.1545061
51
244.3326325
0
ARC
8
DEFAULT_255_2_778
10
21.7855871
20
43.2204023
40
1.2870531
50
232.697515
51
240.4357497
0
ARC
8
DEFAULT_255_2_778
10
21.3704829
20
42.6693895
40
0.5972006
50
225.5850892
51
232.3393736
0
ARC
8
DEFAULT_255_2_778
10
21.4133264
20
42.698961
40
0.6483829
50
178.7795739
51
224.7095916
0
ARC
8
DEFAULT_255_2_778
10
21.6668642
20
42.7229812
40
0.9018316
50
179.997867
51
180.6487041
0
ARC
8
DEFAULT_255_2_778
10
21.5167061
20
42.7367926
40
0.7517998
50
156.9195758
51
181.050088
0
ARC
8
DEFAULT_255_2_778
10
21.3927805
20
42.7762389
40
0.6224513
50
124.7111133
51
155.7879672
0
ARC
8
DEFAULT_255_2_778
10
21.6049077
20
42.4859843
40
0.9818859
50
101.7943006
51
125.2417472
0
ARC
8
DEFAULT_255_2_778
10
21.7294568
20
41.9325359
40
1.5491324
50
89.5237779
51
102.119608
0
ARC
8
DEFAULT_255_2_778
10
21.727965
20
41.3777684
40
2.1038954
50
83.2897778
51
89.6087235
0
ARC
8
DEFAULT_255_2_778
10
21.5234013
20
39.5654907
40
3.9276711
50
79.3121016
51
83.4152109
0
ARC
8
DEFAULT_255_2_778
10
21.2067148
20
37.8008502
40
5.7204535
50
78.2244786
51
79.4731175
0
ARC
8
DEFAULT_255_2_778
10
21.6833903
20
41.1345601
40
1.9313541
50
67.1320052
51
78.3124693
0
ARC
8
DEFAULT_255_2_778
10
21.8010805
20
41.686809
40
1.3667182
50
78.4541134
51
89.7546716
0
ARC
8
DEFAULT_255_2_778
10
21.7948662
20
42.1154688
40
0.9381236
50
89.263032
51
100.5789495
0
ARC
8
DEFAULT_255_2_778
10
21.6820638
20
42.6821991
40
0.3603816
50
99.4915893
51
124.3627674
0
ARC
8
DEFAULT_255_2_778
10
21.5871509
20
42.8292673
40
0.1854666
50
125.8028369
51
182.2896157
0
ARC
8
DEFAULT_255_2_778
10
21.5489799
20
42.821772
40
0.1471476
50
179.9666171
51
180.1001736
0
ARC
8
DEFAULT_255_2_778
10
21.5661858
20
42.8217311
40
0.1643535
50
180.0754351
51
239.8483251
0
ARC
8
DEFAULT_255_2_778
10
21.9354551
20
43.403813
40
0.8535847
50
238.0402264
51
243.0370307
0
ARC
8
DEFAULT_255_2_778
10
23.4787463
20
46.3559461
40
4.1847343
50
242.5305029
51
244.1852103
0
ARC
8
DEFAULT_255_2_778
10
26.6265515
20
52.8261116
40
11.3799845
50
244.1038809
51
244.9214171
0
ARC
8
DEFAULT_255_2_778
10
29.8771528
20
59.734826
40
19.0152051
50
244.8737354
51
245.0669821
0
ARC
8
DEFAULT_255_2_778
10
19.8876742
20
38.201571
40
4.7223648
50
62.036831
51
65.2981624
0
ARC
8
DEFAULT_255_2_778
10
20.9516164
20
40.1961714
40
2.4617531
50
57.1110762
51
62.1404081
0
ARC
8
DEFAULT_255_2_778
10
21.7042272
20
41.349297
40
1.0847836
50
48.3568195
51
57.4187314
0
ARC
8
DEFAULT_255_2_778
10
22.028946
20
41.7256639
40
0.5878002
50
44.453022
51
47.6325253
0
ARC
8
DEFAULT_255_2_778
10
21.9973779
20
41.7074098
40
0.6231843
50
1.0876759
51
43.6183889
0
ARC
8
DEFAULT_255_2_778
10
21.7304111
20
41.6753301
40
0.8911213
50
359.9797211
51
2.8243422
0
ARC
8
DEFAULT_255_2_778
10
21.8798151
20
41.6602736
40
0.7418639
50
333.2156265
51
1.138567
0
ARC
8
DEFAULT_255_2_778
10
21.9146495
20
41.6647363
40
0.7130495
50
300.9658303
51
331.6339563
0
ARC
8
DEFAULT_255_2_778
10
21.7181382
20
41.97397
40
1.0793606
50
281.9136331
51
301.4645182
0
ARC
8
DEFAULT_255_2_778
10
21.5849532
20
42.5711054
40
1.6911426
50
270.5804277
51
282.1523279
0
ARC
8
DEFAULT_255_2_778
10
21.5638102
20
43.0650177
40
2.1853034
50
269.9959061
51
271.0035609
0
LINE
8
DEFAULT_255_2_778
10
21.5636541
20
40.8797142
11
21.5621325
21
40.8797147
0
ARC
8
DEFAULT_255_2_778
10
21.5690949
20
44.0638913
40
3.1841842
50
256.2458002
51
269.8747201
0
LINE
8
DEFAULT_255_2_778
10
6.7957325
20
40.9704147
11
6.7957325
21
41.4652147
0
LINE
8
DEFAULT_255_2_778
10
8.4163325
20
43.3882147
11
8.4163325
21
42.9120147
0
LINE
8
DEFAULT_255_2_778
10
6.7939325
20
40.9689147
11
6.7957325
21
40.9704147
0
LINE
8
DEFAULT_255_2_778
10
8.9865325
20
43.4377147
11
9.6628325
21
43.4377147
0
LINE
8
DEFAULT_255_2_778
10
9.6628325
20
43.4377147
11
9.6628325
21
40.9302147
0
LINE
8
DEFAULT_255_2_778
10
9.6628325
20
40.9302147
11
8.9865325
21
40.9302147
0
LINE
8
DEFAULT_255_2_778
10
8.9865325
20
40.9302147
11
8.9865325
21
43.4377147
0
LINE
8
DEFAULT_255_2_778
10
10.2808325
20
40.9302147
11
10.2808325
21
43.4377147
0
LINE
8
DEFAULT_255_2_778
10
10.2808325
20
43.4377147
11
12.0131325
21
43.4377147
0
LINE
8
DEFAULT_255_2_778
10
12.0131325
20
43.4377147
11
12.0131325
21
42.9839147
0
LINE
8
DEFAULT_255_2_778
10
12.0131325
20
42.9839147
11
10.9320325
21
42.9839147
0
LINE
8
DEFAULT_255_2_778
10
10.9320325
20
42.9839147
11
10.9320325
21
42.4177147
0
LINE
8
DEFAULT_255_2_778
10
10.9320325
20
42.4177147
11
11.8734325
21
42.4177147
0
LINE
8
DEFAULT_255_2_778
10
11.8734325
20
42.4177147
11
11.8734325
21
42.0042147
0
LINE
8
DEFAULT_255_2_778
10
11.8734325
20
42.0042147
11
10.9320325
21
42.0042147
0
LINE
8
DEFAULT_255_2_778
10
10.9320325
20
42.0042147
11
10.9320325
21
41.4089147
0
LINE
8
DEFAULT_255_2_778
10
10.9320325
20
41.4089147
11
12.0411325
21
41.4089147
0
LINE
8
DEFAULT_255_2_778
10
12.0411325
20
41.4089147
11
12.0411325
21
40.9286147
0
LINE
8
DEFAULT_255_2_778
10
12.0411325
20
40.9286147
11
10.2808325
21
40.9302147
0
LINE
8
DEFAULT_255_2_778
10
12.4816325
20
40.9302147
11
12.4816325
21
43.4377147
0
LINE
8
DEFAULT_255_2_778
10
12.4816325
20
43.4377147
11
13.3574325
21
43.4377147
0
LINE
8
DEFAULT_255_2_778
10
13.3574325
20
43.4377147
11
13.9670325
21
41.8354147
0
LINE
8
DEFAULT_255_2_778
10
13.9670325
20
41.8354147
11
14.5896325
21
43.4377147
0
LINE
8
DEFAULT_255_2_778
10
14.5896325
20
43.4377147
11
15.4214325
21
43.4377147
0
LINE
8
DEFAULT_255_2_778
10
15.4214325
20
43.4377147
11
15.4214325
21
40.9302147
0
LINE
8
DEFAULT_255_2_778
10
15.4214325
20
40.9302147
11
14.7811325
21
40.9302147
0
LINE
8
DEFAULT_255_2_778
10
14.7811325
20
40.9302147
11
14.7811325
21
42.7061147
0
LINE
8
DEFAULT_255_2_778
10
14.7811325
20
42.7061147
11
14.0723325
21
40.9059147
0
LINE
8
DEFAULT_255_2_778
10
14.0723325
20
40.9059147
11
13.6514325
21
40.9059147
0
LINE
8
DEFAULT_255_2_778
10
13.6514325
20
40.9059147
11
12.9558325
21
42.7061147
0
LINE
8
DEFAULT_255_2_778
10
12.9558325
20
42.7061147
11
12.9558325
21
40.9300147
0
LINE
8
DEFAULT_255_2_778
10
12.9558325
20
40.9300147
11
12.4816325
21
40.9302147
0
LINE
8
DEFAULT_255_2_778
10
16.0408325
20
40.9302147
11
16.0408325
21
43.4377147
0
LINE
8
DEFAULT_255_2_778
10
16.0408325
20
43.4377147
11
17.7730325
21
43.4377147
0
LINE
8
DEFAULT_255_2_778
10
17.7730325
20
43.4377147
11
17.7730325
21
42.9839147
0
LINE
8
DEFAULT_255_2_778
10
17.7730325
20
42.9839147
11
16.6920325
21
42.9839147
0
LINE
8
DEFAULT_255_2_778
10
16.6920325
20
42.9839147
11
16.6920325
21
42.4177147
0
LINE
8
DEFAULT_255_2_778
10
16.6920325
20
42.4177147
11
17.6333325
21
42.4177147
0
LINE
8
DEFAULT_255_2_778
10
17.6333325
20
42.4177147
11
17.6333325
21
42.0042147
0
LINE
8
DEFAULT_255_2_778
10
17.6333325
20
42.0042147
11
16.6920325
21
42.0042147
0
LINE
8
DEFAULT_255_2_778
10
16.6920325
20
42.0042147
11
16.6920325
21
41.4089147
0
LINE
8
DEFAULT_255_2_778
10
16.6920325
20
41.4089147
11
17.8029325
21
41.4089147
0
LINE
8
DEFAULT_255_2_778
10
17.8029325
20
41.4089147
11
17.8029325
21
40.9286147
0
LINE
8
DEFAULT_255_2_778
10
17.8029325
20
40.9286147
11
16.0408325
21
40.9302147
0
LINE
8
DEFAULT_255_2_778
10
18.2453325
20
40.9302147
11
18.2453325
21
43.4377147
0
LINE
8
DEFAULT_255_2_778
10
18.2453325
20
43.4377147
11
19.0282325
21
43.4377147
0
LINE
8
DEFAULT_255_2_778
10
19.0282325
20
43.4377147
11
19.8585325
21
41.7589147
0
LINE
8
DEFAULT_255_2_778
10
19.8585325
20
41.7589147
11
19.8585325
21
43.4377147
0
LINE
8
DEFAULT_255_2_778
10
19.8585325
20
43.4377147
11
20.3342325
21
43.4377147
0
LINE
8
DEFAULT_255_2_778
10
20.3342325
20
43.4377147
11
20.3342325
21
40.9302147
0
LINE
8
DEFAULT_255_2_778
10
20.3342325
20
40.9302147
11
19.5738325
21
40.9302147
0
LINE
8
DEFAULT_255_2_778
10
19.5738325
20
40.9302147
11
18.7213325
21
42.6315147
0
LINE
8
DEFAULT_255_2_778
10
18.7213325
20
42.6315147
11
18.7213325
21
40.9302147
0
LINE
8
DEFAULT_255_2_778
10
18.7213325
20
40.9302147
11
18.2453325
21
40.9302147
0
LINE
8
DEFAULT_255_2_778
10
20.8142325
20
40.9707147
11
20.8142325
21
41.4655147
0
LINE
8
DEFAULT_255_2_778
10
22.3741325
20
43.4009147
11
22.4339325
21
43.3903147
0
LINE
8
DEFAULT_255_2_778
10
22.4339325
20
43.3903147
11
22.4339325
21
42.9141147
0
LINE
8
DEFAULT_255_2_778
10
20.8120325
20
40.9710147
11
20.8142325
21
40.9707147
0
LINE
8
DEFAULT_255_1_388
10
7.9853457
20
39.3214892
11
7.8109577
21
39.3214892
0
LINE
8
DEFAULT_255_1_388
10
7.0320852
20
38.7676042
11
7.2064731
21
38.7676042
0
ARC
8
DEFAULT_255_1_388
10
7.8850304
20
40.3278821
40
1.4087688
50
248.9196578
51
254.1442424
0
ARC
8
DEFAULT_255_1_388
10
7.6960184
20
39.8412805
40
0.8867498
50
241.6337352
51
249.0064643
0
ARC
8
DEFAULT_255_1_388
10
7.5240498
20
39.5261764
40
0.5277799
50
230.4982261
51
241.8087583
0
ARC
8
DEFAULT_255_1_388
10
7.4358269
20
39.4137686
40
0.3849419
50
227.4062979
51
229.9877433
0
ARC
8
DEFAULT_255_1_388
10
7.3809615
20
39.3602155
40
0.3084129
50
200.6782127
51
228.1765252
0
ARC
8
DEFAULT_255_1_388
10
7.3890984
20
39.3585277
40
0.315461
50
179.506278
51
199.8695278
0
ARC
8
DEFAULT_255_1_388
10
7.3880573
20
39.3668671
40
0.3144584
50
132.4834401
51
181.0242352
0
ARC
8
DEFAULT_255_1_388
10
7.4549777
20
39.3036788
40
0.4063094
50
129.2526113
51
133.4249077
0
ARC
8
DEFAULT_255_1_388
10
7.471537
20
39.2788619
40
0.436014
50
101.9878945
51
128.8741833
0
ARC
8
DEFAULT_255_1_388
10
7.5163785
20
39.085236
40
0.6347415
50
89.5906376
51
102.3170567
0
ARC
8
DEFAULT_255_1_388
10
7.5243097
20
39.1210586
40
0.5989122
50
77.2359491
51
90.3248968
0
ARC
8
DEFAULT_255_1_388
10
7.5476028
20
39.2298554
40
0.4876594
50
63.8379856
51
77.0808925
0
ARC
8
DEFAULT_255_1_388
10
7.5788561
20
39.2880882
40
0.4216191
50
45.9863127
51
64.1608798
0
ARC
8
DEFAULT_255_1_388
10
7.6081955
20
39.321599
40
0.3771394
50
32.2747934
51
45.6544796
0
ARC
8
DEFAULT_255_1_388
10
7.6156761
20
39.3237426
40
0.3696765
50
359.6507495
51
32.6129943
0
ARC
8
DEFAULT_255_1_388
10
7.5095944
20
39.3242788
40
0.3013762
50
359.469654
51
14.983205
0
ARC
8
DEFAULT_255_1_388
10
7.5889196
20
39.3455288
40
0.2192542
50
14.9781954
51
48.2004799
0
ARC
8
DEFAULT_255_1_388
10
7.5704307
20
39.3222937
40
0.2489048
50
48.5926661
51
74.1242559
0
ARC
8
DEFAULT_255_1_388
10
7.5329109
20
39.1984607
40
0.3782845
50
73.7889321
51
86.6653996
0
ARC
8
DEFAULT_255_1_388
10
7.5213924
20
39.0626955
40
0.5145025
50
86.2642725
51
90.0533288
0
ARC
8
DEFAULT_255_1_388
10
7.5182017
20
39.1071376
40
0.4700681
50
89.669455
51
99.2313411
0
ARC
8
DEFAULT_255_1_388
10
7.4909176
20
39.2696401
40
0.3052945
50
99.0695987
51
113.7659242
0
ARC
8
DEFAULT_255_1_388
10
7.4601171
20
39.3422772
40
0.226407
50
114.0402885
51
127.9848946
0
ARC
8
DEFAULT_255_1_388
10
7.4330647
20
39.3755884
40
0.1835045
50
127.7287217
51
176.7106493
0
ARC
8
DEFAULT_255_1_388
10
7.5094312
20
39.364221
40
0.2604907
50
175.1780759
51
180.0581213
0
ARC
8
DEFAULT_255_1_388
10
7.4145656
20
39.3628411
40
0.1656287
50
179.6140658
51
228.124674
0
ARC
8
DEFAULT_255_1_388
10
7.4643013
20
39.408894
40
0.2332038
50
226.5785315
51
230.8792476
0
ARC
8
DEFAULT_255_1_388
10
7.51725
20
39.4791908
40
0.3211664
50
231.4636401
51
241.9261664
0
ARC
8
DEFAULT_255_1_388
10
7.6519283
20
39.7270349
40
0.6032345
50
241.7177136
51
248.3259138
0
ARC
8
DEFAULT_255_1_388
10
7.8077878
20
40.1131771
40
1.0196417
50
248.2007377
51
252.4527713
0
ARC
8
DEFAULT_255_1_388
10
7.9431405
20
40.5316092
40
1.4594143
50
252.3388938
51
254.347037
0
ARC
8
DEFAULT_255_1_388
10
7.0946705
20
37.4968095
40
1.6917621
50
71.0197462
51
74.4085467
0
ARC
8
DEFAULT_255_1_388
10
7.2853793
20
38.0473144
40
1.1091618
50
66.1845203
51
71.086519
0
ARC
8
DEFAULT_255_1_388
10
7.4604342
20
38.4414439
40
0.6779073
50
59.3537334
51
66.269255
0
ARC
8
DEFAULT_255_1_388
10
7.5604068
20
38.6105777
40
0.4814366
50
49.1021732
51
59.3294421
0
ARC
8
DEFAULT_255_1_388
10
7.6525056
20
38.7155575
40
0.3417875
50
32.7924183
51
49.2503526
0
ARC
8
DEFAULT_255_1_388
10
7.687467
20
38.7405311
40
0.2988789
50
31.121225
51
32.3977355
0
ARC
8
DEFAULT_255_1_388
10
7.6786848
20
38.7372728
40
0.3080861
50
8.1116803
51
30.7958224
0
ARC
8
DEFAULT_255_1_388
10
7.5875194
20
38.7217437
40
0.4005385
50
359.8390945
51
8.4707348
0
ARC
8
DEFAULT_255_1_388
10
7.6579242
20
38.7162751
40
0.3301608
50
337.4732479
51
0.7538283
0
ARC
8
DEFAULT_255_1_388
10
7.6780267
20
38.7140554
40
0.3107929
50
307.5917028
51
336.4313755
0
ARC
8
DEFAULT_255_1_388
10
7.6269324
20
38.7708509
40
0.3870096
50
307.6560665
51
308.4561779
0
ARC
8
DEFAULT_255_1_388
10
7.6003541
20
38.8116832
40
0.435591
50
284.3733666
51
307.1426212
0
ARC
8
DEFAULT_255_1_388
10
7.5446435
20
39.0166391
40
0.6479685
50
272.4384566
51
284.6464689
0
ARC
8
DEFAULT_255_1_388
10
7.530382
20
39.2190434
40
0.8508149
50
269.9708517
51
272.8180721
0
ARC
8
DEFAULT_255_1_388
10
7.5255503
20
38.9898283
40
0.6216151
50
248.2707343
51
270.4054609
0
ARC
8
DEFAULT_255_1_388
10
7.5194374
20
38.9683673
40
0.5994203
50
246.1380358
51
248.054058
0
ARC
8
DEFAULT_255_1_388
10
7.4723517
20
38.8694705
40
0.4899388
50
233.1671897
51
246.4951656
0
ARC
8
DEFAULT_255_1_388
10
7.4100152
20
38.7853137
40
0.3852115
50
215.3403381
51
233.084328
0
ARC
8
DEFAULT_255_1_388
10
7.3793516
20
38.7630093
40
0.3472969
50
179.2419235
51
215.2648426
0
ARC
8
DEFAULT_255_1_388
10
7.4657067
20
38.7645979
40
0.259251
50
179.3355796
51
199.1045873
0
ARC
8
DEFAULT_255_1_388
10
7.4283209
20
38.7548223
40
0.2207454
50
199.8830064
51
232.7061328
0
ARC
8
DEFAULT_255_1_388
10
7.4814483
20
38.8216456
40
0.306101
50
232.3736206
51
255.5136621
0
ARC
8
DEFAULT_255_1_388
10
7.5197989
20
38.9616177
40
0.4512213
50
255.2447928
51
267.5318292
0
ARC
8
DEFAULT_255_1_388
10
7.5296456
20
39.1002709
40
0.5901825
50
267.1564563
51
270.0294721
0
ARC
8
DEFAULT_255_1_388
10
7.5327781
20
39.0503623
40
0.5402814
50
269.6999944
51
278.1662446
0
ARC
8
DEFAULT_255_1_388
10
7.5615809
20
38.8556974
40
0.3435003
50
278.0229022
51
290.6255326
0
ARC
8
DEFAULT_255_1_388
10
7.6006975
20
38.7513547
40
0.2320666
50
290.6616368
51
307.0374127
0
ARC
8
DEFAULT_255_1_388
10
7.6344875
20
38.709904
40
0.1786372
50
306.3942078
51
355.303191
0
ARC
8
DEFAULT_255_1_388
10
7.5769168
20
38.7185186
40
0.2367516
50
354.3662092
51
0.0709489
0
ARC
8
DEFAULT_255_1_388
10
7.5929037
20
38.7210561
40
0.2207761
50
359.4175379
51
16.1975911
0
ARC
8
DEFAULT_255_1_388
10
7.6441155
20
38.7350954
40
0.1676828
50
16.4721294
51
52.6261798
0
ARC
8
DEFAULT_255_1_388
10
7.5517662
20
38.6131606
40
0.3206412
50
52.7381828
51
62.4979144
0
ARC
8
DEFAULT_255_1_388
10
7.3959415
20
38.3199236
40
0.6527035
50
62.2517425
51
68.1219454
0
ARC
8
DEFAULT_255_1_388
10
7.2024903
20
37.8444951
40
1.1659797
50
68.006043
51
71.8055127
0
ARC
8
DEFAULT_255_1_388
10
7.0004811
20
37.2386723
40
1.8045908
50
71.718361
51
73.9260743
0
LINE
8
DEFAULT_255_1_388
10
8.3964675
20
39.7018898
11
8.3964675
21
38.3863
0
LINE
8
DEFAULT_255_1_388
10
8.3964675
20
38.3863
11
8.2229831
21
38.3863
0
LINE
8
DEFAULT_255_1_388
10
8.2229831
20
38.3863
11
8.2229831
21
39.7018898
0
LINE
8
DEFAULT_255_1_388
10
8.2229831
20
39.7018898
11
8.3964675
21
39.7018898
0
LINE
8
DEFAULT_255_1_388
10
8.7136186
20
39.7018898
11
8.9377026
21
39.7018898
0
LINE
8
DEFAULT_255_1_388
10
8.9377026
20
39.7018898
11
9.3677993
21
38.6284553
0
LINE
8
DEFAULT_255_1_388
10
9.3677993
20
38.6284553
11
9.7978959
21
39.7018898
0
LINE
8
DEFAULT_255_1_388
10
9.7978959
20
39.7018898
11
10.0228835
21
39.7018898
0
LINE
8
DEFAULT_255_1_388
10
10.0228835
20
39.7018898
11
10.0228835
21
38.3863
0
LINE
8
DEFAULT_255_1_388
10
10.0228835
20
38.3863
11
9.8493991
21
38.3863
0
LINE
8
DEFAULT_255_1_388
10
9.8493991
20
38.3863
11
9.8493991
21
38.898621
0
LINE
8
DEFAULT_255_1_388
10
9.8493991
20
38.898621
11
9.8656633
21
39.4516025
0
LINE
8
DEFAULT_255_1_388
10
9.8656633
20
39.4516025
11
9.4337595
21
38.3863
0
LINE
8
DEFAULT_255_1_388
10
9.4337595
20
38.3863
11
9.3009355
21
38.3863
0
LINE
8
DEFAULT_255_1_388
10
9.3009355
20
38.3863
11
8.8699353
21
39.4488918
0
LINE
8
DEFAULT_255_1_388
10
8.8699353
20
39.4488918
11
8.887103
21
38.898621
0
LINE
8
DEFAULT_255_1_388
10
8.887103
20
38.898621
11
8.887103
21
38.3863
0
LINE
8
DEFAULT_255_1_388
10
8.887103
20
38.3863
11
8.7136186
21
38.3863
0
LINE
8
DEFAULT_255_1_388
10
8.7136186
20
38.3863
11
8.7136186
21
39.7018898
0
LINE
8
DEFAULT_255_1_388
10
11.1975173
20
38.3863
11
11.0719218
21
38.7296545
0
LINE
8
DEFAULT_255_1_388
10
11.0719218
20
38.7296545
11
10.5207475
21
38.7296545
0
LINE
8
DEFAULT_255_1_388
10
10.5207475
20
38.7296545
11
10.3969592
21
38.3863
0
LINE
8
DEFAULT_255_1_388
10
10.3969592
20
38.3863
11
10.2180534
21
38.3863
0
LINE
8
DEFAULT_255_1_388
10
10.2180534
20
38.3863
11
10.7204353
21
39.7018898
0
LINE
8
DEFAULT_255_1_388
10
10.7204353
20
39.7018898
11
10.8722341
21
39.7018898
0
LINE
8
DEFAULT_255_1_388
10
10.8722341
20
39.7018898
11
11.3755195
21
38.3863
0
LINE
8
DEFAULT_255_1_388
10
11.3755195
20
38.3863
11
11.1975173
21
38.3863
0
LINE
8
DEFAULT_255_1_388
10
10.7963347
20
39.4877451
11
10.5731542
21
38.8724177
0
LINE
8
DEFAULT_255_1_388
10
10.5731542
20
38.8724177
11
11.0204187
21
38.8724177
0
LINE
8
DEFAULT_255_1_388
10
11.0204187
20
38.8724177
11
10.7963347
21
39.4877451
0
LINE
8
DEFAULT_255_1_388
10
12.3450441
20
39.7018898
11
12.3450441
21
39.5591267
0
LINE
8
DEFAULT_255_1_388
10
12.3450441
20
39.5591267
11
11.922176
21
39.5591267
0
LINE
8
DEFAULT_255_1_388
10
11.922176
20
39.5591267
11
11.922176
21
38.3863
0
LINE
8
DEFAULT_255_1_388
10
11.922176
20
38.3863
11
11.7495952
21
38.3863
0
LINE
8
DEFAULT_255_1_388
10
11.7495952
20
38.3863
11
11.7495952
21
39.5591267
0
LINE
8
DEFAULT_255_1_388
10
11.7495952
20
39.5591267
11
11.3276306
21
39.5591267
0
LINE
8
DEFAULT_255_1_388
10
11.3276306
20
39.5591267
11
11.3276306
21
39.7018898
0
LINE
8
DEFAULT_255_1_388
10
11.3276306
20
39.7018898
11
12.3450441
21
39.7018898
0
LINE
8
DEFAULT_255_1_388
10
12.7263483
20
39.7018898
11
12.7263483
21
38.3863
0
LINE
8
DEFAULT_255_1_388
10
12.7263483
20
38.3863
11
12.552864
21
38.3863
0
LINE
8
DEFAULT_255_1_388
10
12.552864
20
38.3863
11
12.552864
21
39.7018898
0
LINE
8
DEFAULT_255_1_388
10
12.552864
20
39.7018898
11
12.7263483
21
39.7018898
0
LINE
8
DEFAULT_255_1_388
10
13.8368291
20
38.8037468
11
14.011217
21
38.8037468
0
LINE
8
DEFAULT_255_1_388
10
12.9983212
20
38.9826525
11
12.9983212
21
39.1091516
0
LINE
8
DEFAULT_255_1_388
10
14.011217
20
39.2790217
11
13.8368291
21
39.2790217
0
LINE
8
DEFAULT_255_1_388
10
13.1727092
20
39.1046337
11
13.1727092
21
38.9772312
0
ARC
8
DEFAULT_255_1_388
10
13.3946404
20
38.8709329
40
0.6202263
50
340.1774904
51
353.7812217
0
ARC
8
DEFAULT_255_1_388
10
13.5714257
20
38.8050893
40
0.4315926
50
311.4560052
51
340.4420756
0
ARC
8
DEFAULT_255_1_388
10
13.5676796
20
38.8175665
40
0.4434573
50
282.4332229
51
310.7514507
0
ARC
8
DEFAULT_255_1_388
10
13.5182614
20
39.0217703
40
0.6535262
50
269.9358869
51
282.8096729
0
ARC
8
DEFAULT_255_1_388
10
13.5124554
20
39.1730329
40
0.8048043
50
269.9995752
51
270.3612856
0
ARC
8
DEFAULT_255_1_388
10
13.5065044
20
38.8931781
40
0.5249831
50
250.7885263
51
270.6488451
0
ARC
8
DEFAULT_255_1_388
10
13.4875868
20
38.8214853
40
0.4510942
50
219.3628377
51
250.0611024
0
ARC
8
DEFAULT_255_1_388
10
13.5808743
20
38.9007653
40
0.5735046
50
193.5480293
51
219.5755675
0
ARC
8
DEFAULT_255_1_388
10
13.8476952
20
38.970052
40
0.849146
50
181.1220183
51
193.8754971
0
ARC
8
DEFAULT_255_1_388
10
14.0800185
20
38.9824914
40
1.0816971
50
179.9914644
51
181.5398227
0
ARC
8
DEFAULT_255_1_388
10
13.8723495
20
39.1133586
40
0.8740384
50
169.5837606
51
180.275782
0
ARC
8
DEFAULT_255_1_388
10
13.6656844
20
39.1515439
40
0.6638751
50
155.0367033
51
169.6002779
0
ARC
8
DEFAULT_255_1_388
10
13.5379302
20
39.2131336
40
0.5220662
50
136.7831557
51
155.2472983
0
ARC
8
DEFAULT_255_1_388
10
13.4941092
20
39.2503577
40
0.4646502
50
121.7633063
51
136.4281161
0
ARC
8
DEFAULT_255_1_388
10
13.5092932
20
39.2223049
40
0.4964979
50
95.6460018
51
121.5489589
0
ARC
8
DEFAULT_255_1_388
10
13.5269907
20
39.0975704
40
0.6223912
50
89.9245727
51
96.1375919
0
ARC
8
DEFAULT_255_1_388
10
13.5326612
20
39.1109721
40
0.6090084
50
76.6779212
51
90.456405
0
ARC
8
DEFAULT_255_1_388
10
13.5769425
20
39.289906
40
0.42469
50
47.4858803
51
76.9287069
0
ARC
8
DEFAULT_255_1_388
10
13.5604038
20
39.2786623
40
0.4441778
50
16.5424081
51
46.8934505
0
ARC
8
DEFAULT_255_1_388
10
13.3795088
20
39.2192265
40
0.6345318
50
5.4072971
51
17.0363711
0
ARC
8
DEFAULT_255_1_388
10
13.2176813
20
39.1932304
40
0.6250632
50
7.8888693
51
15.9242022
0
ARC
8
DEFAULT_255_1_388
10
13.4411799
20
39.2581309
40
0.3923364
50
15.7650676
51
27.9410069
0
ARC
8
DEFAULT_255_1_388
10
13.5653968
20
39.3246317
40
0.2514401
50
27.8167196
51
46.4007942
0
ARC
8
DEFAULT_255_1_388
10
13.5709809
20
39.3239882
40
0.2480958
50
47.4372362
51
75.0695672
0
ARC
8
DEFAULT_255_1_388
10
13.5362646
20
39.2031277
40
0.3738281
50
74.7009379
51
87.8124314
0
ARC
8
DEFAULT_255_1_388
10
13.5280262
20
39.0847659
40
0.4924321
50
87.3802571
51
90.0251599
0
ARC
8
DEFAULT_255_1_388
10
13.523691
20
39.2167997
40
0.3604218
50
89.3451886
51
108.5744412
0
ARC
8
DEFAULT_255_1_388
10
13.5082902
20
39.2745836
40
0.3007661
50
109.2998307
51
143.3037387
0
ARC
8
DEFAULT_255_1_388
10
13.5940192
20
39.2086584
40
0.4089031
50
143.075267
51
163.1918576
0
ARC
8
DEFAULT_255_1_388
10
13.8136026
20
39.1393652
40
0.6391492
50
162.9375929
51
174.6208776
0
ARC
8
DEFAULT_255_1_388
10
14.1090408
20
39.1069711
40
0.9363344
50
174.342123
51
180.1430283
0
ARC
8
DEFAULT_255_1_388
10
14.0042949
20
38.9726117
40
0.8315986
50
179.6817261
51
189.150555
0
ARC
8
DEFAULT_255_1_388
10
13.7229698
20
38.9257559
40
0.5464044
50
188.9911061
51
203.5772363
0
ARC
8
DEFAULT_255_1_388
10
13.601499
20
38.8753539
40
0.4149206
50
203.9075402
51
215.1312435
0
ARC
8
DEFAULT_255_1_388
10
13.4976788
20
38.7948907
40
0.2837747
50
213.9071511
51
263.8848919
0
ARC
8
DEFAULT_255_1_388
10
13.5117781
20
38.8831519
40
0.3730641
50
263.1757928
51
270.1031044
0
ARC
8
DEFAULT_255_1_388
10
13.515386
20
39.0234511
40
0.5133712
50
269.6722503
51
279.0606936
0
ARC
8
DEFAULT_255_1_388
10
13.5454016
20
38.842015
40
0.3294739
50
278.8749101
51
293.6349581
0
ARC
8
DEFAULT_255_1_388
10
13.5814219
20
38.7574251
40
0.2375405
50
293.8553806
51
310.0518171
0
ARC
8
DEFAULT_255_1_388
10
13.5819728
20
38.7504021
40
0.2318463
50
311.0644687
51
332.0111037
0
ARC
8
DEFAULT_255_1_388
10
13.4478402
20
38.8243702
40
0.3850112
50
331.6586806
51
343.2877423
0
ARC
8
DEFAULT_255_1_388
10
13.2157867
20
38.8956806
40
0.6277712
50
343.1446576
51
351.0103568
0
ARC
8
DEFAULT_255_1_388
10
13.052519
20
38.9256873
40
0.7937327
50
350.71248
51
351.1626997
0
LINE
8
DEFAULT_255_1_388
10
15.5789013
20
39.3214892
11
15.4045134
21
39.3214892
0
LINE
8
DEFAULT_255_1_388
10
14.6256408
20
38.7676042
11
14.8000288
21
38.7676042
0
ARC
8
DEFAULT_255_1_388
10
15.4785861
20
40.3278821
40
1.4087688
50
248.9196578
51
254.1442424
0
ARC
8
DEFAULT_255_1_388
10
15.2895741
20
39.8412805
40
0.8867498
50
241.6337352
51
249.0064643
0
ARC
8
DEFAULT_255_1_388
10
15.1176054
20
39.5261764
40
0.5277799
50
230.4982261
51
241.8087583
0
ARC
8
DEFAULT_255_1_388
10
15.0293825
20
39.4137686
40
0.3849419
50
227.4062979
51
229.9877433
0
ARC
8
DEFAULT_255_1_388
10
14.9745172
20
39.3602155
40
0.3084129
50
200.6782127
51
228.1765252
0
ARC
8
DEFAULT_255_1_388
10
14.9826541
20
39.3585277
40
0.315461
50
179.506278
51
199.8695278
0
ARC
8
DEFAULT_255_1_388
10
14.981613
20
39.3668671
40
0.3144584
50
132.4834401
51
181.0242352
0
ARC
8
DEFAULT_255_1_388
10
15.0485334
20
39.3036788
40
0.4063094
50
129.2526113
51
133.4249077
0
ARC
8
DEFAULT_255_1_388
10
15.0650926
20
39.2788619
40
0.436014
50
101.9878945
51
128.8741833
0
ARC
8
DEFAULT_255_1_388
10
15.1099342
20
39.085236
40
0.6347415
50
89.5906376
51
102.3170567
0
ARC
8
DEFAULT_255_1_388
10
15.1178653
20
39.1210586
40
0.5989122
50
77.2359491
51
90.3248968
0
ARC
8
DEFAULT_255_1_388
10
15.1411584
20
39.2298554
40
0.4876594
50
63.8379856
51
77.0808925
0
ARC
8
DEFAULT_255_1_388
10
15.1724118
20
39.2880882
40
0.4216191
50
45.9863127
51
64.1608798
0
ARC
8
DEFAULT_255_1_388
10
15.2017511
20
39.321599
40
0.3771394
50
32.2747934
51
45.6544796
0
ARC
8
DEFAULT_255_1_388
10
15.2092318
20
39.3237426
40
0.3696765
50
359.6507495
51
32.6129943
0
ARC
8
DEFAULT_255_1_388
10
15.1031501
20
39.3242788
40
0.3013762
50
359.469654
51
14.983205
0
ARC
8
DEFAULT_255_1_388
10
15.1824753
20
39.3455288
40
0.2192542
50
14.9781954
51
48.2004799
0
ARC
8
DEFAULT_255_1_388
10
15.1639864
20
39.3222937
40
0.2489048
50
48.5926661
51
74.1242559
0
ARC
8
DEFAULT_255_1_388
10
15.1264666
20
39.1984607
40
0.3782845
50
73.7889321
51
86.6653996
0
ARC
8
DEFAULT_255_1_388
10
15.1149481
20
39.0626955
40
0.5145025
50
86.2642725
51
90.0533288
0
ARC
8
DEFAULT_255_1_388
10
15.1117573
20
39.1071376
40
0.4700681
50
89.669455
51
99.2313411
0
ARC
8
DEFAULT_255_1_388
10
15.0844733
20
39.2696401
40
0.3052945
50
99.0695987
51
113.7659242
0
ARC
8
DEFAULT_255_1_388
10
15.0536728
20
39.3422772
40
0.226407
50
114.0402885
51
127.9848946
0
ARC
8
DEFAULT_255_1_388
10
15.0266204
20
39.3755884
40
0.1835045
50
127.7287217
51
176.7106493
0
ARC
8
DEFAULT_255_1_388
10
15.1029869
20
39.364221
40
0.2604907
50
175.1780759
51
180.0581213
0
ARC
8
DEFAULT_255_1_388
10
15.0081212
20
39.3628411
40
0.1656287
50
179.6140658
51
228.124674
0
ARC
8
DEFAULT_255_1_388
10
15.057857
20
39.408894
40
0.2332038
50
226.5785315
51
230.8792476
0
ARC
8
DEFAULT_255_1_388
10
15.1108056
20
39.4791908
40
0.3211664
50
231.4636401
51
241.9261664
0
ARC
8
DEFAULT_255_1_388
10
15.245484
20
39.7270349
40
0.6032345
50
241.7177136
51
248.3259138
0
ARC
8
DEFAULT_255_1_388
10
15.4013435
20
40.1131771
40
1.0196417
50
248.2007377
51
252.4527713
0
ARC
8
DEFAULT_255_1_388
10
15.5366961
20
40.5316092
40
1.4594143
50
252.3388938
51
254.347037
0
ARC
8
DEFAULT_255_1_388
10
14.6882262
20
37.4968095
40
1.6917621
50
71.0197462
51
74.4085467
0
ARC
8
DEFAULT_255_1_388
10
14.878935
20
38.0473144
40
1.1091618
50
66.1845203
51
71.086519
0
ARC
8
DEFAULT_255_1_388
10
15.0539899
20
38.4414439
40
0.6779073
50
59.3537334
51
66.269255
0
ARC
8
DEFAULT_255_1_388
10
15.1539625
20
38.6105777
40
0.4814366
50
49.1021732
51
59.3294421
0
ARC
8
DEFAULT_255_1_388
10
15.2460613
20
38.7155575
40
0.3417875
50
32.7924183
51
49.2503526
0
ARC
8
DEFAULT_255_1_388
10
15.2810227
20
38.7405311
40
0.2988789
50
31.121225
51
32.3977355
0
ARC
8
DEFAULT_255_1_388
10
15.2722405
20
38.7372728
40
0.3080861
50
8.1116803
51
30.7958224
0
ARC
8
DEFAULT_255_1_388
10
15.1810751
20
38.7217437
40
0.4005385
50
359.8390945
51
8.4707348
0
ARC
8
DEFAULT_255_1_388
10
15.2514798
20
38.7162751
40
0.3301608
50
337.4732479
51
0.7538283
0
ARC
8
DEFAULT_255_1_388
10
15.2715823
20
38.7140554
40
0.3107929
50
307.5917028
51
336.4313755
0
ARC
8
DEFAULT_255_1_388
10
15.2204881
20
38.7708509
40
0.3870096
50
307.6560665
51
308.4561779
0
ARC
8
DEFAULT_255_1_388
10
15.1939098
20
38.8116832
40
0.435591
50
284.3733666
51
307.1426212
0
ARC
8
DEFAULT_255_1_388
10
15.1381992
20
39.0166391
40
0.6479685
50
272.4384566
51
284.6464689
0
ARC
8
DEFAULT_255_1_388
10
15.1239377
20
39.2190434
40
0.8508149
50
269.9708517
51
272.8180721
0
ARC
8
DEFAULT_255_1_388
10
15.1191059
20
38.9898283
40
0.6216151
50
248.2707343
51
270.4054609
0
ARC
8
DEFAULT_255_1_388
10
15.1129931
20
38.9683673
40
0.5994203
50
246.1380358
51
248.054058
0
ARC
8
DEFAULT_255_1_388
10
15.0659073
20
38.8694705
40
0.4899388
50
233.1671897
51
246.4951656
0
ARC
8
DEFAULT_255_1_388
10
15.0035709
20
38.7853137
40
0.3852115
50
215.3403381
51
233.084328
0
ARC
8
DEFAULT_255_1_388
10
14.9729073
20
38.7630093
40
0.3472969
50
179.2419235
51
215.2648426
0
ARC
8
DEFAULT_255_1_388
10
15.0592624
20
38.7645979
40
0.259251
50
179.3355796
51
199.1045873
0
ARC
8
DEFAULT_255_1_388
10
15.0218765
20
38.7548223
40
0.2207454
50
199.8830064
51
232.7061328
0
ARC
8
DEFAULT_255_1_388
10
15.075004
20
38.8216456
40
0.306101
50
232.3736206
51
255.5136621
0
ARC
8
DEFAULT_255_1_388
10
15.1133546
20
38.9616177
40
0.4512213
50
255.2447928
51
267.5318292
0
ARC
8
DEFAULT_255_1_388
10
15.1232013
20
39.1002709
40
0.5901825
50
267.1564563
51
270.0294721
0
ARC
8
DEFAULT_255_1_388
10
15.1263338
20
39.0503623
40
0.5402814
50
269.6999944
51
278.1662446
0
ARC
8
DEFAULT_255_1_388
10
15.1551365
20
38.8556974
40
0.3435003
50
278.0229022
51
290.6255326
0
ARC
8
DEFAULT_255_1_388
10
15.1942532
20
38.7513547
40
0.2320666
50
290.6616368
51
307.0374127
0
ARC
8
DEFAULT_255_1_388
10
15.2280432
20
38.709904
40
0.1786372
50
306.3942078
51
355.303191
0
ARC
8
DEFAULT_255_1_388
10
15.1704725
20
38.7185186
40
0.2367516
50
354.3662092
51
0.0709489
0
ARC
8
DEFAULT_255_1_388
10
15.1864594
20
38.7210561
40
0.2207761
50
359.4175379
51
16.1975911
0
ARC
8
DEFAULT_255_1_388
10
15.2376711
20
38.7350954
40
0.1676828
50
16.4721294
51
52.6261798
0
ARC
8
DEFAULT_255_1_388
10
15.1453219
20
38.6131606
40
0.3206412
50
52.7381828
51
62.4979144
0
ARC
8
DEFAULT_255_1_388
10
14.9894972
20
38.3199236
40
0.6527035
50
62.2517425
51
68.1219454
0
ARC
8
DEFAULT_255_1_388
10
14.796046
20
37.8444951
40
1.1659797
50
68.006043
51
71.8055127
0
ARC
8
DEFAULT_255_1_388
10
14.5940368
20
37.2386723
40
1.8045908
50
71.718361
51
73.9260743
0
LINE
8
DEFAULT_255_1_388
10
16.6098684
20
39.7018898
11
16.6098684
21
39.6079191
0
LINE
8
DEFAULT_255_1_388
10
16.6098684
20
39.6079191
11
16.065019
21
38.3863
0
LINE
8
DEFAULT_255_1_388
10
16.065019
20
38.3863
11
15.8897275
21
38.3863
0
LINE
8
DEFAULT_255_1_388
10
15.8897275
20
38.3863
11
16.4327697
21
39.564548
0
LINE
8
DEFAULT_255_1_388
10
16.4327697
20
39.564548
11
15.7207609
21
39.564548
0
LINE
8
DEFAULT_255_1_388
10
15.7207609
20
39.564548
11
15.7207609
21
39.7018898
0
LINE
8
DEFAULT_255_1_388
10
15.7207609
20
39.7018898
11
16.6098684
21
39.7018898
0
LINE
8
DEFAULT_255_1_388
10
17.1646569
20
39.0133737
11
17.1646569
21
38.8769355
0
LINE
8
DEFAULT_255_1_388
10
17.1646569
20
38.8769355
11
16.7237175
21
38.8769355
0
LINE
8
DEFAULT_255_1_388
10
16.7237175
20
38.8769355
11
16.7237175
21
39.0133737
0
LINE
8
DEFAULT_255_1_388
10
16.7237175
20
39.0133737
11
17.1646569
21
39.0133737
0
LINE
8
DEFAULT_255_1_388
10
17.859498
20
39.7082148
11
17.859498
21
38.3863
0
LINE
8
DEFAULT_255_1_388
10
17.859498
20
38.3863
11
17.691435
21
38.3863
0
LINE
8
DEFAULT_255_1_388
10
17.691435
20
38.3863
11
17.691435
21
39.500395
0
LINE
8
DEFAULT_255_1_388
10
17.691435
20
39.500395
11
17.3544055
21
39.3766066
0
LINE
8
DEFAULT_255_1_388
10
17.3544055
20
39.3766066
11
17.3544055
21
39.5284055
0
LINE
8
DEFAULT_255_1_388
10
17.3544055
20
39.5284055
11
17.8332946
21
39.7082148
0
LINE
8
DEFAULT_255_1_388
10
17.8332946
20
39.7082148
11
17.859498
21
39.7082148
0
LINE
8
DEFAULT_255_1_388
10
18.5597604
20
39.0115666
11
18.4260329
21
39.0459021
0
LINE
8
DEFAULT_255_1_388
10
18.4260329
20
39.0459021
11
18.4928967
21
39.7018898
0
LINE
8
DEFAULT_255_1_388
10
18.4928967
20
39.7018898
11
19.1669558
21
39.7018898
0
LINE
8
DEFAULT_255_1_388
10
19.1669558
20
39.7018898
11
19.1669558
21
39.5473803
0
LINE
8
DEFAULT_255_1_388
10
19.1669558
20
39.5473803
11
18.6347563
21
39.5473803
0
LINE
8
DEFAULT_255_1_388
10
18.6347563
20
39.5473803
11
18.5949995
21
39.1886652
0
LINE
8
DEFAULT_255_1_388
10
18.3790476
20
38.7323652
11
18.5371713
21
38.7323652
0
LINE
8
DEFAULT_255_1_388
10
18.6040351
20
39.0477092
11
18.5597604
21
39.0115666
0
ARC
8
DEFAULT_255_1_388
10
18.8036608
20
38.8309241
40
0.4141476
50
93.7181681
51
120.253934
0
ARC
8
DEFAULT_255_1_388
10
18.814266
20
38.7400284
40
0.5055616
50
89.9660471
51
94.2495185
0
ARC
8
DEFAULT_255_1_388
10
18.8188482
20
38.8063154
40
0.4392953
50
73.8045384
51
90.5585736
0
ARC
8
DEFAULT_255_1_388
10
18.845274
20
38.902852
40
0.3392225
50
41.3071072
51
73.543002
0
ARC
8
DEFAULT_255_1_388
10
18.798456
20
38.8625461
40
0.4009977
50
13.5075837
51
41.2174839
0
ARC
8
DEFAULT_255_1_388
10
18.6137657
20
38.8141907
40
0.5918864
50
1.1330171
51
13.8830737
0
ARC
8
DEFAULT_255_1_388
10
18.4541303
20
38.8056522
40
0.7516787
50
359.9925091
51
1.5431298
0
ARC
8
DEFAULT_255_1_388
10
18.5985918
20
38.8010027
40
0.6072343
50
347.8572712
51
0.4294349
0
ARC
8
DEFAULT_255_1_388
10
18.7955053
20
38.7563898
40
0.4053482
50
323.6727442
51
348.1674594
0
ARC
8
DEFAULT_255_1_388
10
18.8286017
20
38.7362175
40
0.3667495
50
316.8171818
51
323.1486802
0
ARC
8
DEFAULT_255_1_388
10
18.8355141
20
38.7320612
40
0.358869
50
281.839603
51
316.5458142
0
ARC
8
DEFAULT_255_1_388
10
18.7932429
20
38.9070363
40
0.5388223
50
269.5770964
51
282.4214641
0
ARC
8
DEFAULT_255_1_388
10
18.7852349
20
38.882993
40
0.5147801
50
256.2425863
51
270.4486481
0
ARC
8
DEFAULT_255_1_388
10
18.7515877
20
38.7480124
40
0.3756708
50
228.9024379
51
256.33135
0
ARC
8
DEFAULT_255_1_388
10
18.7432857
20
38.7349054
40
0.360344
50
193.7536029
51
228.5272638
0
ARC
8
DEFAULT_255_1_388
10
18.8825422
20
38.7757463
40
0.5053599
50
184.9244437
51
194.4976052
0
ARC
8
DEFAULT_255_1_388
10
18.9042063
20
38.7797722
40
0.3700839
50
187.3596909
51
198.6733728
0
ARC
8
DEFAULT_255_1_388
10
18.7861307
20
38.7388373
40
0.2451195
50
198.4453795
51
217.7945479
0
ARC
8
DEFAULT_255_1_388
10
18.7528479
20
38.7152563
40
0.2043754
50
218.2887146
51
228.5613203
0
ARC
8
DEFAULT_255_1_388
10
18.7638486
20
38.7300902
40
0.2227819
50
228.9652423
51
258.1237049
0
ARC
8
DEFAULT_255_1_388
10
18.7869924
20
38.8291964
40
0.3245374
50
257.7260585
51
270.4013717
0
ARC
8
DEFAULT_255_1_388
10
18.7920422
20
38.7791255
40
0.2744726
50
269.4204315
51
286.420998
0
ARC
8
DEFAULT_255_1_388
10
18.8087477
20
38.7184705
40
0.2115721
50
286.7250065
51
320.6004665
0
ARC
8
DEFAULT_255_1_388
10
18.7656393
20
38.7534527
40
0.2670878
50
320.6712228
51
344.5440474
0
ARC
8
DEFAULT_255_1_388
10
18.6355107
20
38.7916394
40
0.4026927
50
344.241448
51
356.735803
0
ARC
8
DEFAULT_255_1_388
10
18.4951414
20
38.8032656
40
0.5435085
50
356.3547471
51
0.0507222
0
ARC
8
DEFAULT_255_1_388
10
18.6453679
20
38.8067812
40
0.3932934
50
359.5579289
51
12.9534322
0
ARC
8
DEFAULT_255_1_388
10
18.7640519
20
38.8355586
40
0.2711827
50
12.6489751
51
41.608121
0
ARC
8
DEFAULT_255_1_388
10
18.7899679
20
38.8575946
40
0.2371737
50
41.7851122
51
85.9892156
0
ARC
8
DEFAULT_255_1_388
10
18.7760989
20
38.7660738
40
0.3295244
50
84.6965848
51
90.0672125
0
ARC
8
DEFAULT_255_1_388
10
18.7734557
20
38.6909118
40
0.4046926
50
89.6804991
51
99.161352
0
ARC
8
DEFAULT_255_1_388
10
18.7503566
20
38.8289848
40
0.2647044
50
98.9836248
51
113.8905702
0
ARC
8
DEFAULT_255_1_388
10
18.7245241
20
38.8899118
40
0.1985386
50
114.195234
51
127.3641866
0
LINE
8
DEFAULT_255_1_388
10
20.2132834
20
39.164269
11
20.2132834
21
38.9474135
0
LINE
8
DEFAULT_255_1_388
10
19.3829077
20
38.9248244
11
19.3829077
21
39.1480048
0
LINE
8
DEFAULT_255_1_388
10
20.046124
20
38.9022353
11
20.046124
21
39.1760153
0
LINE
8
DEFAULT_255_1_388
10
19.5500671
20
39.1886652
11
19.5500671
21
38.9212102
0
ARC
8
DEFAULT_255_1_388
10
18.8355168
20
38.9419118
40
1.3777776
50
353.8440855
51
0.2287917
0
ARC
8
DEFAULT_255_1_388
10
19.3574185
20
38.8836414
40
0.852639
50
344.4934746
51
353.9763743
0
ARC
8
DEFAULT_255_1_388
10
19.6940993
20
38.7879191
40
0.5026273
50
329.2803599
51
344.7473406
0
ARC
8
DEFAULT_255_1_388
10
19.8056488
20
38.7267038
40
0.3754848
50
324.9361395
51
328.6153007
0
ARC
8
DEFAULT_255_1_388
10
19.8482138
20
38.6969586
40
0.3235566
50
280.5801797
51
324.9173226
0
ARC
8
DEFAULT_255_1_388
10
19.8030767
20
38.8849236
40
0.5167077
50
269.5979457
51
281.6732777
0
ARC
8
DEFAULT_255_1_388
10
19.794967
20
38.8714113
40
0.5032026
50
256.6228565
51
270.5105488
0
ARC
8
DEFAULT_255_1_388
10
19.7497413
20
38.6972345
40
0.3233092
50
215.8618351
51
257.2787793
0
ARC
8
DEFAULT_255_1_388
10
19.864612
20
38.7743106
40
0.4615831
50
197.9695203
51
215.2622745
0
ARC
8
DEFAULT_255_1_388
10
20.1441796
20
38.8686641
40
0.7566307
50
187.8816486
51
198.2346584
0
ARC
8
DEFAULT_255_1_388
10
20.5895034
20
38.9329453
40
1.2065653
50
180.8977266
51
188.0054894
0
ARC
8
DEFAULT_255_1_388
10
20.8945248
20
38.94444
40
1.5117443
50
180.7434591
51
181.152202
0
ARC
8
DEFAULT_255_1_388
10
20.7270243
20
39.1534371
40
1.3441277
50
173.7674302
51
180.2315596
0
ARC
8
DEFAULT_255_1_388
10
20.2188112
20
39.2108779
40
0.8326847
50
164.3058537
51
173.9000553
0
ARC
8
DEFAULT_255_1_388
10
19.8912112
20
39.3052652
40
0.4917711
50
148.7922028
51
164.5682288
0
ARC
8
DEFAULT_255_1_388
10
19.784285
20
39.3649457
40
0.3694204
50
144.5883979
51
148.1161588
0
ARC
8
DEFAULT_255_1_388
10
19.7455595
20
39.3919667
40
0.322202
50
101.6440149
51
144.5142619
0
ARC
8
DEFAULT_255_1_388
10
19.7933787
20
39.2019337
40
0.5180451
50
89.528284
51
102.5820197
0
ARC
8
DEFAULT_255_1_388
10
19.8022779
20
39.1975376
40
0.5224441
50
77.0437914
51
90.508231
0
ARC
8
DEFAULT_255_1_388
10
19.8475033
20
39.3823272
40
0.3322297
50
48.2777708
51
77.4996087
0
ARC
8
DEFAULT_255_1_388
10
19.8556773
20
39.3968557
40
0.315966
50
36.3141586
51
47.6307332
0
ARC
8
DEFAULT_255_1_388
10
19.7579495
20
39.3310159
40
0.4337313
50
18.2931065
51
35.6770203
0
ARC
8
DEFAULT_255_1_388
10
19.4718336
20
39.2328107
40
0.7362203
50
8.0246996
51
18.5605636
0
ARC
8
DEFAULT_255_1_388
10
19.0034691
20
39.1636432
40
1.2096583
50
1.127539
51
8.1718423
0
ARC
8
DEFAULT_255_1_388
10
18.6385825
20
39.1493374
40
1.5747719
50
0.5432713
51
1.38669
0
ARC
8
DEFAULT_255_1_388
10
18.8443204
20
39.1800163
40
1.2018103
50
359.8092569
51
4.9408001
0
ARC
8
DEFAULT_255_1_388
10
19.3179785
20
39.22229
40
0.7262727
50
4.8364937
51
12.2906017
0
ARC
8
DEFAULT_255_1_388
10
19.627925
20
39.2913485
40
0.4087324
50
12.0806994
51
23.8171225
0
ARC
8
DEFAULT_255_1_388
10
19.7599646
20
39.3472508
40
0.2653719
50
24.2874621
51
31.3934353
0
ARC
8
DEFAULT_255_1_388
10
19.8190082
20
39.3858822
40
0.1948607
50
30.7407708
51
82.4658033
0
ARC
8
DEFAULT_255_1_388
10
19.7987742
20
39.2865017
40
0.2961198
50
81.1057101
51
90.2187368
0
ARC
8
DEFAULT_255_1_388
10
19.7947554
20
39.3155421
40
0.2670929
50
89.380395
51
105.6763916
0
ARC
8
DEFAULT_255_1_388
10
19.7741276
20
39.390532
40
0.1893189
50
105.7980655
51
149.7387869
0
ARC
8
DEFAULT_255_1_388
10
19.8938416
20
39.3185719
40
0.3289892
50
149.4208441
51
163.628295
0
ARC
8
DEFAULT_255_1_388
10
20.1290646
20
39.2468345
40
0.5749004
50
163.3764549
51
172.141138
0
ARC
8
DEFAULT_255_1_388
10
20.5003367
20
39.1936582
40
0.9499585
50
172.0258462
51
178.0705453
0
ARC
8
DEFAULT_255_1_388
10
20.842492
20
39.1774682
40
1.2924734
50
177.8639301
51
179.5036263
0
ARC
8
DEFAULT_255_1_388
10
20.7205939
20
38.9171151
40
1.170534
50
179.7995545
51
185.246089
0
ARC
8
DEFAULT_255_1_388
10
20.2657532
20
38.8740404
40
0.7136613
50
185.1411911
51
193.0082205
0
ARC
8
DEFAULT_255_1_388
10
19.9683793
20
38.8037441
40
0.4080987
50
192.7897338
51
205.2507384
0
ARC
8
DEFAULT_255_1_388
10
19.8506003
20
38.7511538
40
0.2791522
50
205.8001921
51
211.2545876
0
ARC
8
DEFAULT_255_1_388
10
19.7917542
20
38.7117132
40
0.2084074
50
210.3789935
51
238.4007996
0
ARC
8
DEFAULT_255_1_388
10
19.7895628
20
38.7169786
40
0.2117943
50
239.6521916
51
265.9793852
0
ARC
8
DEFAULT_255_1_388
10
19.7991477
20
38.7926358
40
0.2879689
50
265.1324455
51
270.0603288
0
ARC
8
DEFAULT_255_1_388
10
19.8023854
20
38.7561418
40
0.2514919
50
269.3314378
51
287.2180039
0
ARC
8
DEFAULT_255_1_388
10
19.8178936
20
38.6995291
40
0.1928357
50
287.7957942
51
329.0808983
0
ARC
8
DEFAULT_255_1_388
10
19.7101693
20
38.7667651
40
0.319808
50
328.6635261
51
343.3325043
0
ARC
8
DEFAULT_255_1_388
10
19.4657152
20
38.8429195
40
0.5758408
50
343.0498092
51
351.9392499
0
ARC
8
DEFAULT_255_1_388
10
19.0756473
20
38.9004205
40
0.9701202
50
351.8071632
51
357.7957897
0
ARC
8
DEFAULT_255_1_388
10
18.712195
20
38.9192724
40
1.3340376
50
357.5870923
51
359.2682493
0
LINE
8
DEFAULT_255_1_388
10
21.2523825
20
39.164269
11
21.2523825
21
38.9474135
0
LINE
8
DEFAULT_255_1_388
10
20.4220068
20
38.9248244
11
20.4220068
21
39.1480048
0
LINE
8
DEFAULT_255_1_388
10
21.0852231
20
38.9022353
11
21.0852231
21
39.1760153
0
LINE
8
DEFAULT_255_1_388
10
20.5891662
20
39.1886652
11
20.5891662
21
38.9212102
0
ARC
8
DEFAULT_255_1_388
10
19.8746159
20
38.9419118
40
1.3777776
50
353.8440855
51
0.2287917
0
ARC
8
DEFAULT_255_1_388
10
20.3965177
20
38.8836414
40
0.852639
50
344.4934746
51
353.9763743
0
ARC
8
DEFAULT_255_1_388
10
20.7331984
20
38.7879191
40
0.5026273
50
329.2803599
51
344.7473406
0
ARC
8
DEFAULT_255_1_388
10
20.8447479
20
38.7267038
40
0.3754848
50
324.9361395
51
328.6153007
0
ARC
8
DEFAULT_255_1_388
10
20.8873129
20
38.6969586
40
0.3235566
50
280.5801797
51
324.9173226
0
ARC
8
DEFAULT_255_1_388
10
20.8421758
20
38.8849236
40
0.5167077
50
269.5979457
51
281.6732777
0
ARC
8
DEFAULT_255_1_388
10
20.8340661
20
38.8714113
40
0.5032026
50
256.6228565
51
270.5105488
0
ARC
8
DEFAULT_255_1_388
10
20.7888404
20
38.6972345
40
0.3233092
50
215.8618351
51
257.2787793
0
ARC
8
DEFAULT_255_1_388
10
20.9037111
20
38.7743106
40
0.4615831
50
197.9695203
51
215.2622745
0
ARC
8
DEFAULT_255_1_388
10
21.1832787
20
38.8686641
40
0.7566307
50
187.8816486
51
198.2346584
0
ARC
8
DEFAULT_255_1_388
10
21.6286025
20
38.9329453
40
1.2065653
50
180.8977266
51
188.0054894
0
ARC
8
DEFAULT_255_1_388
10
21.9336239
20
38.94444
40
1.5117443
50
180.7434591
51
181.152202
0
ARC
8
DEFAULT_255_1_388
10
21.7661235
20
39.1534371
40
1.3441277
50
173.7674302
51
180.2315596
0
ARC
8
DEFAULT_255_1_388
10
21.2579104
20
39.2108779
40
0.8326847
50
164.3058537
51
173.9000553
0
ARC
8
DEFAULT_255_1_388
10
20.9303104
20
39.3052652
40
0.4917711
50
148.7922028
51
164.5682288
0
ARC
8
DEFAULT_255_1_388
10
20.8233841
20
39.3649457
40
0.3694204
50
144.5883979
51
148.1161588
0
ARC
8
DEFAULT_255_1_388
10
20.7846586
20
39.3919667
40
0.322202
50
101.6440149
51
144.5142619
0
ARC
8
DEFAULT_255_1_388
10
20.8324779
20
39.2019337
40
0.5180451
50
89.528284
51
102.5820197
0
ARC
8
DEFAULT_255_1_388
10
20.841377
20
39.1975376
40
0.5224441
50
77.0437914
51
90.508231
0
ARC
8
DEFAULT_255_1_388
10
20.8866024
20
39.3823272
40
0.3322297
50
48.2777708
51
77.4996087
0
ARC
8
DEFAULT_255_1_388
10
20.8947764
20
39.3968557
40
0.315966
50
36.3141586
51
47.6307332
0
ARC
8
DEFAULT_255_1_388
10
20.7970486
20
39.3310159
40
0.4337313
50
18.2931065
51
35.6770203
0
ARC
8
DEFAULT_255_1_388
10
20.5109327
20
39.2328107
40
0.7362203
50
8.0246996
51
18.5605636
0
ARC
8
DEFAULT_255_1_388
10
20.0425683
20
39.1636432
40
1.2096583
50
1.127539
51
8.1718423
0
ARC
8
DEFAULT_255_1_388
10
19.6776816
20
39.1493374
40
1.5747719
50
0.5432713
51
1.38669
0
ARC
8
DEFAULT_255_1_388
10
19.8834195
20
39.1800163
40
1.2018103
50
359.8092569
51
4.9408001
0
ARC
8
DEFAULT_255_1_388
10
20.3570776
20
39.22229
40
0.7262727
50
4.8364937
51
12.2906017
0
ARC
8
DEFAULT_255_1_388
10
20.6670241
20
39.2913485
40
0.4087324
50
12.0806994
51
23.8171225
0
ARC
8
DEFAULT_255_1_388
10
20.7990637
20
39.3472508
40
0.2653719
50
24.2874621
51
31.3934353
0
ARC
8
DEFAULT_255_1_388
10
20.8581073
20
39.3858822
40
0.1948607
50
30.7407708
51
82.4658033
0
ARC
8
DEFAULT_255_1_388
10
20.8378734
20
39.2865017
40
0.2961198
50
81.1057101
51
90.2187368
0
ARC
8
DEFAULT_255_1_388
10
20.8338545
20
39.3155421
40
0.2670929
50
89.380395
51
105.6763916
0
ARC
8
DEFAULT_255_1_388
10
20.8132267
20
39.390532
40
0.1893189
50
105.7980655
51
149.7387869
0
ARC
8
DEFAULT_255_1_388
10
20.9329407
20
39.3185719
40
0.3289892
50
149.4208441
51
163.628295
0
ARC
8
DEFAULT_255_1_388
10
21.1681637
20
39.2468345
40
0.5749004
50
163.3764549
51
172.141138
0
ARC
8
DEFAULT_255_1_388
10
21.5394359
20
39.1936582
40
0.9499585
50
172.0258462
51
178.0705453
0
ARC
8
DEFAULT_255_1_388
10
21.8815911
20
39.1774682
40
1.2924734
50
177.8639301
51
179.5036263
0
ARC
8
DEFAULT_255_1_388
10
21.759693
20
38.9171151
40
1.170534
50
179.7995545
51
185.246089
0
ARC
8
DEFAULT_255_1_388
10
21.3048523
20
38.8740404
40
0.7136613
50
185.1411911
51
193.0082205
0
ARC
8
DEFAULT_255_1_388
10
21.0074784
20
38.8037441
40
0.4080987
50
192.7897338
51
205.2507384
0
ARC
8
DEFAULT_255_1_388
10
20.8896994
20
38.7511538
40
0.2791522
50
205.8001921
51
211.2545876
0
ARC
8
DEFAULT_255_1_388
10
20.8308533
20
38.7117132
40
0.2084074
50
210.3789935
51
238.4007996
0
ARC
8
DEFAULT_255_1_388
10
20.8286619
20
38.7169786
40
0.2117943
50
239.6521916
51
265.9793852
0
ARC
8
DEFAULT_255_1_388
10
20.8382468
20
38.7926358
40
0.2879689
50
265.1324455
51
270.0603288
0
ARC
8
DEFAULT_255_1_388
10
20.8414845
20
38.7561418
40
0.2514919
50
269.3314378
51
287.2180039
0
ARC
8
DEFAULT_255_1_388
10
20.8569927
20
38.6995291
40
0.1928357
50
287.7957942
51
329.0808983
0
ARC
8
DEFAULT_255_1_388
10
20.7492684
20
38.7667651
40
0.319808
50
328.6635261
51
343.3325043
0
ARC
8
DEFAULT_255_1_388
10
20.5048143
20
38.8429195
40
0.5758408
50
343.0498092
51
351.9392499
0
ARC
8
DEFAULT_255_1_388
10
20.1147464
20
38.9004205
40
0.9701202
50
351.8071632
51
357.7957897
0
ARC
8
DEFAULT_255_1_388
10
19.7512941
20
38.9192724
40
1.3340376
50
357.5870923
51
359.2682493
0
LINE
8
DEFAULT_255_1_388
10
4.1690903
20
37.7174898
11
4.1690903
21
36.5437596
0
LINE
8
DEFAULT_255_1_388
10
4.1690903
20
36.5437596
11
4.7925498
21
36.5437596
0
LINE
8
DEFAULT_255_1_388
10
4.7925498
20
36.5437596
11
4.7925498
21
36.4019
0
LINE
8
DEFAULT_255_1_388
10
4.7925498
20
36.4019
11
3.9947024
21
36.4019
0
LINE
8
DEFAULT_255_1_388
10
3.9947024
20
36.4019
11
3.9947024
21
37.7174898
0
LINE
8
DEFAULT_255_1_388
10
3.9947024
20
37.7174898
11
4.1690903
21
37.7174898
0
LINE
8
DEFAULT_255_1_388
10
5.4431162
20
37.4915987
11
5.4431162
21
37.1075838
0
LINE
8
DEFAULT_255_1_388
10
5.4431162
20
37.1075838
11
5.8099634
21
37.1075838
0
LINE
8
DEFAULT_255_1_388
10
5.8099634
20
37.1075838
11
5.8099634
21
36.9494601
0
LINE
8
DEFAULT_255_1_388
10
5.8099634
20
36.9494601
11
5.4431162
21
36.9494601
0
LINE
8
DEFAULT_255_1_388
10
5.4431162
20
36.9494601
11
5.4431162
21
36.5338204
0
LINE
8
DEFAULT_255_1_388
10
5.4431162
20
36.5338204
11
5.2750532
21
36.5338204
0
LINE
8
DEFAULT_255_1_388
10
5.2750532
20
36.5338204
11
5.2750532
21
36.9494601
0
LINE
8
DEFAULT_255_1_388
10
5.2750532
20
36.9494601
11
4.9082061
21
36.9494601
0
LINE
8
DEFAULT_255_1_388
10
4.9082061
20
36.9494601
11
4.9082061
21
37.1075838
0
LINE
8
DEFAULT_255_1_388
10
4.9082061
20
37.1075838
11
5.2750532
21
37.1075838
0
LINE
8
DEFAULT_255_1_388
10
5.2750532
20
37.1075838
11
5.2750532
21
37.4915987
0
LINE
8
DEFAULT_255_1_388
10
5.2750532
20
37.4915987
11
5.4431162
21
37.4915987
0
LINE
8
DEFAULT_255_1_388
10
4.4316389
20
4.6519
11
4.0675024
21
4.6519
0
LINE
8
DEFAULT_255_1_388
10
4.0675024
20
4.6519
11
4.0675024
21
5.9674898
0
LINE
8
DEFAULT_255_1_388
10
4.0675024
20
5.9674898
11
4.4388674
21
5.9674898
0
LINE
8
DEFAULT_255_1_388
10
5.0189558
20
5.3539696
11
5.0189558
21
5.2699381
0
LINE
8
DEFAULT_255_1_388
10
4.4433852
20
5.8247267
11
4.2409868
21
5.8247267
0
LINE
8
DEFAULT_255_1_388
10
4.2409868
20
5.8247267
11
4.2409868
21
4.7937596
0
LINE
8
DEFAULT_255_1_388
10
4.2409868
20
4.7937596
11
4.4235068
21
4.7937596
0
LINE
8
DEFAULT_255_1_388
10
4.8472785
20
5.2735523
11
4.8472785
21
5.3503553
0
ARC
8
DEFAULT_255_1_388
10
4.4432469
20
5.3076436
40
0.6598608
50
75.4100343
51
90.3802731
0
ARC
8
DEFAULT_255_1_388
10
4.4690714
20
5.4152691
40
0.5492049
50
60.1455157
51
75.1889627
0
ARC
8
DEFAULT_255_1_388
10
4.4869306
20
5.4463914
40
0.5133226
50
26.525419
51
60.1451222
0
ARC
8
DEFAULT_255_1_388
10
4.3609092
20
5.3795642
40
0.6559324
50
7.4029944
51
26.832209
0
ARC
8
DEFAULT_255_1_388
10
4.1815489
20
5.3516229
40
0.8374103
50
0.1605597
51
7.7176135
0
ARC
8
DEFAULT_255_1_388
10
4.1999889
20
5.2656321
40
0.8189782
50
348.7289744
51
0.30125
0
ARC
8
DEFAULT_255_1_388
10
4.3863353
20
5.2286156
40
0.628991
50
333.0706936
51
348.7181455
0
ARC
8
DEFAULT_255_1_388
10
4.4950981
20
5.1695449
40
0.5052808
50
299.2531435
51
333.4571133
0
ARC
8
DEFAULT_255_1_388
10
4.4545012
20
5.2466629
40
0.5924066
50
278.1072193
51
299.0340218
0
ARC
8
DEFAULT_255_1_388
10
4.4257061
20
5.4162979
40
0.7644209
50
270.4446841
51
278.4508355
0
ARC
8
DEFAULT_255_1_388
10
4.4280545
20
5.31173
40
0.5179903
50
269.4969684
51
284.0204874
0
ARC
8
DEFAULT_255_1_388
10
4.4680263
20
5.1581415
40
0.3592968
50
283.7699076
51
318.1557121
0
ARC
8
DEFAULT_255_1_388
10
4.4300808
20
5.1865399
40
0.4065308
50
318.7417595
51
343.687252
0
ARC
8
DEFAULT_255_1_388
10
4.2271387
20
5.2499275
40
0.6191194
50
343.3324891
51
355.8548594
0
ARC
8
DEFAULT_255_1_388
10
3.9910424
20
5.2723719
40
0.856237
50
355.4988754
51
0.0789913
0
ARC
8
DEFAULT_255_1_388
10
4.0791224
20
5.355108
40
0.7681709
50
359.6455047
51
9.8607559
0
ARC
8
DEFAULT_255_1_388
10
4.3446947
20
5.4030664
40
0.498312
50
9.6573037
51
26.1931522
0
ARC
8
DEFAULT_255_1_388
10
4.4491022
20
5.4515587
40
0.3832303
50
26.5777895
51
40.1533752
0
ARC
8
DEFAULT_255_1_388
10
4.4778687
20
5.474002
40
0.3467742
50
40.3839958
51
80.1430923
0
ARC
8
DEFAULT_255_1_388
10
4.4410942
20
5.3109486
40
0.5137832
50
79.2153636
51
89.7445174
0
LINE
8
DEFAULT_255_1_388
10
5.7643964
20
5.1669317
11
5.4544738
21
5.1669317
0
LINE
8
DEFAULT_255_1_388
10
5.4544738
20
5.1669317
11
5.4544738
21
4.6519
0
LINE
8
DEFAULT_255_1_388
10
5.4544738
20
4.6519
11
5.2809895
21
4.6519
0
LINE
8
DEFAULT_255_1_388
10
5.2809895
20
4.6519
11
5.2809895
21
5.9674898
0
LINE
8
DEFAULT_255_1_388
10
5.2809895
20
5.9674898
11
5.7662036
21
5.9674898
0
LINE
8
DEFAULT_255_1_388
10
5.4544738
20
5.8247267
11
5.4544738
21
5.3087914
0
LINE
8
DEFAULT_255_1_388
10
5.4544738
20
5.3087914
11
5.7662036
21
5.3087914
0
LINE
8
DEFAULT_255_1_388
10
5.7761428
20
5.8247267
11
5.4544738
21
5.8247267
0
ARC
8
DEFAULT_255_1_388
10
5.7709409
20
5.2858334
40
0.6816729
50
78.8380084
51
90.398184
0
ARC
8
DEFAULT_255_1_388
10
5.8177439
20
5.5131796
40
0.449571
50
58.9633273
51
79.0810717
0
ARC
8
DEFAULT_255_1_388
10
5.8516824
20
5.5761823
40
0.3781049
50
48.0194715
51
58.4475592
0
ARC
8
DEFAULT_255_1_388
10
5.8616644
20
5.5857818
40
0.3642936
50
3.3374546
51
48.1766642
0
ARC
8
DEFAULT_255_1_388
10
5.7231451
20
5.5658581
40
0.5038766
50
359.9483251
51
4.6822857
0
ARC
8
DEFAULT_255_1_388
10
5.7371374
20
5.5610779
40
0.4899031
50
346.1879032
51
0.5059221
0
ARC
8
DEFAULT_255_1_388
10
5.8900165
20
5.5213763
40
0.3319729
50
310.8832219
51
346.5426612
0
ARC
8
DEFAULT_255_1_388
10
5.8553014
20
5.5682853
40
0.3901853
50
286.6925305
51
310.228778
0
ARC
8
DEFAULT_255_1_388
10
5.7912744
20
5.7696585
40
0.6014737
50
274.6848219
51
287.0247342
0
ARC
8
DEFAULT_255_1_388
10
5.7659292
20
6.0181088
40
0.8511785
50
269.8968222
51
275.0192639
0
ARC
8
DEFAULT_255_1_388
10
5.7690286
20
5.7843144
40
0.4755314
50
269.6596206
51
279.4150542
0
ARC
8
DEFAULT_255_1_388
10
5.7979744
20
5.6165945
40
0.3053379
50
279.2050006
51
294.9901776
0
ARC
8
DEFAULT_255_1_388
10
5.8306378
20
5.5437353
40
0.2255036
50
295.2886769
51
311.2912669
0
ARC
8
DEFAULT_255_1_388
10
5.8386119
20
5.5318938
40
0.2113522
50
311.7853512
51
347.2860549
0
ARC
8
DEFAULT_255_1_388
10
5.7279281
20
5.560343
40
0.3256011
50
346.6891629
51
0.1057086
0
ARC
8
DEFAULT_255_1_388
10
5.6356741
20
5.5636247
40
0.417863
50
359.63239
51
359.9961329
0
ARC
8
DEFAULT_255_1_388
10
5.7521346
20
5.5663987
40
0.3014155
50
359.4673371
51
15.5931159
0
ARC
8
DEFAULT_255_1_388
10
5.8224408
20
5.5853937
40
0.2285918
50
15.7441779
51
46.620186
0
ARC
8
DEFAULT_255_1_388
10
5.8058168
20
5.5662361
40
0.2539359
50
46.8628482
51
75.6676625
0
ARC
8
DEFAULT_255_1_388
10
5.7727225
20
5.4471243
40
0.3775415
50
75.2763152
51
88.2916439
0
ARC
8
DEFAULT_255_1_388
10
5.7661224
20
5.3469097
40
0.4779221
50
87.8589087
51
88.7986197
0
LINE
8
DEFAULT_255_1_388
10
4.4751094
20
13.1044317
11
4.1651868
21
13.1044317
0
LINE
8
DEFAULT_255_1_388
10
4.1651868
20
13.1044317
11
4.1651868
21
12.5894
0
LINE
8
DEFAULT_255_1_388
10
4.1651868
20
12.5894
11
3.9917024
21
12.5894
0
LINE
8
DEFAULT_255_1_388
10
3.9917024
20
12.5894
11
3.9917024
21
13.9049898
0
LINE
8
DEFAULT_255_1_388
10
3.9917024
20
13.9049898
11
4.4769165
21
13.9049898
0
LINE
8
DEFAULT_255_1_388
10
4.1651868
20
13.7622267
11
4.1651868
21
13.2462914
0
LINE
8
DEFAULT_255_1_388
10
4.1651868
20
13.2462914
11
4.4769165
21
13.2462914
0
LINE
8
DEFAULT_255_1_388
10
4.4868557
20
13.7622267
11
4.1651868
21
13.7622267
0
ARC
8
DEFAULT_255_1_388
10
4.4816538
20
13.2233334
40
0.6816729
50
78.8380084
51
90.398184
0
ARC
8
DEFAULT_255_1_388
10
4.5284569
20
13.4506796
40
0.449571
50
58.9633273
51
79.0810717
0
ARC
8
DEFAULT_255_1_388
10
4.5623953
20
13.5136823
40
0.3781049
50
48.0194715
51
58.4475592
0
ARC
8
DEFAULT_255_1_388
10
4.5723773
20
13.5232818
40
0.3642936
50
3.3374546
51
48.1766642
0
ARC
8
DEFAULT_255_1_388
10
4.433858
20
13.5033581
40
0.5038766
50
359.9483251
51
4.6822857
0
ARC
8
DEFAULT_255_1_388
10
4.4478503
20
13.4985779
40
0.4899031
50
346.1879032
51
0.5059221
0
ARC
8
DEFAULT_255_1_388
10
4.6007295
20
13.4588763
40
0.3319729
50
310.8832219
51
346.5426612
0
ARC
8
DEFAULT_255_1_388
10
4.5660143
20
13.5057853
40
0.3901853
50
286.6925305
51
310.228778
0
ARC
8
DEFAULT_255_1_388
10
4.5019873
20
13.7071585
40
0.6014737
50
274.6848219
51
287.0247342
0
ARC
8
DEFAULT_255_1_388
10
4.4766422
20
13.9556088
40
0.8511785
50
269.8968222
51
275.0192639
0
ARC
8
DEFAULT_255_1_388
10
4.4797415
20
13.7218144
40
0.4755314
50
269.6596206
51
279.4150542
0
ARC
8
DEFAULT_255_1_388
10
4.5086873
20
13.5540945
40
0.3053379
50
279.2050006
51
294.9901776
0
ARC
8
DEFAULT_255_1_388
10
4.5413508
20
13.4812353
40
0.2255036
50
295.2886769
51
311.2912669
0
ARC
8
DEFAULT_255_1_388
10
4.5493249
20
13.4693938
40
0.2113522
50
311.7853512
51
347.2860549
0
ARC
8
DEFAULT_255_1_388
10
4.438641
20
13.497843
40
0.3256011
50
346.6891629
51
0.1057086
0
ARC
8
DEFAULT_255_1_388
10
4.346387
20
13.5011247
40
0.417863
50
359.63239
51
359.9961329
0
ARC
8
DEFAULT_255_1_388
10
4.4628475
20
13.5038987
40
0.3014155
50
359.4673371
51
15.5931159
0
ARC
8
DEFAULT_255_1_388
10
4.5331538
20
13.5228937
40
0.2285918
50
15.7441779
51
46.620186
0
ARC
8
DEFAULT_255_1_388
10
4.5165298
20
13.5037361
40
0.2539359
50
46.8628482
51
75.6676625
0
ARC
8
DEFAULT_255_1_388
10
4.4834354
20
13.3846243
40
0.3775415
50
75.2763152
51
88.2916439
0
ARC
8
DEFAULT_255_1_388
10
4.4768354
20
13.2844097
40
0.4779221
50
87.8589087
51
88.7986197
0
LINE
8
DEFAULT_255_1_388
10
6.1701963
20
13.9049898
11
6.1701963
21
12.5894
0
LINE
8
DEFAULT_255_1_388
10
6.1701963
20
12.5894
11
5.9958083
21
12.5894
0
LINE
8
DEFAULT_255_1_388
10
5.9958083
20
12.5894
11
5.3334956
21
13.6031993
0
LINE
8
DEFAULT_255_1_388
10
5.3334956
20
13.6031993
11
5.3334956
21
12.5894
0
LINE
8
DEFAULT_255_1_388
10
5.3334956
20
12.5894
11
5.1591077
21
12.5894
0
LINE
8
DEFAULT_255_1_388
10
5.1591077
20
12.5894
11
5.1591077
21
13.9049898
0
LINE
8
DEFAULT_255_1_388
10
5.1591077
20
13.9049898
11
5.3334956
21
13.9049898
0
LINE
8
DEFAULT_255_1_388
10
5.3334956
20
13.9049898
11
5.9976155
21
12.8866727
0
LINE
8
DEFAULT_255_1_388
10
5.9976155
20
12.8866727
11
5.9976155
21
13.9049898
0
LINE
8
DEFAULT_255_1_388
10
5.9976155
20
13.9049898
11
6.1701963
21
13.9049898
0
LINE
8
DEFAULT_255_1_388
10
4.4751094
20
21.0419317
11
4.1651868
21
21.0419317
0
LINE
8
DEFAULT_255_1_388
10
4.1651868
20
21.0419317
11
4.1651868
21
20.5269
0
LINE
8
DEFAULT_255_1_388
10
4.1651868
20
20.5269
11
3.9917024
21
20.5269
0
LINE
8
DEFAULT_255_1_388
10
3.9917024
20
20.5269
11
3.9917024
21
21.8424898
0
LINE
8
DEFAULT_255_1_388
10
3.9917024
20
21.8424898
11
4.4769165
21
21.8424898
0
LINE
8
DEFAULT_255_1_388
10
4.1651868
20
21.6997267
11
4.1651868
21
21.1837914
0
LINE
8
DEFAULT_255_1_388
10
4.1651868
20
21.1837914
11
4.4769165
21
21.1837914
0
LINE
8
DEFAULT_255_1_388
10
4.4868557
20
21.6997267
11
4.1651868
21
21.6997267
0
ARC
8
DEFAULT_255_1_388
10
4.4816538
20
21.1608334
40
0.6816729
50
78.8380084
51
90.398184
0
ARC
8
DEFAULT_255_1_388
10
4.5284569
20
21.3881796
40
0.449571
50
58.9633273
51
79.0810717
0
ARC
8
DEFAULT_255_1_388
10
4.5623953
20
21.4511823
40
0.3781049
50
48.0194715
51
58.4475592
0
ARC
8
DEFAULT_255_1_388
10
4.5723773
20
21.4607818
40
0.3642936
50
3.3374546
51
48.1766642
0
ARC
8
DEFAULT_255_1_388
10
4.433858
20
21.4408581
40
0.5038766
50
359.9483251
51
4.6822857
0
ARC
8
DEFAULT_255_1_388
10
4.4478503
20
21.4360779
40
0.4899031
50
346.1879032
51
0.5059221
0
ARC
8
DEFAULT_255_1_388
10
4.6007295
20
21.3963763
40
0.3319729
50
310.8832219
51
346.5426612
0
ARC
8
DEFAULT_255_1_388
10
4.5660143
20
21.4432853
40
0.3901853
50
286.6925305
51
310.228778
0
ARC
8
DEFAULT_255_1_388
10
4.5019873
20
21.6446585
40
0.6014737
50
274.6848219
51
287.0247342
0
ARC
8
DEFAULT_255_1_388
10
4.4766422
20
21.8931088
40
0.8511785
50
269.8968222
51
275.0192639
0
ARC
8
DEFAULT_255_1_388
10
4.4797415
20
21.6593144
40
0.4755314
50
269.6596206
51
279.4150542
0
ARC
8
DEFAULT_255_1_388
10
4.5086873
20
21.4915945
40
0.3053379
50
279.2050006
51
294.9901776
0
ARC
8
DEFAULT_255_1_388
10
4.5413508
20
21.4187353
40
0.2255036
50
295.2886769
51
311.2912669
0
ARC
8
DEFAULT_255_1_388
10
4.5493249
20
21.4068938
40
0.2113522
50
311.7853512
51
347.2860549
0
ARC
8
DEFAULT_255_1_388
10
4.438641
20
21.435343
40
0.3256011
50
346.6891629
51
0.1057086
0
ARC
8
DEFAULT_255_1_388
10
4.346387
20
21.4386247
40
0.417863
50
359.63239
51
359.9961329
0
ARC
8
DEFAULT_255_1_388
10
4.4628475
20
21.4413987
40
0.3014155
50
359.4673371
51
15.5931159
0
ARC
8
DEFAULT_255_1_388
10
4.5331538
20
21.4603937
40
0.2285918
50
15.7441779
51
46.620186
0
ARC
8
DEFAULT_255_1_388
10
4.5165298
20
21.4412361
40
0.2539359
50
46.8628482
51
75.6676625
0
ARC
8
DEFAULT_255_1_388
10
4.4834354
20
21.3221243
40
0.3775415
50
75.2763152
51
88.2916439
0
ARC
8
DEFAULT_255_1_388
10
4.4768354
20
21.2219097
40
0.4779221
50
87.8589087
51
88.7986197
0
LINE
8
DEFAULT_255_1_388
10
6.1701963
20
21.8424898
11
6.1701963
21
20.5269
0
LINE
8
DEFAULT_255_1_388
10
6.1701963
20
20.5269
11
5.9958083
21
20.5269
0
LINE
8
DEFAULT_255_1_388
10
5.9958083
20
20.5269
11
5.3334956
21
21.5406993
0
LINE
8
DEFAULT_255_1_388
10
5.3334956
20
21.5406993
11
5.3334956
21
20.5269
0
LINE
8
DEFAULT_255_1_388
10
5.3334956
20
20.5269
11
5.1591077
21
20.5269
0
LINE
8
DEFAULT_255_1_388
10
5.1591077
20
20.5269
11
5.1591077
21
21.8424898
0
LINE
8
DEFAULT_255_1_388
10
5.1591077
20
21.8424898
11
5.3334956
21
21.8424898
0
LINE
8
DEFAULT_255_1_388
10
5.3334956
20
21.8424898
11
5.9976155
21
20.8241727
0
LINE
8
DEFAULT_255_1_388
10
5.9976155
20
20.8241727
11
5.9976155
21
21.8424898
0
LINE
8
DEFAULT_255_1_388
10
5.9976155
20
21.8424898
11
6.1701963
21
21.8424898
0
LINE
8
DEFAULT_255_1_388
10
4.4751094
20
28.9794317
11
4.1651868
21
28.9794317
0
LINE
8
DEFAULT_255_1_388
10
4.1651868
20
28.9794317
11
4.1651868
21
28.4644
0
LINE
8
DEFAULT_255_1_388
10
4.1651868
20
28.4644
11
3.9917024
21
28.4644
0
LINE
8
DEFAULT_255_1_388
10
3.9917024
20
28.4644
11
3.9917024
21
29.7799898
0
LINE
8
DEFAULT_255_1_388
10
3.9917024
20
29.7799898
11
4.4769165
21
29.7799898
0
LINE
8
DEFAULT_255_1_388
10
4.1651868
20
29.6372267
11
4.1651868
21
29.1212914
0
LINE
8
DEFAULT_255_1_388
10
4.1651868
20
29.1212914
11
4.4769165
21
29.1212914
0
LINE
8
DEFAULT_255_1_388
10
4.4868557
20
29.6372267
11
4.1651868
21
29.6372267
0
ARC
8
DEFAULT_255_1_388
10
4.4816538
20
29.0983334
40
0.6816729
50
78.8380084
51
90.398184
0
ARC
8
DEFAULT_255_1_388
10
4.5284569
20
29.3256796
40
0.449571
50
58.9633273
51
79.0810717
0
ARC
8
DEFAULT_255_1_388
10
4.5623953
20
29.3886823
40
0.3781049
50
48.0194715
51
58.4475592
0
ARC
8
DEFAULT_255_1_388
10
4.5723773
20
29.3982818
40
0.3642936
50
3.3374546
51
48.1766642
0
ARC
8
DEFAULT_255_1_388
10
4.433858
20
29.3783581
40
0.5038766
50
359.9483251
51
4.6822857
0
ARC
8
DEFAULT_255_1_388
10
4.4478503
20
29.3735779
40
0.4899031
50
346.1879032
51
0.5059221
0
ARC
8
DEFAULT_255_1_388
10
4.6007295
20
29.3338763
40
0.3319729
50
310.8832219
51
346.5426612
0
ARC
8
DEFAULT_255_1_388
10
4.5660143
20
29.3807853
40
0.3901853
50
286.6925305
51
310.228778
0
ARC
8
DEFAULT_255_1_388
10
4.5019873
20
29.5821585
40
0.6014737
50
274.6848219
51
287.0247342
0
ARC
8
DEFAULT_255_1_388
10
4.4766422
20
29.8306088
40
0.8511785
50
269.8968222
51
275.0192639
0
ARC
8
DEFAULT_255_1_388
10
4.4797415
20
29.5968144
40
0.4755314
50
269.6596206
51
279.4150542
0
ARC
8
DEFAULT_255_1_388
10
4.5086873
20
29.4290945
40
0.3053379
50
279.2050006
51
294.9901776
0
ARC
8
DEFAULT_255_1_388
10
4.5413508
20
29.3562353
40
0.2255036
50
295.2886769
51
311.2912669
0
ARC
8
DEFAULT_255_1_388
10
4.5493249
20
29.3443938
40
0.2113522
50
311.7853512
51
347.2860549
0
ARC
8
DEFAULT_255_1_388
10
4.438641
20
29.372843
40
0.3256011
50
346.6891629
51
0.1057086
0
ARC
8
DEFAULT_255_1_388
10
4.346387
20
29.3761247
40
0.417863
50
359.63239
51
359.9961329
0
ARC
8
DEFAULT_255_1_388
10
4.4628475
20
29.3788987
40
0.3014155
50
359.4673371
51
15.5931159
0
ARC
8
DEFAULT_255_1_388
10
4.5331538
20
29.3978937
40
0.2285918
50
15.7441779
51
46.620186
0
ARC
8
DEFAULT_255_1_388
10
4.5165298
20
29.3787361
40
0.2539359
50
46.8628482
51
75.6676625
0
ARC
8
DEFAULT_255_1_388
10
4.4834354
20
29.2596243
40
0.3775415
50
75.2763152
51
88.2916439
0
ARC
8
DEFAULT_255_1_388
10
4.4768354
20
29.1594097
40
0.4779221
50
87.8589087
51
88.7986197
0
LINE
8
DEFAULT_255_1_388
10
6.1701963
20
29.7799898
11
6.1701963
21
28.4644
0
LINE
8
DEFAULT_255_1_388
10
6.1701963
20
28.4644
11
5.9958083
21
28.4644
0
LINE
8
DEFAULT_255_1_388
10
5.9958083
20
28.4644
11
5.3334956
21
29.4781993
0
LINE
8
DEFAULT_255_1_388
10
5.3334956
20
29.4781993
11
5.3334956
21
28.4644
0
LINE
8
DEFAULT_255_1_388
10
5.3334956
20
28.4644
11
5.1591077
21
28.4644
0
LINE
8
DEFAULT_255_1_388
10
5.1591077
20
28.4644
11
5.1591077
21
29.7799898
0
LINE
8
DEFAULT_255_1_388
10
5.1591077
20
29.7799898
11
5.3334956
21
29.7799898
0
LINE
8
DEFAULT_255_1_388
10
5.3334956
20
29.7799898
11
5.9976155
21
28.7616727
0
LINE
8
DEFAULT_255_1_388
10
5.9976155
20
28.7616727
11
5.9976155
21
29.7799898
0
LINE
8
DEFAULT_255_1_388
10
5.9976155
20
29.7799898
11
6.1701963
21
29.7799898
0
LINE
8
DEFAULT_255_1_388
10
23.0079024
20
37.7174898
11
23.2319864
21
37.7174898
0
LINE
8
DEFAULT_255_1_388
10
23.2319864
20
37.7174898
11
23.6620831
21
36.6440553
0
LINE
8
DEFAULT_255_1_388
10
23.6620831
20
36.6440553
11
24.0921797
21
37.7174898
0
LINE
8
DEFAULT_255_1_388
10
24.0921797
20
37.7174898
11
24.3171673
21
37.7174898
0
LINE
8
DEFAULT_255_1_388
10
24.3171673
20
37.7174898
11
24.3171673
21
36.4019
0
LINE
8
DEFAULT_255_1_388
10
24.3171673
20
36.4019
11
24.1436829
21
36.4019
0
LINE
8
DEFAULT_255_1_388
10
24.1436829
20
36.4019
11
24.1436829
21
36.914221
0
LINE
8
DEFAULT_255_1_388
10
24.1436829
20
36.914221
11
24.1599471
21
37.4672025
0
LINE
8
DEFAULT_255_1_388
10
24.1599471
20
37.4672025
11
23.7280433
21
36.4019
0
LINE
8
DEFAULT_255_1_388
10
23.7280433
20
36.4019
11
23.5952193
21
36.4019
0
LINE
8
DEFAULT_255_1_388
10
23.5952193
20
36.4019
11
23.164219
21
37.4644918
0
LINE
8
DEFAULT_255_1_388
10
23.164219
20
37.4644918
11
23.1813868
21
36.914221
0
LINE
8
DEFAULT_255_1_388
10
23.1813868
20
36.914221
11
23.1813868
21
36.4019
0
LINE
8
DEFAULT_255_1_388
10
23.1813868
20
36.4019
11
23.0079024
21
36.4019
0
LINE
8
DEFAULT_255_1_388
10
23.0079024
20
36.4019
11
23.0079024
21
37.7174898
0
ENDSEC
0
EOF