0
SECTION
2
HEADER
9
$MEASUREMENT
70
1
0
ENDSEC
0
SECTION
2
TABLES
0
TABLE
2
LTYPE
0
LTYPE
72
65
70
64
2
CONTINUOUS
3
______
73
0
40
0
0
ENDTAB
0
TABLE
2
LAYER
0
LAYER
2
DEFAULT_255_2_778
70
0
62
255
6
CONTINUOUS
0
ENDTAB
0
ENDSEC
0
SECTION
2
ENTITIES
0
LINE
8
DEFAULT_255_2_778
10
126.3902313
20
90.9359343
11
126.2897313
21
90.9359343
0
LINE
8
DEFAULT_255_2_778
10
126.2897313
20
90.9359343
11
126.5204313
21
87.8458343
0
LINE
8
DEFAULT_255_2_778
10
126.5204313
20
87.8458343
11
126.6278313
21
87.8458343
0
LINE
8
DEFAULT_255_2_778
10
126.6278313
20
87.8458343
11
126.3881313
21
90.9298343
0
LINE
8
DEFAULT_255_2_778
10
126.5280625
20
89.0920396
11
126.5309625
21
89.0515396
0
LINE
8
DEFAULT_255_2_778
10
126.5309625
20
89.0515396
11
126.5346625
21
89.0020396
0
LINE
8
DEFAULT_255_2_778
10
126.5346625
20
89.0020396
11
126.5368625
21
88.9732396
0
LINE
8
DEFAULT_255_2_778
10
126.5368625
20
88.9732396
11
126.5391625
21
88.9417396
0
LINE
8
DEFAULT_255_2_778
10
126.5391625
20
88.9417396
11
126.5444625
21
88.8711396
0
LINE
8
DEFAULT_255_2_778
10
126.5444625
20
88.8711396
11
126.5473625
21
88.8322396
0
LINE
8
DEFAULT_255_2_778
10
126.5473625
20
88.8322396
11
126.5503625
21
88.7920396
0
LINE
8
DEFAULT_255_2_778
10
126.5503625
20
88.7920396
11
126.5534625
21
88.7507396
0
LINE
8
DEFAULT_255_2_778
10
126.5534625
20
88.7507396
11
126.5566625
21
88.7084396
0
LINE
8
DEFAULT_255_2_778
10
126.5566625
20
88.7084396
11
126.5598625
21
88.6660396
0
LINE
8
DEFAULT_255_2_778
10
126.5598625
20
88.6660396
11
126.5630625
21
88.6240396
0
LINE
8
DEFAULT_255_2_778
10
126.5630625
20
88.6240396
11
126.5661625
21
88.5819396
0
LINE
8
DEFAULT_255_2_778
10
126.5661625
20
88.5819396
11
126.5693625
21
88.5401396
0
LINE
8
DEFAULT_255_2_778
10
126.5693625
20
88.5401396
11
126.5807625
21
88.3864396
0
LINE
8
DEFAULT_255_2_778
10
126.5807625
20
88.3864396
11
126.5833625
21
88.3522396
0
LINE
8
DEFAULT_255_2_778
10
126.5833625
20
88.3522396
11
126.5857625
21
88.3207396
0
LINE
8
DEFAULT_255_2_778
10
126.5857625
20
88.3207396
11
126.5899625
21
88.2646396
0
LINE
8
DEFAULT_255_2_778
10
126.5899625
20
88.2646396
11
126.5934625
21
88.2176396
0
LINE
8
DEFAULT_255_2_778
10
126.5934625
20
88.2176396
11
126.5963625
21
88.1789396
0
LINE
8
DEFAULT_255_2_778
10
126.5963625
20
88.1789396
11
126.5976625
21
88.1625396
0
LINE
8
DEFAULT_255_2_778
10
126.5976625
20
88.1625396
11
126.5987625
21
88.1480396
0
LINE
8
DEFAULT_255_2_778
10
126.5987625
20
88.1480396
11
126.6003625
21
88.1249396
0
LINE
8
DEFAULT_255_2_778
10
126.6003625
20
88.1249396
11
126.6021625
21
88.0990396
0
LINE
8
DEFAULT_255_2_778
10
126.6021625
20
88.0990396
11
126.6024625
21
88.0945396
0
LINE
8
DEFAULT_255_2_778
10
126.6024625
20
88.0945396
11
126.6024625
21
88.0948396
0
LINE
8
DEFAULT_255_2_778
10
126.6024625
20
88.0948396
11
126.6011625
21
88.1109396
0
LINE
8
DEFAULT_255_2_778
10
126.6011625
20
88.1109396
11
126.5997625
21
88.1284396
0
LINE
8
DEFAULT_255_2_778
10
126.5997625
20
88.1284396
11
126.5979625
21
88.1538396
0
LINE
8
DEFAULT_255_2_778
10
126.5979625
20
88.1538396
11
126.5955625
21
88.1879396
0
LINE
8
DEFAULT_255_2_778
10
126.5955625
20
88.1879396
11
126.5939625
21
88.2086396
0
LINE
8
DEFAULT_255_2_778
10
126.5939625
20
88.2086396
11
126.5923625
21
88.2318396
0
LINE
8
DEFAULT_255_2_778
10
126.5923625
20
88.2318396
11
126.5836625
21
88.3496396
0
LINE
8
DEFAULT_255_2_778
10
126.5836625
20
88.3496396
11
126.5809625
21
88.3856396
0
LINE
8
DEFAULT_255_2_778
10
126.5809625
20
88.3856396
11
126.5783625
21
88.4231396
0
LINE
8
DEFAULT_255_2_778
10
126.5783625
20
88.4231396
11
126.5725625
21
88.5028396
0
LINE
8
DEFAULT_255_2_778
10
126.5725625
20
88.5028396
11
126.5693625
21
88.5443396
0
LINE
8
DEFAULT_255_2_778
10
126.5693625
20
88.5443396
11
126.5661625
21
88.5864396
0
LINE
8
DEFAULT_255_2_778
10
126.5661625
20
88.5864396
11
126.5598625
21
88.6713396
0
LINE
8
DEFAULT_255_2_778
10
126.5598625
20
88.6713396
11
126.4595625
21
88.6713396
0
LINE
8
DEFAULT_255_2_778
10
120.6869094
20
145.7309332
11
120.5853094
21
145.7309332
0
LINE
8
DEFAULT_255_2_778
10
120.5853094
20
145.7309332
11
120.7988094
21
144.1111332
0
LINE
8
DEFAULT_255_2_778
10
120.7988094
20
144.1111332
11
120.8980094
21
144.1111332
0
LINE
8
DEFAULT_255_2_778
10
120.8980094
20
144.1111332
11
120.6914094
21
145.7317332
0
LINE
8
DEFAULT_255_2_778
10
121.2700094
20
141.2505332
11
121.4767094
21
139.6132332
0
LINE
8
DEFAULT_255_2_778
10
121.4767094
20
139.6132332
11
121.3714094
21
139.6018332
0
LINE
8
DEFAULT_255_2_778
10
121.3714094
20
139.6018332
11
121.1695094
21
141.2221332
0
ARC
8
DEFAULT_255_2_778
10
59.522513
20
-223.3968429
40
238.2897397
50
88.2978789
51
88.4893775
0
ARC
8
DEFAULT_255_2_778
10
59.7700053
20
-214.0346947
40
228.924321
50
88.4895273
51
88.6616303
0
ARC
8
DEFAULT_255_2_778
10
59.9559514
20
-206.0915672
40
220.9790175
50
88.661726
51
88.815897
0
ARC
8
DEFAULT_255_2_778
10
60.1282064
20
-197.7034418
40
212.5891235
50
88.8155945
51
89.0232323
0
ARC
8
DEFAULT_255_2_778
10
60.2904625
20
-188.1663226
40
203.0506242
50
89.0231345
51
89.2478378
0
ARC
8
DEFAULT_255_2_778
10
60.4018764
20
-179.7531903
40
194.6367542
50
89.2481211
51
89.4289323
0
ARC
8
DEFAULT_255_2_778
10
60.4771618
20
-172.1309627
40
187.0141548
50
89.4287216
51
89.6376284
0
ARC
8
DEFAULT_255_2_778
10
60.5225725
20
-165.0566827
40
179.939729
50
89.6378412
51
89.8164256
0
ARC
8
DEFAULT_255_2_778
10
60.5432624
20
-158.6047515
40
173.4877647
50
89.8164316
51
89.9994445
0
ARC
8
DEFAULT_255_2_778
10
60.5380001
20
-149.2068042
40
164.0898174
50
89.9975752
51
90.3863941
0
ARC
8
DEFAULT_255_2_778
10
60.4595994
20
-137.5111286
40
152.3938792
50
90.3865724
51
90.769503
0
ARC
8
DEFAULT_255_2_778
10
60.319966
20
-127.0812495
40
141.9630656
50
90.7696854
51
91.1460543
0
ARC
8
DEFAULT_255_2_778
10
60.1336908
20
-117.7499478
40
132.6299048
50
91.1462263
51
91.5154453
0
ARC
8
DEFAULT_255_2_778
10
59.8560398
20
-107.4385679
40
122.3147887
50
91.5131712
51
92.0611908
0
ARC
8
DEFAULT_255_2_778
10
59.468173
20
-96.6329881
40
111.5022498
50
92.0617182
51
92.5899711
0
ARC
8
DEFAULT_255_2_778
10
59.0018932
20
-86.3840205
40
101.2426814
50
92.5884591
51
93.2266399
0
ARC
8
DEFAULT_255_2_778
10
58.4467951
20
-76.5302534
40
91.3732913
50
93.226896
51
93.8703771
0
ARC
8
DEFAULT_255_2_778
10
57.883303
20
-68.1802603
40
83.0043067
50
93.8713525
51
94.4716348
0
ARC
8
DEFAULT_255_2_778
10
57.3497126
20
-61.342215
40
76.1454743
50
94.472512
51
95.0288277
0
ARC
8
DEFAULT_255_2_778
10
56.7360853
20
-54.4131309
40
69.1892737
50
95.0256123
51
95.8039677
0
ARC
8
DEFAULT_255_2_778
10
55.9636074
20
-46.8349324
40
61.5718064
50
95.8019474
51
96.7133597
0
ARC
8
DEFAULT_255_2_778
10
55.2198682
20
-40.486159
40
55.1796192
50
96.7170423
51
97.4524247
0
ARC
8
DEFAULT_255_2_778
10
54.4574119
20
-34.691402
40
49.3349185
50
97.4472928
51
98.4872689
0
ARC
8
DEFAULT_255_2_778
10
53.5756033
20
-28.7830983
40
43.3611727
50
98.4870744
51
99.5800176
0
ARC
8
DEFAULT_255_2_778
10
52.9809881
20
-25.2162213
40
39.7450808
50
99.5905328
51
99.9766307
0
ARC
8
DEFAULT_255_2_778
10
57.6153752
20
-59.5692856
40
74.3945016
50
98.9081703
51
102.1983398
0
ARC
8
DEFAULT_255_2_778
10
57.0762195
20
-57.0809959
40
71.8484708
50
102.1973702
51
106.1612548
0
ARC
8
DEFAULT_255_2_778
10
56.4437343
20
-54.9572182
40
69.6325751
50
106.1477975
51
118.1103322
0
ARC
8
DEFAULT_255_2_778
10
57.205226
20
-56.3812795
40
71.2474498
50
118.1108881
51
122.3781563
0
ARC
8
DEFAULT_255_2_778
10
58.4747759
20
-58.3873675
40
73.6215057
50
122.3765265
51
125.7313135
0
ARC
8
DEFAULT_255_2_778
10
59.820562
20
-60.271565
40
75.9369495
50
125.7253667
51
127.6970168
0
ARC
8
DEFAULT_255_2_778
10
6.3902912
20
139.3174698
40
3.4997022
50
359.9555421
51
17.0766317
0
ARC
8
DEFAULT_255_2_778
10
6.3836714
20
139.3083998
40
3.5086999
50
17.1864672
51
72.2960628
0
ARC
8
DEFAULT_255_2_778
10
6.3933292
20
139.3179723
40
3.4966495
50
72.3991218
51
89.4857288
0
ARC
8
DEFAULT_255_2_778
10
6.3895554
20
139.242821
40
3.5718332
50
89.4360153
51
89.9913859
0
ARC
8
DEFAULT_255_2_778
10
5.8900129
20
141.8146376
40
1.0000166
50
90.0011732
51
135.0082595
0
ARC
8
DEFAULT_255_2_778
10
5.8896392
20
141.8146455
40
0.9997468
50
134.9934394
51
180.0109632
0
ARC
8
DEFAULT_255_2_778
10
2.6910154
20
144.5145808
40
2.300923
50
135.0114376
51
179.9931915
0
ARC
8
DEFAULT_255_2_778
10
2.6901492
20
144.5144545
40
2.3003997
50
90.0014136
51
134.9939594
0
LINE
8
DEFAULT_255_2_778
10
129.1910924
20
4.8161542
11
127.1900924
21
4.8161542
0
LINE
8
DEFAULT_255_2_778
10
127.1900924
20
4.8161542
11
127.1900924
21
6.3126542
0
LINE
8
DEFAULT_255_2_778
10
127.1900924
20
6.3126542
11
126.8428924
21
6.3126542
0
LINE
8
DEFAULT_255_2_778
10
126.8428924
20
6.3126542
11
126.8428924
21
4.8161542
0
LINE
8
DEFAULT_255_2_778
10
126.8428924
20
4.8161542
11
106.6353924
21
4.8161542
0
LINE
8
DEFAULT_255_2_778
10
106.6353924
20
4.8161542
11
90.1816924
21
14.8123542
0
LINE
8
DEFAULT_255_2_778
10
90.1816924
20
14.8123542
11
66.6004924
21
14.7877542
0
LINE
8
DEFAULT_255_2_778
10
13.3861924
20
-0.1860458
11
9.8885924
21
-0.1860458
0
LINE
8
DEFAULT_255_2_778
10
9.8885924
20
-0.1860458
11
9.8885924
21
37.0540542
0
LINE
8
DEFAULT_255_2_778
10
9.8885924
20
37.0540542
11
2.9930924
21
37.1201542
0
LINE
8
DEFAULT_255_2_778
10
2.9930924
20
37.1201542
11
3.0012924
21
74.0544542
0
LINE
8
DEFAULT_255_2_778
10
3.0012924
20
74.0544542
11
9.8899924
21
75.2662542
0
LINE
8
DEFAULT_255_2_778
10
9.8899924
20
75.2662542
11
9.8899924
21
94.8147542
0
LINE
8
DEFAULT_255_2_778
10
9.8899924
20
94.8147542
11
3.3898924
21
95.5147542
0
LINE
8
DEFAULT_255_2_778
10
3.3898924
20
95.5147542
11
3.3898924
21
116.1147542
0
LINE
8
DEFAULT_255_2_778
10
3.3898924
20
116.1147542
11
9.8899924
21
116.8148542
0
LINE
8
DEFAULT_255_2_778
10
9.8899924
20
116.8148542
11
9.8899924
21
139.3147542
0
LINE
8
DEFAULT_255_2_778
10
6.3900924
20
142.8146542
11
5.8899924
21
142.8146542
0
LINE
8
DEFAULT_255_2_778
10
4.8898924
20
141.8144542
11
4.8898924
21
139.9145542
0
LINE
8
DEFAULT_255_2_778
10
4.8898924
20
139.9145542
11
0.3900924
21
139.9145542
0
LINE
8
DEFAULT_255_2_778
10
0.3900924
20
139.9145542
11
0.3900924
21
144.5148542
0
LINE
8
DEFAULT_255_2_778
10
2.6900924
20
146.8148542
11
119.2525924
21
146.8148542
0
ARC
8
DEFAULT_255_2_778
10
32.0158496
20
-6.0091104
40
14.8917995
50
117.1024242
51
118.9993053
0
ARC
8
DEFAULT_255_2_778
10
34.2394357
20
-10.3449062
40
19.7645244
50
115.6151548
51
117.1143357
0
ARC
8
DEFAULT_255_2_778
10
36.7217401
20
-15.5167738
40
25.5012521
50
114.355698
51
115.6205812
0
ARC
8
DEFAULT_255_2_778
10
31.982204
20
-43.6578727
40
48.9224672
50
94.7306124
51
98.4538005
0
LINE
8
DEFAULT_255_2_778
10
26.2050198
20
7.7149385
11
28.0124198
21
7.7149385
0
LINE
8
DEFAULT_255_2_778
10
28.0124198
20
7.7149385
11
28.0124198
21
3.9824385
0
LINE
8
DEFAULT_255_2_778
10
28.0124198
20
3.9824385
11
27.9830198
21
5.1008385
0
LINE
8
DEFAULT_255_2_778
10
27.9830198
20
5.1008385
11
27.9475198
21
5.0979385
0
LINE
8
DEFAULT_255_2_778
10
27.9475198
20
5.0979385
11
27.9475198
21
5.0979385
0
ARC
8
DEFAULT_255_2_778
10
31.4738978
20
10.1713589
40
4.6206745
50
247.6855015
51
255.0280082
0
ARC
8
DEFAULT_255_2_778
10
31.0606474
20
9.1729391
40
3.540117
50
237.723329
51
247.7375078
0
ARC
8
DEFAULT_255_2_778
10
30.6478647
20
8.5279163
40
2.7743378
50
221.3588713
51
237.8173336
0
ARC
8
DEFAULT_255_2_778
10
30.5559017
20
8.4222941
40
2.6355842
50
197.9444431
51
220.956434
0
ARC
8
DEFAULT_255_2_778
10
30.8903227
20
8.5516889
40
2.9936707
50
197.649141
51
198.3285109
0
ARC
8
DEFAULT_255_2_778
10
42.8622328
20
-29.9471644
40
41.1384744
50
117.8191107
51
118.6329586
0
ARC
8
DEFAULT_255_2_778
10
48.193501
20
-39.7239105
40
52.2743246
50
118.62672
51
119.2336963
0
ARC
8
DEFAULT_255_2_778
10
53.6944769
20
-49.5613316
40
63.5453307
50
119.2301021
51
119.6963763
0
ARC
8
DEFAULT_255_2_778
10
60.5737627
20
-61.6148366
40
77.4237866
50
119.6996536
51
120.2361275
0
ARC
8
DEFAULT_255_2_778
10
69.4168216
20
-76.7938319
40
94.9908461
50
120.2339675
51
120.6776906
0
ARC
8
DEFAULT_255_2_778
10
78.7945059
20
-92.6098224
40
113.3779748
50
120.6755886
51
121.0276827
0
ARC
8
DEFAULT_255_2_778
10
89.4552875
20
-110.3305376
40
134.0583038
50
121.0282121
51
121.3824579
0
ARC
8
DEFAULT_255_2_778
10
101.1120162
20
-129.4504615
40
156.4514008
50
121.3805541
51
121.6468515
0
ARC
8
DEFAULT_255_2_778
10
112.8379225
20
-148.4774405
40
178.8014077
50
121.6465713
51
121.8902032
0
ARC
8
DEFAULT_255_2_778
10
31.9873727
20
-43.7185215
40
48.9830329
50
99.7821168
51
106.1308026
0
ARC
8
DEFAULT_255_2_778
10
9.4056939
20
138.3766811
40
1.0160439
50
191.727214
51
194.9978816
0
ARC
8
DEFAULT_255_2_778
10
9.3883211
20
138.3733877
40
0.9983645
50
180.1948225
51
191.7447947
0
ARC
8
DEFAULT_255_2_778
10
9.3411379
20
138.3730777
40
0.9511806
50
179.9963699
51
180.1858139
0
ARC
8
DEFAULT_255_2_778
10
9.3906175
20
138.3720399
40
1.0006607
50
106.8753458
51
179.9371294
0
ARC
8
DEFAULT_255_2_778
10
9.3950932
20
138.3548951
40
1.0183667
50
105.0034604
51
106.8363029
0
ARC
8
DEFAULT_255_2_778
10
9.3903114
20
138.3724209
40
0.7500613
50
104.9936818
51
179.9415493
0
ARC
8
DEFAULT_255_2_778
10
9.3889099
20
138.3733696
40
0.7486594
50
180.0140384
51
191.826948
0
ARC
8
DEFAULT_255_2_778
10
9.4023987
20
138.3759415
40
0.762389
50
191.808368
51
195.0213837
0
ARC
8
DEFAULT_255_2_778
10
9.4052134
20
25.9532575
40
1.0158574
50
165.0020349
51
168.2725231
0
ARC
8
DEFAULT_255_2_778
10
9.3878363
20
25.9565538
40
0.9981731
50
168.2550427
51
179.8053346
0
ARC
8
DEFAULT_255_2_778
10
9.3406241
20
25.9568608
40
0.9509601
50
179.8141652
51
180.0036222
0
ARC
8
DEFAULT_255_2_778
10
9.390258
20
25.957897
40
1.0005946
50
180.0627793
51
253.1369726
0
ARC
8
DEFAULT_255_2_778
10
9.3946004
20
25.9748423
40
1.0180712
50
253.1797368
51
255.003314
0
ARC
8
DEFAULT_255_2_778
10
9.3898708
20
25.9572299
40
0.7497473
50
209.9832627
51
254.9951885
0
ARC
8
DEFAULT_255_2_778
10
9.3883888
20
25.9573423
40
0.7485203
50
180.0009053
51
210.047406
0
ARC
8
DEFAULT_255_2_778
10
9.3878571
20
25.9573305
40
0.7479887
50
177.6437759
51
180.0000022
0
ARC
8
DEFAULT_255_2_778
10
9.3873968
20
25.9573491
40
0.7475279
50
164.9347376
51
177.6437554
0
LINE
8
DEFAULT_255_2_778
10
27.9478611
20
7.6771459
11
27.9478611
21
6.4579459
0
LINE
8
DEFAULT_255_2_778
10
27.9478611
20
6.4579459
11
24.7902611
21
6.8611459
0
LINE
8
DEFAULT_255_2_778
10
28.0123611
20
3.9824459
11
29.0770611
21
3.9824459
0
LINE
8
DEFAULT_255_2_778
10
29.0770611
20
3.9824459
11
29.3040611
21
5.7075459
0
LINE
8
DEFAULT_255_2_778
10
29.3040611
20
5.7075459
11
30.2801611
21
5.7075459
0
LINE
8
DEFAULT_255_2_778
10
67.0050611
20
0.7148459
11
67.1051611
21
0.7148459
0
LINE
8
DEFAULT_255_2_778
10
67.1051611
20
0.7148459
11
67.1048611
21
2.2200459
0
LINE
8
DEFAULT_255_2_778
10
67.1048611
20
2.2200459
11
66.9974611
21
2.2200459
0
LINE
8
DEFAULT_255_2_778
10
66.9974611
20
2.2200459
11
66.9974611
21
0.7153459
0
LINE
8
DEFAULT_255_2_778
10
71.1066611
20
2.2118459
11
71.0074611
21
2.2118459
0
LINE
8
DEFAULT_255_2_778
10
71.0074611
20
2.2118459
11
71.0050611
21
0.7148459
0
LINE
8
DEFAULT_255_2_778
10
71.0050611
20
0.7148459
11
71.1050611
21
0.7148459
0
LINE
8
DEFAULT_255_2_778
10
71.1050611
20
0.7148459
11
71.1050611
21
2.2147459
0
LINE
8
DEFAULT_255_2_778
10
72.0850611
20
2.2147459
11
72.0850611
21
0.7148459
0
LINE
8
DEFAULT_255_2_778
10
72.0850611
20
0.7148459
11
72.1851611
21
0.7148459
0
LINE
8
DEFAULT_255_2_778
10
72.1851611
20
0.7148459
11
72.1898611
21
2.2118459
0
LINE
8
DEFAULT_255_2_778
10
72.1898611
20
2.2118459
11
72.0824611
21
2.2118459
0
LINE
8
DEFAULT_255_2_778
10
9.8900611
20
16.3321459
11
3.0127611
21
17.2375459
0
LINE
8
DEFAULT_255_2_778
10
3.0127611
20
17.2375459
11
2.4906611
21
13.2717459
0
LINE
8
DEFAULT_255_2_778
10
2.4906611
20
13.2717459
11
9.8900611
21
12.2975459
0
LINE
8
DEFAULT_255_2_778
10
3.0127611
20
17.2375459
11
0.8796611
21
16.3583459
0
LINE
8
DEFAULT_255_2_778
10
0.8796611
20
16.3583459
11
0.6576611
21
14.6729459
0
LINE
8
DEFAULT_255_2_778
10
0.6576611
20
14.6729459
11
2.4904611
21
13.2717459
0
LINE
8
DEFAULT_255_2_778
10
121.3409611
20
140.6696459
11
121.3407611
21
140.6696459
0
LINE
8
DEFAULT_255_2_778
10
126.4133611
20
89.2862459
11
126.5135611
21
89.2862459
0
LINE
8
DEFAULT_255_2_778
10
126.5135611
20
89.2862459
11
126.5204611
21
89.1952459
0
LINE
8
DEFAULT_255_2_778
10
126.5204611
20
89.1952459
11
126.5241611
21
89.1465459
0
LINE
8
DEFAULT_255_2_778
10
126.5241611
20
89.1465459
11
126.5260611
21
89.1206459
0
LINE
8
DEFAULT_255_2_778
10
126.5260611
20
89.1206459
11
126.5281611
21
89.0920459
0
LINE
8
DEFAULT_255_2_778
10
126.5281611
20
89.0920459
11
126.4278611
21
89.0920459
0
LINE
8
DEFAULT_255_2_778
10
127.1901611
20
6.3147459
11
126.8400611
21
6.3147459
0
LINE
8
DEFAULT_255_2_778
10
126.5191611
20
87.8548459
11
126.6194611
21
87.8548459
0
LINE
8
DEFAULT_255_2_778
10
126.6194611
20
87.8548459
11
126.6194611
21
87.8548459
0
LINE
8
DEFAULT_255_2_778
10
126.6194611
20
87.8548459
11
126.6186611
21
87.8662459
0
LINE
8
DEFAULT_255_2_778
10
126.6186611
20
87.8662459
11
126.6162611
21
87.8985459
0
LINE
8
DEFAULT_255_2_778
10
126.6162611
20
87.8985459
11
126.6154611
21
87.9106459
0
LINE
8
DEFAULT_255_2_778
10
126.6154611
20
87.9106459
11
126.6143611
21
87.9246459
0
LINE
8
DEFAULT_255_2_778
10
126.6143611
20
87.9246459
11
126.6120611
21
87.9580459
0
LINE
8
DEFAULT_255_2_778
10
126.6120611
20
87.9580459
11
126.6053611
21
88.0490459
0
LINE
8
DEFAULT_255_2_778
10
126.6053611
20
88.0490459
11
126.5964611
21
88.1731459
0
LINE
8
DEFAULT_255_2_778
10
126.5964611
20
88.1731459
11
126.5908611
21
88.2466459
0
LINE
8
DEFAULT_255_2_778
10
126.5908611
20
88.2466459
11
126.5850611
21
88.3252459
0
LINE
8
DEFAULT_255_2_778
10
126.5850611
20
88.3252459
11
126.5789611
21
88.4078459
0
LINE
8
DEFAULT_255_2_778
10
126.5789611
20
88.4078459
11
126.5757611
21
88.4504459
0
LINE
8
DEFAULT_255_2_778
10
126.5757611
20
88.4504459
11
126.5593611
21
88.6713459
0
LINE
8
DEFAULT_255_2_778
10
121.1658611
20
141.2512459
11
121.2666611
21
141.2512459
0
LINE
8
DEFAULT_255_2_778
10
120.8348611
20
143.8147459
11
121.1822611
21
143.4673459
0
LINE
8
DEFAULT_255_2_778
10
121.1822611
20
143.4673459
11
121.3608611
21
142.0825459
0
LINE
8
DEFAULT_255_2_778
10
121.3608611
20
142.0825459
11
121.0928611
21
141.8145459
0
LINE
8
DEFAULT_255_2_778
10
17.1901611
20
2.5542459
11
17.1901611
21
2.1150459
0
LINE
8
DEFAULT_255_2_778
10
17.1901611
20
2.1150459
11
18.2900611
21
2.1150459
0
LINE
8
DEFAULT_255_2_778
10
18.2900611
20
2.1150459
11
18.2900611
21
3.2794459
0
LINE
8
DEFAULT_255_2_778
10
23.6650611
20
4.5523459
11
23.6650611
21
6.4322459
0
LINE
8
DEFAULT_255_2_778
10
27.9475611
20
6.4581459
11
27.9475611
21
5.0979459
0
LINE
8
DEFAULT_255_2_778
10
27.9475611
20
5.0979459
11
27.9475611
21
7.7149459
0
LINE
8
DEFAULT_255_2_778
10
23.6901611
20
6.4454459
11
23.6901611
21
3.7147459
0
LINE
8
DEFAULT_255_2_778
10
23.6901611
20
3.7147459
11
24.7900611
21
3.7147459
0
LINE
8
DEFAULT_255_2_778
10
24.7900611
20
3.7147459
11
24.7900611
21
7.0156459
0
LINE
8
DEFAULT_255_2_778
10
9.8900611
20
132.6429459
11
8.4242611
21
138.1137459
0
LINE
8
DEFAULT_255_2_778
10
9.1314611
20
139.3385459
11
9.1962611
21
139.0969459
0
LINE
8
DEFAULT_255_2_778
10
8.6660611
20
138.1783459
11
9.8905611
21
133.6087459
0
LINE
8
DEFAULT_255_2_778
10
9.8900611
20
31.6869459
11
8.4239611
21
26.2161459
0
LINE
8
DEFAULT_255_2_778
10
9.1311611
20
24.9914459
11
9.1957611
21
25.2330459
0
LINE
8
DEFAULT_255_2_778
10
8.6655611
20
26.1516459
11
9.8900611
21
30.7212459
0
LINE
8
DEFAULT_255_2_778
10
122.8721611
20
127.0467459
11
122.8840611
21
127.0473459
0
LINE
8
DEFAULT_255_2_778
10
122.8840611
20
127.0473459
11
125.7854611
21
97.2650459
0
LINE
8
DEFAULT_255_2_778
10
121.3729611
20
139.6089459
11
121.4740611
21
139.6089459
0
LINE
8
DEFAULT_255_2_778
10
122.2781611
20
132.1913459
11
122.2776611
21
132.1913459
0
LINE
8
DEFAULT_255_2_778
10
122.2516611
20
85.8678459
11
122.1355611
21
85.8678459
0
LINE
8
DEFAULT_255_2_778
10
122.1355611
20
85.8678459
11
122.1355611
21
87.2762459
0
LINE
8
DEFAULT_255_2_778
10
9.8902611
20
75.2662459
11
2.9902611
21
74.0496459
0
LINE
8
DEFAULT_255_2_778
10
2.9902611
20
74.0496459
11
2.9902611
21
37.1149459
0
LINE
8
DEFAULT_255_2_778
10
2.9902611
20
37.1149459
11
5.9903611
21
37.0887459
0
ARC
8
DEFAULT_255_2_778
10
116.000605
20
143.3091384
40
3.0119903
50
154.699614
51
163.9385211
0
ARC
8
DEFAULT_255_2_778
10
115.9754622
20
143.3168339
40
2.9856998
50
163.9469419
51
175.6352392
0
ARC
8
DEFAULT_255_2_778
10
115.9817001
20
143.3163501
40
2.9919565
50
175.6350934
51
180.0008129
0
ARC
8
DEFAULT_255_2_778
10
115.9944743
20
143.3162365
40
3.0047308
50
179.9986434
51
222.1718367
0
ARC
8
DEFAULT_255_2_778
10
115.9910063
20
143.3179485
40
3.003312
50
222.2404603
51
235.6344828
0
ARC
8
DEFAULT_255_2_778
10
115.9943809
20
143.3186236
40
3.005775
50
235.5886495
51
247.6011053
0
ARC
8
DEFAULT_255_2_778
10
115.9871681
20
143.3039391
40
2.9894504
50
247.6216705
51
264.931363
0
ARC
8
DEFAULT_255_2_778
10
115.9891192
20
143.3194601
40
3.0050832
50
264.9204532
51
268.4555139
0
ARC
8
DEFAULT_255_2_778
10
115.9892158
20
143.3220822
40
3.0077068
50
268.4550205
51
270.0002079
0
ARC
8
DEFAULT_255_2_778
10
115.9902966
20
143.3176294
40
3.0032542
50
269.9795897
51
300.8664904
0
ARC
8
DEFAULT_255_2_778
10
115.9910332
20
143.3113363
40
2.9974757
50
300.916117
51
315.5463321
0
ARC
8
DEFAULT_255_2_778
10
115.9629874
20
143.3407854
40
3.0381199
50
315.5203092
51
316.5044953
0
ARC
8
DEFAULT_255_2_778
10
115.9904969
20
143.3168075
40
3.0016602
50
316.4750906
51
330.7288453
0
ARC
8
DEFAULT_255_2_778
10
115.9931578
20
143.3130222
40
2.997489
50
330.7670927
51
355.0473299
0
ARC
8
DEFAULT_255_2_778
10
115.9784373
20
143.3154867
40
3.0123675
50
355.0248022
51
359.9998039
0
ARC
8
DEFAULT_255_2_778
10
115.976848
20
143.31546
40
3.0139569
50
0.0003107
51
0.7615126
0
ARC
8
DEFAULT_255_2_778
10
115.9942332
20
143.3166635
40
2.9965573
50
0.7429208
51
22.2377535
0
ARC
8
DEFAULT_255_2_778
10
115.995262
20
143.3154648
40
2.9960591
50
22.2664183
51
35.5104169
0
ARC
8
DEFAULT_255_2_778
10
115.9624944
20
143.2933367
40
3.0355856
50
35.4911527
51
37.3994417
0
ARC
8
DEFAULT_255_2_778
10
115.9902382
20
143.3168081
40
2.99929
50
37.3651426
51
53.3684919
0
ARC
8
DEFAULT_255_2_778
10
115.9890164
20
143.3098506
40
3.0056041
50
53.4289394
51
90.0062371
0
ARC
8
DEFAULT_255_2_778
10
115.988662
20
143.3179995
40
2.9974552
50
89.9994793
51
93.3243721
0
ARC
8
DEFAULT_255_2_778
10
115.9877616
20
143.3290564
40
2.9863648
50
93.3194276
51
107.2444708
0
ARC
8
DEFAULT_255_2_778
10
115.9940427
20
143.3110211
40
3.0054514
50
107.2569039
51
117.6142019
0
ARC
8
DEFAULT_255_2_778
10
116.0086521
20
143.2811937
40
3.0386531
50
117.597605
51
118.2922195
0
ARC
8
DEFAULT_255_2_778
10
113.5706129
20
145.6109228
40
0.500065
50
277.5163345
51
355.4846469
0
ARC
8
DEFAULT_255_2_778
10
90.1740649
20
128.381482
40
23.9939579
50
9.1932027
51
29.002105
0
ARC
8
DEFAULT_255_2_778
10
107.3913012
20
145.4150312
40
1.3989834
50
327.9551535
51
0.0113155
0
ARC
8
DEFAULT_255_2_778
10
107.3822404
20
145.4152805
40
1.4080441
50
0.0010991
51
0.4264478
0
ARC
8
DEFAULT_255_2_778
10
107.391979
20
145.4155767
40
1.3983037
50
0.4172802
51
29.0031286
0
ARC
8
DEFAULT_255_2_778
10
107.3907529
20
145.4153864
40
1.3994683
50
28.985605
51
89.9989599
0
LINE
8
DEFAULT_255_2_778
10
107.3907783
20
146.8148546
11
107.3902259
21
146.8148545
0
LINE
8
DEFAULT_255_2_778
10
9.8902259
20
94.8147545
11
9.8902259
21
116.8148545
0
LINE
8
DEFAULT_255_2_778
10
123.5901259
20
20.4387545
11
123.5901259
21
23.4388545
0
LINE
8
DEFAULT_255_2_778
10
123.5901259
20
23.4388545
11
112.2980259
21
23.4388545
0
LINE
8
DEFAULT_255_2_778
10
112.2980259
20
23.4388545
11
112.2980259
21
68.0909545
0
LINE
8
DEFAULT_255_2_778
10
112.2980259
20
68.0909545
11
123.0631259
21
68.0909545
0
LINE
8
DEFAULT_255_2_778
10
123.0631259
20
68.0909545
11
123.5422259
21
58.2360545
0
LINE
8
DEFAULT_255_2_778
10
123.5422259
20
58.2360545
11
123.5899259
21
56.0548545
0
LINE
8
DEFAULT_255_2_778
10
123.5899259
20
56.0548545
11
123.5899259
21
23.4388545
0
LINE
8
DEFAULT_255_2_778
10
114.5684259
20
145.9568545
11
114.1107259
21
146.1010545
0
LINE
8
DEFAULT_255_2_778
10
114.1107259
20
146.1010545
11
114.0691259
21
145.5715545
0
LINE
8
DEFAULT_255_2_778
10
113.6360259
20
145.1151545
11
113.1094259
21
145.0458545
0
LINE
8
DEFAULT_255_2_778
10
113.1094259
20
145.0458545
11
113.2775259
21
144.5963545
0
LINE
8
DEFAULT_255_2_778
10
117.7643259
20
132.8168545
11
117.8439259
21
132.2148545
0
LINE
8
DEFAULT_255_2_778
10
117.8439259
20
132.2148545
11
113.8598259
21
132.2148545
0
LINE
8
DEFAULT_255_2_778
10
111.1592259
20
140.0147545
11
108.5771259
21
144.6727545
0
ARC
8
DEFAULT_255_2_778
10
118.1896922
20
-26.1871737
40
41.0019509
50
77.3192828
51
89.9992157
0
ARC
8
DEFAULT_255_2_778
10
-870.781936
20
14.8143256
40
999.9722894
50
0.0000259
51
3.7355896
0
ARC
8
DEFAULT_255_2_778
10
-870.746254
20
14.8172293
40
999.936494
50
3.7355568
51
6.9660241
0
ARC
8
DEFAULT_255_2_778
10
119.5636281
20
145.8147112
40
1.0001766
50
7.5414165
51
87.7960563
0
ARC
8
DEFAULT_255_2_778
10
119.5636705
20
145.8024286
40
1.0124486
50
87.8251831
51
89.9783306
0
ARC
8
DEFAULT_255_2_778
10
118.6508453
20
146.2343668
40
0.6496824
50
157.49163
51
176.2020046
0
ARC
8
DEFAULT_255_2_778
10
118.6506481
20
146.2344617
40
0.6494793
50
176.2091994
51
180.0003601
0
ARC
8
DEFAULT_255_2_778
10
118.6509558
20
146.234218
40
0.6497871
50
179.9788764
51
227.6657038
0
ARC
8
DEFAULT_255_2_778
10
115.9912556
20
143.3152159
40
3.2992101
50
4.9915656
51
47.6603508
0
ARC
8
DEFAULT_255_2_778
10
94.3893639
20
141.4241314
40
24.9837189
50
0.3216696
51
5.0015452
0
ARC
8
DEFAULT_255_2_778
10
94.3723124
20
141.4239647
40
25.0007711
50
0.0000019
51
0.3218324
0
ARC
8
DEFAULT_255_2_778
10
94.3697867
20
141.4241665
40
25.0032969
50
352.881422
51
359.9995393
0
ARC
8
DEFAULT_255_2_778
10
115.2106089
20
138.821912
40
4.00064
50
303.7828715
51
352.8747463
0
ARC
8
DEFAULT_255_2_778
10
116.9909158
20
136.16015
40
0.7983799
50
274.9017672
51
303.8088357
0
ARC
8
DEFAULT_255_2_778
10
116.9905706
20
136.1630666
40
0.8013155
50
271.4477285
51
274.9085455
0
ARC
8
DEFAULT_255_2_778
10
116.9905425
20
136.163997
40
0.8022463
50
269.9996195
51
271.44805
0
ARC
8
DEFAULT_255_2_778
10
116.989898
20
136.1606342
40
0.7988839
50
226.5657558
51
270.0458471
0
ARC
8
DEFAULT_255_2_778
10
116.996748
20
136.1680596
40
0.8089855
50
225.084527
51
226.5750268
0
ARC
8
DEFAULT_255_2_778
10
116.9888715
20
136.161059
40
0.798467
50
186.8824227
51
225.1300848
0
ARC
8
DEFAULT_255_2_778
10
116.9930904
20
136.1620489
40
0.8027742
50
180.000627
51
186.9164837
0
ARC
8
DEFAULT_255_2_778
10
116.9925204
20
136.1620374
40
0.8022041
50
178.5101214
51
179.9998057
0
ARC
8
DEFAULT_255_2_778
10
116.9886872
20
136.1623784
40
0.7983634
50
147.9263138
51
178.5274309
0
ARC
8
DEFAULT_255_2_778
10
116.9996882
20
136.1560117
40
0.8110663
50
146.4230461
51
147.9578729
0
ARC
8
DEFAULT_255_2_778
10
112.9911848
20
138.8187517
40
4.0012392
50
326.4013312
51
359.9987226
0
ARC
8
DEFAULT_255_2_778
10
112.9934963
20
138.8186628
40
3.9989276
50
359.9999961
51
4.0240862
0
ARC
8
DEFAULT_255_2_778
10
112.9909975
20
138.8184469
40
4.0014353
50
4.0246587
51
9.5261759
0
ARC
8
DEFAULT_255_2_778
10
115.9508198
20
139.3146145
40
1.000314
50
9.5559426
51
89.4195585
0
ARC
8
DEFAULT_255_2_778
10
115.9908401
20
143.315088
40
3.0003596
50
214.6342345
51
269.4292655
0
ARC
8
DEFAULT_255_2_778
10
115.9894116
20
143.3144528
40
2.9988233
50
191.2766199
51
214.6397606
0
ARC
8
DEFAULT_255_2_778
10
115.9929692
20
143.3153569
40
3.002489
50
180.000885
51
191.2802634
0
ARC
8
DEFAULT_255_2_778
10
115.9904751
20
143.3153157
40
2.999995
50
177.8136979
51
180.0001005
0
ARC
8
DEFAULT_255_2_778
10
115.9879335
20
143.3154715
40
2.9974494
50
162.1036581
51
177.8148194
0
ARC
8
DEFAULT_255_2_778
10
115.9960338
20
143.313021
40
3.0059108
50
159.8361367
51
162.1066563
0
ARC
8
DEFAULT_255_2_778
10
112.5180306
20
144.5905043
40
0.6992842
50
339.8117416
51
355.8160625
0
ARC
8
DEFAULT_255_2_778
10
112.5185735
20
144.5903827
40
0.6987339
50
355.8227578
51
0.0005949
0
ARC
8
DEFAULT_255_2_778
10
112.5168939
20
144.5904396
40
0.7004136
50
359.9959406
51
47.4925661
0
ARC
8
DEFAULT_255_2_778
10
115.9881597
20
143.3151763
40
4.8978386
50
145.7687753
51
159.2973121
0
ARC
8
DEFAULT_255_2_778
10
115.9922968
20
143.3146623
40
4.9018905
50
159.3087871
51
180.0042386
0
ARC
8
DEFAULT_255_2_778
10
115.9954378
20
143.3143047
40
4.9050313
50
180.0000591
51
181.0038336
0
ARC
8
DEFAULT_255_2_778
10
115.9866288
20
143.3137081
40
4.8962134
50
180.9986593
51
197.8980278
0
ARC
8
DEFAULT_255_2_778
10
115.9925755
20
143.3163003
40
4.9026689
50
197.9054975
51
207.2279029
0
ARC
8
DEFAULT_255_2_778
10
89.3980819
20
129.6362804
40
25.0040199
50
7.4619062
51
27.2196107
0
ARC
8
DEFAULT_255_2_778
10
-870.7581927
20
14.8183681
40
995.5483359
50
2.4363172
51
6.8072934
0
ARC
8
DEFAULT_255_2_778
10
116.1904952
20
61.0160007
40
45.0013233
50
269.9998195
51
282.9695077
0
LINE
8
DEFAULT_255_2_778
10
127.1903534
20
13.8146772
11
127.1903534
21
4.8150772
0
LINE
8
DEFAULT_255_2_778
10
127.1903534
20
4.8150772
11
129.1903534
21
4.8150772
0
LINE
8
DEFAULT_255_2_778
10
129.1903534
20
4.8150772
11
129.1903534
21
14.8147772
0
LINE
8
DEFAULT_255_2_778
10
121.8089534
20
136.0902772
11
120.5551534
21
145.9459772
0
LINE
8
DEFAULT_255_2_778
10
119.5640534
20
146.8148772
11
118.1879534
21
146.8148772
0
LINE
8
DEFAULT_255_2_778
10
118.1879534
20
146.8148772
11
118.0506534
21
146.4830772
0
LINE
8
DEFAULT_255_2_778
10
112.9901534
20
145.1067772
11
111.9387534
21
146.0703772
0
LINE
8
DEFAULT_255_2_778
10
114.1903534
20
132.8834772
11
117.7719534
21
132.8210772
0
LINE
8
DEFAULT_255_2_778
10
123.8902534
20
57.1380772
11
123.8902534
21
19.5978772
0
LINE
8
DEFAULT_255_2_778
10
123.8902534
20
19.5978772
11
126.2902534
21
19.6396772
0
LINE
8
DEFAULT_255_2_778
10
126.2902534
20
19.6396772
11
126.2902534
21
17.1626772
0
LINE
8
DEFAULT_255_2_778
10
116.1903534
20
16.0146772
11
112.1231534
21
16.0146772
0
LINE
8
DEFAULT_255_2_778
10
112.1231534
20
16.0146772
11
110.4403534
21
17.6973772
0
LINE
8
DEFAULT_255_2_778
10
110.4403534
20
17.6973772
11
109.3902534
21
16.6472772
0
LINE
8
DEFAULT_255_2_778
10
109.3902534
20
16.6472772
11
109.3902534
21
14.8144772
0
LINE
8
DEFAULT_255_2_778
10
109.3902534
20
14.8144772
11
118.1902534
21
14.8144772
0
LINE
8
DEFAULT_255_2_778
10
120.7601534
20
145.1696772
11
120.7596534
21
145.1696772
0
LINE
8
DEFAULT_255_2_778
10
120.5845534
20
145.7308772
11
120.5847534
21
145.7292772
0
LINE
8
DEFAULT_255_2_778
10
120.5847534
20
145.7292772
11
120.5868534
21
145.7120772
0
LINE
8
DEFAULT_255_2_778
10
120.5868534
20
145.7120772
11
120.5879534
21
145.7041772
0
LINE
8
DEFAULT_255_2_778
10
120.5879534
20
145.7041772
11
120.5892534
21
145.6943772
0
LINE
8
DEFAULT_255_2_778
10
120.5892534
20
145.6943772
11
120.5924534
21
145.6694772
0
LINE
8
DEFAULT_255_2_778
10
120.5924534
20
145.6694772
11
120.5945534
21
145.6541772
0
LINE
8
DEFAULT_255_2_778
10
120.5945534
20
145.6541772
11
120.5969534
21
145.6366772
0
LINE
8
DEFAULT_255_2_778
10
120.5969534
20
145.6366772
11
120.6022534
21
145.5956772
0
LINE
8
DEFAULT_255_2_778
10
120.6022534
20
145.5956772
11
120.7030534
21
145.5956772
0
LINE
8
DEFAULT_255_2_778
10
120.7030534
20
145.5956772
11
120.7067534
21
145.5673772
0
LINE
8
DEFAULT_255_2_778
10
120.7067534
20
145.5673772
11
120.7107534
21
145.5369772
0
LINE
8
DEFAULT_255_2_778
10
120.7107534
20
145.5369772
11
120.7191534
21
145.4715772
0
LINE
8
DEFAULT_255_2_778
10
120.7191534
20
145.4715772
11
120.7282534
21
145.4027772
0
LINE
8
DEFAULT_255_2_778
10
120.7282534
20
145.4027772
11
120.7374534
21
145.3318772
0
LINE
8
DEFAULT_255_2_778
10
120.7374534
20
145.3318772
11
120.7562534
21
145.1881772
0
LINE
8
DEFAULT_255_2_778
10
120.7562534
20
145.1881772
11
120.7609534
21
145.1519772
0
LINE
8
DEFAULT_255_2_778
10
120.7609534
20
145.1519772
11
120.7657534
21
145.1156772
0
LINE
8
DEFAULT_255_2_778
10
120.7657534
20
145.1156772
11
120.7752534
21
145.0432772
0
LINE
8
DEFAULT_255_2_778
10
120.7752534
20
145.0432772
11
120.8133534
21
144.7534772
0
LINE
8
DEFAULT_255_2_778
10
120.8133534
20
144.7534772
11
120.8181534
21
144.7172772
0
LINE
8
DEFAULT_255_2_778
10
120.8181534
20
144.7172772
11
120.8228534
21
144.6809772
0
LINE
8
DEFAULT_255_2_778
10
120.8228534
20
144.6809772
11
120.8324534
21
144.6090772
0
LINE
8
DEFAULT_255_2_778
10
120.8324534
20
144.6090772
11
120.8512534
21
144.4661772
0
LINE
8
DEFAULT_255_2_778
10
120.8512534
20
144.4661772
11
120.8557534
21
144.4306772
0
LINE
8
DEFAULT_255_2_778
10
120.8557534
20
144.4306772
11
120.8602534
21
144.3955772
0
LINE
8
DEFAULT_255_2_778
10
120.8602534
20
144.3955772
11
120.8691534
21
144.3275772
0
LINE
8
DEFAULT_255_2_778
10
120.8691534
20
144.3275772
11
120.8734534
21
144.2952772
0
LINE
8
DEFAULT_255_2_778
10
120.8734534
20
144.2952772
11
120.8773534
21
144.2642772
0
LINE
8
DEFAULT_255_2_778
10
120.8773534
20
144.2642772
11
120.8845534
21
144.2087772
0
LINE
8
DEFAULT_255_2_778
10
120.8845534
20
144.2087772
11
120.8861534
21
144.1967772
0
LINE
8
DEFAULT_255_2_778
10
120.8861534
20
144.1967772
11
120.8874534
21
144.1856772
0
LINE
8
DEFAULT_255_2_778
10
120.8874534
20
144.1856772
11
120.8900534
21
144.1658772
0
LINE
8
DEFAULT_255_2_778
10
120.8900534
20
144.1658772
11
120.8940534
21
144.1354772
0
LINE
8
DEFAULT_255_2_778
10
120.8940534
20
144.1354772
11
120.8964534
21
144.1179772
0
LINE
8
DEFAULT_255_2_778
10
120.8964534
20
144.1179772
11
120.8969534
21
144.1137772
0
LINE
8
DEFAULT_255_2_778
10
120.8969534
20
144.1137772
11
120.8972534
21
144.1118772
0
LINE
8
DEFAULT_255_2_778
10
120.8972534
20
144.1118772
11
120.8972534
21
144.1105772
0
ARC
8
DEFAULT_255_2_778
10
57.3843766
20
-57.2045304
40
67.9972993
50
107.302462
51
111.9464288
0
ARC
8
DEFAULT_255_2_778
10
57.4015433
20
-57.2603011
40
68.0556518
50
102.5260488
51
107.302296
0
ARC
8
DEFAULT_255_2_778
10
57.4094644
20
-57.3219483
40
68.1175499
50
97.7497035
51
102.5213067
0
ARC
8
DEFAULT_255_2_778
10
57.3944476
20
-57.2546161
40
68.0488079
50
93.1594907
51
97.74482
0
ARC
8
DEFAULT_255_2_778
10
53.4814279
20
13.6815459
40
2.9951992
50
273.1094618
51
292.51509
0
ARC
8
DEFAULT_255_2_778
10
53.4749504
20
13.6889042
40
3.0044789
50
292.575467
51
349.5644613
0
ARC
8
DEFAULT_255_2_778
10
53.4644507
20
13.6852506
40
3.0141482
50
349.6689165
51
0.0153181
0
ARC
8
DEFAULT_255_2_778
10
60.178208
20
-106.1076624
40
120.9732029
50
91.752496
51
92.2988792
0
ARC
8
DEFAULT_255_2_778
10
59.801072
20
-96.8718983
40
111.7297442
50
92.2956151
51
93.1057879
0
ARC
8
DEFAULT_255_2_778
10
59.2786962
20
-87.2178185
40
102.0615423
50
93.1065999
51
93.8864722
0
ARC
8
DEFAULT_255_2_778
10
58.6538988
20
-78.0715564
40
92.8939651
50
93.8843571
51
94.8250401
0
ARC
8
DEFAULT_255_2_778
10
57.9154209
20
-69.316235
40
84.1075551
50
94.8254341
51
95.7718966
0
ARC
8
DEFAULT_255_2_778
10
57.1694803
20
-61.917424
40
76.6712369
50
95.7733366
51
96.6542103
0
ARC
8
DEFAULT_255_2_778
10
56.4656321
20
-55.8713198
40
70.5843022
50
96.6554259
51
97.4698875
0
ARC
8
DEFAULT_255_2_778
10
55.6615998
20
-49.7777558
40
64.4379242
50
97.465429
51
98.6013618
0
ARC
8
DEFAULT_255_2_778
10
54.6534507
20
-43.1305024
40
57.7146558
50
98.5987262
51
99.9231381
0
ARC
8
DEFAULT_255_2_778
10
53.5854741
20
-37.0222926
40
51.513785
50
99.923816
51
101.2631797
0
ARC
8
DEFAULT_255_2_778
10
52.4601545
20
-31.3874427
40
45.7676674
50
101.2593358
51
102.8535328
0
ARC
8
DEFAULT_255_2_778
10
51.2474844
20
-26.0773499
40
40.3208654
50
102.8521086
51
104.5868304
0
ARC
8
DEFAULT_255_2_778
10
58.983316
20
-65.4269377
40
80.3868894
50
102.8591545
51
104.2242606
0
ARC
8
DEFAULT_255_2_778
10
57.6037208
20
-59.9748961
40
74.7630087
50
104.2260732
51
105.4797007
0
ARC
8
DEFAULT_255_2_778
10
56.1631859
20
-54.7895368
40
69.3812737
50
105.4761308
51
107.0614428
0
ARC
8
DEFAULT_255_2_778
10
54.6454365
20
-49.8378437
40
64.2021982
50
107.0631009
51
108.5713054
0
ARC
8
DEFAULT_255_2_778
10
53.1396591
20
-45.3625984
40
59.480421
50
108.5693096
51
110.2885697
0
ARC
8
DEFAULT_255_2_778
10
51.5155771
20
-40.9758014
40
54.802641
50
110.2862639
51
112.2438886
0
ARC
8
DEFAULT_255_2_778
10
49.9350568
20
-37.1053893
40
50.6219557
50
112.2464292
51
114.0860425
0
ARC
8
DEFAULT_255_2_778
10
48.4708305
20
-33.8304403
40
47.0345822
50
114.0857888
51
116.0177944
0
ARC
8
DEFAULT_255_2_778
10
9.6945959
20
128.2099299
40
2.3064561
50
113.7684481
51
130.2936468
0
ARC
8
DEFAULT_255_2_778
10
9.6925664
20
128.2134179
40
2.3024834
50
130.3112587
51
163.4040051
0
ARC
8
DEFAULT_255_2_778
10
9.6979243
20
128.2119481
40
2.3080378
50
163.4070277
51
179.8136112
0
ARC
8
DEFAULT_255_2_778
10
5.8893772
20
136.3121244
40
16.9969679
50
250.4085195
51
270.0001557
0
LINE
8
DEFAULT_255_2_778
10
5.8894234
20
119.3151564
11
5.8902986
21
119.3151564
0
ARC
8
DEFAULT_255_2_778
10
-870.8421206
20
14.8122251
40
995.3324785
50
3.2413952
51
6.7739895
0
ARC
8
DEFAULT_255_2_778
10
115.9902031
20
143.3148702
40
1.9732045
50
120.0034283
51
179.9974974
0
ARC
8
DEFAULT_255_2_778
10
115.9894972
20
143.3163496
40
1.9715704
50
96.4920408
51
120.0071605
0
ARC
8
DEFAULT_255_2_778
10
115.9900292
20
143.3126574
40
1.975299
50
90.0102629
51
96.4952645
0
LINE
8
DEFAULT_255_2_778
10
115.9896754
20
145.2879564
11
115.9900361
21
145.2879564
0
ARC
8
DEFAULT_255_2_778
10
115.9903887
20
143.3162573
40
1.9716992
50
62.3847019
51
90.0102463
0
ARC
8
DEFAULT_255_2_778
10
115.9871816
20
143.3100873
40
1.9786528
50
60.0003144
51
62.3852289
0
ARC
8
DEFAULT_255_2_778
10
115.9900046
20
143.3149917
40
1.972994
50
359.9989735
51
60.0000995
0
ARC
8
DEFAULT_255_2_778
10
115.9900042
20
143.3149213
40
1.9729944
50
299.9999064
51
0.0010196
0
ARC
8
DEFAULT_255_2_778
10
115.9906399
20
143.3130765
40
1.971079
50
276.4834586
51
300.0107149
0
ARC
8
DEFAULT_255_2_778
10
115.9900463
20
143.3171222
40
1.9751658
50
269.999704
51
276.4873164
0
LINE
8
DEFAULT_255_2_778
10
115.9900361
20
141.3419564
11
115.9896754
21
141.3419564
0
ARC
8
DEFAULT_255_2_778
10
115.9897134
20
143.3140371
40
1.9720806
50
242.3865893
51
269.9988972
0
ARC
8
DEFAULT_255_2_778
10
115.9931648
20
143.320715
40
1.9795975
50
240.0044364
51
242.387659
0
ARC
8
DEFAULT_255_2_778
10
115.9902031
20
143.3150426
40
1.9732045
50
180.0025026
51
239.9965717
0
LINE
8
DEFAULT_255_2_778
10
120.7961986
20
144.1110564
11
120.8974986
21
144.1110564
0
LINE
8
DEFAULT_255_2_778
10
121.1676986
20
141.2358564
11
121.1676986
21
141.2358564
0
LINE
8
DEFAULT_255_2_778
10
121.1676986
20
141.2358564
11
121.1678986
21
141.2337564
0
LINE
8
DEFAULT_255_2_778
10
121.1678986
20
141.2337564
11
121.1697986
21
141.2197564
0
LINE
8
DEFAULT_255_2_778
10
121.1697986
20
141.2197564
11
121.1713986
21
141.2064564
0
LINE
8
DEFAULT_255_2_778
10
121.1713986
20
141.2064564
11
121.1736986
21
141.1887564
0
LINE
8
DEFAULT_255_2_778
10
121.1736986
20
141.1887564
11
121.1763986
21
141.1668564
0
LINE
8
DEFAULT_255_2_778
10
121.1763986
20
141.1668564
11
121.1795986
21
141.1408564
0
LINE
8
DEFAULT_255_2_778
10
121.1795986
20
141.1408564
11
121.1874986
21
141.0792564
0
LINE
8
DEFAULT_255_2_778
10
121.1874986
20
141.0792564
11
121.1919986
21
141.0442564
0
LINE
8
DEFAULT_255_2_778
10
121.1919986
20
141.0442564
11
121.1964986
21
141.0080564
0
LINE
8
DEFAULT_255_2_778
10
121.1964986
20
141.0080564
11
121.2012986
21
140.9704564
0
LINE
8
DEFAULT_255_2_778
10
121.2012986
20
140.9704564
11
121.2062986
21
140.9318564
0
LINE
8
DEFAULT_255_2_778
10
121.2062986
20
140.9318564
11
121.2160986
21
140.8537564
0
LINE
8
DEFAULT_255_2_778
10
121.2160986
20
140.8537564
11
121.2260986
21
140.7749564
0
LINE
8
DEFAULT_255_2_778
10
121.2260986
20
140.7749564
11
121.2461986
21
140.6159564
0
LINE
8
DEFAULT_255_2_778
10
121.2461986
20
140.6159564
11
121.3469986
21
140.6159564
0
LINE
8
DEFAULT_255_2_778
10
121.3469986
20
140.6159564
11
121.3684986
21
140.4468564
0
LINE
8
DEFAULT_255_2_778
10
121.3684986
20
140.4468564
11
121.3898986
21
140.2778564
0
LINE
8
DEFAULT_255_2_778
10
121.3898986
20
140.2778564
11
121.3951986
21
140.2354564
0
LINE
8
DEFAULT_255_2_778
10
121.3951986
20
140.2354564
11
121.4004986
21
140.1931564
0
LINE
8
DEFAULT_255_2_778
10
121.4004986
20
140.1931564
11
121.4110986
21
140.1087564
0
LINE
8
DEFAULT_255_2_778
10
121.4110986
20
140.1087564
11
121.4216986
21
140.0248564
0
LINE
8
DEFAULT_255_2_778
10
121.4216986
20
140.0248564
11
121.4319986
21
139.9423564
0
LINE
8
DEFAULT_255_2_778
10
121.4319986
20
139.9423564
11
121.4369986
21
139.9015564
0
LINE
8
DEFAULT_255_2_778
10
121.4369986
20
139.9015564
11
121.4419986
21
139.8618564
0
LINE
8
DEFAULT_255_2_778
10
121.4419986
20
139.8618564
11
121.4514986
21
139.7867564
0
LINE
8
DEFAULT_255_2_778
10
121.4514986
20
139.7867564
11
121.4559986
21
139.7515564
0
LINE
8
DEFAULT_255_2_778
10
121.4559986
20
139.7515564
11
121.4599986
21
139.7190564
0
LINE
8
DEFAULT_255_2_778
10
121.4599986
20
139.7190564
11
121.4636986
21
139.6901564
0
LINE
8
DEFAULT_255_2_778
10
121.4636986
20
139.6901564
11
121.4668986
21
139.6652564
0
LINE
8
DEFAULT_255_2_778
10
121.4668986
20
139.6652564
11
121.4694986
21
139.6443564
0
LINE
8
DEFAULT_255_2_778
10
121.4694986
20
139.6443564
11
121.4713986
21
139.6285564
0
LINE
8
DEFAULT_255_2_778
10
121.4713986
20
139.6285564
11
121.4726986
21
139.6176564
0
LINE
8
DEFAULT_255_2_778
10
121.4726986
20
139.6176564
11
121.4734986
21
139.6113564
0
LINE
8
DEFAULT_255_2_778
10
121.4734986
20
139.6113564
11
121.4737986
21
139.6084564
0
LINE
8
DEFAULT_255_2_778
10
121.4737986
20
139.6084564
11
121.4737986
21
139.6081564
0
LINE
8
DEFAULT_255_2_778
10
126.6050986
20
88.0487564
11
126.5047986
21
88.0487564
0
LINE
8
DEFAULT_255_2_778
10
7.5401986
20
74.8518564
11
7.5401986
21
95.0679564
0
LINE
8
DEFAULT_255_2_778
10
7.5401986
20
95.0679564
11
9.8888986
21
94.8160564
0
LINE
8
DEFAULT_255_2_778
10
9.8888986
20
94.8160564
11
9.8888986
21
75.2699564
0
LINE
8
DEFAULT_255_2_778
10
9.8888986
20
75.2699564
11
7.5407986
21
74.8563564
0
LINE
8
DEFAULT_255_2_778
10
56.4785986
20
13.6860564
11
56.4785986
21
14.8089564
0
LINE
8
DEFAULT_255_2_778
10
117.8132986
20
132.2148564
11
117.7441986
21
132.8218564
0
LINE
8
DEFAULT_255_2_778
10
117.4390986
20
135.4994564
11
117.4377986
21
135.5108564
0
LINE
8
DEFAULT_255_2_778
10
113.7915986
20
135.1276564
11
113.2179986
21
135.0673564
0
LINE
8
DEFAULT_255_2_778
10
9.8899986
20
130.6149564
11
9.4345986
21
130.6149564
0
LINE
8
DEFAULT_255_2_778
10
9.4345986
20
130.6149564
11
8.7649986
21
130.3207564
0
LINE
8
DEFAULT_255_2_778
10
7.3898986
20
128.2194564
11
7.3898986
21
127.8151564
0
LINE
8
DEFAULT_255_2_778
10
7.3898986
20
127.8151564
11
0.1900986
21
124.8150564
0
LINE
8
DEFAULT_255_2_778
10
0.1900986
20
124.8150564
11
0.1900986
21
120.2991564
0
LINE
8
DEFAULT_255_2_778
10
5.8902986
20
119.3151564
11
9.8902986
21
119.3151564
0
LINE
8
DEFAULT_255_2_778
10
109.2981986
20
71.0911564
11
122.8979986
21
71.0911564
0
LINE
8
DEFAULT_255_2_778
10
114.0169986
20
143.3149564
11
114.0169986
21
143.3149564
0
LINE
8
DEFAULT_255_2_778
10
121.4721879
20
139.6266689
11
121.2919879
21
141.0511689
0
LINE
8
DEFAULT_255_2_778
10
126.6161879
20
87.9000689
11
126.3933879
21
90.8784689
0
LINE
8
DEFAULT_255_2_778
10
23.6900879
20
4.5568689
11
23.6649879
21
4.5526689
0
LINE
8
DEFAULT_255_2_778
10
122.8979879
20
71.0910689
11
122.9985879
21
69.2839689
0
LINE
8
DEFAULT_255_2_778
10
122.9985879
20
69.2839689
11
123.0633879
21
68.0912689
0
ARC
8
DEFAULT_255_2_778
10
30.8851617
20
8.6675785
40
3.0362101
50
183.8158556
51
208.3928094
0
ARC
8
DEFAULT_255_2_778
10
30.8576965
20
8.6601873
40
3.0085413
50
208.5177025
51
263.0293104
0
ARC
8
DEFAULT_255_2_778
10
30.8585911
20
8.6682701
40
3.0166728
50
263.0310755
51
263.9106085
0
ARC
8
DEFAULT_255_2_778
10
30.8561002
20
8.6674724
40
3.0156162
50
263.9560588
51
267.3694655
0
ARC
8
DEFAULT_255_2_778
10
30.8560759
20
8.6670712
40
3.0152144
50
267.3695772
51
270.0000433
0
ARC
8
DEFAULT_255_2_778
10
30.8560618
20
8.6676007
40
3.015744
50
270.000312
51
291.6971203
0
LINE
8
DEFAULT_255_2_778
10
121.3469826
20
140.6186187
11
121.3474826
21
140.6141187
0
LINE
8
DEFAULT_255_2_778
10
121.3474826
20
140.6141187
11
121.3496826
21
140.5982187
0
LINE
8
DEFAULT_255_2_778
10
121.3496826
20
140.5982187
11
121.3519826
21
140.5786187
0
LINE
8
DEFAULT_255_2_778
10
121.3519826
20
140.5786187
11
121.3549826
21
140.5556187
0
LINE
8
DEFAULT_255_2_778
10
121.3549826
20
140.5556187
11
121.3726826
21
140.4167187
0
LINE
8
DEFAULT_255_2_778
10
120.7029826
20
145.5959187
11
120.6931826
21
145.6695187
0
LINE
8
DEFAULT_255_2_778
10
120.6931826
20
145.6695187
11
120.6913826
21
145.6829187
0
LINE
8
DEFAULT_255_2_778
10
120.6913826
20
145.6829187
11
120.6897826
21
145.6943187
0
LINE
8
DEFAULT_255_2_778
10
120.6897826
20
145.6943187
11
120.6873826
21
145.7121187
0
LINE
8
DEFAULT_255_2_778
10
120.6873826
20
145.7121187
11
120.6865826
21
145.7184187
0
LINE
8
DEFAULT_255_2_778
10
120.6865826
20
145.7184187
11
120.6860826
21
145.7234187
0
LINE
8
DEFAULT_255_2_778
10
120.6860826
20
145.7234187
11
120.6849826
21
145.7311187
0
LINE
8
DEFAULT_255_2_778
10
120.6024826
20
145.5956187
11
120.6100826
21
145.5366187
0
LINE
8
DEFAULT_255_2_778
10
120.6100826
20
145.5366187
11
120.6143826
21
145.5046187
0
LINE
8
DEFAULT_255_2_778
10
120.6143826
20
145.5046187
11
120.6188826
21
145.4710187
0
LINE
8
DEFAULT_255_2_778
10
120.6188826
20
145.4710187
11
120.6280826
21
145.4017187
0
LINE
8
DEFAULT_255_2_778
10
120.6280826
20
145.4017187
11
120.6373826
21
145.3308187
0
LINE
8
DEFAULT_255_2_778
10
120.6373826
20
145.3308187
11
120.6468826
21
145.2586187
0
LINE
8
DEFAULT_255_2_778
10
120.6468826
20
145.2586187
11
120.6563826
21
145.1858187
0
LINE
8
DEFAULT_255_2_778
10
120.6563826
20
145.1858187
11
120.6611826
21
145.1495187
0
LINE
8
DEFAULT_255_2_778
10
120.6611826
20
145.1495187
11
120.6659826
21
145.1133187
0
LINE
8
DEFAULT_255_2_778
10
120.6659826
20
145.1133187
11
120.6754826
21
145.0405187
0
LINE
8
DEFAULT_255_2_778
10
120.6754826
20
145.0405187
11
120.7135826
21
144.7498187
0
LINE
8
DEFAULT_255_2_778
10
120.7135826
20
144.7498187
11
120.7183826
21
144.7135187
0
LINE
8
DEFAULT_255_2_778
10
120.7183826
20
144.7135187
11
120.7230826
21
144.6773187
0
LINE
8
DEFAULT_255_2_778
10
120.7230826
20
144.6773187
11
120.7325826
21
144.6048187
0
LINE
8
DEFAULT_255_2_778
10
120.7325826
20
144.6048187
11
120.7421826
21
144.5328187
0
LINE
8
DEFAULT_255_2_778
10
120.7421826
20
144.5328187
11
120.7468826
21
144.4968187
0
LINE
8
DEFAULT_255_2_778
10
120.7468826
20
144.4968187
11
120.7516826
21
144.4611187
0
LINE
8
DEFAULT_255_2_778
10
120.7516826
20
144.4611187
11
120.7606826
21
144.3913187
0
LINE
8
DEFAULT_255_2_778
10
120.7606826
20
144.3913187
11
120.7693826
21
144.3238187
0
LINE
8
DEFAULT_255_2_778
10
120.7693826
20
144.3238187
11
120.7736826
21
144.2915187
0
LINE
8
DEFAULT_255_2_778
10
120.7736826
20
144.2915187
11
120.7775826
21
144.2608187
0
LINE
8
DEFAULT_255_2_778
10
120.7775826
20
144.2608187
11
120.7812826
21
144.2320187
0
LINE
8
DEFAULT_255_2_778
10
120.7812826
20
144.2320187
11
120.7831826
21
144.2185187
0
LINE
8
DEFAULT_255_2_778
10
120.7831826
20
144.2185187
11
120.7847826
21
144.2058187
0
LINE
8
DEFAULT_255_2_778
10
120.7847826
20
144.2058187
11
120.7863826
21
144.1941187
0
LINE
8
DEFAULT_255_2_778
10
120.7863826
20
144.1941187
11
120.7876826
21
144.1836187
0
LINE
8
DEFAULT_255_2_778
10
120.7876826
20
144.1836187
11
120.7902826
21
144.1642187
0
LINE
8
DEFAULT_255_2_778
10
120.7902826
20
144.1642187
11
120.7923826
21
144.1478187
0
LINE
8
DEFAULT_255_2_778
10
120.7923826
20
144.1478187
11
120.7939826
21
144.1349187
0
LINE
8
DEFAULT_255_2_778
10
120.7939826
20
144.1349187
11
120.7960826
21
144.1182187
0
LINE
8
DEFAULT_255_2_778
10
120.7960826
20
144.1182187
11
120.7966826
21
144.1142187
0
LINE
8
DEFAULT_255_2_778
10
120.7966826
20
144.1142187
11
120.7968826
21
144.1124187
0
LINE
8
DEFAULT_255_2_778
10
120.7968826
20
144.1124187
11
120.7968826
21
144.1113187
0
LINE
8
DEFAULT_255_2_778
10
120.7968826
20
144.1113187
11
120.7968826
21
144.1111187
0
LINE
8
DEFAULT_255_2_778
10
121.3736826
20
139.6089187
11
121.3736826
21
139.6092187
0
LINE
8
DEFAULT_255_2_778
10
121.3736826
20
139.6092187
11
121.3734826
21
139.6118187
0
LINE
8
DEFAULT_255_2_778
10
121.3734826
20
139.6118187
11
121.3726826
21
139.6182187
0
LINE
8
DEFAULT_255_2_778
10
121.3726826
20
139.6182187
11
121.3713826
21
139.6288187
0
LINE
8
DEFAULT_255_2_778
10
121.3713826
20
139.6288187
11
121.3694826
21
139.6444187
0
LINE
8
DEFAULT_255_2_778
10
121.3694826
20
139.6444187
11
121.3681826
21
139.6544187
0
LINE
8
DEFAULT_255_2_778
10
121.3681826
20
139.6544187
11
121.3668826
21
139.6653187
0
LINE
8
DEFAULT_255_2_778
10
121.3668826
20
139.6653187
11
121.3599826
21
139.7190187
0
LINE
8
DEFAULT_255_2_778
10
121.3599826
20
139.7190187
11
121.3559826
21
139.7515187
0
LINE
8
DEFAULT_255_2_778
10
121.3559826
20
139.7515187
11
121.3514826
21
139.7867187
0
LINE
8
DEFAULT_255_2_778
10
121.3514826
20
139.7867187
11
121.3467826
21
139.8243187
0
LINE
8
DEFAULT_255_2_778
10
121.3467826
20
139.8243187
11
121.3416826
21
139.8632187
0
LINE
8
DEFAULT_255_2_778
10
121.3416826
20
139.8632187
11
121.3366826
21
139.9031187
0
LINE
8
DEFAULT_255_2_778
10
121.3366826
20
139.9031187
11
121.3316826
21
139.9439187
0
LINE
8
DEFAULT_255_2_778
10
121.3316826
20
139.9439187
11
121.3212826
21
140.0267187
0
LINE
8
DEFAULT_255_2_778
10
121.3212826
20
140.0267187
11
121.3107826
21
140.1106187
0
LINE
8
DEFAULT_255_2_778
10
121.3107826
20
140.1106187
11
121.3001826
21
140.1947187
0
LINE
8
DEFAULT_255_2_778
10
121.3001826
20
140.1947187
11
121.2948826
21
140.2368187
0
LINE
8
DEFAULT_255_2_778
10
121.2948826
20
140.2368187
11
121.2895826
21
140.2788187
0
LINE
8
DEFAULT_255_2_778
10
121.2895826
20
140.2788187
11
121.2466826
21
140.6164187
0
LINE
8
DEFAULT_255_2_778
10
121.2685112
20
141.2358428
11
121.2685112
21
141.2358428
0
LINE
8
DEFAULT_255_2_778
10
121.2685112
20
141.2358428
11
121.2688112
21
141.2337428
0
LINE
8
DEFAULT_255_2_778
10
121.2688112
20
141.2337428
11
121.2693112
21
141.2287428
0
LINE
8
DEFAULT_255_2_778
10
121.2693112
20
141.2287428
11
121.2703112
21
141.2197428
0
LINE
8
DEFAULT_255_2_778
10
121.2703112
20
141.2197428
11
121.2719112
21
141.2065428
0
LINE
8
DEFAULT_255_2_778
10
121.2719112
20
141.2065428
11
121.2743112
21
141.1887428
0
LINE
8
DEFAULT_255_2_778
10
121.2743112
20
141.1887428
11
121.2772112
21
141.1668428
0
LINE
8
DEFAULT_255_2_778
10
121.2772112
20
141.1668428
11
121.2804112
21
141.1411428
0
LINE
8
DEFAULT_255_2_778
10
121.2804112
20
141.1411428
11
121.2841112
21
141.1115428
0
LINE
8
DEFAULT_255_2_778
10
121.2841112
20
141.1115428
11
121.2883112
21
141.0787428
0
LINE
8
DEFAULT_255_2_778
10
121.2883112
20
141.0787428
11
121.2974112
21
141.0078428
0
LINE
8
DEFAULT_255_2_778
10
121.2974112
20
141.0078428
11
121.3021112
21
140.9699428
0
LINE
8
DEFAULT_255_2_778
10
121.3021112
20
140.9699428
11
121.3071112
21
140.9316428
0
LINE
8
DEFAULT_255_2_778
10
121.3071112
20
140.9316428
11
121.3169112
21
140.8538428
0
LINE
8
DEFAULT_255_2_778
10
121.3169112
20
140.8538428
11
121.3270112
21
140.7752428
0
LINE
8
DEFAULT_255_2_778
10
121.3270112
20
140.7752428
11
121.3471112
21
140.6164428
0
LINE
8
DEFAULT_255_2_778
10
120.7957112
20
144.1222428
11
120.5859112
21
145.7221428
0
LINE
8
DEFAULT_255_2_778
10
76.6251112
20
14.8147428
11
76.6251112
21
2.2150428
0
LINE
8
DEFAULT_255_2_778
10
76.6251112
20
2.2150428
11
66.5651112
21
2.2150428
0
LINE
8
DEFAULT_255_2_778
10
66.5651112
20
2.2150428
11
66.5675112
21
14.8126428
0
LINE
8
DEFAULT_255_2_778
10
66.5675112
20
14.8126428
11
76.6298112
21
14.8126428
0
ARC
8
DEFAULT_255_2_778
10
74.0851572
20
13.0562864
40
2.2410714
50
188.7632451
51
240.6041221
0
ARC
8
DEFAULT_255_2_778
10
74.0852531
20
13.0563359
40
2.2410635
50
302.3719148
51
351.2354441
0
ARC
8
DEFAULT_255_2_778
10
69.1542138
20
13.1142541
40
2.2989266
50
190.0049275
51
237.0896625
0
ARC
8
DEFAULT_255_2_778
10
69.1551677
20
13.1148922
40
2.3000355
50
297.1646644
51
349.9838041
0
LINE
8
DEFAULT_255_2_778
10
71.8702473
20
3.014955
11
71.8702473
21
12.714855
0
LINE
8
DEFAULT_255_2_778
10
71.8702473
20
12.714855
11
76.3001473
21
12.714855
0
LINE
8
DEFAULT_255_2_778
10
76.3001473
20
12.714855
11
76.3001473
21
3.014955
0
LINE
8
DEFAULT_255_2_778
10
66.5650473
20
14.814555
11
66.5650473
21
0.714655
0
LINE
8
DEFAULT_255_2_778
10
66.5650473
20
0.714655
11
67.0050473
21
0.714655
0
LINE
8
DEFAULT_255_2_778
10
67.0050473
20
0.714655
11
67.0050473
21
2.214555
0
LINE
8
DEFAULT_255_2_778
10
66.8902473
20
3.014955
11
66.8902473
21
12.714855
0
LINE
8
DEFAULT_255_2_778
10
66.8902473
20
12.714855
11
71.4201473
21
12.714855
0
LINE
8
DEFAULT_255_2_778
10
71.4201473
20
12.714855
11
71.4201473
21
3.014955
0
ARC
8
DEFAULT_255_2_778
10
69.0553038
20
11.5650764
40
1.1497929
50
44.9976413
51
90.0019993
0
ARC
8
DEFAULT_255_2_778
10
69.0548476
20
11.5647928
40
1.1503161
50
0.0087927
51
44.9915625
0
ARC
8
DEFAULT_255_2_778
10
69.054957
20
11.5650093
40
1.1497934
50
134.9976534
51
180.001995
0
ARC
8
DEFAULT_255_2_778
10
69.0556069
20
11.5636676
40
1.1512018
50
90.0170843
51
134.9733072
0
ARC
8
DEFAULT_255_2_778
10
74.134899
20
11.5647333
40
1.1497353
50
134.9964541
51
179.9982075
0
ARC
8
DEFAULT_255_2_778
10
74.1350655
20
11.5646749
40
1.1498944
50
90.0000907
51
135.0002627
0
ARC
8
DEFAULT_255_2_778
10
74.1350575
20
11.5649059
40
1.1496635
50
44.99497
51
89.9996913
0
ARC
8
DEFAULT_255_2_778
10
74.1350295
20
11.564551
40
1.1499342
50
0.0108795
51
45.0064886
0
LINE
8
DEFAULT_255_2_778
10
70.2051637
20
11.5649693
11
70.2051637
21
10.4150693
0
LINE
8
DEFAULT_255_2_778
10
70.2051637
20
10.4150693
11
67.9051637
21
10.4150693
0
LINE
8
DEFAULT_255_2_778
10
67.9051637
20
10.4150693
11
67.9051637
21
11.5649693
0
LINE
8
DEFAULT_255_2_778
10
75.2849637
20
11.5647693
11
75.2849637
21
11.1635693
0
LINE
8
DEFAULT_255_2_778
10
75.2849637
20
11.1635693
11
75.2849637
21
10.4148693
0
LINE
8
DEFAULT_255_2_778
10
75.2849637
20
10.4148693
11
72.9848637
21
10.4148693
0
LINE
8
DEFAULT_255_2_778
10
72.9848637
20
10.4148693
11
72.9848637
21
11.5647693
0
LINE
8
DEFAULT_255_2_778
10
76.6215637
20
2.2119693
11
76.0842637
21
2.2119693
0
LINE
8
DEFAULT_255_2_778
10
76.0842637
20
2.2119693
11
76.0850637
21
0.7149693
0
LINE
8
DEFAULT_255_2_778
10
76.0850637
20
0.7149693
11
76.6250637
21
0.7149693
0
LINE
8
DEFAULT_255_2_778
10
76.6250637
20
0.7149693
11
76.6250637
21
2.2148693
0
LINE
8
DEFAULT_255_2_778
10
76.1851064
20
0.7149645
11
76.1851064
21
2.2148645
0
LINE
8
DEFAULT_255_2_778
10
66.5651064
20
3.0149645
11
76.6251064
21
3.0149645
0
LINE
8
DEFAULT_255_2_778
10
72.1851064
20
0.1950645
11
76.0851064
21
0.1950645
0
LINE
8
DEFAULT_255_2_778
10
76.085121
20
2.1870364
11
76.085121
21
-0.0050636
0
LINE
8
DEFAULT_255_2_778
10
76.085121
20
-0.0050636
11
72.185121
21
-0.0050636
0
LINE
8
DEFAULT_255_2_778
10
72.185121
20
-0.0050636
11
72.185121
21
2.1870364
0
LINE
8
DEFAULT_255_2_778
10
71.005121
20
0.1950364
11
67.105121
21
0.1950364
0
LINE
8
DEFAULT_255_2_778
10
67.1051209
20
2.1870364
11
67.1051209
21
-0.0050636
0
LINE
8
DEFAULT_255_2_778
10
67.1051209
20
-0.0050636
11
71.0051209
21
-0.0050636
0
LINE
8
DEFAULT_255_2_778
10
71.0051209
20
-0.0050636
11
71.0051209
21
2.1870364
0
ARC
8
DEFAULT_255_2_778
10
41.177903
20
-22.0143252
40
33.2765518
50
114.7168477
51
116.5873307
0
ARC
8
DEFAULT_255_2_778
10
39.8298131
20
-19.1010419
40
30.0664864
50
113.5037933
51
114.7045723
0
ARC
8
DEFAULT_255_2_778
10
33.9961374
20
9.2799795
40
6.2100593
50
187.4857211
51
190.416136
0
ARC
8
DEFAULT_255_2_778
10
31.4308316
20
8.8040604
40
3.6009865
50
190.3480548
51
194.6234486
0
ARC
8
DEFAULT_255_2_778
10
29.8443112
20
8.388535
40
1.9609548
50
194.5789371
51
200.2368126
0
ARC
8
DEFAULT_255_2_778
10
27.9804725
20
7.6777614
40
0.0403422
50
53.6142674
51
94.1794294
0
ARC
8
DEFAULT_255_2_778
10
27.854039
20
6.7001489
40
1.0253117
50
83.0822364
51
86.8750357
0
ARC
8
DEFAULT_255_2_778
10
27.6677781
20
3.7281739
40
4.0030929
50
86.531953
51
87.863291
0
ARC
8
DEFAULT_255_2_778
10
27.4651834
20
-1.4482015
40
9.1834276
50
87.8042817
51
88.4730476
0
ARC
8
DEFAULT_255_2_778
10
27.2210226
20
-10.6179452
40
18.3564213
50
88.4739024
51
89.0271805
0
ARC
8
DEFAULT_255_2_778
10
26.9267309
20
-27.6398872
40
35.3809067
50
89.0186799
51
89.4055475
0
ARC
8
DEFAULT_255_2_778
10
26.6807508
20
-50.2578964
40
58.0002515
50
89.394379
51
89.6029785
0
ARC
8
DEFAULT_255_2_778
10
26.4735317
20
-80.5349384
40
88.2780028
50
89.6046555
51
89.8115516
0
ARC
8
DEFAULT_255_2_778
10
26.3222868
20
-124.9585426
40
132.7018642
50
89.8093353
51
89.9613746
0
ARC
8
DEFAULT_255_2_778
10
26.285546
20
-161.6783889
40
169.4217274
50
89.957321
51
90.0003185
0
LINE
8
DEFAULT_255_2_778
10
26.2846042
20
7.7433385
11
26.2846042
21
7.7433385
0
ARC
8
DEFAULT_255_2_778
10
121.8924151
20
9.8185262
40
2.0022096
50
156.5287151
51
180.0990339
0
ARC
8
DEFAULT_255_2_778
10
121.885497
20
9.8193978
40
1.9955175
50
100.1882983
51
156.4725563
0
ARC
8
DEFAULT_255_2_778
10
121.8891895
20
9.7874532
40
2.0276126
50
89.9712038
51
100.131326
0
ARC
8
DEFAULT_255_2_778
10
121.8936702
20
9.8128072
40
2.0022612
50
66.5715666
51
90.0990563
0
ARC
8
DEFAULT_255_2_778
10
121.8945175
20
9.8197647
40
1.9955414
50
10.1944457
51
66.5144618
0
ARC
8
DEFAULT_255_2_778
10
121.8626633
20
9.8160828
40
2.0275455
50
359.9712527
51
10.1375314
0
ARC
8
DEFAULT_255_2_778
10
121.8878271
20
9.8115957
40
2.0023845
50
336.5733489
51
0.0992821
0
ARC
8
DEFAULT_255_2_778
10
121.8950051
20
9.8106487
40
1.9954226
50
280.1929838
51
336.5163563
0
ARC
8
DEFAULT_255_2_778
10
121.8912291
20
9.8428691
40
2.0278038
50
269.9711642
51
280.1368845
0
ARC
8
DEFAULT_255_2_778
10
121.8867388
20
9.8174469
40
2.0023845
50
246.5733489
51
270.0992821
0
ARC
8
DEFAULT_255_2_778
10
121.8857918
20
9.8102689
40
1.9954226
50
190.1929838
51
246.5163563
0
ARC
8
DEFAULT_255_2_778
10
121.9180122
20
9.8140449
40
2.0278038
50
179.9711642
51
190.1368845
0
LINE
8
DEFAULT_255_2_778
10
113.6900086
20
13.5146655
11
113.6900086
21
13.9507655
0
LINE
8
DEFAULT_255_2_778
10
113.6900086
20
13.9507655
11
114.6898086
21
14.3147655
0
LINE
8
DEFAULT_255_2_778
10
114.6898086
20
14.3147655
11
124.5733086
21
14.3147655
0
LINE
8
DEFAULT_255_2_778
10
123.0866086
20
13.3149655
11
125.7708086
21
13.3149655
0
LINE
8
DEFAULT_255_2_778
10
125.7708086
20
13.3149655
11
125.7708086
21
14.1081655
0
LINE
8
DEFAULT_255_2_778
10
125.9902086
20
17.0950655
11
125.9902086
21
19.6347655
0
LINE
8
DEFAULT_255_2_778
10
123.5142086
20
16.6148655
11
121.8846086
21
16.6148655
0
LINE
8
DEFAULT_255_2_778
10
121.8846086
20
16.6148655
11
121.8719086
21
16.3748655
0
LINE
8
DEFAULT_255_2_778
10
109.3902086
20
14.8148655
11
109.1902086
21
14.8148655
0
LINE
8
DEFAULT_255_2_778
10
123.5901086
20
18.6955655
11
125.7560086
21
19.1323655
0
LINE
8
DEFAULT_255_2_778
10
125.7560086
20
19.1323655
11
125.9902086
21
19.1849655
0
LINE
8
DEFAULT_255_2_778
10
119.8902086
20
9.8150655
11
119.8902086
21
9.8150655
0
ARC
8
DEFAULT_255_2_778
10
121.8886268
20
9.8216761
40
1.9933107
50
89.9315756
51
114.3093745
0
ARC
8
DEFAULT_255_2_778
10
121.8934863
20
9.8132058
40
2.0030308
50
114.3363119
51
170.1888199
0
ARC
8
DEFAULT_255_2_778
10
121.9043235
20
9.8155377
40
2.0133162
50
170.3067648
51
180.0071809
0
ARC
8
DEFAULT_255_2_778
10
121.8839948
20
9.812548
40
1.9929894
50
179.9213031
51
204.3029559
0
ARC
8
DEFAULT_255_2_778
10
121.8929191
20
9.8176699
40
2.003231
50
204.3314185
51
260.1801755
0
ARC
8
DEFAULT_255_2_778
10
121.8906229
20
9.8285387
40
2.0135532
50
260.2973032
51
269.9967117
0
ARC
8
DEFAULT_255_2_778
10
114.7899385
20
67.9187157
40
50.0040252
50
269.998891
51
280.1360128
0
ARC
8
DEFAULT_255_2_778
10
114.7889792
20
67.9578361
40
50.0431455
50
268.5912916
51
269.9999902
0
ARC
8
DEFAULT_255_2_778
10
114.7892098
20
67.9686556
40
50.0539674
50
268.011992
51
268.5913322
0
ARC
8
DEFAULT_255_2_778
10
57.389409
20
-57.2236355
40
72.0381508
50
89.9994333
51
95.8754379
0
ARC
8
DEFAULT_255_2_778
10
57.3884119
20
-57.207864
40
72.0223601
50
95.8759332
51
103.8181854
0
ARC
8
DEFAULT_255_2_778
10
57.3920483
20
-57.2247219
40
72.0395986
50
103.8177916
51
118.672012
0
ARC
8
DEFAULT_255_2_778
10
57.3811737
20
-57.2027336
40
72.0150889
50
118.6728145
51
125.116911
0
ARC
8
DEFAULT_255_2_778
10
57.4036738
20
-57.2349489
40
72.0543834
50
125.1168099
51
127.6501174
0
LINE
8
DEFAULT_255_2_778
10
112.2980215
20
23.4386153
11
109.2979215
21
20.4385153
0
LINE
8
DEFAULT_255_2_778
10
109.2979215
20
20.4385153
11
123.5899215
21
20.4385153
0
LINE
8
DEFAULT_255_2_778
10
123.5899215
20
20.4385153
11
123.5899215
21
18.6951153
0
LINE
8
DEFAULT_255_2_778
10
113.0528215
20
17.9448153
11
111.7397215
21
16.6317153
0
LINE
8
DEFAULT_255_2_778
10
111.7397215
20
16.6317153
11
110.4568215
21
17.9146153
0
LINE
8
DEFAULT_255_2_778
10
110.4568215
20
17.9146153
11
109.1897215
21
17.9146153
0
LINE
8
DEFAULT_255_2_778
10
109.1897215
20
17.9146153
11
109.1897215
21
13.5146153
0
LINE
8
DEFAULT_255_2_778
10
109.1897215
20
13.5146153
11
122.3397215
21
13.5146153
0
LINE
8
DEFAULT_255_2_778
10
122.3397215
20
13.5146153
11
126.8398215
21
12.3089153
0
LINE
8
DEFAULT_255_2_778
10
126.8398215
20
12.3089153
11
126.8398215
21
4.8146153
0
LINE
8
DEFAULT_255_2_778
10
126.8398215
20
4.8146153
11
106.6399215
21
4.8146153
0
LINE
8
DEFAULT_255_2_778
10
106.6399215
20
4.8146153
11
90.1899215
21
14.8145153
0
LINE
8
DEFAULT_255_2_778
10
90.1899215
20
14.8145153
11
57.3901215
21
14.8145153
0
LINE
8
DEFAULT_255_2_778
10
13.3901215
20
-0.1854847
11
9.8900215
21
-0.1854847
0
LINE
8
DEFAULT_255_2_778
10
9.8900215
20
-0.1854847
11
9.8900215
21
37.0546153
0
LINE
8
DEFAULT_255_2_778
10
9.8900215
20
37.0546153
11
5.9900215
21
37.0887153
0
LINE
8
DEFAULT_255_2_778
10
5.9900215
20
37.0887153
11
5.9900215
21
70.0103153
0
LINE
8
DEFAULT_255_2_778
10
5.9900215
20
70.0103153
11
12.8927215
21
75.7938153
0
LINE
8
DEFAULT_255_2_778
10
12.8927215
20
75.7938153
11
12.8927215
21
94.4914153
0
LINE
8
DEFAULT_255_2_778
10
12.8927215
20
94.4914153
11
9.8900215
21
94.8147153
0
LINE
8
DEFAULT_255_2_778
10
112.2982448
20
68.0910805
11
109.2981448
21
71.0911805
0
LINE
8
DEFAULT_255_2_778
10
109.2981448
20
71.0911805
11
109.2981448
21
20.4387805
0
LINE
8
DEFAULT_255_2_778
10
126.8331625
20
85.1233396
11
126.8360625
21
85.0828396
0
LINE
8
DEFAULT_255_2_778
10
126.8360625
20
85.0828396
11
126.8397625
21
85.0333396
0
LINE
8
DEFAULT_255_2_778
10
126.8397625
20
85.0333396
11
126.8419625
21
85.0045396
0
LINE
8
DEFAULT_255_2_778
10
126.8419625
20
85.0045396
11
126.8442625
21
84.9730396
0
LINE
8
DEFAULT_255_2_778
10
126.8442625
20
84.9730396
11
126.8495625
21
84.9024396
0
LINE
8
DEFAULT_255_2_778
10
126.8495625
20
84.9024396
11
126.8524625
21
84.8635396
0
LINE
8
DEFAULT_255_2_778
10
126.8524625
20
84.8635396
11
126.8554625
21
84.8233396
0
LINE
8
DEFAULT_255_2_778
10
126.8554625
20
84.8233396
11
126.8585625
21
84.7820396
0
LINE
8
DEFAULT_255_2_778
10
126.8585625
20
84.7820396
11
126.8617625
21
84.7397396
0
LINE
8
DEFAULT_255_2_778
10
126.8617625
20
84.7397396
11
126.8649625
21
84.6973396
0
LINE
8
DEFAULT_255_2_778
10
126.8649625
20
84.6973396
11
126.8681625
21
84.6553396
0
LINE
8
DEFAULT_255_2_778
10
126.8681625
20
84.6553396
11
126.8712625
21
84.6132396
0
LINE
8
DEFAULT_255_2_778
10
126.8712625
20
84.6132396
11
126.8744625
21
84.5714396
0
LINE
8
DEFAULT_255_2_778
10
126.8744625
20
84.5714396
11
126.8858625
21
84.4177396
0
LINE
8
DEFAULT_255_2_778
10
126.8858625
20
84.4177396
11
126.8884625
21
84.3835396
0
LINE
8
DEFAULT_255_2_778
10
126.8884625
20
84.3835396
11
126.8908625
21
84.3520396
0
LINE
8
DEFAULT_255_2_778
10
126.8908625
20
84.3520396
11
126.8950625
21
84.2959396
0
LINE
8
DEFAULT_255_2_778
10
126.8950625
20
84.2959396
11
126.8985625
21
84.2489396
0
LINE
8
DEFAULT_255_2_778
10
126.8985625
20
84.2489396
11
126.9014625
21
84.2102396
0
LINE
8
DEFAULT_255_2_778
10
126.9014625
20
84.2102396
11
126.9027625
21
84.1938396
0
LINE
8
DEFAULT_255_2_778
10
126.9027625
20
84.1938396
11
126.9038625
21
84.1793396
0
LINE
8
DEFAULT_255_2_778
10
126.9038625
20
84.1793396
11
126.9054625
21
84.1562396
0
LINE
8
DEFAULT_255_2_778
10
126.9054625
20
84.1562396
11
126.9072625
21
84.1303396
0
LINE
8
DEFAULT_255_2_778
10
126.9072625
20
84.1303396
11
126.9075625
21
84.1258396
0
LINE
8
DEFAULT_255_2_778
10
126.9075625
20
84.1258396
11
126.9075625
21
84.1261396
0
LINE
8
DEFAULT_255_2_778
10
126.9075625
20
84.1261396
11
126.9062625
21
84.1422396
0
LINE
8
DEFAULT_255_2_778
10
126.9062625
20
84.1422396
11
126.9048625
21
84.1597396
0
LINE
8
DEFAULT_255_2_778
10
126.9048625
20
84.1597396
11
126.9030625
21
84.1851396
0
LINE
8
DEFAULT_255_2_778
10
126.9030625
20
84.1851396
11
126.9006625
21
84.2192396
0
LINE
8
DEFAULT_255_2_778
10
126.9006625
20
84.2192396
11
126.8990625
21
84.2399396
0
LINE
8
DEFAULT_255_2_778
10
126.8990625
20
84.2399396
11
126.8974625
21
84.2631396
0
LINE
8
DEFAULT_255_2_778
10
126.8974625
20
84.2631396
11
126.8887625
21
84.3809396
0
LINE
8
DEFAULT_255_2_778
10
126.8887625
20
84.3809396
11
126.8860625
21
84.4169396
0
LINE
8
DEFAULT_255_2_778
10
126.8860625
20
84.4169396
11
126.8834625
21
84.4544396
0
LINE
8
DEFAULT_255_2_778
10
126.8834625
20
84.4544396
11
126.8776625
21
84.5341396
0
LINE
8
DEFAULT_255_2_778
10
126.8776625
20
84.5341396
11
126.8744625
21
84.5756396
0
LINE
8
DEFAULT_255_2_778
10
126.8744625
20
84.5756396
11
126.8712625
21
84.6177396
0
LINE
8
DEFAULT_255_2_778
10
126.8712625
20
84.6177396
11
126.8649625
21
84.7026396
0
LINE
8
DEFAULT_255_2_778
10
126.8649625
20
84.7026396
11
126.7646625
21
84.7026396
0
LINE
8
DEFAULT_255_2_778
10
126.6953313
20
86.9672343
11
126.5948313
21
86.9672343
0
LINE
8
DEFAULT_255_2_778
10
126.5948313
20
86.9672343
11
126.8255313
21
83.8771343
0
LINE
8
DEFAULT_255_2_778
10
126.8255313
20
83.8771343
11
126.9329313
21
83.8771343
0
LINE
8
DEFAULT_255_2_778
10
126.9329313
20
83.8771343
11
126.6932313
21
86.9611343
0
ENDSEC
0
EOF