0
SECTION
2
HEADER
9
$MEASUREMENT
70
1
0
ENDSEC
0
SECTION
2
TABLES
0
TABLE
2
LTYPE
0
LTYPE
72
65
70
64
2
CONTINUOUS
3
______
73
0
40
0
0
ENDTAB
0
TABLE
2
LAYER
0
LAYER
2
DEFAULT_255_2_778
70
0
62
255
6
CONTINUOUS
0
ENDTAB
0
ENDSEC
0
SECTION
2
ENTITIES
0
ARC
8
DEFAULT_255_2_778
10
6.4408699
20
139.3162835
40
3.4998652
50
359.9555081
51
17.0757734
0
ARC
8
DEFAULT_255_2_778
10
6.4345034
20
139.3073108
40
3.5085922
50
17.1853116
51
72.2606412
0
ARC
8
DEFAULT_255_2_778
10
6.4440911
20
139.3166917
40
3.4967416
50
72.363436
51
89.4848657
0
ARC
8
DEFAULT_255_2_778
10
6.4402986
20
139.2434531
40
3.5700128
50
89.4345691
51
89.9914053
0
ARC
8
DEFAULT_255_2_778
10
5.9407826
20
141.8136228
40
0.999843
50
89.9970476
51
135.0123802
0
ARC
8
DEFAULT_255_2_778
10
5.940477
20
141.8133173
40
0.999843
50
134.9876198
51
180.0029524
0
ARC
8
DEFAULT_255_2_778
10
2.7338428
20
144.5165573
40
2.2932106
50
157.7998888
51
180.0722441
0
ARC
8
DEFAULT_255_2_778
10
2.7428321
20
144.5106505
40
2.3037661
50
100.5193928
51
157.7483484
0
ARC
8
DEFAULT_255_2_778
10
2.739604
20
144.5007256
40
2.3129402
50
89.9744827
51
100.3958844
0
ARC
8
DEFAULT_255_2_778
10
116.1400737
20
141.3197241
40
9.9060612
50
266.5070171
51
267.9040389
0
ARC
8
DEFAULT_255_2_778
10
116.1400411
20
141.3191523
40
9.9054886
50
267.9041067
51
270.0000133
0
ARC
8
DEFAULT_255_2_778
10
116.1400289
20
141.3200763
40
9.9064127
50
270.0000836
51
286.3373942
0
ARC
8
DEFAULT_255_2_778
10
-155.626987
20
89.4944047
40
278.9131481
50
8.3949798
51
8.7271479
0
ARC
8
DEFAULT_255_2_778
10
-177.777632
20
86.2255172
40
301.3036977
50
8.0678689
51
8.39497
0
ARC
8
DEFAULT_255_2_778
10
-201.5207501
20
82.8594778
40
325.2842288
50
7.7528373
51
8.0679521
0
ARC
8
DEFAULT_255_2_778
10
-226.1637749
20
79.5032408
40
350.1547535
50
7.4592027
51
7.753036
0
ARC
8
DEFAULT_255_2_778
10
-251.0872115
20
76.2387014
40
375.29108
50
7.1890272
51
7.4594084
0
ARC
8
DEFAULT_255_2_778
10
-275.9029421
20
73.1074598
40
400.30358
50
6.9395296
51
7.1891854
0
ARC
8
DEFAULT_255_2_778
10
-300.5223878
20
70.1097864
40
425.1048533
50
6.7084365
51
6.9396844
0
ARC
8
DEFAULT_255_2_778
10
-325.0035961
20
67.2292132
40
449.7549497
50
6.4938118
51
6.7085678
0
ARC
8
DEFAULT_255_2_778
10
-349.1800867
20
64.4763654
40
474.0876617
50
6.2939569
51
6.4939234
0
ARC
8
DEFAULT_255_2_778
10
-373.0434665
20
61.84357
40
498.0958375
50
6.1074178
51
6.2940486
0
ARC
8
DEFAULT_255_2_778
10
-396.4543445
20
59.3379884
40
521.6404153
50
5.9328926
51
6.107485
0
ARC
8
DEFAULT_255_2_778
10
-425.0790791
20
56.3693675
40
550.4186729
50
5.688693
51
5.9322644
0
ARC
8
DEFAULT_255_2_778
10
-458.8016708
20
53.0080902
40
584.3083671
50
5.4670834
51
5.6888917
0
ARC
8
DEFAULT_255_2_778
10
-493.8732764
20
49.6531706
40
619.5400715
50
5.2310959
51
5.4669216
0
ARC
8
DEFAULT_255_2_778
10
-531.3792772
20
46.2186146
40
657.2030012
50
5.002922
51
5.2311582
0
ARC
8
DEFAULT_255_2_778
10
-569.408454
20
42.8887754
40
695.3776801
50
4.783611
51
5.0029846
0
ARC
8
DEFAULT_255_2_778
10
-606.2370785
20
39.8045373
40
732.3352247
50
4.5862573
51
4.7837872
0
ARC
8
DEFAULT_255_2_778
10
-640.5736025
20
37.0482589
40
766.7821976
50
4.4077678
51
4.5864001
0
ARC
8
DEFAULT_255_2_778
10
-672.5680104
20
34.5804652
40
798.8716373
50
4.2457436
51
4.4078818
0
ARC
8
DEFAULT_255_2_778
10
-709.2076597
20
31.8668173
40
835.6116392
50
4.025295
51
4.2453052
0
ARC
8
DEFAULT_255_2_778
10
-752.2604015
20
28.8375731
40
878.7708203
50
3.8018422
51
4.0252691
0
ARC
8
DEFAULT_255_2_778
10
-795.3893103
20
25.970809
40
921.9949005
50
3.5831294
51
3.8018888
0
ARC
8
DEFAULT_255_2_778
10
-834.3730981
20
23.5255223
40
961.055304
50
3.3983424
51
3.5833768
0
ARC
8
DEFAULT_255_2_778
10
-874.0109295
20
21.1771464
40
1000.7626399
50
3.1631847
51
3.3980341
0
ARC
8
DEFAULT_255_2_778
10
-917.1638346
20
18.7926041
40
1043.9813775
50
2.9176504
51
3.1631701
0
ARC
8
DEFAULT_255_2_778
10
-964.3543221
20
16.3973335
40
1091.2326138
50
2.5848569
51
2.9171328
0
ARC
8
DEFAULT_255_2_778
10
-1010.9182878
20
14.2940986
40
1137.8440556
50
2.2223752
51
2.5849127
0
ARC
8
DEFAULT_255_2_778
10
-1039.8109452
20
13.158519
40
1166.759017
50
1.9781705
51
2.2230787
0
ARC
8
DEFAULT_255_2_778
10
-1052.4419121
20
12.7189623
40
1179.3976296
50
1.7667745
51
1.9783303
0
ARC
8
DEFAULT_255_2_778
10
-1056.3729792
20
12.5959897
40
1183.3306193
50
1.5829859
51
1.7668575
0
ARC
8
DEFAULT_255_2_778
10
-1054.1897649
20
12.6553738
40
1181.1465977
50
1.4225183
51
1.5830319
0
ARC
8
DEFAULT_255_2_778
10
-1048.0587058
20
12.8073683
40
1175.0136547
50
1.2819947
51
1.4225308
0
ARC
8
DEFAULT_255_2_778
10
-1039.300636
20
13.0032737
40
1166.2533943
50
1.1586927
51
1.2819991
0
ARC
8
DEFAULT_255_2_778
10
-1029.1599226
20
13.208744
40
1156.1105994
50
1.0503467
51
1.1586745
0
ARC
8
DEFAULT_255_2_778
10
-1018.1048934
20
13.4114678
40
1145.0537117
50
0.9550784
51
1.0503447
0
ARC
8
DEFAULT_255_2_778
10
-1004.5350653
20
13.6361212
40
1131.4820241
50
0.8293031
51
0.9551578
0
ARC
8
DEFAULT_255_2_778
10
-987.246303
20
13.8863785
40
1114.1914507
50
0.7089408
51
0.829303
0
ARC
8
DEFAULT_255_2_778
10
-968.9774216
20
14.1129818
40
1095.9211639
50
0.6003684
51
0.7089123
0
ARC
8
DEFAULT_255_2_778
10
-952.5939296
20
14.2856889
40
1079.5367618
50
0.5181486
51
0.6003138
0
ARC
8
DEFAULT_255_2_778
10
-934.1396423
20
14.4507516
40
1061.0817363
50
0.4014416
51
0.5182475
0
ARC
8
DEFAULT_255_2_778
10
-911.2726234
20
14.6106443
40
1038.2141585
50
0.28401
51
0.4014596
0
ARC
8
DEFAULT_255_2_778
10
-896.7800541
20
14.6865802
40
1023.7213907
50
0.266845
51
0.2837807
0
ARC
8
DEFAULT_255_2_778
10
-4000.8786008
20
-112.777694
40
4132.7132581
50
2.2937003
51
2.3083867
0
ARC
8
DEFAULT_255_2_778
10
-3476.8868367
20
-91.6555047
40
3608.2959474
50
2.3083918
51
2.3234497
0
ARC
8
DEFAULT_255_2_778
10
-3014.859571
20
-72.9094047
40
3145.88854
50
2.3234539
51
2.3389281
0
ARC
8
DEFAULT_255_2_778
10
-2623.1684217
20
-56.9105936
40
2753.8707873
50
2.3389217
51
2.3547734
0
ARC
8
DEFAULT_255_2_778
10
-2284.3308264
20
-42.9773327
40
2414.7468398
50
2.354781
51
2.3710069
0
ARC
8
DEFAULT_255_2_778
10
-1990.0460453
20
-30.7912004
40
2120.2098571
50
2.3709767
51
2.3875788
0
ARC
8
DEFAULT_255_2_778
10
-1688.8897225
20
-18.2264784
40
1818.7915382
50
2.3873291
51
2.4131654
0
ARC
8
DEFAULT_255_2_778
10
-1384.8642129
20
-5.4149128
40
1514.4962099
50
2.4131979
51
2.4396437
0
ARC
8
DEFAULT_255_2_778
10
-1121.615588
20
5.8027917
40
1251.0086857
50
2.4395591
51
2.471315
0
ARC
8
DEFAULT_255_2_778
10
-881.4119802
20
16.171493
40
1010.5813927
50
2.4712205
51
2.5084971
0
ARC
8
DEFAULT_255_2_778
10
-686.4068943
20
24.712887
40
815.3893362
50
2.5086155
51
2.5462341
0
ARC
8
DEFAULT_255_2_778
10
-536.5491083
20
31.375541
40
665.3835131
50
2.5463578
51
2.5840616
0
ARC
8
DEFAULT_255_2_778
10
-397.2061595
20
37.6701684
40
525.8984614
50
2.5834148
51
2.6413076
0
ARC
8
DEFAULT_255_2_778
10
-262.8530212
20
43.8708353
40
391.4023126
50
2.6409184
51
2.7125534
0
ARC
8
DEFAULT_255_2_778
10
-162.4393105
20
48.6270444
40
290.8760234
50
2.7127956
51
2.7841057
0
ARC
8
DEFAULT_255_2_778
10
-84.4190346
20
52.4251795
40
212.763353
50
2.7830292
51
2.881819
0
ARC
8
DEFAULT_255_2_778
10
-23.4642782
20
55.4925545
40
151.7314669
50
2.882222
51
2.9853136
0
ARC
8
DEFAULT_255_2_778
10
21.0172342
20
57.813856
40
107.1894263
50
2.9844824
51
3.1145246
0
LINE
8
DEFAULT_255_2_778
10
9.9487341
20
12.5950658
11
9.9405341
21
37.0441658
0
LINE
8
DEFAULT_255_2_778
10
9.9405341
20
37.0441658
11
3.0364341
21
37.1184658
0
LINE
8
DEFAULT_255_2_778
10
3.0364341
20
37.1184658
11
3.0446341
21
74.0527658
0
LINE
8
DEFAULT_255_2_778
10
3.0446341
20
74.0527658
11
9.9407341
21
75.2650658
0
LINE
8
DEFAULT_255_2_778
10
9.9407341
20
75.2650658
11
9.9407341
21
94.8135658
0
LINE
8
DEFAULT_255_2_778
10
9.9407341
20
94.8135658
11
3.4407341
21
95.5135658
0
LINE
8
DEFAULT_255_2_778
10
3.4407341
20
95.5135658
11
3.4407341
21
116.1135658
0
LINE
8
DEFAULT_255_2_778
10
3.4407341
20
116.1135658
11
9.9407341
21
116.8136658
0
LINE
8
DEFAULT_255_2_778
10
9.9407341
20
116.8136658
11
9.9407341
21
139.3135658
0
LINE
8
DEFAULT_255_2_778
10
6.4408341
20
142.8134658
11
5.9408341
21
142.8134658
0
LINE
8
DEFAULT_255_2_778
10
4.9406341
20
141.8132658
11
4.9406341
21
139.9133658
0
LINE
8
DEFAULT_255_2_778
10
4.9406341
20
139.9133658
11
0.4406341
21
139.9133658
0
LINE
8
DEFAULT_255_2_778
10
0.4406341
20
139.9133658
11
0.4406341
21
144.5136658
0
LINE
8
DEFAULT_255_2_778
10
2.7406341
20
146.8136658
11
106.6406341
21
146.8136658
0
LINE
8
DEFAULT_255_2_778
10
106.6406341
20
146.8136658
11
106.6406341
21
134.5137658
0
LINE
8
DEFAULT_255_2_778
10
106.6406341
20
134.5137658
11
111.7982341
21
134.5137658
0
LINE
8
DEFAULT_255_2_778
10
111.7982341
20
134.5137658
11
115.5365341
21
131.4320658
0
LINE
8
DEFAULT_255_2_778
10
118.9266341
20
131.8136658
11
120.0569341
21
131.8136658
0
LINE
8
DEFAULT_255_2_778
10
128.7302341
20
52.6296658
11
128.5235341
21
52.6214658
0
LINE
8
DEFAULT_255_2_778
10
128.0483341
20
63.6376658
11
128.3484341
21
63.6469658
0
LINE
8
DEFAULT_255_2_778
10
128.7458341
20
50.6518658
11
128.7148341
21
51.6525658
0
LINE
8
DEFAULT_255_2_778
10
128.7148341
20
51.6525658
11
128.8021341
21
51.6551658
0
LINE
8
DEFAULT_255_2_778
10
128.8021341
20
51.6551658
11
129.1421341
21
40.6506658
0
LINE
8
DEFAULT_255_2_778
10
129.1421341
20
40.6506658
11
128.9035341
21
40.6493658
0
LINE
8
DEFAULT_255_2_778
10
28.0231341
20
7.7137658
11
28.0231341
21
6.4535658
0
LINE
8
DEFAULT_255_2_778
10
28.0231341
20
6.4535658
11
24.8407341
21
6.8726658
0
ARC
8
DEFAULT_255_2_778
10
36.6693813
20
9.576102
40
8.8214561
50
187.1010595
51
192.2226905
0
ARC
8
DEFAULT_255_2_778
10
32.0394061
20
-43.7080394
40
48.9716912
50
94.70405
51
98.4527319
0
LINE
8
DEFAULT_255_2_778
10
27.9155889
20
8.4855952
11
26.6256889
21
7.8902952
0
LINE
8
DEFAULT_255_2_778
10
26.6256889
20
7.8902952
11
26.2618889
21
7.7166952
0
LINE
8
DEFAULT_255_2_778
10
26.2618889
20
7.7166952
11
24.8397889
21
7.0221952
0
LINE
8
DEFAULT_255_2_778
10
24.8397889
20
7.0221952
11
24.8408889
21
4.7316952
0
LINE
8
DEFAULT_255_2_778
10
28.0232889
20
5.0986952
11
28.0232889
21
6.4535952
0
LINE
8
DEFAULT_255_2_778
10
122.9356889
20
127.7332952
11
123.0350889
21
127.7446952
0
LINE
8
DEFAULT_255_2_778
10
123.0350889
20
127.7446952
11
123.0837889
21
127.3154952
0
LINE
8
DEFAULT_255_2_778
10
123.0837889
20
127.3154952
11
122.9842889
21
127.3041952
0
LINE
8
DEFAULT_255_2_778
10
123.0424594
20
125.9814403
11
123.1329594
21
125.9917403
0
LINE
8
DEFAULT_255_2_778
10
123.1329594
20
125.9917403
11
122.6156594
21
130.5627403
0
LINE
8
DEFAULT_255_2_778
10
122.6156594
20
130.5627403
11
122.5206594
21
130.5518403
0
LINE
8
DEFAULT_255_2_778
10
120.8474594
20
144.3612403
11
120.8736594
21
144.1594403
0
LINE
8
DEFAULT_255_2_778
10
120.8736594
20
144.1594403
11
120.9728594
21
144.1723403
0
LINE
8
DEFAULT_255_2_778
10
120.9728594
20
144.1723403
11
120.9466594
21
144.3742403
0
LINE
8
DEFAULT_255_2_778
10
120.7389594
20
145.9768403
11
120.7379594
21
145.9855403
0
LINE
8
DEFAULT_255_2_778
10
120.7379594
20
145.9855403
11
120.6387594
21
145.9725403
0
LINE
8
DEFAULT_255_2_778
10
120.6387594
20
145.9725403
11
120.6286594
21
146.0495403
0
LINE
8
DEFAULT_255_2_778
10
120.6286594
20
146.0495403
11
120.7278594
21
146.0625403
0
LINE
8
DEFAULT_255_2_778
10
120.7278594
20
146.0625403
11
120.7379594
21
145.9855403
0
LINE
8
DEFAULT_255_2_778
10
120.9689287
20
144.2030764
11
120.8697287
21
144.1900764
0
LINE
8
DEFAULT_255_2_778
10
3.4408287
20
95.5138764
11
3.4024287
21
95.5181764
0
LINE
8
DEFAULT_255_2_778
10
3.4024287
20
95.5181764
11
3.4024287
21
116.1265764
0
LINE
8
DEFAULT_255_2_778
10
3.4024287
20
116.1265764
11
9.9408287
21
116.8136764
0
ARC
8
DEFAULT_255_2_778
10
975.8614091
20
114861.1188023
40
114790.3280106
50
269.5157315
51
269.5158142
0
ARC
8
DEFAULT_255_2_778
10
8944.4072665
20
1058041.9190023
40
1058004.7890895
50
269.5159291
51
269.5159342
0
ARC
8
DEFAULT_255_2_778
10
36.0327997
20
3636.8202684
40
3562.0588423
50
269.5155454
51
269.5163888
0
ARC
8
DEFAULT_255_2_778
10
50.2307097
20
5314.1731743
40
5239.4718357
50
269.5159548
51
269.5165081
0
ARC
8
DEFAULT_255_2_778
10
7.3027665
20
226.5717623
40
151.6893191
50
269.5146441
51
269.5210358
0
LINE
8
DEFAULT_255_2_778
10
9.080134
20
116.7207432
11
9.080134
21
116.7231432
0
LINE
8
DEFAULT_255_2_778
10
127.240634
20
4.8136432
11
126.988034
21
4.8136432
0
LINE
8
DEFAULT_255_2_778
10
3.982634
20
74.9054432
11
3.309534
21
74.9113432
0
LINE
8
DEFAULT_255_2_778
10
3.309534
20
74.9113432
11
3.034934
21
74.9136432
0
LINE
8
DEFAULT_255_2_778
10
3.034934
20
74.9136432
11
3.039934
21
37.1137432
0
LINE
8
DEFAULT_255_2_778
10
3.982634
20
74.2143432
11
3.982634
21
74.9054432
0
LINE
8
DEFAULT_255_2_778
10
3.982634
20
74.9054432
11
5.655934
21
74.8909432
0
LINE
8
DEFAULT_255_2_778
10
6.034734
20
74.8877432
11
6.037734
21
74.5821432
0
ARC
8
DEFAULT_255_2_778
10
128.9403154
20
5.1138308
40
0.3003486
50
326.914382
51
359.9698946
0
ARC
8
DEFAULT_255_2_778
10
31.6848945
20
8.931961
40
3.8179521
50
195.0595015
51
204.3765664
0
ARC
8
DEFAULT_255_2_778
10
30.9443358
20
8.5919555
40
3.0030838
50
204.2994362
51
218.7154063
0
ARC
8
DEFAULT_255_2_778
10
30.7340611
20
8.4430451
40
2.7459208
50
219.0352324
51
245.160703
0
ARC
8
DEFAULT_255_2_778
10
31.0482246
20
9.0919592
40
3.4667984
50
244.9539863
51
255.6982441
0
ARC
8
DEFAULT_255_2_778
10
31.2039744
20
9.6415199
40
4.0378303
50
255.4830483
51
257.0699507
0
ARC
8
DEFAULT_255_2_778
10
9.439909
20
138.3144634
40
0.7493741
50
184.1686106
51
195.1455425
0
ARC
8
DEFAULT_255_2_778
10
9.4388789
20
138.3143446
40
0.7483383
50
180.000052
51
184.165272
0
ARC
8
DEFAULT_255_2_778
10
9.4412184
20
138.3141316
40
0.7506776
50
139.6688772
51
179.9837911
0
ARC
8
DEFAULT_255_2_778
10
9.4399242
20
138.3146214
40
1.0001399
50
139.6720981
51
180.0033873
0
ARC
8
DEFAULT_255_2_778
10
9.4389087
20
138.3145548
40
0.9991245
50
179.9995749
51
184.017705
0
ARC
8
DEFAULT_255_2_778
10
9.4397162
20
138.314652
40
0.9999368
50
184.0200171
51
195.1350722
0
ARC
8
DEFAULT_255_2_778
10
9.4399225
20
26.0128825
40
0.7493872
50
164.8547143
51
175.8599308
0
ARC
8
DEFAULT_255_2_778
10
9.4390695
20
26.0129867
40
0.7485287
50
175.863173
51
180.000048
0
ARC
8
DEFAULT_255_2_778
10
9.4409861
20
26.0131292
40
0.7504453
50
180.0109245
51
220.3376342
0
ARC
8
DEFAULT_255_2_778
10
9.4399242
20
26.0124247
40
1.0001399
50
179.9966127
51
220.3279019
0
ARC
8
DEFAULT_255_2_778
10
9.4389087
20
26.0124912
40
0.9991245
50
175.982295
51
180.0004251
0
ARC
8
DEFAULT_255_2_778
10
9.4397162
20
26.0123941
40
0.9999368
50
164.8649278
51
175.9799829
0
LINE
8
DEFAULT_255_2_778
10
6.0347642
20
74.576273
11
6.0347642
21
74.887473
0
LINE
8
DEFAULT_255_2_778
10
6.0347642
20
74.887473
11
7.5904642
21
74.873973
0
LINE
8
DEFAULT_255_2_778
10
126.2476642
20
14.813573
11
127.0406642
21
14.813573
0
LINE
8
DEFAULT_255_2_778
10
129.2406642
20
5.113673
11
129.2406642
21
14.813573
0
LINE
8
DEFAULT_255_2_778
10
121.1435642
20
141.813573
11
121.4409642
21
141.851973
0
LINE
8
DEFAULT_255_2_778
10
121.4409642
20
141.851973
11
121.1827642
21
143.852173
0
LINE
8
DEFAULT_255_2_778
10
121.1827642
20
143.852173
11
120.8853642
21
143.813773
0
LINE
8
DEFAULT_255_2_778
10
7.5907642
20
74.850673
11
7.5907642
21
95.066673
0
LINE
8
DEFAULT_255_2_778
10
7.5907642
20
95.066673
11
9.9405642
21
94.814273
0
LINE
8
DEFAULT_255_2_778
10
9.9405642
20
94.814273
11
9.9405642
21
75.268173
0
LINE
8
DEFAULT_255_2_778
10
9.9405642
20
75.268173
11
7.5923642
21
74.854673
0
LINE
8
DEFAULT_255_2_778
10
31.8514642
20
5.794973
11
31.6461642
21
5.706073
0
LINE
8
DEFAULT_255_2_778
10
31.6461642
20
5.706073
11
31.5188642
21
5.706073
0
LINE
8
DEFAULT_255_2_778
10
17.2406642
20
2.553073
11
17.2406642
21
2.113873
0
LINE
8
DEFAULT_255_2_778
10
17.2406642
20
2.113873
11
18.3405642
21
2.113873
0
LINE
8
DEFAULT_255_2_778
10
18.3405642
20
2.113873
11
18.3405642
21
3.278273
0
LINE
8
DEFAULT_255_2_778
10
30.3004642
20
5.706073
11
29.3545642
21
5.706073
0
LINE
8
DEFAULT_255_2_778
10
29.3545642
20
5.706073
11
29.1275642
21
3.980973
0
LINE
8
DEFAULT_255_2_778
10
29.1275642
20
3.980973
11
28.0628642
21
3.980973
0
LINE
8
DEFAULT_255_2_778
10
28.0628642
20
3.980973
11
28.0335642
21
5.099373
0
LINE
8
DEFAULT_255_2_778
10
28.0335642
20
5.099373
11
28.0229642
21
5.098573
0
LINE
8
DEFAULT_255_2_778
10
28.0229642
20
5.098573
11
28.0229642
21
7.713473
0
LINE
8
DEFAULT_255_2_778
10
28.0229642
20
7.713473
11
26.2560642
21
7.713473
0
LINE
8
DEFAULT_255_2_778
10
23.7406642
20
6.444273
11
23.7406642
21
3.713473
0
LINE
8
DEFAULT_255_2_778
10
23.7406642
20
3.713473
11
24.8405642
21
3.713473
0
LINE
8
DEFAULT_255_2_778
10
24.8405642
20
3.713473
11
24.8405642
21
7.014473
0
LINE
8
DEFAULT_255_2_778
10
9.9405642
20
133.591673
11
8.7165642
21
138.118673
0
LINE
8
DEFAULT_255_2_778
10
8.8689642
20
138.799973
11
8.9070642
21
138.841473
0
LINE
8
DEFAULT_255_2_778
10
8.9070642
20
138.841473
11
8.9271642
21
138.861373
0
LINE
8
DEFAULT_255_2_778
10
8.9271642
20
138.861373
11
8.9480642
21
138.880373
0
LINE
8
DEFAULT_255_2_778
10
8.9480642
20
138.880373
11
8.9919642
21
138.915873
0
LINE
8
DEFAULT_255_2_778
10
8.9919642
20
138.915873
11
9.0150642
21
138.932273
0
LINE
8
DEFAULT_255_2_778
10
9.0150642
20
138.932273
11
9.0385642
21
138.947873
0
LINE
8
DEFAULT_255_2_778
10
9.0385642
20
138.947873
11
9.0872642
21
138.976473
0
LINE
8
DEFAULT_255_2_778
10
9.0872642
20
138.976473
11
9.1380642
21
139.001073
0
LINE
8
DEFAULT_255_2_778
10
9.1380642
20
139.001073
11
9.1904642
21
139.021973
0
LINE
8
DEFAULT_255_2_778
10
9.1904642
20
139.021973
11
9.2171642
21
139.030973
0
LINE
8
DEFAULT_255_2_778
10
9.2171642
20
139.030973
11
9.2306642
21
139.034873
0
LINE
8
DEFAULT_255_2_778
10
9.2306642
20
139.034873
11
9.2375642
21
139.036773
0
LINE
8
DEFAULT_255_2_778
10
9.2375642
20
139.036773
11
9.2444642
21
139.038573
0
LINE
8
DEFAULT_255_2_778
10
9.2444642
20
139.038573
11
9.1790642
21
139.279873
0
LINE
8
DEFAULT_255_2_778
10
9.1790642
20
139.279873
11
9.1428642
21
139.269373
0
LINE
8
DEFAULT_255_2_778
10
9.1428642
20
139.269373
11
9.1070642
21
139.257373
0
LINE
8
DEFAULT_255_2_778
10
9.1070642
20
139.257373
11
9.0369642
21
139.229673
0
LINE
8
DEFAULT_255_2_778
10
9.0369642
20
139.229673
11
8.9692642
21
139.196873
0
LINE
8
DEFAULT_255_2_778
10
8.9692642
20
139.196873
11
8.9041642
21
139.158973
0
LINE
8
DEFAULT_255_2_778
10
8.9041642
20
139.158973
11
8.8419642
21
139.116373
0
LINE
8
DEFAULT_255_2_778
10
8.8419642
20
139.116373
11
8.7832642
21
139.069073
0
LINE
8
DEFAULT_255_2_778
10
8.7832642
20
139.069073
11
8.7282642
21
139.017473
0
LINE
8
DEFAULT_255_2_778
10
8.7282642
20
139.017473
11
8.6774642
21
138.961873
0
LINE
8
DEFAULT_255_2_778
10
8.4744642
20
138.053573
11
9.9397642
21
132.634073
0
LINE
8
DEFAULT_255_2_778
10
9.9405642
20
30.735673
11
8.7165642
21
26.208673
0
LINE
8
DEFAULT_255_2_778
10
8.8689642
20
25.527373
11
8.9070642
21
25.485773
0
LINE
8
DEFAULT_255_2_778
10
8.9070642
20
25.485773
11
8.9271642
21
25.465973
0
LINE
8
DEFAULT_255_2_778
10
8.9271642
20
25.465973
11
8.9480642
21
25.446873
0
LINE
8
DEFAULT_255_2_778
10
8.9480642
20
25.446873
11
8.9919642
21
25.411473
0
LINE
8
DEFAULT_255_2_778
10
8.9919642
20
25.411473
11
9.0150642
21
25.395073
0
LINE
8
DEFAULT_255_2_778
10
9.0150642
20
25.395073
11
9.0385642
21
25.379473
0
LINE
8
DEFAULT_255_2_778
10
9.0385642
20
25.379473
11
9.0872642
21
25.350873
0
LINE
8
DEFAULT_255_2_778
10
9.0872642
20
25.350873
11
9.1380642
21
25.326273
0
LINE
8
DEFAULT_255_2_778
10
9.1380642
20
25.326273
11
9.1904642
21
25.305373
0
LINE
8
DEFAULT_255_2_778
10
9.1904642
20
25.305373
11
9.2171642
21
25.296373
0
LINE
8
DEFAULT_255_2_778
10
9.2171642
20
25.296373
11
9.2306642
21
25.292073
0
LINE
8
DEFAULT_255_2_778
10
9.2306642
20
25.292073
11
9.2375642
21
25.290273
0
LINE
8
DEFAULT_255_2_778
10
9.2375642
20
25.290273
11
9.2444642
21
25.288373
0
LINE
8
DEFAULT_255_2_778
10
9.2444642
20
25.288373
11
9.1790642
21
25.047073
0
LINE
8
DEFAULT_255_2_778
10
9.1790642
20
25.047073
11
9.1428642
21
25.057673
0
LINE
8
DEFAULT_255_2_778
10
9.1428642
20
25.057673
11
9.1070642
21
25.069573
0
LINE
8
DEFAULT_255_2_778
10
9.1070642
20
25.069573
11
9.0369642
21
25.097373
0
LINE
8
DEFAULT_255_2_778
10
9.0369642
20
25.097373
11
8.9692642
21
25.130173
0
LINE
8
DEFAULT_255_2_778
10
8.9692642
20
25.130173
11
8.9041642
21
25.168073
0
LINE
8
DEFAULT_255_2_778
10
8.9041642
20
25.168073
11
8.8419642
21
25.210673
0
LINE
8
DEFAULT_255_2_778
10
8.8419642
20
25.210673
11
8.7832642
21
25.257973
0
LINE
8
DEFAULT_255_2_778
10
8.7832642
20
25.257973
11
8.7282642
21
25.309573
0
LINE
8
DEFAULT_255_2_778
10
8.7282642
20
25.309573
11
8.6774642
21
25.365173
0
LINE
8
DEFAULT_255_2_778
10
8.4744642
20
26.273473
11
9.9397642
21
31.692873
0
ARC
8
DEFAULT_255_2_778
10
56.8307861
20
14.5135583
40
0.3000812
50
98.0613174
51
179.9969423
0
ARC
8
DEFAULT_255_2_778
10
53.5130266
20
13.6875739
40
3.0176809
50
333.8576335
51
359.9240628
0
ARC
8
DEFAULT_255_2_778
10
53.541512
20
13.6772984
40
2.9875839
50
319.7771331
51
333.7938379
0
ARC
8
DEFAULT_255_2_778
10
53.5158025
20
13.6969534
40
3.019907
50
310.6131111
51
319.8073933
0
ARC
8
DEFAULT_255_2_778
10
53.5418973
20
13.6673659
40
2.9804603
50
299.9442623
51
310.6025518
0
ARC
8
DEFAULT_255_2_778
10
53.5277996
20
13.6908471
40
3.007844
50
294.7224904
51
299.9536934
0
ARC
8
DEFAULT_255_2_778
10
53.5293203
20
13.6871677
40
3.0038659
50
290.3658322
51
294.7254939
0
ARC
8
DEFAULT_255_2_778
10
53.5303088
20
13.6851901
40
3.0016679
50
280.0649885
51
290.361281
0
ARC
8
DEFAULT_255_2_778
10
53.5312544
20
13.6792793
40
2.9956829
50
273.16795
51
280.066937
0
ARC
8
DEFAULT_255_2_778
10
57.4880125
20
-57.3560947
40
68.1498042
50
93.1890392
51
111.9328628
0
ARC
8
DEFAULT_255_2_778
10
30.9086645
20
8.657438
40
3.0137281
50
277.9637255
51
291.8991107
0
ARC
8
DEFAULT_255_2_778
10
30.9080761
20
8.6554485
40
3.0118394
50
270.0381597
51
277.9800536
0
LINE
8
DEFAULT_255_2_778
10
30.9100821
20
5.6436098
11
30.9082804
21
5.6436093
0
ARC
8
DEFAULT_255_2_778
10
30.9078384
20
8.6199428
40
2.9763335
50
263.9705383
51
270.0085089
0
ARC
8
DEFAULT_255_2_778
10
30.9166069
20
8.659347
40
3.0164442
50
236.0383025
51
263.8835253
0
ARC
8
DEFAULT_255_2_778
10
30.9210139
20
8.6519628
40
3.0127917
50
208.0294787
51
235.8903401
0
ARC
8
DEFAULT_255_2_778
10
30.9164566
20
8.6435526
40
3.0048214
50
193.961608
51
207.9287598
0
ARC
8
DEFAULT_255_2_778
10
30.9212136
20
8.6461484
40
3.0100645
50
183.0827173
51
193.9877117
0
ARC
8
DEFAULT_255_2_778
10
58.0016986
20
-58.1426242
40
73.1048745
50
110.6305064
51
114.3021397
0
ARC
8
DEFAULT_255_2_778
10
57.2544279
20
-56.1510803
40
70.9777509
50
105.5767725
51
110.6324041
0
ARC
8
DEFAULT_255_2_778
10
57.0417009
20
-55.4424916
40
70.2380658
50
96.9710377
51
105.5648324
0
ARC
8
DEFAULT_255_2_778
10
57.2785038
20
-57.3238314
40
72.1342384
50
92.8738469
51
96.9763744
0
ARC
8
DEFAULT_255_2_778
10
57.3907486
20
-59.4063291
40
74.2197453
50
90.4647678
51
92.8797859
0
LINE
8
DEFAULT_255_2_778
10
56.5307048
20
14.5135744
11
56.5307048
21
13.6835744
0
LINE
8
DEFAULT_255_2_778
10
9.9405048
20
130.6137744
11
9.4852048
21
130.6137744
0
LINE
8
DEFAULT_255_2_778
10
9.4852048
20
130.6137744
11
8.8155048
21
130.3195744
0
ARC
8
DEFAULT_255_2_778
10
9.7466635
20
128.2075576
40
2.3081409
50
113.7868178
51
130.2990741
0
ARC
8
DEFAULT_255_2_778
10
9.7427002
20
128.2123711
40
2.3019065
50
130.3013267
51
163.4018502
0
ARC
8
DEFAULT_255_2_778
10
9.7493155
20
128.2110747
40
2.3086166
50
163.4179161
51
179.8224734
0
ARC
8
DEFAULT_255_2_778
10
5.9411827
20
136.3183882
40
17.0044607
50
250.4128768
51
269.9987442
0
LINE
8
DEFAULT_255_2_778
10
9.93201
20
130.6159278
11
9.48571
21
130.6159278
0
LINE
8
DEFAULT_255_2_778
10
9.48571
20
130.6159278
11
8.81571
21
130.3196278
0
LINE
8
DEFAULT_255_2_778
10
7.44071
20
128.2182278
11
7.44071
21
127.8139278
0
LINE
8
DEFAULT_255_2_778
10
7.44071
20
127.8139278
11
0.24061
21
124.8138278
0
LINE
8
DEFAULT_255_2_778
10
0.24061
20
124.8138278
11
0.24061
21
120.2979278
0
LINE
8
DEFAULT_255_2_778
10
5.94081
20
119.3139278
11
9.94081
21
119.3139278
0
LINE
8
DEFAULT_255_2_778
10
120.77421
20
145.7053278
11
120.77371
21
145.7101278
0
LINE
8
DEFAULT_255_2_778
10
120.77371
20
145.7101278
11
120.77181
21
145.7249278
0
LINE
8
DEFAULT_255_2_778
10
120.77181
20
145.7249278
11
120.76941
21
145.7432278
0
LINE
8
DEFAULT_255_2_778
10
120.76941
20
145.7432278
11
120.76681
21
145.7641278
0
LINE
8
DEFAULT_255_2_778
10
120.76681
20
145.7641278
11
120.76361
21
145.7876278
0
LINE
8
DEFAULT_255_2_778
10
120.76361
20
145.7876278
11
120.76021
21
145.8136278
0
LINE
8
DEFAULT_255_2_778
10
120.76021
20
145.8136278
11
120.75651
21
145.8411278
0
LINE
8
DEFAULT_255_2_778
10
120.75651
20
145.8411278
11
120.75271
21
145.8704278
0
LINE
8
DEFAULT_255_2_778
10
120.75271
20
145.8704278
11
120.74881
21
145.9003278
0
LINE
8
DEFAULT_255_2_778
10
120.74881
20
145.9003278
11
120.74511
21
145.9300278
0
LINE
8
DEFAULT_255_2_778
10
120.74511
20
145.9300278
11
120.74141
21
145.9593278
0
LINE
8
DEFAULT_255_2_778
10
120.74141
20
145.9593278
11
120.64221
21
145.9464278
0
LINE
8
DEFAULT_255_2_778
10
120.64221
20
145.9464278
11
120.63981
21
145.9638278
0
LINE
8
DEFAULT_255_2_778
10
120.63981
20
145.9638278
11
120.73901
21
145.9768278
0
LINE
8
DEFAULT_255_2_778
10
120.73901
20
145.9768278
11
120.74141
21
145.9591278
0
ARC
8
DEFAULT_255_2_778
10
129.1078479
20
36.8250368
40
12.498035
50
271.0806211
51
272.3933894
0
ARC
8
DEFAULT_255_2_778
10
129.1888461
20
32.7487504
40
8.4209469
50
270.0280627
51
271.0526706
0
ARC
8
DEFAULT_255_2_778
10
-995.5569491
20
15.045887
40
1124.7882181
50
0.4728185
51
0.5576097
0
ARC
8
DEFAULT_255_2_778
10
-899.6706739
20
15.9812644
40
1028.8973808
50
0.5574888
51
0.6526162
0
ARC
8
DEFAULT_255_2_778
10
-806.3759854
20
17.0450602
40
935.5966276
50
0.6525491
51
0.7541064
0
ARC
8
DEFAULT_255_2_778
10
-723.872332
20
18.1291076
40
853.0858526
50
0.7542339
51
0.8504444
0
ARC
8
DEFAULT_255_2_778
10
-654.9556357
20
19.1502415
40
784.1615918
50
0.8505814
51
0.93963
0
ARC
8
DEFAULT_255_2_778
10
-597.5741362
20
20.0900492
40
726.7723967
50
0.9397335
51
1.0217098
0
ARC
8
DEFAULT_255_2_778
10
-539.4015188
20
21.1323711
40
668.5904424
50
1.0212929
51
1.1350263
0
ARC
8
DEFAULT_255_2_778
10
-474.2994294
20
22.4248637
40
603.4755243
50
1.1347743
51
1.2667056
0
ARC
8
DEFAULT_255_2_778
10
-418.9696451
20
23.6438535
40
548.1323137
50
1.2671707
51
1.372673
0
ARC
8
DEFAULT_255_2_778
10
-367.5764874
20
24.880984
40
496.7242683
50
1.3720232
51
1.5198936
0
ARC
8
DEFAULT_255_2_778
10
-314.2670228
20
26.2956307
40
443.3960372
50
1.519872
51
1.6736714
0
ARC
8
DEFAULT_255_2_778
10
-281.4112666
20
27.2463842
40
410.5265293
50
1.6749649
51
1.7289367
0
ARC
8
DEFAULT_255_2_778
10
128.9394977
20
39.6173854
40
0.0186918
50
84.5191312
51
126.5337732
0
ARC
8
DEFAULT_255_2_778
10
129.013509
20
38.866088
40
0.7732843
50
90.768715
51
95.3593238
0
ARC
8
DEFAULT_255_2_778
10
129.1140805
20
34.8372534
40
4.8033307
50
89.9901799
51
91.3235202
0
ARC
8
DEFAULT_255_2_778
10
129.1346254
20
30.0162017
40
9.6244026
50
89.9979456
51
90.1174071
0
LINE
8
DEFAULT_255_2_778
10
120.7897705
20
145.5850044
11
120.6905705
21
145.5723044
0
LINE
8
DEFAULT_255_2_778
10
120.6905705
20
145.5723044
11
120.6749705
21
145.6924044
0
LINE
8
DEFAULT_255_2_778
10
120.6749705
20
145.6924044
11
120.7741705
21
145.7054044
0
LINE
8
DEFAULT_255_2_778
10
120.7741705
20
145.7054044
11
120.9437705
21
144.3968044
0
LINE
8
DEFAULT_255_2_778
10
120.9437705
20
144.3968044
11
120.8445705
21
144.3841044
0
LINE
8
DEFAULT_255_2_778
10
120.8445705
20
144.3841044
11
120.6905705
21
145.5723044
0
LINE
8
DEFAULT_255_2_778
10
120.8447705
20
144.3822044
11
120.8458705
21
144.3748044
0
LINE
8
DEFAULT_255_2_778
10
120.8458705
20
144.3748044
11
120.9450705
21
144.3878044
0
LINE
8
DEFAULT_255_2_778
10
120.9450705
20
144.3878044
11
120.9440705
21
144.3952044
0
LINE
8
DEFAULT_255_2_778
10
120.6397705
20
145.9642044
11
120.6386705
21
145.9729044
0
LINE
8
DEFAULT_255_2_778
10
9.9407705
20
16.6335044
11
3.1023705
21
17.5338044
0
LINE
8
DEFAULT_255_2_778
10
3.1023705
20
17.5338044
11
2.5802705
21
13.5680044
0
LINE
8
DEFAULT_255_2_778
10
2.5802705
20
13.5680044
11
9.9404705
21
12.5991044
0
LINE
8
DEFAULT_255_2_778
10
3.1023705
20
17.5338044
11
0.9692705
21
16.6546044
0
LINE
8
DEFAULT_255_2_778
10
0.9692705
20
16.6546044
11
0.7472705
21
14.9692044
0
LINE
8
DEFAULT_255_2_778
10
0.7472705
20
14.9692044
11
2.5800705
21
13.5680044
0
LINE
8
DEFAULT_255_2_778
10
129.2627705
20
35.3316044
11
129.3299705
21
35.3337044
0
LINE
8
DEFAULT_255_2_778
10
129.3299705
20
35.3337044
11
129.6697705
21
24.3392044
0
LINE
8
DEFAULT_255_2_778
10
129.6697705
20
24.3392044
11
129.6297705
21
24.3379044
0
LINE
8
DEFAULT_255_2_778
10
129.1953667
20
24.3245568
11
129.6297667
21
24.3380568
0
LINE
8
DEFAULT_255_2_778
10
129.6297667
20
24.3380568
11
129.5988667
21
25.3373568
0
LINE
8
DEFAULT_255_2_778
10
129.5988667
20
25.3373568
11
129.5043667
21
25.3344568
0
LINE
8
DEFAULT_255_2_778
10
129.5043667
20
25.3344568
11
129.5353667
21
24.3351568
0
LINE
8
DEFAULT_255_2_778
10
129.3265667
20
35.3335568
11
129.6353667
21
25.3384568
0
LINE
8
DEFAULT_255_2_778
10
129.6353667
20
25.3384568
11
129.5990667
21
25.3373568
0
LINE
8
DEFAULT_255_2_778
10
128.7931667
20
50.6532568
11
128.8293667
21
50.6542568
0
LINE
8
DEFAULT_255_2_778
10
128.8293667
20
50.6542568
11
129.1074667
21
41.6505568
0
LINE
8
DEFAULT_255_2_778
10
129.1074667
20
41.6505568
11
129.0712667
21
41.6494568
0
LINE
8
DEFAULT_255_2_778
10
128.5251667
20
52.6336568
11
128.7243667
21
52.6397568
0
LINE
8
DEFAULT_255_2_778
10
128.7243667
20
52.6397568
11
128.4150667
21
62.6470568
0
LINE
8
DEFAULT_255_2_778
10
128.4150667
20
62.6470568
11
128.3822667
21
62.6459568
0
LINE
8
DEFAULT_255_2_778
10
128.3822667
20
62.6459568
11
128.6915667
21
52.6386568
0
LINE
8
DEFAULT_255_2_778
10
129.3540667
20
31.1999568
11
129.3704667
21
31.2005568
0
LINE
8
DEFAULT_255_2_778
10
129.3704667
20
31.2005568
11
129.1609667
21
37.6336568
0
LINE
8
DEFAULT_255_2_778
10
129.1554136
20
37.6337141
11
129.1610136
21
37.6337141
0
LINE
8
DEFAULT_255_2_778
10
129.1610136
20
37.6337141
11
129.1827136
21
37.6342141
0
LINE
8
DEFAULT_255_2_778
10
129.1827136
20
37.6342141
11
129.3705136
21
31.2003141
0
LINE
8
DEFAULT_255_2_778
10
128.4310136
20
61.0781141
11
128.4474136
21
61.0787141
0
LINE
8
DEFAULT_255_2_778
10
128.4474136
20
61.0787141
11
128.6572136
21
54.6408141
0
LINE
8
DEFAULT_255_2_778
10
128.6572136
20
54.6408141
11
128.6353136
21
54.6400141
0
LINE
8
DEFAULT_255_2_778
10
128.6353136
20
54.6400141
11
128.6297136
21
54.6400141
0
LINE
8
DEFAULT_255_2_778
10
129.1263136
20
39.6350141
11
129.4354136
21
29.6351141
0
LINE
8
DEFAULT_255_2_778
10
129.4354136
20
29.6351141
11
129.4026136
21
29.6340141
0
LINE
8
DEFAULT_255_2_778
10
129.4026136
20
29.6340141
11
129.0935136
21
39.6339141
0
LINE
8
DEFAULT_255_2_778
10
129.0901136
20
39.6337141
11
129.4301136
21
28.6339141
0
LINE
8
DEFAULT_255_2_778
10
128.7244136
20
52.6400141
11
128.7281136
21
52.6400141
0
LINE
8
DEFAULT_255_2_778
10
128.7281136
20
52.6400141
11
128.3882136
21
63.6483141
0
LINE
8
DEFAULT_255_2_778
10
128.3882136
20
63.6483141
11
128.3482136
21
63.6470141
0
LINE
8
DEFAULT_255_2_778
10
128.3482136
20
63.6470141
11
128.6884136
21
52.6387141
0
LINE
8
DEFAULT_255_2_778
10
128.9414136
20
43.1434141
11
128.9716136
21
43.1444141
0
LINE
8
DEFAULT_255_2_778
10
128.9716136
20
43.1444141
11
128.7861136
21
49.1470141
0
LINE
8
DEFAULT_255_2_778
10
128.7861136
20
49.1470141
11
128.7559136
21
49.1462141
0
LINE
8
DEFAULT_255_2_778
10
128.8488136
20
46.1445141
11
128.8554136
21
46.1445141
0
LINE
8
DEFAULT_255_2_778
10
128.8554136
20
46.1445141
11
128.7861136
21
49.1468141
0
LINE
8
DEFAULT_255_2_778
10
129.1022656
20
41.6415725
11
128.9879656
21
41.6470725
0
LINE
8
DEFAULT_255_2_778
10
128.9879656
20
41.6470725
11
128.7098656
21
50.6508725
0
LINE
8
DEFAULT_255_2_778
10
128.7098656
20
50.6508725
11
128.7934656
21
50.6534725
0
LINE
8
DEFAULT_255_2_778
10
128.7934656
20
50.6534725
11
128.7625656
21
51.6541725
0
LINE
8
DEFAULT_255_2_778
10
128.7149656
20
51.6522725
11
128.6749656
21
51.6509725
0
LINE
8
DEFAULT_255_2_778
10
129.5044656
20
25.3341725
11
129.4681656
21
25.3331725
0
LINE
8
DEFAULT_255_2_778
10
129.4681656
20
25.3331725
11
129.1594656
21
35.3283725
0
LINE
8
DEFAULT_255_2_778
10
129.1594656
20
35.3283725
11
129.1556656
21
35.3283725
0
LINE
8
DEFAULT_255_2_778
10
129.1556656
20
35.3283725
11
129.4954656
21
24.3338725
0
ARC
8
DEFAULT_255_2_778
10
321.368769
20
1580.8541196
40
1578.1846895
50
262.5448954
51
262.5765933
0
ARC
8
DEFAULT_255_2_778
10
296.5751763
20
1390.5642847
40
1386.2864262
50
262.5766016
51
262.608995
0
ARC
8
DEFAULT_255_2_778
10
275.1998439
20
1225.7858293
40
1220.1273332
50
262.6090254
51
262.642095
0
ARC
8
DEFAULT_255_2_778
10
257.0420052
20
1085.17363
40
1078.3475826
50
262.6421236
51
262.6757757
0
ARC
8
DEFAULT_255_2_778
10
237.6039363
20
933.8941656
40
925.824421
50
262.6753896
51
262.7277878
0
ARC
8
DEFAULT_255_2_778
10
218.2946486
20
782.5847788
40
773.2879365
50
262.7278386
51
262.7814022
0
ARC
8
DEFAULT_255_2_778
10
201.8279571
20
652.5541247
40
642.2187832
50
262.7811471
51
262.8452421
0
ARC
8
DEFAULT_255_2_778
10
186.9385915
20
533.9204932
40
522.6544418
50
262.8449826
51
262.9198349
0
ARC
8
DEFAULT_255_2_778
10
174.8488923
20
436.5901682
40
424.5761416
50
262.9199396
51
262.9951539
0
ARC
8
DEFAULT_255_2_778
10
165.6710322
20
361.9029978
40
349.3271778
50
262.9953193
51
263.0702734
0
ARC
8
DEFAULT_255_2_778
10
157.1645596
20
291.8623278
40
278.7718416
50
263.0689976
51
263.1833368
0
ARC
8
DEFAULT_255_2_778
10
149.0548809
20
223.9993735
40
210.4260483
50
263.1826592
51
263.3227472
0
ARC
8
DEFAULT_255_2_778
10
143.0215569
20
172.4772742
40
158.5518959
50
263.3233231
51
263.4615125
0
ARC
8
DEFAULT_255_2_778
10
138.3895555
20
132.0301957
40
117.8404531
50
263.4596356
51
263.6490774
0
ARC
8
DEFAULT_255_2_778
10
134.824471
20
100.0087696
40
85.62118
50
263.6497936
51
263.8451059
0
ARC
8
DEFAULT_255_2_778
10
132.2831504
20
76.4279028
40
61.9037691
50
263.8436337
51
264.0861655
0
ARC
8
DEFAULT_255_2_778
10
116.0380003
20
141.3107349
40
6.6957335
50
216.9091717
51
234.906472
0
ARC
8
DEFAULT_255_2_778
10
116.0421836
20
141.3143434
40
6.7012454
50
185.3137135
51
216.9123607
0
ARC
8
DEFAULT_255_2_778
10
116.0473003
20
141.3137161
40
6.706282
50
179.9983237
51
185.304329
0
ARC
8
DEFAULT_255_2_778
10
116.1295315
20
141.3138261
40
6.7885133
50
179.8644389
51
179.9992724
0
ARC
8
DEFAULT_255_2_778
10
116.0368063
20
141.3148813
40
6.6957859
50
161.9383418
51
179.8715914
0
ARC
8
DEFAULT_255_2_778
10
116.0411072
20
141.3138613
40
6.7001913
50
130.2795866
51
161.9414522
0
ARC
8
DEFAULT_255_2_778
10
116.0438894
20
141.3088632
40
6.7058031
50
124.8245537
51
130.2701127
0
ARC
8
DEFAULT_255_2_778
10
128.9418746
20
8.1133572
40
0.2987627
50
337.2219565
51
359.9866446
0
ARC
8
DEFAULT_255_2_778
10
31.9761218
20
-43.2837228
40
48.5471013
50
99.7971337
51
106.2036565
0
ARC
8
DEFAULT_255_2_778
10
50.3078917
20
-45.1460189
40
58.0229785
50
119.1653918
51
123.3271958
0
ARC
8
DEFAULT_255_2_778
10
49.6463124
20
-43.9816838
40
56.6838538
50
117.2337618
51
119.1549968
0
LINE
8
DEFAULT_255_2_778
10
129.0303372
20
35.3243876
11
129.1557372
21
35.3282876
0
LINE
8
DEFAULT_255_2_778
10
125.9050372
20
14.8535876
11
127.0417372
21
14.7217876
0
LINE
8
DEFAULT_255_2_778
10
127.0417372
20
14.7217876
11
126.9880372
21
4.8136876
0
LINE
8
DEFAULT_255_2_778
10
126.9880372
20
4.8136876
11
126.9737372
21
4.8136876
0
LINE
8
DEFAULT_255_2_778
10
126.9737372
20
4.8136876
11
120.7594372
21
4.8146876
0
LINE
8
DEFAULT_255_2_778
10
107.6408372
20
146.8136876
11
106.6410372
21
146.8136876
0
LINE
8
DEFAULT_255_2_778
10
106.6410372
20
146.8136876
11
106.6410372
21
134.5637876
0
LINE
8
DEFAULT_255_2_778
10
106.6410372
20
134.5637876
11
112.2713372
21
134.5637876
0
LINE
8
DEFAULT_255_2_778
10
112.2713372
20
134.5637876
11
112.1885372
21
135.8321876
0
LINE
8
DEFAULT_255_2_778
10
122.8290372
20
129.5659876
11
122.7295372
21
129.5546876
0
LINE
8
DEFAULT_255_2_778
10
122.9965372
20
127.1969876
11
123.0959372
21
127.2080876
0
LINE
8
DEFAULT_255_2_778
10
123.0959372
20
127.2080876
11
123.0959372
21
127.2080876
0
LINE
8
DEFAULT_255_2_778
10
123.0959372
20
127.2080876
11
123.0946372
21
127.2199876
0
LINE
8
DEFAULT_255_2_778
10
123.0946372
20
127.2199876
11
123.0907372
21
127.2556876
0
LINE
8
DEFAULT_255_2_778
10
123.0907372
20
127.2556876
11
123.0840372
21
127.3151876
0
LINE
8
DEFAULT_255_2_778
10
123.0351372
20
127.7446876
11
123.0425372
21
127.6800876
0
LINE
8
DEFAULT_255_2_778
10
123.0425372
20
127.6800876
11
123.0470372
21
127.6414876
0
LINE
8
DEFAULT_255_2_778
10
123.0470372
20
127.6414876
11
123.0483372
21
127.6284876
0
LINE
8
DEFAULT_255_2_778
10
123.0483372
20
127.6284876
11
123.0478372
21
127.6321876
0
LINE
8
DEFAULT_255_2_778
10
123.0478372
20
127.6321876
11
123.0465372
21
127.6430876
0
LINE
8
DEFAULT_255_2_778
10
123.0465372
20
127.6430876
11
123.0443372
21
127.6612876
0
LINE
8
DEFAULT_255_2_778
10
123.0443372
20
127.6612876
11
123.0396372
21
127.7041876
0
LINE
8
DEFAULT_255_2_778
10
123.0396372
20
127.7041876
11
123.0330372
21
127.7617876
0
LINE
8
DEFAULT_255_2_778
10
123.0330372
20
127.7617876
11
123.0248372
21
127.8337876
0
LINE
8
DEFAULT_255_2_778
10
123.0248372
20
127.8337876
11
123.0158372
21
127.9134876
0
LINE
8
DEFAULT_255_2_778
10
123.0158372
20
127.9134876
11
123.0068372
21
127.9938876
0
LINE
8
DEFAULT_255_2_778
10
123.0068372
20
127.9938876
11
122.9975372
21
128.0748876
0
LINE
8
DEFAULT_255_2_778
10
122.9975372
20
128.0748876
11
122.9853372
21
128.1830876
0
LINE
8
DEFAULT_255_2_778
10
122.9853372
20
128.1830876
11
122.9756372
21
128.2692876
0
LINE
8
DEFAULT_255_2_778
10
122.9756372
20
128.2692876
11
122.9681372
21
128.3338876
0
LINE
8
DEFAULT_255_2_778
10
122.9681372
20
128.3338876
11
122.9512372
21
128.4838876
0
LINE
8
DEFAULT_255_2_778
10
122.9512372
20
128.4838876
11
122.9314372
21
128.6603876
0
LINE
8
DEFAULT_255_2_778
10
122.9314372
20
128.6603876
11
122.9084372
21
128.8632876
0
LINE
8
DEFAULT_255_2_778
10
122.9084372
20
128.8632876
11
122.8827372
21
129.0905876
0
LINE
8
DEFAULT_255_2_778
10
122.8827372
20
129.0905876
11
122.8618372
21
129.2760876
0
LINE
8
DEFAULT_255_2_778
10
122.8618372
20
129.2760876
11
122.8456372
21
129.4199876
0
LINE
8
DEFAULT_255_2_778
10
122.8456372
20
129.4199876
11
122.8361372
21
129.5043876
0
LINE
8
DEFAULT_255_2_778
10
122.8361372
20
129.5043876
11
122.8303372
21
129.5548876
0
LINE
8
DEFAULT_255_2_778
10
122.8303372
20
129.5548876
11
122.8284372
21
129.5718876
0
LINE
8
DEFAULT_255_2_778
10
122.8284372
20
129.5718876
11
122.7290372
21
129.5604876
0
LINE
8
DEFAULT_255_2_778
10
120.8459372
20
144.3731876
11
120.8465372
21
144.3699876
0
LINE
8
DEFAULT_255_2_778
10
120.8465372
20
144.3699876
11
120.8472372
21
144.3641876
0
LINE
8
DEFAULT_255_2_778
10
120.8472372
20
144.3641876
11
120.8472372
21
144.3622876
0
LINE
8
DEFAULT_255_2_778
10
120.8472372
20
144.3622876
11
120.8472372
21
144.3622876
0
LINE
8
DEFAULT_255_2_778
10
120.8472372
20
144.3622876
11
120.9465372
21
144.3752876
0
LINE
8
DEFAULT_255_2_778
10
120.9465372
20
144.3752876
11
120.9465372
21
144.3752876
0
LINE
8
DEFAULT_255_2_778
10
120.9465372
20
144.3752876
11
120.9462372
21
144.3771876
0
LINE
8
DEFAULT_255_2_778
10
120.9462372
20
144.3771876
11
120.9454372
21
144.3829876
0
LINE
8
DEFAULT_255_2_778
10
120.9454372
20
144.3829876
11
120.9449372
21
144.3860876
0
LINE
8
DEFAULT_255_2_778
10
0.5129372
20
120.2034876
11
1.6197372
21
119.8719876
0
LINE
8
DEFAULT_255_2_778
10
5.6559372
20
74.8909876
11
5.6559372
21
74.5093876
0
LINE
8
DEFAULT_255_2_778
10
120.6750282
20
145.6923527
11
120.6745282
21
145.6971527
0
LINE
8
DEFAULT_255_2_778
10
120.6745282
20
145.6971527
11
120.6726282
21
145.7119527
0
LINE
8
DEFAULT_255_2_778
10
120.6726282
20
145.7119527
11
120.6702282
21
145.7301527
0
LINE
8
DEFAULT_255_2_778
10
120.6702282
20
145.7301527
11
120.6676282
21
145.7510527
0
LINE
8
DEFAULT_255_2_778
10
120.6676282
20
145.7510527
11
120.6644282
21
145.7746527
0
LINE
8
DEFAULT_255_2_778
10
120.6644282
20
145.7746527
11
120.6610282
21
145.8005527
0
LINE
8
DEFAULT_255_2_778
10
120.6610282
20
145.8005527
11
120.6575282
21
145.8280527
0
LINE
8
DEFAULT_255_2_778
10
120.6575282
20
145.8280527
11
120.6538282
21
145.8571527
0
LINE
8
DEFAULT_255_2_778
10
120.6538282
20
145.8571527
11
120.6422282
21
145.9463527
0
LINE
8
DEFAULT_255_2_778
10
129.0313282
20
43.1467527
11
128.9620282
21
46.1484527
0
LINE
8
DEFAULT_255_2_778
10
128.9620282
20
46.1484527
11
128.8459282
21
49.1490527
0
LINE
8
DEFAULT_255_2_778
10
128.4474282
20
61.0786527
11
128.6355282
21
54.6399527
0
LINE
8
DEFAULT_255_2_778
10
128.8554282
20
46.1447527
11
128.9715282
21
43.1443527
0
LINE
8
DEFAULT_255_2_778
10
128.9070282
20
40.6432527
11
129.0149282
21
40.6466527
0
LINE
8
DEFAULT_255_2_778
10
129.0149282
20
40.6466527
11
128.6749282
21
51.6512527
0
LINE
8
DEFAULT_255_2_778
10
128.6749282
20
51.6512527
11
128.5620282
21
51.6477527
0
ARC
8
DEFAULT_255_2_778
10
117.5327187
20
15.7946812
40
2.0258747
50
208.7860974
51
223.9623569
0
ARC
8
DEFAULT_255_2_778
10
117.3562879
20
15.6414545
40
1.7925542
50
224.3517922
51
254.4284243
0
ARC
8
DEFAULT_255_2_778
10
117.5260131
20
16.2013647
40
2.3775114
50
254.1105034
51
265.5093996
0
ARC
8
DEFAULT_255_2_778
10
117.5855847
20
16.8204973
40
2.9994276
50
265.3009281
51
270.0650883
0
ARC
8
DEFAULT_255_2_778
10
117.587163
20
17.2824091
40
3.461338
50
270.0302768
51
273.041289
0
ARC
8
DEFAULT_255_2_778
10
117.564086
20
17.7209683
40
3.9005037
50
273.0380064
51
275.7191945
0
ARC
8
DEFAULT_255_2_778
10
117.5340526
20
18.0384229
40
4.2193715
50
275.6954105
51
276.5436737
0
ARC
8
DEFAULT_255_2_778
10
112.6553493
20
14.4800664
40
5.3968584
50
353.258614
51
358.3961664
0
ARC
8
DEFAULT_255_2_778
10
112.6626263
20
14.4798484
40
5.3895782
50
358.3963178
51
359.9996426
0
ARC
8
DEFAULT_255_2_778
10
112.7717608
20
14.4846448
40
5.280446
50
359.9475911
51
14.2163663
0
LINE
8
DEFAULT_255_2_778
10
128.9714945
20
43.1449394
11
129.0312945
21
43.1467394
0
LINE
8
DEFAULT_255_2_778
10
129.0312945
20
43.1467394
11
128.8457945
21
49.1493394
0
LINE
8
DEFAULT_255_2_778
10
128.8457945
20
49.1493394
11
128.7558945
21
49.1467394
0
LINE
8
DEFAULT_255_2_778
10
110.0706945
20
134.5637394
11
110.0701945
21
134.5137394
0
LINE
8
DEFAULT_255_2_778
10
109.2406945
20
134.5137394
11
109.2406945
21
134.5637394
0
LINE
8
DEFAULT_255_2_778
10
9.9407945
20
75.2650394
11
3.0406945
21
74.0485394
0
LINE
8
DEFAULT_255_2_778
10
3.0406945
20
74.0485394
11
3.0406945
21
37.1137394
0
LINE
8
DEFAULT_255_2_778
10
3.0406945
20
37.1137394
11
6.0407945
21
37.0875394
0
LINE
8
DEFAULT_255_2_778
10
6.0407945
20
37.0875394
11
6.0407945
21
70.0093394
0
LINE
8
DEFAULT_255_2_778
10
6.0407945
20
70.0093394
11
12.9434945
21
75.7929394
0
LINE
8
DEFAULT_255_2_778
10
12.9434945
20
75.7929394
11
12.9434945
21
94.4904394
0
LINE
8
DEFAULT_255_2_778
10
12.9434945
20
94.4904394
11
9.9407945
21
94.8138394
0
LINE
8
DEFAULT_255_2_778
10
9.9407945
20
94.8138394
11
9.9407945
21
116.8139394
0
LINE
8
DEFAULT_255_2_778
10
115.6743945
20
19.0112394
11
115.4345945
21
19.0112394
0
LINE
8
DEFAULT_255_2_778
10
115.4345945
20
19.0112394
11
115.4427945
21
14.8191394
0
LINE
8
DEFAULT_255_2_778
10
115.4427945
20
14.8191394
11
115.7571945
21
14.8191394
0
ARC
8
DEFAULT_255_2_778
10
125.2964862
20
21.025238
40
3.1347989
50
273.0674778
51
281.9242725
0
ARC
8
DEFAULT_255_2_778
10
125.4776145
20
20.1867409
40
2.2769741
50
281.8243587
51
294.9729933
0
ARC
8
DEFAULT_255_2_778
10
125.6769725
20
19.7533548
40
1.7999408
50
295.0446886
51
335.431836
0
ARC
8
DEFAULT_255_2_778
10
125.0130332
20
20.0876388
40
2.5429129
50
334.8015999
51
346.0863481
0
ARC
8
DEFAULT_255_2_778
10
124.4234995
20
20.2492799
40
3.1540536
50
345.8113271
51
348.5457467
0
ARC
8
DEFAULT_255_2_778
10
-1415.8293465
20
16.8432625
40
1543.3465853
50
0.1031935
51
0.2506699
0
ARC
8
DEFAULT_255_2_778
10
-1356.673734
20
17.1018091
40
1484.1904078
50
0.25068
51
0.3979127
0
ARC
8
DEFAULT_255_2_778
10
-1300.7010523
20
17.4903614
40
1428.2163775
50
0.3979198
51
0.5448442
0
ARC
8
DEFAULT_255_2_778
10
-1245.8932061
20
18.0128978
40
1373.4060404
50
0.5447885
51
0.701947
0
ARC
8
DEFAULT_255_2_778
10
-1190.5781251
20
18.6917134
40
1318.0867944
50
0.7018991
51
0.8678409
0
ARC
8
DEFAULT_255_2_778
10
-1136.7379517
20
19.5071115
40
1264.2404468
50
0.8678484
51
1.0344821
0
ARC
8
DEFAULT_255_2_778
10
-1085.8212792
20
20.4263114
40
1213.3154777
50
1.0344919
51
1.2004057
0
ARC
8
DEFAULT_255_2_778
10
-1037.9035163
20
21.4302009
40
1165.3872002
50
1.2004147
51
1.3655199
0
ARC
8
DEFAULT_255_2_778
10
-992.8098308
20
22.5047346
40
1120.280714
50
1.3655393
51
1.5297451
0
ARC
8
DEFAULT_255_2_778
10
-950.1912038
20
23.6424189
40
1077.6469048
50
1.5297698
51
1.6930123
0
ARC
8
DEFAULT_255_2_778
10
-909.930337
20
24.832069
40
1037.3684657
50
1.6930317
51
1.8552425
0
ARC
8
DEFAULT_255_2_778
10
-871.9302296
20
26.0626232
40
999.348439
50
1.855261
51
2.0163653
0
ARC
8
DEFAULT_255_2_778
10
-836.1370355
20
27.3225624
40
963.5330766
50
2.0163786
51
2.1762888
0
ARC
8
DEFAULT_255_2_778
10
-802.1934216
20
28.6121523
40
929.5649743
50
2.1763088
51
2.3349763
0
ARC
8
DEFAULT_255_2_778
10
-770.1936344
20
29.9167164
40
897.5386059
50
2.334992
51
2.4923344
0
ARC
8
DEFAULT_255_2_778
10
-739.9344043
20
31.233441
40
867.2507408
50
2.4923585
51
2.64831
0
ARC
8
DEFAULT_255_2_778
10
-711.2194164
20
32.5612947
40
838.5050677
50
2.6483338
51
2.8028477
0
ARC
8
DEFAULT_255_2_778
10
-677.4882692
20
34.2198778
40
804.7331693
50
2.8023376
51
3.0331045
0
ARC
8
DEFAULT_255_2_778
10
-639.6245231
20
36.2254038
40
766.8163471
50
3.0331617
51
3.2603062
0
ARC
8
DEFAULT_255_2_778
10
-604.772066
20
38.2100621
40
731.9074281
50
3.2603607
51
3.4836837
0
ARC
8
DEFAULT_255_2_778
10
-572.5144072
20
40.1731875
40
699.590089
50
3.4837341
51
3.7030983
0
ARC
8
DEFAULT_255_2_778
10
-540.3568427
20
42.2571832
40
667.3650677
50
3.7028658
51
3.9545843
0
ARC
8
DEFAULT_255_2_778
10
-507.4339845
20
44.5338503
40
634.3635857
50
3.9545213
51
4.2182351
0
ARC
8
DEFAULT_255_2_778
10
-475.3338636
20
46.9020281
40
602.1762276
50
4.2181762
51
4.4923501
0
ARC
8
DEFAULT_255_2_778
10
-445.3525079
20
49.2565715
40
572.1025586
50
4.4924512
51
4.758415
0
ARC
8
DEFAULT_255_2_778
10
-418.1728746
20
51.5181432
40
544.828997
50
4.7585095
51
5.0161055
0
ARC
8
DEFAULT_255_2_778
10
-393.5599361
20
53.6776174
40
520.121507
50
5.0161989
51
5.2652805
0
ARC
8
DEFAULT_255_2_778
10
-371.1792239
20
55.7393698
40
497.6460292
50
5.2653683
51
5.505863
0
ARC
8
DEFAULT_255_2_778
10
-350.8505806
20
57.6982398
40
477.2232256
50
5.5059413
51
5.7377899
0
ARC
8
DEFAULT_255_2_778
10
-327.8840989
20
60.0125266
40
454.1404362
50
5.7369579
51
6.0739585
0
ARC
8
DEFAULT_255_2_778
10
-303.2770724
20
62.6291611
40
429.3946783
50
6.0741956
51
6.3912241
0
ARC
8
DEFAULT_255_2_778
10
-280.128253
20
65.2238556
40
406.1008966
50
6.3909817
51
6.7388742
0
ARC
8
DEFAULT_255_2_778
10
-257.1152669
20
67.9440249
40
382.9277042
50
6.7387354
51
7.1069783
0
ARC
8
DEFAULT_255_2_778
10
-236.2101356
20
70.548017
40
361.8610176
50
7.1073656
51
7.4419641
0
ARC
8
DEFAULT_255_2_778
10
-218.5973676
20
72.8466791
40
344.0988825
50
7.4422869
51
7.7450524
0
ARC
8
DEFAULT_255_2_778
10
-200.2841091
20
75.3428905
40
325.6162834
50
7.744094
51
8.1563804
0
ARC
8
DEFAULT_255_2_778
10
-180.2491117
20
78.2153553
40
305.3764174
50
8.1562048
51
8.5932308
0
ARC
8
DEFAULT_255_2_778
10
-162.7044176
20
80.8629028
40
287.6330866
50
8.5939631
51
8.9653987
0
ARC
8
DEFAULT_255_2_778
10
-146.6545371
20
83.397581
40
271.3842944
50
8.9648644
51
9.3992444
0
ARC
8
DEFAULT_255_2_778
10
-131.7035268
20
85.8696733
40
256.230287
50
9.3998685
51
9.7759934
0
ARC
8
DEFAULT_255_2_778
10
-118.6613754
20
88.117146
40
242.9959056
50
9.7759169
51
10.1655791
0
ARC
8
DEFAULT_255_2_778
10
116.9586614
20
131.4054808
40
0.9149575
50
86.4989052
51
89.7133884
0
ARC
8
DEFAULT_255_2_778
10
116.9599842
20
131.5183816
40
0.8020518
50
89.7675389
51
90.0032097
0
ARC
8
DEFAULT_255_2_778
10
116.9484092
20
131.7864984
40
0.5340595
50
88.7629247
51
107.6431417
0
ARC
8
DEFAULT_255_2_778
10
116.8680758
20
132.0419313
40
0.2662948
50
107.8289854
51
182.097717
0
ARC
8
DEFAULT_255_2_778
10
117.1220661
20
132.0047335
40
0.5208305
50
176.9788294
51
180.0333164
0
ARC
8
DEFAULT_255_2_778
10
115.9950175
20
132.0647581
40
0.6092125
50
328.6883336
51
354.3169568
0
ARC
8
DEFAULT_255_2_778
10
116.0909102
20
132.0264875
40
0.5076866
50
285.8886361
51
326.7538014
0
ARC
8
DEFAULT_255_2_778
10
115.9891763
20
132.2939278
40
0.7931436
50
281.4360134
51
287.6682016
0
ARC
8
DEFAULT_255_2_778
10
116.0776739
20
131.9420698
40
0.4310589
50
270.0682988
51
279.1789318
0
ARC
8
DEFAULT_255_2_778
10
116.0849523
20
131.9576738
40
0.4467138
50
231.2831767
51
269.1323457
0
ARC
8
DEFAULT_255_2_778
10
116.2132773
20
132.1487366
40
0.6763313
50
227.6585069
51
232.9251216
0
ARC
8
DEFAULT_255_2_778
10
116.1604711
20
134.4123042
40
3.0419156
50
258.2870419
51
262.4627117
0
ARC
8
DEFAULT_255_2_778
10
116.2380164
20
134.9941923
40
3.628948
50
262.4540567
51
266.027024
0
ARC
8
DEFAULT_255_2_778
10
116.2856847
20
135.6723499
40
4.3087787
50
266.0194845
51
269.0920394
0
ARC
8
DEFAULT_255_2_778
10
116.296977
20
136.1835758
40
4.8201203
50
269.0541228
51
270.0044003
0
ARC
8
DEFAULT_255_2_778
10
116.2877667
20
137.0405312
40
5.6770838
50
270.0966909
51
274.2817695
0
ARC
8
DEFAULT_255_2_778
10
116.165406
20
138.7113859
40
7.3524112
50
274.260501
51
277.5991396
0
ARC
8
DEFAULT_255_2_778
10
115.9006139
20
140.7072993
40
9.3658121
50
277.59011
51
280.443862
0
ARC
8
DEFAULT_255_2_778
10
115.4709023
20
143.0515696
40
11.7491398
50
280.4323624
51
282.7834851
0
ARC
8
DEFAULT_255_2_778
10
114.9180705
20
145.5063211
40
14.2653698
50
282.767308
51
284.4887398
0
ARC
8
DEFAULT_255_2_778
10
114.2624258
20
148.046739
40
16.88903
50
284.4860485
51
286.0242198
0
ARC
8
DEFAULT_255_2_778
10
-277.6005238
20
73.5917919
40
401.8962009
50
7.9518496
51
8.3284885
0
ARC
8
DEFAULT_255_2_778
10
-299.1593796
20
70.5791332
40
423.6645351
50
7.5997602
51
7.9520147
0
ARC
8
DEFAULT_255_2_778
10
-320.8113434
20
67.6891794
40
445.508513
50
7.2698947
51
7.5998949
0
ARC
8
DEFAULT_255_2_778
10
-342.5587548
20
64.9138869
40
467.4322935
50
6.9604061
51
7.2700161
0
ARC
8
DEFAULT_255_2_778
10
-364.3076508
20
62.2576846
40
489.3427908
50
6.6696049
51
6.9605256
0
ARC
8
DEFAULT_255_2_778
10
-386.1303546
20
59.7048941
40
511.3142983
50
6.3960185
51
6.6697104
0
ARC
8
DEFAULT_255_2_778
10
-407.9045564
20
57.2632251
40
533.2249718
50
6.1382824
51
6.3961075
0
ARC
8
DEFAULT_255_2_778
10
-429.635483
20
54.9254559
40
555.0812829
50
5.8951895
51
6.138356
0
ARC
8
DEFAULT_255_2_778
10
-451.2786674
20
52.6900273
40
576.8396049
50
5.665649
51
5.8952546
0
ARC
8
DEFAULT_255_2_778
10
-472.7958523
20
50.5547095
40
598.4624824
50
5.4486684
51
5.6657104
0
ARC
8
DEFAULT_255_2_778
10
-494.2367906
20
48.5089603
40
620.0007956
50
5.2433673
51
5.4487243
0
ARC
8
DEFAULT_255_2_778
10
-515.4489605
20
46.561818
40
641.3021456
50
5.0488982
51
5.2434113
0
ARC
8
DEFAULT_255_2_778
10
-541.7695112
20
44.2429419
40
667.7246462
50
4.7731951
51
5.0483417
0
ARC
8
DEFAULT_255_2_778
10
-573.1879085
20
41.6178286
40
699.2525212
50
4.5190246
51
4.7733289
0
ARC
8
DEFAULT_255_2_778
10
-604.0972331
20
39.1735172
40
730.2583432
50
4.2836599
51
4.5191315
0
ARC
8
DEFAULT_255_2_778
10
-636.8988268
20
36.7187427
40
763.1516628
50
4.0292322
51
4.2834965
0
ARC
8
DEFAULT_255_2_778
10
-671.6208624
20
34.2710544
40
797.9598649
50
3.7960529
51
4.0293672
0
ARC
8
DEFAULT_255_2_778
10
-707.4923082
20
31.8921485
40
833.9101057
50
3.5550292
51
3.7959712
0
ARC
8
DEFAULT_255_2_778
10
-744.7760906
20
29.5743102
40
871.2658654
50
3.3320379
51
3.5551289
0
ARC
8
DEFAULT_255_2_778
10
-780.9747486
20
27.4649729
40
907.525928
50
3.1286078
51
3.332153
0
ARC
8
DEFAULT_255_2_778
10
-815.9546802
20
25.5513018
40
942.5581668
50
2.9426475
51
3.1287115
0
ARC
8
DEFAULT_255_2_778
10
-849.6022352
20
23.8203597
40
976.250215
50
2.7723288
51
2.9427249
0
ARC
8
DEFAULT_255_2_778
10
-881.7873473
20
22.2604848
40
1008.4731052
50
2.6160759
51
2.7724049
0
ARC
8
DEFAULT_255_2_778
10
-912.7415673
20
20.8450133
40
1039.4596715
50
2.4725099
51
2.6161389
0
ARC
8
DEFAULT_255_2_778
10
-949.5694172
20
19.2608521
40
1076.3215768
50
2.274848
51
2.4721869
0
ARC
8
DEFAULT_255_2_778
10
-991.6411657
20
17.5870165
40
1118.426609
50
2.1006583
51
2.2749789
0
ARC
8
DEFAULT_255_2_778
10
-1035.4411366
20
15.9831074
40
1162.2559369
50
1.9080511
51
2.100527
0
ARC
8
DEFAULT_255_2_778
10
-1081.8060761
20
14.4366063
40
1208.6466609
50
1.7315596
51
1.9081409
0
ARC
8
DEFAULT_255_2_778
10
-1125.1469083
20
13.1233927
40
1252.0073835
50
1.5807787
51
1.7316965
0
ARC
8
DEFAULT_255_2_778
10
-1163.9328442
20
12.0509487
40
1290.8081431
50
1.4514793
51
1.5808709
0
ARC
8
DEFAULT_255_2_778
10
-1206.5502708
20
10.9760888
40
1333.4391218
50
1.2850729
51
1.4512644
0
ARC
8
DEFAULT_255_2_778
10
-1257.3702908
20
9.8368504
40
1384.2719094
50
1.1149191
51
1.2850405
0
ARC
8
DEFAULT_255_2_778
10
-1305.0354611
20
8.9037134
40
1431.9462126
50
0.9850328
51
1.1151393
0
ARC
8
DEFAULT_255_2_778
10
-1350.4969893
20
8.1240589
40
1477.4144256
50
0.8416062
51
0.9849553
0
ARC
8
DEFAULT_255_2_778
10
-1395.4939606
20
7.4598724
40
1522.4162985
50
0.7246344
51
0.8417262
0
ARC
8
DEFAULT_255_2_778
10
-1437.0115879
20
6.9345189
40
1563.9372494
50
0.6096283
51
0.7246432
0
ARC
8
DEFAULT_255_2_778
10
111.8193527
20
11.3284754
40
9.9201885
50
42.7281689
51
43.7679594
0
ARC
8
DEFAULT_255_2_778
10
105.6239578
20
5.4002385
40
18.4949713
50
43.7538963
51
44.4973196
0
ARC
8
DEFAULT_255_2_778
10
97.6204362
20
-2.4491967
40
29.7052309
50
44.4768649
51
44.8832293
0
ARC
8
DEFAULT_255_2_778
10
86.6432499
20
-13.3877224
40
45.2020034
50
44.888611
51
45.3206095
0
ARC
8
DEFAULT_255_2_778
10
69.7790998
20
-30.4340939
40
69.1807091
50
45.3161978
51
45.6387052
0
ARC
8
DEFAULT_255_2_778
10
58.4524416
20
-41.9948746
40
85.3654134
50
45.628727
51
45.6688711
0
LINE
8
DEFAULT_255_2_778
10
118.1061356
20
19.0681306
11
115.6685356
21
19.0633306
0
LINE
8
DEFAULT_255_2_778
10
120.5199356
20
131.0043306
11
120.3051356
21
132.3105306
0
LINE
8
DEFAULT_255_2_778
10
120.3051356
20
132.3105306
11
117.0145356
21
132.3187306
0
LINE
8
DEFAULT_255_2_778
10
115.7577356
20
131.6488306
11
112.1694356
21
134.6087306
0
LINE
8
DEFAULT_255_2_778
10
112.1694356
20
134.6087306
11
111.6900356
21
134.6087306
0
LINE
8
DEFAULT_255_2_778
10
111.6900356
20
134.6087306
11
115.5429356
21
131.4337306
0
LINE
8
DEFAULT_255_2_778
10
118.9245356
20
131.8139306
11
120.0572356
21
131.8057306
0
LINE
8
DEFAULT_255_2_778
10
126.8371356
20
23.5745306
11
126.8702356
21
19.5065306
0
LINE
8
DEFAULT_255_2_778
10
126.8702356
20
19.5065306
11
121.9341356
21
19.2170306
0
LINE
8
DEFAULT_255_2_778
10
121.9341356
20
19.2170306
11
120.7684356
21
18.0595306
0
LINE
8
DEFAULT_255_2_778
10
120.7684356
20
18.0595306
11
119.1065356
21
18.0595306
0
LINE
8
DEFAULT_255_2_778
10
115.6685356
20
19.0633306
11
115.9760356
21
15.2464306
0
LINE
8
DEFAULT_255_2_778
10
115.9760356
20
15.2464306
11
117.9474356
21
15.1776306
0
ARC
8
DEFAULT_255_2_778
10
117.4401475
20
15.8124806
40
1.9657233
50
210.5420678
51
270.0011951
0
LINE
8
DEFAULT_255_2_778
10
117.4401885
20
13.8467572
11
117.4407559
21
13.8467573
0
ARC
8
DEFAULT_255_2_778
10
57.4399439
20
-57.2239594
40
72.0375167
50
89.9994337
51
95.8755119
0
ARC
8
DEFAULT_255_2_778
10
57.4389494
20
-57.2081211
40
72.0216599
50
95.8760147
51
103.8183403
0
ARC
8
DEFAULT_255_2_778
10
57.4429918
20
-57.2264166
40
72.0403913
50
103.8179868
51
118.6720122
0
ARC
8
DEFAULT_255_2_778
10
57.4332594
20
-57.2066287
40
72.01836
50
118.6727721
51
125.1165738
0
ARC
8
DEFAULT_255_2_778
10
57.4564983
20
-57.239913
40
72.058954
50
125.1164645
51
127.6496134
0
ARC
8
DEFAULT_255_2_778
10
116.0929101
20
132.0139506
40
0.5002265
50
230.5191361
51
270.0082334
0
ARC
8
DEFAULT_255_2_778
10
116.0929833
20
132.0138161
40
0.5000919
50
269.9998519
51
272.0427414
0
ARC
8
DEFAULT_255_2_778
10
116.093034
20
132.0129366
40
0.4992112
50
272.0405214
51
295.2593868
0
ARC
8
DEFAULT_255_2_778
10
116.0930553
20
132.013709
40
0.4999008
50
295.2194115
51
359.9596994
0
ARC
8
DEFAULT_255_2_778
10
116.8923941
20
132.013626
40
0.2994383
50
134.9468036
51
180.0514071
0
ARC
8
DEFAULT_255_2_778
10
116.8927872
20
132.0140192
40
0.2994383
50
89.9485929
51
135.0531964
0
ARC
8
DEFAULT_255_2_778
10
-870.7757919
20
14.8122091
40
998.3168093
50
0.2930897
51
6.4613736
0
ARC
8
DEFAULT_255_2_778
10
125.4761511
20
19.9089099
40
2.0518294
50
0.0012199
51
0.2805689
0
ARC
8
DEFAULT_255_2_778
10
125.5350564
20
19.9066375
40
1.9929254
50
334.6959494
51
0.066587
0
ARC
8
DEFAULT_255_2_778
10
125.526556
20
19.9106885
40
2.0023417
50
282.6388626
51
334.6951173
0
ARC
8
DEFAULT_255_2_778
10
125.5273938
20
19.9216057
40
2.0128136
50
273.6421121
51
282.5475946
0
ARC
8
DEFAULT_255_2_778
10
116.3160866
20
17.2188266
40
0.3001308
50
90.0249558
51
179.9941261
0
ARC
8
DEFAULT_255_2_778
10
117.0162108
20
16.8895304
40
1.0002549
50
180.004183
51
260.3319114
0
ARC
8
DEFAULT_255_2_778
10
117.0174902
20
16.9010723
40
1.0118481
50
260.3702549
51
263.3865817
0
ARC
8
DEFAULT_255_2_778
10
-870.7805947
20
14.8112992
40
1000.0214272
50
359.42718
51
359.9999998
0
ARC
8
DEFAULT_255_2_778
10
-870.7702455
20
14.8114747
40
1000.011078
50
359.9999897
51
7.5852216
0
ARC
8
DEFAULT_255_2_778
10
116.0414382
20
141.3143919
40
7.000958
50
192.5876132
51
233.7119526
0
ARC
8
DEFAULT_255_2_778
10
116.049116
20
141.3213498
40
4.4673157
50
89.9986823
51
90.1097874
0
ARC
8
DEFAULT_255_2_778
10
116.0492268
20
141.3223207
40
4.466345
50
45.000975
51
90.0001039
0
ARC
8
DEFAULT_255_2_778
10
116.0491193
20
141.3224282
40
4.466345
50
359.9998961
51
44.999025
0
ARC
8
DEFAULT_255_2_778
10
116.0481484
20
141.3223174
40
4.4673159
50
359.8902126
51
0.0013177
0
ARC
8
DEFAULT_255_2_778
10
116.0319958
20
141.3213498
40
4.4673157
50
89.8902126
51
90.0013177
0
ARC
8
DEFAULT_255_2_778
10
116.031885
20
141.3223207
40
4.466345
50
89.9998961
51
134.999025
0
ARC
8
DEFAULT_255_2_778
10
116.0319925
20
141.3224282
40
4.466345
50
135.000975
51
180.0001039
0
ARC
8
DEFAULT_255_2_778
10
116.0329634
20
141.3223174
40
4.4673159
50
179.9986823
51
180.1097874
0
ARC
8
DEFAULT_255_2_778
10
116.0319958
20
141.3058648
40
4.4673157
50
269.9986823
51
270.1097874
0
ARC
8
DEFAULT_255_2_778
10
116.031885
20
141.3048939
40
4.466345
50
225.000975
51
270.0001039
0
ARC
8
DEFAULT_255_2_778
10
116.0321671
20
141.3048588
40
4.4665197
50
180.0008239
51
224.998097
0
ARC
8
DEFAULT_255_2_778
10
116.0329625
20
141.3048973
40
4.467315
50
179.8902125
51
180.0013177
0
LINE
8
DEFAULT_255_2_778
10
126.9297559
20
19.4543573
11
121.9904559
21
19.1635573
0
LINE
8
DEFAULT_255_2_778
10
121.9904559
20
19.1635573
11
120.8403559
21
18.0136573
0
LINE
8
DEFAULT_255_2_778
10
120.8403559
20
18.0136573
11
119.1708559
21
18.0136573
0
LINE
8
DEFAULT_255_2_778
10
119.1708559
20
18.0136573
11
118.1709559
21
19.0135573
0
LINE
8
DEFAULT_255_2_778
10
118.1709559
20
19.0135573
11
115.4407559
21
19.0135573
0
LINE
8
DEFAULT_255_2_778
10
115.4407559
20
19.0135573
11
115.4407559
21
14.8135573
0
LINE
8
DEFAULT_255_2_778
10
115.4407559
20
14.8135573
11
115.7471559
21
14.8135573
0
LINE
8
DEFAULT_255_2_778
10
117.4407559
20
13.8467573
11
126.9739559
21
13.8467573
0
LINE
8
DEFAULT_255_2_778
10
126.9739559
20
13.8467573
11
126.9739559
21
4.8136573
0
LINE
8
DEFAULT_255_2_778
10
126.9739559
20
4.8136573
11
120.7726559
21
4.8136573
0
LINE
8
DEFAULT_255_2_778
10
120.7726559
20
4.8136573
11
100.5409559
21
14.8135573
0
LINE
8
DEFAULT_255_2_778
10
100.5409559
20
14.8135573
11
57.4406559
21
14.8135573
0
LINE
8
DEFAULT_255_2_778
10
13.4406559
20
-0.1864427
11
9.9405559
21
-0.1864427
0
LINE
8
DEFAULT_255_2_778
10
9.9405559
20
-0.1864427
11
9.9405559
21
37.0533573
0
LINE
8
DEFAULT_255_2_778
10
9.9405559
20
37.0533573
11
6.0405559
21
37.0875573
0
LINE
8
DEFAULT_255_2_778
10
112.2136559
20
134.5637573
11
115.7748559
21
131.6278573
0
LINE
8
DEFAULT_255_2_778
10
116.8930559
20
132.3134573
11
120.2998559
21
132.3134573
0
LINE
8
DEFAULT_255_2_778
10
120.2998559
20
132.3134573
11
121.1996559
21
127.1561573
0
LINE
8
DEFAULT_255_2_778
10
125.6552559
20
17.9128573
11
119.3861559
21
17.5136573
0
LINE
8
DEFAULT_255_2_778
10
119.3861559
20
17.5136573
11
118.1183559
21
18.7815573
0
LINE
8
DEFAULT_255_2_778
10
118.1183559
20
18.7815573
11
116.8557559
21
17.5189573
0
LINE
8
DEFAULT_255_2_778
10
116.8557559
20
17.5189573
11
116.3159559
21
17.5189573
0
LINE
8
DEFAULT_255_2_778
10
116.0159559
20
17.2188573
11
116.0159559
21
16.8894573
0
LINE
8
DEFAULT_255_2_778
10
116.9009559
20
15.8959573
11
125.9052559
21
14.8532573
0
LINE
8
DEFAULT_255_2_778
10
125.9052559
20
14.8532573
11
127.2408559
21
14.8066573
0
LINE
8
DEFAULT_255_2_778
10
127.2408559
20
14.8066573
11
127.2408559
21
4.8136573
0
LINE
8
DEFAULT_255_2_778
10
127.2408559
20
4.8136573
11
129.1908559
21
4.8136573
0
LINE
8
DEFAULT_255_2_778
10
120.4903559
20
146.8136573
11
112.2143559
21
146.8136573
0
LINE
8
DEFAULT_255_2_778
10
112.2143559
20
146.8136573
11
107.6405559
21
146.8136573
0
LINE
8
DEFAULT_255_2_778
10
107.6405559
20
146.8136573
11
109.2087559
21
139.7886573
0
LINE
8
DEFAULT_255_2_778
10
111.8979559
20
135.6712573
11
111.9701559
21
134.5639573
0
LINE
8
DEFAULT_255_2_778
10
115.7471559
20
14.8135573
11
118.0413559
21
14.8135573
0
ARC
8
DEFAULT_255_2_778
10
116.0491633
20
141.3059827
40
4.4673157
50
269.8902126
51
270.0013177
0
ARC
8
DEFAULT_255_2_778
10
116.0492741
20
141.3050118
40
4.466345
50
269.9998961
51
314.999025
0
ARC
8
DEFAULT_255_2_778
10
116.0491666
20
141.3049043
40
4.466345
50
315.000975
51
0.0001039
0
ARC
8
DEFAULT_255_2_778
10
116.0481957
20
141.3050152
40
4.4673159
50
359.9986823
51
0.1097874
0
ARC
8
DEFAULT_255_2_778
10
121.9431847
20
9.817245
40
2.0023845
50
156.5733489
51
180.0992821
0
ARC
8
DEFAULT_255_2_778
10
121.9360067
20
9.818192
40
1.9954226
50
100.1929838
51
156.5163563
0
ARC
8
DEFAULT_255_2_778
10
121.9397827
20
9.7859716
40
2.0278038
50
89.9711642
51
100.1368845
0
ARC
8
DEFAULT_255_2_778
10
121.944273
20
9.8113937
40
2.0023845
50
66.5733489
51
90.0992821
0
ARC
8
DEFAULT_255_2_778
10
121.94522
20
9.8185718
40
1.9954226
50
10.1929838
51
66.5163563
0
ARC
8
DEFAULT_255_2_778
10
121.9129996
20
9.8147958
40
2.0278038
50
359.9711642
51
10.1368845
0
ARC
8
DEFAULT_255_2_778
10
121.9385967
20
9.8103145
40
2.0022096
50
336.5287151
51
0.0990339
0
ARC
8
DEFAULT_255_2_778
10
121.9455148
20
9.8094428
40
1.9955175
50
280.1882983
51
336.4725563
0
ARC
8
DEFAULT_255_2_778
10
121.9418223
20
9.8413875
40
2.0276126
50
269.9712038
51
280.131326
0
ARC
8
DEFAULT_255_2_778
10
121.9373416
20
9.8160335
40
2.0022612
50
246.5715666
51
270.0990563
0
ARC
8
DEFAULT_255_2_778
10
121.9364943
20
9.809076
40
1.9955414
50
190.1944457
51
246.5144618
0
ARC
8
DEFAULT_255_2_778
10
121.9683485
20
9.8127579
40
2.0275455
50
179.9712527
51
190.1375314
0
LINE
8
DEFAULT_255_2_778
10
119.9408032
20
9.8137752
11
119.9408032
21
9.8137752
0
ENDSEC
0
EOF