0
SECTION
2
HEADER
9
$MEASUREMENT
70
1
0
ENDSEC
0
SECTION
2
TABLES
0
TABLE
2
LTYPE
0
LTYPE
72
65
70
64
2
CONTINUOUS
3
______
73
0
40
0
0
ENDTAB
0
TABLE
2
LAYER
0
LAYER
2
DEFAULT_255_2_778
70
0
62
255
6
CONTINUOUS
0
ENDTAB
0
ENDSEC
0
SECTION
2
ENTITIES
0
ARC
8
DEFAULT_255_2_778
10
17.4676418
20
-351.6887769
40
356.8487601
50
92.2862173
51
92.4293778
0
ARC
8
DEFAULT_255_2_778
10
19.1234796
20
-393.2832479
40
398.4761763
50
92.1109631
51
92.2855353
0
ARC
8
DEFAULT_255_2_778
10
20.9720322
20
-443.3791396
40
448.6061625
50
91.9556744
51
92.1112211
0
ARC
8
DEFAULT_255_2_778
10
22.1693359
20
-478.1159821
40
483.3636315
50
91.907658
51
91.9569979
0
ARC
8
DEFAULT_255_2_778
10
-7.1164194
20
194.8134726
40
190.2917554
50
273.9761849
51
274.3865147
0
ARC
8
DEFAULT_255_2_778
10
-5.7201812
20
176.6386081
40
172.0633387
50
274.3858302
51
274.8498029
0
ARC
8
DEFAULT_255_2_778
10
-4.2310945
20
159.1051384
40
154.46675
50
274.8492814
51
275.3567641
0
ARC
8
DEFAULT_255_2_778
10
-2.7900901
20
143.716526
40
139.0108164
50
275.3575571
51
275.83393
0
ARC
8
DEFAULT_255_2_778
10
-1.5095031
20
131.167409
40
126.3965293
50
275.834658
51
276.2787597
0
ARC
8
DEFAULT_255_2_778
10
-0.1124997
20
118.5226262
40
113.6748112
50
276.2758784
51
276.901488
0
ARC
8
DEFAULT_255_2_778
10
1.5033806
20
105.1845544
40
100.2392157
50
276.9006681
51
277.5916432
0
ARC
8
DEFAULT_255_2_778
10
2.9912873
20
93.9964517
40
88.9526088
50
277.5937144
51
278.2047757
0
ARC
8
DEFAULT_255_2_778
10
4.4116763
20
84.1659489
40
79.0200221
50
278.2026547
51
278.9465682
0
ARC
8
DEFAULT_255_2_778
10
5.7896947
20
75.3972686
40
70.1437232
50
278.9485233
51
279.619717
0
ARC
8
DEFAULT_255_2_778
10
7.0330402
20
68.0651456
40
62.7069271
50
279.6191637
51
280.3424256
0
ARC
8
DEFAULT_255_2_778
10
-27.0128904
20
247.0961716
40
244.9451401
50
280.6584899
51
280.8968397
0
ARC
8
DEFAULT_255_2_778
10
-22.0649785
20
221.3865895
40
218.7637643
50
280.8972261
51
281.1221006
0
ARC
8
DEFAULT_255_2_778
10
-17.0208608
20
195.7608914
40
192.646347
50
281.120265
51
281.4415343
0
ARC
8
DEFAULT_255_2_778
10
-11.8050717
20
169.9899819
40
166.3529213
50
281.4415282
51
281.7773492
0
ARC
8
DEFAULT_255_2_778
10
-7.3127928
20
148.4383239
40
144.3380507
50
281.7778177
51
282.1074297
0
ARC
8
DEFAULT_255_2_778
10
-3.1147406
20
128.8848729
40
124.3390237
50
282.1058512
51
282.5154308
0
ARC
8
DEFAULT_255_2_778
10
0.68279
20
111.7663678
40
106.8043596
50
282.5166813
51
282.8943928
0
ARC
8
DEFAULT_255_2_778
10
3.9070429
20
97.6860763
40
92.359623
50
282.8938571
51
283.3100138
0
LINE
8
DEFAULT_255_2_778
10
174.9739587
20
145.5399573
11
174.9739587
21
145.9368573
0
LINE
8
DEFAULT_255_2_778
10
174.9739587
20
145.9368573
11
170.0791587
21
145.9450573
0
LINE
8
DEFAULT_255_2_778
10
170.0791587
20
145.9450573
11
170.0688587
21
136.5327573
0
LINE
8
DEFAULT_255_2_778
10
170.0688587
20
136.5327573
11
145.0688587
21
136.5327573
0
LINE
8
DEFAULT_255_2_778
10
145.0688587
20
136.5327573
11
145.0688587
21
146.8136573
0
LINE
8
DEFAULT_255_2_778
10
145.0688587
20
146.8136573
11
140.1687587
21
146.8136573
0
LINE
8
DEFAULT_255_2_778
10
140.1687587
20
146.8136573
11
140.1687587
21
4.8141573
0
LINE
8
DEFAULT_255_2_778
10
140.1687587
20
4.8141573
11
140.4701587
21
4.8141573
0
LINE
8
DEFAULT_255_2_778
10
173.0226587
20
7.8076573
11
173.0213587
21
-0.1864427
0
LINE
8
DEFAULT_255_2_778
10
173.0213587
20
-0.1864427
11
1.9348587
21
-0.1864427
0
LINE
8
DEFAULT_255_2_778
10
1.9348587
20
-0.1864427
11
1.9364587
21
4.8310573
0
LINE
8
DEFAULT_255_2_778
10
1.9364587
20
4.8310573
11
2.3415587
21
4.8392573
0
LINE
8
DEFAULT_255_2_778
10
25.1700587
20
7.8073573
11
139.0731587
21
7.8073573
0
LINE
8
DEFAULT_255_2_778
10
140.0656563
20
136.8087034
11
140.1815563
21
136.8087034
0
LINE
8
DEFAULT_255_2_778
10
140.1815563
20
136.8087034
11
140.1815563
21
4.8147034
0
LINE
8
DEFAULT_255_2_778
10
140.1815563
20
4.8147034
11
140.0659563
21
4.8147034
0
LINE
8
DEFAULT_255_2_778
10
140.0659563
20
4.8147034
11
140.0656563
21
136.8087034
0
LINE
8
DEFAULT_255_2_778
10
145.1768335
20
146.3136345
11
145.0768335
21
146.3136345
0
LINE
8
DEFAULT_255_2_778
10
145.0768335
20
146.3136345
11
145.0760335
21
136.5356345
0
LINE
8
DEFAULT_255_2_778
10
145.0760335
20
136.5356345
11
170.0791335
21
136.5356345
0
LINE
8
DEFAULT_255_2_778
10
170.0791335
20
136.5356345
11
170.0873335
21
146.8131345
0
LINE
8
DEFAULT_255_2_778
10
170.0873335
20
146.8131345
11
145.0760335
21
146.8131345
0
LINE
8
DEFAULT_255_2_778
10
145.0760335
20
146.8131345
11
145.0760335
21
146.3170345
0
LINE
8
DEFAULT_255_2_778
10
19.2579335
20
144.6136345
11
18.8568335
21
144.6136345
0
LINE
8
DEFAULT_255_2_778
10
18.8568335
20
144.6136345
11
18.9028335
21
139.3222345
0
LINE
8
DEFAULT_255_2_778
10
18.9028335
20
139.3222345
11
33.0911335
21
139.3222345
0
LINE
8
DEFAULT_255_2_778
10
33.0911335
20
139.3222345
11
33.1409335
21
144.6139345
0
LINE
8
DEFAULT_255_2_778
10
33.1409335
20
144.6139345
11
32.8929335
21
144.6139345
0
LINE
8
DEFAULT_255_2_778
10
29.3869335
20
5.8645345
11
29.3869335
21
7.8076345
0
LINE
8
DEFAULT_255_2_778
10
29.3869335
20
7.8076345
11
30.8771335
21
7.8142345
0
LINE
8
DEFAULT_255_2_778
10
30.8771335
20
7.8142345
11
30.8771335
21
5.8611345
0
LINE
8
DEFAULT_255_2_778
10
11.1770335
20
5.3893345
11
11.1770335
21
3.9812345
0
LINE
8
DEFAULT_255_2_778
10
11.1770335
20
3.9812345
11
29.3769335
21
3.9812345
0
LINE
8
DEFAULT_255_2_778
10
29.3769335
20
3.9812345
11
29.3869335
21
7.8079345
0
LINE
8
DEFAULT_255_2_778
10
29.3869335
20
7.8079345
11
25.1785335
21
7.8079345
0
LINE
8
DEFAULT_255_2_778
10
29.5423
20
7.8262771
11
29.5423
21
5.8730771
0
ARC
8
DEFAULT_255_2_778
10
0.1471332
20
110.6417589
40
105.8292406
50
280.2564796
51
283.6779373
0
ARC
8
DEFAULT_255_2_778
10
0.1726151
20
110.4957483
40
105.681026
50
276.8427932
51
280.2569801
0
ARC
8
DEFAULT_255_2_778
10
0.1593015
20
110.5544017
40
105.7408483
50
273.4339438
51
276.8461692
0
ARC
8
DEFAULT_255_2_778
10
0.1634676
20
110.5017155
40
105.6880069
50
270.0073582
51
273.4334001
0
LINE
8
DEFAULT_255_2_778
10
0.1770406
20
4.8137095
11
0.1770406
21
146.8137095
0
LINE
8
DEFAULT_255_2_778
10
0.1770406
20
146.8137095
11
18.8375406
21
146.8137095
0
LINE
8
DEFAULT_255_2_778
10
18.8375406
20
146.8137095
11
18.9029406
21
139.3223095
0
LINE
8
DEFAULT_255_2_778
10
18.9029406
20
139.3223095
11
33.0909406
21
139.3223095
0
LINE
8
DEFAULT_255_2_778
10
33.0909406
20
139.3223095
11
33.1563406
21
146.8137095
0
LINE
8
DEFAULT_255_2_778
10
33.1563406
20
146.8137095
11
69.8169406
21
146.8137095
0
LINE
8
DEFAULT_255_2_778
10
69.8169406
20
146.8137095
11
69.8169406
21
7.8138095
0
LINE
8
DEFAULT_255_2_778
10
69.8169406
20
7.8138095
11
25.1719406
21
7.8138095
0
LINE
8
DEFAULT_255_2_778
10
145.0768732
20
145.9447573
11
140.1767732
21
145.9447573
0
LINE
8
DEFAULT_255_2_778
10
140.1767732
20
145.9447573
11
140.1767732
21
146.8136573
0
LINE
8
DEFAULT_255_2_778
10
140.1767732
20
146.8136573
11
69.9769732
21
146.8136573
0
LINE
8
DEFAULT_255_2_778
10
69.9769732
20
146.8136573
11
69.9756732
21
145.9450573
0
LINE
8
DEFAULT_255_2_778
10
69.9756732
20
145.9450573
11
145.0760732
21
145.9450573
0
LINE
8
DEFAULT_255_2_778
10
28.3770732
20
7.8137573
11
28.3770732
21
5.7063573
0
LINE
8
DEFAULT_255_2_778
10
28.3770732
20
5.7063573
11
28.3770732
21
7.8137573
0
LINE
8
DEFAULT_255_2_778
10
0.1769732
20
4.8138573
11
0.1769732
21
-0.1864427
0
LINE
8
DEFAULT_255_2_778
10
0.1769732
20
-0.1864427
11
1.9348732
21
-0.1864427
0
LINE
8
DEFAULT_255_2_778
10
1.9348732
20
-0.1864427
11
1.9348732
21
4.8138573
0
LINE
8
DEFAULT_255_2_778
10
33.1564732
20
146.8136573
11
32.8963732
21
146.8136573
0
LINE
8
DEFAULT_255_2_778
10
32.8963732
20
146.8136573
11
32.8963732
21
139.5103573
0
LINE
8
DEFAULT_255_2_778
10
32.8963732
20
139.5103573
11
19.2579732
21
139.5103573
0
LINE
8
DEFAULT_255_2_778
10
19.2579732
20
139.5103573
11
19.2579732
21
146.8136573
0
LINE
8
DEFAULT_255_2_778
10
19.2579732
20
146.8136573
11
18.8374732
21
146.8136573
0
LINE
8
DEFAULT_255_2_778
10
169.9770732
20
145.9447573
11
145.1770732
21
145.9447573
0
LINE
8
DEFAULT_255_2_778
10
145.1770732
20
145.9447573
11
145.1770732
21
146.8136573
0
LINE
8
DEFAULT_255_2_778
10
145.1770732
20
146.8136573
11
145.0770732
21
146.8136573
0
LINE
8
DEFAULT_255_2_778
10
69.8187809
20
14.7946095
11
69.8166809
21
146.8137095
0
LINE
8
DEFAULT_255_2_778
10
69.8166809
20
146.8137095
11
69.9772809
21
146.8137095
0
LINE
8
DEFAULT_255_2_778
10
69.9772809
20
146.8137095
11
69.9772809
21
145.9448095
0
LINE
8
DEFAULT_255_2_778
10
69.9772809
20
145.9448095
11
140.1772809
21
145.9448095
0
LINE
8
DEFAULT_255_2_778
10
140.1772809
20
145.9448095
11
140.1772809
21
136.8138095
0
LINE
8
DEFAULT_255_2_778
10
140.1772809
20
136.8138095
11
140.0772809
21
136.8138095
0
LINE
8
DEFAULT_255_2_778
10
140.0772809
20
136.8138095
11
140.0772809
21
4.8137095
0
LINE
8
DEFAULT_255_2_778
10
140.0772809
20
4.8137095
11
140.1981809
21
4.8147095
0
LINE
8
DEFAULT_255_2_778
10
69.9772809
20
145.9448095
11
69.9772809
21
7.8077095
0
LINE
8
DEFAULT_255_2_778
10
69.9772809
20
7.8077095
11
69.8187809
21
7.8077095
0
LINE
8
DEFAULT_255_2_778
10
145.1770809
20
145.9448095
11
145.1770809
21
136.5328095
0
LINE
8
DEFAULT_255_2_778
10
32.8961809
20
139.8231095
11
19.2576809
21
139.8231095
0
ARC
8
DEFAULT_255_2_778
10
54.5960527
20
121.9120628
40
0.5063184
50
70.8214845
51
89.8945412
0
ARC
8
DEFAULT_255_2_778
10
54.5955219
20
121.9158318
40
0.502936
50
32.2465875
51
70.6233068
0
ARC
8
DEFAULT_255_2_778
10
54.598472
20
121.9199931
40
0.4982242
50
12.6592845
51
32.0228775
0
ARC
8
DEFAULT_255_2_778
10
54.5875259
20
121.9183685
40
0.5092609
50
0.1700933
51
12.5677241
0
ARC
8
DEFAULT_255_2_778
10
15.3938653
20
121.9198296
40
0.4967806
50
176.7006938
51
179.9941504
0
ARC
8
DEFAULT_255_2_778
10
15.3981747
20
121.9198465
40
0.5010822
50
160.7582668
51
176.730976
0
ARC
8
DEFAULT_255_2_778
10
15.3910585
20
121.9212487
40
0.4939025
50
141.1180235
51
160.6397904
0
ARC
8
DEFAULT_255_2_778
10
15.4063721
20
121.9075297
40
0.5144361
50
122.2337847
51
140.9992092
0
ARC
8
DEFAULT_255_2_778
10
15.3991479
20
121.9119727
40
0.5068385
50
102.7158443
51
121.810876
0
ARC
8
DEFAULT_255_2_778
10
15.3972163
20
121.919891
40
0.4986892
50
90.0151221
51
102.6996094
0
ARC
8
DEFAULT_255_2_778
10
15.5558992
20
70.9623628
40
0.3839147
50
179.9526111
51
191.6435307
0
ARC
8
DEFAULT_255_2_778
10
15.5721285
20
70.9641463
40
0.3998198
50
202.664759
51
213.8772796
0
ARC
8
DEFAULT_255_2_778
10
15.5701141
20
70.9547129
40
0.3925095
50
224.4016437
51
235.7988671
0
ARC
8
DEFAULT_255_2_778
10
63.3255762
20
131.2523675
40
0.9964086
50
0.0237383
51
12.6797334
0
ARC
8
DEFAULT_255_2_778
10
63.3264676
20
131.2516898
40
0.9956881
50
12.7290424
51
32.105658
0
ARC
8
DEFAULT_255_2_778
10
63.3206335
20
131.2470551
40
1.0030937
50
32.1527926
51
51.3896599
0
ARC
8
DEFAULT_255_2_778
10
63.3195423
20
131.2424829
40
1.0073493
50
51.5034416
51
70.6759599
0
ARC
8
DEFAULT_255_2_778
10
63.3208489
20
131.2385377
40
1.0106431
50
70.819871
51
89.941279
0
ARC
8
DEFAULT_255_2_778
10
6.960839
20
21.662638
40
0.9889546
50
179.9569935
51
188.8974279
0
ARC
8
DEFAULT_255_2_778
10
6.9824845
20
21.6655232
40
1.010786
50
188.8692322
51
197.5947407
0
ARC
8
DEFAULT_255_2_778
10
6.9730949
20
21.6634056
40
1.0010641
50
206.4969698
51
215.2896723
0
ARC
8
DEFAULT_255_2_778
10
6.9664379
20
21.6562703
40
0.9910862
50
224.1225776
51
233.0070457
0
ARC
8
DEFAULT_255_2_778
10
6.9782535
20
21.6777368
40
1.0158234
50
241.9444935
51
250.686575
0
LINE
8
DEFAULT_255_2_778
10
23.0768847
20
141.8519803
11
21.0768847
21
141.8519803
0
LINE
8
DEFAULT_255_2_778
10
29.0770847
20
141.8519803
11
31.0770847
21
141.8519803
0
LINE
8
DEFAULT_255_2_778
10
169.9769847
20
136.8137803
11
145.1770847
21
136.8137803
0
LINE
8
DEFAULT_255_2_778
10
140.0769847
20
127.9137803
11
140.1769847
21
127.9137803
0
LINE
8
DEFAULT_255_2_778
10
140.4563847
20
4.8136803
11
141.0109847
21
4.8136803
0
LINE
8
DEFAULT_255_2_778
10
141.0109847
20
4.8136803
11
141.0109847
21
4.8178803
0
LINE
8
DEFAULT_255_2_778
10
2.0768847
20
4.8319803
11
2.0768847
21
4.8136803
0
LINE
8
DEFAULT_255_2_778
10
2.0768847
20
4.8136803
11
0.1909847
21
4.8136803
0
LINE
8
DEFAULT_255_2_778
10
139.0770847
20
5.1136803
11
140.0769847
21
5.1136803
0
LINE
8
DEFAULT_255_2_778
10
2.4158847
20
4.8147803
11
5.0825847
21
4.8136803
0
LINE
8
DEFAULT_255_2_778
10
5.0825847
20
4.8136803
11
5.0865847
21
4.9139803
0
LINE
8
DEFAULT_255_2_778
10
12.1969847
20
131.9951803
11
57.8169847
21
131.9951803
0
LINE
8
DEFAULT_255_2_778
10
145.0767847
20
140.3136803
11
145.1767847
21
140.3136803
0
LINE
8
DEFAULT_255_2_778
10
15.1798847
20
70.8848803
11
15.1896847
21
70.8470803
0
LINE
8
DEFAULT_255_2_778
10
15.1896847
20
70.8470803
11
15.2031847
21
70.8100803
0
LINE
8
DEFAULT_255_2_778
10
15.2401847
20
70.7412803
11
15.2634847
21
70.7094803
0
LINE
8
DEFAULT_255_2_778
10
15.2634847
20
70.7094803
11
15.2896847
21
70.6800803
0
LINE
8
DEFAULT_255_2_778
10
15.3494847
20
70.6300803
11
15.3833847
21
70.6097803
0
LINE
8
DEFAULT_255_2_778
10
15.3833847
20
70.6097803
11
15.4555847
21
70.5800803
0
LINE
8
DEFAULT_255_2_778
10
15.4555847
20
70.5800803
11
15.4939847
21
70.5705803
0
LINE
8
DEFAULT_255_2_778
10
15.4939847
20
70.5705803
11
15.5722847
21
70.5628803
0
LINE
8
DEFAULT_255_2_778
10
6.0189847
20
21.3599803
11
6.0453847
21
21.2868803
0
LINE
8
DEFAULT_255_2_778
10
6.0453847
20
21.2868803
11
6.0771847
21
21.2167803
0
LINE
8
DEFAULT_255_2_778
10
6.1559847
20
21.0850803
11
6.1789847
21
21.0537803
0
LINE
8
DEFAULT_255_2_778
10
6.1789847
20
21.0537803
11
6.2549847
21
20.9662803
0
LINE
8
DEFAULT_255_2_778
10
6.3700847
20
20.8646803
11
6.4335847
21
20.8204803
0
LINE
8
DEFAULT_255_2_778
10
6.4335847
20
20.8204803
11
6.5004847
21
20.7812803
0
LINE
8
DEFAULT_255_2_778
10
148.4769847
20
5.1409803
11
148.4769847
21
3.9812803
0
LINE
8
DEFAULT_255_2_778
10
148.4769847
20
3.9812803
11
166.6768847
21
3.9812803
0
LINE
8
DEFAULT_255_2_778
10
166.6768847
20
3.9812803
11
166.6768847
21
5.6433803
0
LINE
8
DEFAULT_255_2_778
10
11.1769847
20
3.9812803
11
11.1769847
21
3.7137803
0
LINE
8
DEFAULT_255_2_778
10
11.1769847
20
3.7137803
11
29.3768847
21
3.7137803
0
LINE
8
DEFAULT_255_2_778
10
29.3768847
20
3.7137803
11
29.3768847
21
3.9812803
0
LINE
8
DEFAULT_255_2_778
10
11.1769847
20
3.7135803
11
11.1769847
21
2.1135803
0
LINE
8
DEFAULT_255_2_778
10
11.1769847
20
2.1135803
11
29.3768847
21
2.1135803
0
LINE
8
DEFAULT_255_2_778
10
29.3768847
20
2.1135803
11
29.3768847
21
3.7135803
0
LINE
8
DEFAULT_255_2_778
10
19.5270226
20
3.7135451
11
19.5270226
21
3.3092451
0
LINE
8
DEFAULT_255_2_778
10
19.5270226
20
3.3092451
11
21.0269226
21
3.3092451
0
LINE
8
DEFAULT_255_2_778
10
21.0269226
20
3.3092451
11
21.0269226
21
3.7135451
0
LINE
8
DEFAULT_255_2_778
10
69.9770226
20
131.8136451
11
69.8169226
21
131.8136451
0
LINE
8
DEFAULT_255_2_778
10
69.9770226
20
134.5137451
11
69.8169226
21
134.5137451
0
LINE
8
DEFAULT_255_2_778
10
69.9770226
20
19.1636451
11
69.8169226
21
19.1636451
0
LINE
8
DEFAULT_255_2_778
10
69.9770426
20
19.4544096
11
69.8169426
21
19.4544096
0
LINE
8
DEFAULT_255_2_778
10
69.9770426
20
18.0137096
11
69.8169426
21
18.0137096
0
LINE
8
DEFAULT_255_2_778
10
140.0770426
20
19.3978096
11
140.1770426
21
19.3978096
0
LINE
8
DEFAULT_255_2_778
10
140.0770426
20
20.4016096
11
140.1770426
21
20.4016096
0
LINE
8
DEFAULT_255_2_778
10
140.0770426
20
11.8138096
11
140.1770426
21
11.8138096
0
LINE
8
DEFAULT_255_2_778
10
140.0769938
20
13.8137478
11
140.1769938
21
13.8137478
0
LINE
8
DEFAULT_255_2_778
10
140.0769938
20
19.0678478
11
140.1769938
21
19.0678478
0
LINE
8
DEFAULT_255_2_778
10
140.0769938
20
19.0096842
11
140.1769938
21
19.0096842
0
LINE
8
DEFAULT_255_2_778
10
140.0769938
20
18.0722842
11
140.1769938
21
18.0722842
0
LINE
8
DEFAULT_255_2_778
10
140.1769938
20
18.0137842
11
140.0769938
21
18.0137842
0
LINE
8
DEFAULT_255_2_778
10
140.0769938
20
6.8136842
11
140.1769938
21
6.8136842
0
ARC
8
DEFAULT_255_2_778
10
63.3217009
20
131.304025
40
1.0094543
50
78.8659043
51
89.9868564
0
ARC
8
DEFAULT_255_2_778
10
63.3198709
20
131.304331
40
1.0096915
50
56.5288832
51
67.606256
0
ARC
8
DEFAULT_255_2_778
10
63.3261085
20
131.3155931
40
0.9968211
50
33.9771869
51
45.1894874
0
ARC
8
DEFAULT_255_2_778
10
63.3343726
20
131.3197038
40
0.9874601
50
0.0043785
51
11.3761311
0
ARC
8
DEFAULT_255_2_778
10
63.3282841
20
21.3635604
40
0.9935486
50
348.6588844
51
359.9607217
0
ARC
8
DEFAULT_255_2_778
10
63.3326175
20
21.3579766
40
0.9882392
50
326.1899435
51
337.530464
0
ARC
8
DEFAULT_255_2_778
10
63.3198212
20
21.3644254
40
1.0023647
50
303.861942
51
315.0430499
0
ARC
8
DEFAULT_255_2_778
10
63.3226111
20
21.3539134
40
0.9909344
50
269.9607609
51
281.3561142
0
ARC
8
DEFAULT_255_2_778
10
6.6736342
20
21.3667749
40
1.0037969
50
258.7167838
51
269.9085713
0
ARC
8
DEFAULT_255_2_778
10
6.6775124
20
21.3724153
40
1.0107104
50
236.3277312
51
247.4203414
0
ARC
8
DEFAULT_255_2_778
10
6.6766207
20
21.3676945
40
1.0062861
50
213.8838178
51
225.0212158
0
ARC
8
DEFAULT_255_2_778
10
6.6690464
20
21.3625934
40
0.9969141
50
179.9663267
51
191.2925354
0
ARC
8
DEFAULT_255_2_778
10
6.6547869
20
131.3198795
40
0.9826545
50
168.6255244
51
179.9766911
0
ARC
8
DEFAULT_255_2_778
10
6.6740691
20
131.3123752
40
1.0039601
50
146.1652795
51
157.2771218
0
ARC
8
DEFAULT_255_2_778
10
6.6746606
20
131.3077808
40
1.007156
50
123.7214274
51
134.8201751
0
ARC
8
DEFAULT_255_2_778
10
6.6714459
20
131.3165759
40
0.9969035
50
89.9662907
51
101.29262
0
LINE
8
DEFAULT_255_2_778
10
140.0770325
20
7.8135793
11
140.1770325
21
7.8135793
0
LINE
8
DEFAULT_255_2_778
10
140.0770325
20
14.8136793
11
69.9770325
21
14.8136793
0
LINE
8
DEFAULT_255_2_778
10
69.9770325
20
14.8136793
11
69.9770325
21
7.8135793
0
LINE
8
DEFAULT_255_2_778
10
69.9770325
20
7.8135793
11
139.0769325
21
7.8135793
0
LINE
8
DEFAULT_255_2_778
10
63.3219325
20
132.3134793
11
63.3219325
21
132.2491793
0
LINE
8
DEFAULT_255_2_778
10
63.3219325
20
132.2491793
11
6.6720325
21
132.2491793
0
LINE
8
DEFAULT_255_2_778
10
6.6720325
20
132.2491793
11
6.6720325
21
132.3134793
0
LINE
8
DEFAULT_255_2_778
10
6.6720325
20
132.3134793
11
63.3219325
21
132.3134793
0
LINE
8
DEFAULT_255_2_778
10
63.5166325
20
132.2944793
11
63.6116325
21
132.2708793
0
LINE
8
DEFAULT_255_2_778
10
63.6116325
20
132.2708793
11
63.7045325
21
132.2378793
0
LINE
8
DEFAULT_255_2_778
10
63.8767325
20
132.1465793
11
63.9169325
21
132.1184793
0
LINE
8
DEFAULT_255_2_778
10
63.9169325
20
132.1184793
11
63.9558325
21
132.0883793
0
LINE
8
DEFAULT_255_2_778
10
63.9558325
20
132.0883793
11
64.0286325
21
132.0227793
0
LINE
8
DEFAULT_255_2_778
10
64.1527325
20
131.8726793
11
64.1791325
21
131.8311793
0
LINE
8
DEFAULT_255_2_778
10
64.1791325
20
131.8311793
11
64.2035325
21
131.7885793
0
LINE
8
DEFAULT_255_2_778
10
64.2035325
20
131.7885793
11
64.2453325
21
131.7007793
0
LINE
8
DEFAULT_255_2_778
10
64.2453325
20
131.7007793
11
64.2784325
21
131.6094793
0
LINE
8
DEFAULT_255_2_778
10
64.2784325
20
131.6094793
11
64.2916325
21
131.5623793
0
LINE
8
DEFAULT_255_2_778
10
64.2916325
20
131.5623793
11
64.3024325
21
131.5144793
0
LINE
8
DEFAULT_255_2_778
10
64.3218325
20
131.3197793
11
64.3218325
21
21.3628793
0
LINE
8
DEFAULT_255_2_778
10
64.3024325
20
21.1681793
11
64.2789325
21
21.0731793
0
LINE
8
DEFAULT_255_2_778
10
64.2789325
20
21.0731793
11
64.2635325
21
21.0263793
0
LINE
8
DEFAULT_255_2_778
10
64.2635325
20
21.0263793
11
64.2458325
21
20.9802793
0
LINE
8
DEFAULT_255_2_778
10
64.1537325
20
20.8080793
11
64.1254325
21
20.7678793
0
LINE
8
DEFAULT_255_2_778
10
64.1254325
20
20.7678793
11
64.0950325
21
20.7289793
0
LINE
8
DEFAULT_255_2_778
10
64.0950325
20
20.7289793
11
64.0291325
21
20.6561793
0
LINE
8
DEFAULT_255_2_778
10
63.8783325
20
20.5320793
11
63.8365325
21
20.5056793
0
LINE
8
DEFAULT_255_2_778
10
63.8365325
20
20.5056793
11
63.7936325
21
20.4812793
0
LINE
8
DEFAULT_255_2_778
10
63.7936325
20
20.4812793
11
63.7053325
21
20.4394793
0
LINE
8
DEFAULT_255_2_778
10
63.7053325
20
20.4394793
11
63.5658325
21
20.3931793
0
LINE
8
DEFAULT_255_2_778
10
63.5658325
20
20.3931793
11
63.5177325
21
20.3823793
0
LINE
8
DEFAULT_255_2_778
10
63.3219325
20
20.3629793
11
6.6720325
21
20.3629793
0
LINE
8
DEFAULT_255_2_778
10
6.4772325
20
20.3823793
11
6.3822325
21
20.4061793
0
LINE
8
DEFAULT_255_2_778
10
6.3822325
20
20.4061793
11
6.2894325
21
20.4391793
0
LINE
8
DEFAULT_255_2_778
10
6.1171325
20
20.5312793
11
6.0769325
21
20.5595793
0
LINE
8
DEFAULT_255_2_778
10
6.0769325
20
20.5595793
11
6.0380325
21
20.5900793
0
LINE
8
DEFAULT_255_2_778
10
6.0380325
20
20.5900793
11
5.9653325
21
20.6558793
0
LINE
8
DEFAULT_255_2_778
10
5.8412325
20
20.8066793
11
5.8147325
21
20.8485793
0
LINE
8
DEFAULT_255_2_778
10
5.8147325
20
20.8485793
11
5.7904325
21
20.8913793
0
LINE
8
DEFAULT_255_2_778
10
5.7904325
20
20.8913793
11
5.7486325
21
20.9797793
0
LINE
8
DEFAULT_255_2_778
10
5.7486325
20
20.9797793
11
5.7155325
21
21.0718793
0
LINE
8
DEFAULT_255_2_778
10
5.7155325
20
21.0718793
11
5.7023325
21
21.1191793
0
LINE
8
DEFAULT_255_2_778
10
5.7023325
20
21.1191793
11
5.6914325
21
21.1673793
0
LINE
8
DEFAULT_255_2_778
10
5.6721325
20
21.3631793
11
5.6721325
21
131.3202793
0
LINE
8
DEFAULT_255_2_778
10
5.6914325
20
131.5136793
11
5.7150325
21
131.6081793
0
LINE
8
DEFAULT_255_2_778
10
5.7150325
20
131.6081793
11
5.7303325
21
131.6546793
0
LINE
8
DEFAULT_255_2_778
10
5.7303325
20
131.6546793
11
5.7480325
21
131.7001793
0
LINE
8
DEFAULT_255_2_778
10
5.8401325
20
131.8713793
11
5.8684325
21
131.9113793
0
LINE
8
DEFAULT_255_2_778
10
5.8684325
20
131.9113793
11
5.8988325
21
131.9499793
0
LINE
8
DEFAULT_255_2_778
10
5.8988325
20
131.9499793
11
5.9647325
21
132.0221793
0
LINE
8
DEFAULT_255_2_778
10
6.1155325
20
132.1454793
11
6.1573325
21
132.1716793
0
LINE
8
DEFAULT_255_2_778
10
6.1573325
20
132.1716793
11
6.2002325
21
132.1957793
0
LINE
8
DEFAULT_255_2_778
10
6.2002325
20
132.1957793
11
6.2886325
21
132.2372793
0
LINE
8
DEFAULT_255_2_778
10
6.2886325
20
132.2372793
11
6.4280325
21
132.2833793
0
LINE
8
DEFAULT_255_2_778
10
6.4280325
20
132.2833793
11
6.4762325
21
132.2941793
0
LINE
8
DEFAULT_255_2_778
10
29.3878325
20
5.7050793
11
29.3878325
21
5.6436793
0
LINE
8
DEFAULT_255_2_778
10
29.3878325
20
5.6436793
11
30.8771325
21
5.6436793
0
LINE
8
DEFAULT_255_2_778
10
30.8771325
20
5.6436793
11
30.8771325
21
5.8611793
0
LINE
8
DEFAULT_255_2_778
10
30.8771325
20
5.8611793
11
29.3878325
21
5.8611793
0
LINE
8
DEFAULT_255_2_778
10
29.3878325
20
5.8611793
11
29.3878325
21
5.7061793
0
LINE
8
DEFAULT_255_2_778
10
29.3878325
20
5.7061793
11
28.3948325
21
5.7061793
0
LINE
8
DEFAULT_255_2_778
10
28.3948325
20
5.7061793
11
29.3878325
21
5.7061793
0
LINE
8
DEFAULT_255_2_778
10
170.0770325
20
146.3136793
11
169.9770325
21
146.3136793
0
LINE
8
DEFAULT_255_2_778
10
169.9770325
20
140.3136793
11
170.0770325
21
140.3136793
0
ARC
8
DEFAULT_255_2_778
10
63.0240197
20
21.6569712
40
0.9931685
50
289.255618
51
298.1481477
0
ARC
8
DEFAULT_255_2_778
10
63.0119405
20
21.6800444
40
1.0192114
50
298.1349799
51
306.7844091
0
ARC
8
DEFAULT_255_2_778
10
63.0134334
20
21.6703317
40
1.0106177
50
315.8157808
51
324.5348718
0
ARC
8
DEFAULT_255_2_778
10
63.0098867
20
21.6692539
40
1.0130804
50
333.4522275
51
342.1408207
0
ARC
8
DEFAULT_255_2_778
10
63.0260996
20
21.6626184
40
0.9953507
50
351.1312626
51
0.0429132
0
LINE
8
DEFAULT_255_2_778
10
169.97705
20
136.5327639
11
169.97705
21
146.8136639
0
LINE
8
DEFAULT_255_2_778
10
169.97705
20
146.8136639
11
170.07705
21
146.8136639
0
LINE
8
DEFAULT_255_2_778
10
25.07695
20
141.8519639
11
27.07695
21
141.8519639
0
LINE
8
DEFAULT_255_2_778
10
27.07695
20
141.8519639
11
27.07695
21
141.8135639
0
LINE
8
DEFAULT_255_2_778
10
27.07695
20
141.8135639
11
25.07695
21
141.8135639
0
LINE
8
DEFAULT_255_2_778
10
25.07695
20
141.8135639
11
25.07695
21
143.8521639
0
LINE
8
DEFAULT_255_2_778
10
25.07695
20
143.8521639
11
27.07695
21
143.8521639
0
LINE
8
DEFAULT_255_2_778
10
27.07695
20
143.8521639
11
27.07695
21
141.8519639
0
LINE
8
DEFAULT_255_2_778
10
23.07695
20
141.8135639
11
21.07695
21
141.8135639
0
LINE
8
DEFAULT_255_2_778
10
21.07695
20
141.8135639
11
21.07695
21
143.8521639
0
LINE
8
DEFAULT_255_2_778
10
21.07695
20
143.8521639
11
23.07695
21
143.8521639
0
LINE
8
DEFAULT_255_2_778
10
23.07695
20
143.8521639
11
23.07695
21
141.8135639
0
LINE
8
DEFAULT_255_2_778
10
63.62225
20
20.8637639
11
63.68225
21
20.9127639
0
LINE
8
DEFAULT_255_2_778
10
63.68225
20
20.9127639
11
63.73815
21
20.9659639
0
LINE
8
DEFAULT_255_2_778
10
63.83655
20
21.0839639
11
63.85845
21
21.1159639
0
LINE
8
DEFAULT_255_2_778
10
63.85845
20
21.1159639
11
63.87915
21
21.1487639
0
LINE
8
DEFAULT_255_2_778
10
63.87915
20
21.1487639
11
63.91615
21
21.2164639
0
LINE
8
DEFAULT_255_2_778
10
63.97415
20
21.3585639
11
63.99475
21
21.4329639
0
LINE
8
DEFAULT_255_2_778
10
63.99475
20
21.4329639
11
64.00955
21
21.5091639
0
ARC
8
DEFAULT_255_2_778
10
63.0329387
20
21.5949423
40
0.9891194
50
347.2472181
51
359.9975114
0
ARC
8
DEFAULT_255_2_778
10
63.0305275
20
21.5943039
40
0.9913309
50
327.85136
51
347.3139691
0
ARC
8
DEFAULT_255_2_778
10
63.0131365
20
21.6069812
40
1.0128022
50
308.7126461
51
327.767665
0
ARC
8
DEFAULT_255_2_778
10
63.0190636
20
21.60571
40
1.0081107
50
289.3421204
51
308.4949764
0
ARC
8
DEFAULT_255_2_778
10
6.6723943
20
131.2464695
40
1.0029299
50
90.0192035
51
102.6382723
0
ARC
8
DEFAULT_255_2_778
10
6.6763548
20
131.2362064
40
1.0138123
50
102.7297723
51
121.8041499
0
ARC
8
DEFAULT_255_2_778
10
6.6731106
20
131.2466023
40
1.0032712
50
121.9595892
51
141.1968211
0
ARC
8
DEFAULT_255_2_778
10
6.672225
20
131.2495081
40
1.0007617
50
141.2946941
51
160.5528209
0
ARC
8
DEFAULT_255_2_778
10
6.6720213
20
131.2516329
40
0.9998639
50
160.6637458
51
179.9388887
0
ARC
8
DEFAULT_255_2_778
10
54.5969068
20
121.9893949
40
0.5056044
50
78.875593
51
89.982855
0
ARC
8
DEFAULT_255_2_778
10
54.5936697
20
121.9870096
40
0.5090653
50
56.538258
51
67.5514566
0
ARC
8
DEFAULT_255_2_778
10
54.590743
20
121.9891108
40
0.5092616
50
34.0968292
51
45.093354
0
ARC
8
DEFAULT_255_2_778
10
54.6073743
20
121.9987764
40
0.4897692
50
11.3542322
51
17.1135912
0
ARC
8
DEFAULT_255_2_778
10
54.6085333
20
121.9978087
40
0.4888248
50
0.0106197
51
11.4921783
0
ARC
8
DEFAULT_255_2_778
10
54.6397831
20
70.7828173
40
0.4575774
50
359.9999804
51
0.1855783
0
ARC
8
DEFAULT_255_2_778
10
54.612807
20
70.7828184
40
0.4845533
50
358.7290987
51
359.9998469
0
ARC
8
DEFAULT_255_2_778
10
54.607686
20
70.7830132
40
0.4896774
50
348.6924236
51
358.7195999
0
ARC
8
DEFAULT_255_2_778
10
54.5972224
20
70.7851324
40
0.5002768
50
326.2645811
51
337.4522164
0
ARC
8
DEFAULT_255_2_778
10
54.59488
20
70.7882201
40
0.503813
50
303.8286194
51
314.940276
0
ARC
8
DEFAULT_255_2_778
10
54.5962044
20
70.7877268
40
0.5024282
50
270.0973503
51
281.3354479
0
ARC
8
DEFAULT_255_2_778
10
15.3969888
20
70.781472
40
0.4961727
50
258.7108851
51
270.0195524
0
ARC
8
DEFAULT_255_2_778
10
15.3991076
20
70.7884316
40
0.5034725
50
236.3135998
51
247.4656428
0
ARC
8
DEFAULT_255_2_778
10
15.4118133
20
70.7987109
40
0.5194884
50
214.1221318
51
224.9186094
0
ARC
8
DEFAULT_255_2_778
10
15.3923826
20
70.7852576
40
0.4952296
50
191.420365
51
197.1049417
0
ARC
8
DEFAULT_255_2_778
10
15.3927389
20
70.785268
40
0.4955809
50
180.0195018
51
191.4133833
0
ARC
8
DEFAULT_255_2_778
10
15.3889503
20
121.9985008
40
0.4917926
50
168.7197562
51
180.0700699
0
ARC
8
DEFAULT_255_2_778
10
15.3945705
20
121.996556
40
0.4975742
50
146.1660476
51
157.3840486
0
ARC
8
DEFAULT_255_2_778
10
15.3868077
20
122.0067776
40
0.4847724
50
123.5263363
51
135.0608267
0
ARC
8
DEFAULT_255_2_778
10
15.3972866
20
121.9925602
40
0.5022391
50
89.9804378
51
101.2205189
0
LINE
8
DEFAULT_255_2_778
10
63.3529581
20
20.6544993
11
63.3515581
21
20.6539993
0
LINE
8
DEFAULT_255_2_778
10
29.0771581
20
143.8521993
11
31.0771581
21
143.8521993
0
LINE
8
DEFAULT_255_2_778
10
31.0771581
20
143.8521993
11
31.0771581
21
141.8135993
0
LINE
8
DEFAULT_255_2_778
10
31.0771581
20
141.8135993
11
29.0771581
21
141.8135993
0
LINE
8
DEFAULT_255_2_778
10
29.0771581
20
141.8135993
11
29.0771581
21
143.8521993
0
LINE
8
DEFAULT_255_2_778
10
16.3203581
20
125.9742993
11
33.6203581
21
125.9742993
0
LINE
8
DEFAULT_255_2_778
10
33.6203581
20
125.9742993
11
33.6203581
21
130.5743993
0
LINE
8
DEFAULT_255_2_778
10
33.6203581
20
130.5743993
11
16.3203581
21
130.5743993
0
LINE
8
DEFAULT_255_2_778
10
16.3203581
20
130.5743993
11
16.3203581
21
125.9742993
0
LINE
8
DEFAULT_255_2_778
10
54.6944581
20
122.4854993
11
54.7417581
21
122.4738993
0
LINE
8
DEFAULT_255_2_778
10
54.7417581
20
122.4738993
11
54.7880581
21
122.4574993
0
LINE
8
DEFAULT_255_2_778
10
54.8743581
20
122.4116993
11
54.9140581
21
122.3825993
0
LINE
8
DEFAULT_255_2_778
10
54.9140581
20
122.3825993
11
54.9502581
21
122.3497993
0
LINE
8
DEFAULT_255_2_778
10
55.0124581
20
122.2745993
11
55.0378581
21
122.2325993
0
LINE
8
DEFAULT_255_2_778
10
55.0378581
20
122.2325993
11
55.0587581
21
122.1885993
0
LINE
8
DEFAULT_255_2_778
10
55.0587581
20
122.1885993
11
55.0754581
21
122.1428993
0
LINE
8
DEFAULT_255_2_778
10
55.0973581
20
121.9978993
11
55.0973581
21
70.7842993
0
LINE
8
DEFAULT_255_2_778
10
55.0878581
20
70.6869993
11
55.0759581
21
70.6395993
0
LINE
8
DEFAULT_255_2_778
10
55.0759581
20
70.6395993
11
55.0592581
21
70.5932993
0
LINE
8
DEFAULT_255_2_778
10
55.0132581
20
70.5072993
11
54.9838581
21
70.4678993
0
LINE
8
DEFAULT_255_2_778
10
54.9838581
20
70.4678993
11
54.9507581
21
70.4315993
0
LINE
8
DEFAULT_255_2_778
10
54.8753581
20
70.3696993
11
54.8330581
21
70.3442993
0
LINE
8
DEFAULT_255_2_778
10
54.8330581
20
70.3442993
11
54.7428581
21
70.3069993
0
LINE
8
DEFAULT_255_2_778
10
54.7428581
20
70.3069993
11
54.6949581
21
70.2950993
0
LINE
8
DEFAULT_255_2_778
10
54.5970581
20
70.2852993
11
15.3971581
21
70.2852993
0
LINE
8
DEFAULT_255_2_778
10
15.2998581
20
70.2948993
11
15.2524581
21
70.3067993
0
LINE
8
DEFAULT_255_2_778
10
15.2524581
20
70.3067993
11
15.2061581
21
70.3233993
0
LINE
8
DEFAULT_255_2_778
10
15.1198581
20
70.3694993
11
15.0802581
21
70.3987993
0
LINE
8
DEFAULT_255_2_778
10
15.0802581
20
70.3987993
11
15.0439581
21
70.4318993
0
LINE
8
DEFAULT_255_2_778
10
14.9817581
20
70.5072993
11
14.9563581
21
70.5493993
0
LINE
8
DEFAULT_255_2_778
10
14.9563581
20
70.5493993
11
14.9354581
21
70.5935993
0
LINE
8
DEFAULT_255_2_778
10
14.9354581
20
70.5935993
11
14.9190581
21
70.6395993
0
LINE
8
DEFAULT_255_2_778
10
14.8971581
20
70.7850993
11
14.8971581
21
121.9978993
0
LINE
8
DEFAULT_255_2_778
10
14.9066581
20
122.0946993
11
14.9185581
21
122.1417993
0
LINE
8
DEFAULT_255_2_778
10
14.9185581
20
122.1417993
11
14.9352581
21
122.1878993
0
LINE
8
DEFAULT_255_2_778
10
14.9812581
20
122.2735993
11
15.0106581
21
122.3129993
0
LINE
8
DEFAULT_255_2_778
10
15.0106581
20
122.3129993
11
15.0436581
21
122.3491993
0
LINE
8
DEFAULT_255_2_778
10
15.1190581
20
122.4108993
11
15.1614581
21
122.4359993
0
LINE
8
DEFAULT_255_2_778
10
15.1614581
20
122.4359993
11
15.2516581
21
122.4732993
0
LINE
8
DEFAULT_255_2_778
10
15.2516581
20
122.4732993
11
15.2995581
21
122.4851993
0
LINE
8
DEFAULT_255_2_778
10
15.3974581
20
122.4947993
11
54.5973581
21
122.4947993
0
LINE
8
DEFAULT_255_2_778
10
54.5973581
20
122.4947993
11
54.5973581
21
122.4179993
0
LINE
8
DEFAULT_255_2_778
10
54.5973581
20
122.4179993
11
15.3971581
21
122.4179993
0
LINE
8
DEFAULT_255_2_778
10
15.3971581
20
122.4179993
11
15.3971581
21
122.4947993
0
ARC
8
DEFAULT_255_2_778
10
54.4302875
20
70.8192106
40
0.3917442
50
341.1418917
51
353.8862574
0
ARC
8
DEFAULT_255_2_778
10
54.4362262
20
121.8071967
40
0.3859775
50
0.0285244
51
11.6122137
0
ARC
8
DEFAULT_255_2_778
10
54.4046414
20
121.7986315
40
0.4190872
50
22.6154186
51
33.2785621
0
ARC
8
DEFAULT_255_2_778
10
54.4260851
20
121.8085835
40
0.3962103
50
45.1520324
51
56.4244402
0
ARC
8
DEFAULT_255_2_778
10
54.4222813
20
121.8102216
40
0.3961675
50
78.538477
51
89.9389147
0
ARC
8
DEFAULT_255_2_778
10
15.5720162
20
121.8073471
40
0.3990417
50
90.0018007
51
101.2739164
0
ARC
8
DEFAULT_255_2_778
10
15.5782043
20
121.7901812
40
0.4175164
50
112.4738572
51
123.2137825
0
ARC
8
DEFAULT_255_2_778
10
15.5605748
20
121.8179419
40
0.3846082
50
134.9814766
51
146.5950794
0
ARC
8
DEFAULT_255_2_778
10
15.5661746
20
121.807767
40
0.3941711
50
168.5093772
51
179.9386781
0
ARC
8
DEFAULT_255_2_778
10
15.5792058
20
70.825742
40
0.4072223
50
180.570288
51
230.5953134
0
ARC
8
DEFAULT_255_2_778
10
15.56408
20
70.8065707
40
0.3828074
50
230.5231086
51
249.2515574
0
ARC
8
DEFAULT_255_2_778
10
15.5720455
20
70.828894
40
0.406505
50
249.316313
51
269.9940986
0
LINE
8
DEFAULT_255_2_778
10
54.4221037
20
70.4215889
11
54.4954037
21
70.4284889
0
LINE
8
DEFAULT_255_2_778
10
54.4954037
20
70.4284889
11
54.5655037
21
70.4482889
0
LINE
8
DEFAULT_255_2_778
10
54.5655037
20
70.4482889
11
54.6288037
21
70.4792889
0
LINE
8
DEFAULT_255_2_778
10
54.6288037
20
70.4792889
11
54.6828037
21
70.5181889
0
LINE
8
DEFAULT_255_2_778
10
54.6828037
20
70.5181889
11
54.7259037
21
70.5612889
0
LINE
8
DEFAULT_255_2_778
10
54.7259037
20
70.5612889
11
54.7590037
21
70.6054889
0
LINE
8
DEFAULT_255_2_778
10
54.7590037
20
70.6054889
11
54.7836037
21
70.6493889
0
LINE
8
DEFAULT_255_2_778
10
54.7836037
20
70.6493889
11
54.8010037
21
70.6925889
0
LINE
8
DEFAULT_255_2_778
10
54.8198037
20
70.7774889
11
54.8222037
21
70.8208889
0
LINE
8
DEFAULT_255_2_778
10
54.8222037
20
70.8208889
11
54.8222037
21
121.8073889
0
LINE
8
DEFAULT_255_2_778
10
54.8143037
20
121.8848889
11
54.8047037
21
121.9227889
0
LINE
8
DEFAULT_255_2_778
10
54.8047037
20
121.9227889
11
54.7915037
21
121.9597889
0
LINE
8
DEFAULT_255_2_778
10
54.7550037
20
122.0285889
11
54.7317037
21
122.0603889
0
LINE
8
DEFAULT_255_2_778
10
54.7317037
20
122.0603889
11
54.7055037
21
122.0894889
0
LINE
8
DEFAULT_255_2_778
10
54.6452037
20
122.1386889
11
54.6113037
21
122.1587889
0
LINE
8
DEFAULT_255_2_778
10
54.6113037
20
122.1587889
11
54.5391037
21
122.1886889
0
LINE
8
DEFAULT_255_2_778
10
54.5391037
20
122.1886889
11
54.5010037
21
122.1984889
0
LINE
8
DEFAULT_255_2_778
10
54.4227037
20
122.2063889
11
15.5720037
21
122.2063889
0
LINE
8
DEFAULT_255_2_778
10
15.4940037
20
122.1986889
11
15.4559037
21
122.1891889
0
LINE
8
DEFAULT_255_2_778
10
15.4559037
20
122.1891889
11
15.4186037
21
122.1759889
0
LINE
8
DEFAULT_255_2_778
10
15.3495037
20
122.1394889
11
15.3178037
21
122.1161889
0
LINE
8
DEFAULT_255_2_778
10
15.3178037
20
122.1161889
11
15.2887037
21
122.0899889
0
LINE
8
DEFAULT_255_2_778
10
15.2395037
20
122.0296889
11
15.2194037
21
121.9960889
0
LINE
8
DEFAULT_255_2_778
10
15.2194037
20
121.9960889
11
15.2027037
21
121.9608889
0
LINE
8
DEFAULT_255_2_778
10
15.2027037
20
121.9608889
11
15.1895037
21
121.9243889
0
LINE
8
DEFAULT_255_2_778
10
15.1895037
20
121.9243889
11
15.1799037
21
121.8862889
0
LINE
8
DEFAULT_255_2_778
10
15.1720037
20
121.8081889
11
15.1720037
21
70.8216889
0
ARC
8
DEFAULT_255_2_778
10
54.4114805
20
70.963562
40
0.4107765
50
348.888139
51
359.879076
0
ARC
8
DEFAULT_255_2_778
10
54.4239959
20
70.96238
40
0.3983463
50
314.8754382
51
326.1330303
0
ARC
8
DEFAULT_255_2_778
10
54.4263533
20
70.9560629
40
0.3916215
50
292.3632114
51
303.790407
0
ARC
8
DEFAULT_255_2_778
10
26.2388266
20
6.6746056
40
1.1882302
50
320.9129595
51
0.0573536
0
ARC
8
DEFAULT_255_2_778
10
26.1893494
20
6.7156262
40
1.2524976
50
279.7511612
51
320.8834845
0
ARC
8
DEFAULT_255_2_778
10
26.177833
20
6.7654679
40
1.3035729
50
269.9702508
51
279.8789896
0
ARC
8
DEFAULT_255_2_778
10
26.1734119
20
6.7380795
40
1.27619
50
240.4618073
51
270.1681052
0
ARC
8
DEFAULT_255_2_778
10
26.1324106
20
6.67971
40
1.2052128
50
180.9337029
51
240.7896396
0
ARC
8
DEFAULT_255_2_778
10
26.1422954
20
6.6757831
40
1.2150391
50
179.9994376
51
180.7409539
0
LINE
8
DEFAULT_255_2_778
10
54.8145562
20
70.884395
11
54.8050562
21
70.846295
0
LINE
8
DEFAULT_255_2_778
10
54.8050562
20
70.846295
11
54.7917562
21
70.809495
0
LINE
8
DEFAULT_255_2_778
10
54.7917562
20
70.809495
11
54.7751562
21
70.774295
0
LINE
8
DEFAULT_255_2_778
10
54.7751562
20
70.774295
11
54.7547562
21
70.740395
0
LINE
8
DEFAULT_255_2_778
10
54.7050562
20
70.680095
11
54.6759562
21
70.653895
0
LINE
8
DEFAULT_255_2_778
10
54.6759562
20
70.653895
11
54.6441562
21
70.630595
0
LINE
8
DEFAULT_255_2_778
10
54.5753562
20
70.593895
11
54.5380562
21
70.580595
0
LINE
8
DEFAULT_255_2_778
10
54.5380562
20
70.580595
11
54.4999562
21
70.571095
0
LINE
8
DEFAULT_255_2_778
10
54.4999562
20
70.571095
11
54.4221562
21
70.563395
0
LINE
8
DEFAULT_255_2_778
10
54.4221562
20
70.563395
11
15.5720562
21
70.563395
0
LINE
8
DEFAULT_255_2_778
10
15.5720562
20
70.563395
11
15.5720562
21
70.421595
0
LINE
8
DEFAULT_255_2_778
10
15.5720562
20
70.421595
11
54.4221562
21
70.421595
0
LINE
8
DEFAULT_255_2_778
10
54.4221562
20
70.421595
11
54.4221562
21
70.563395
0
LINE
8
DEFAULT_255_2_778
10
69.8021562
20
139.041295
11
0.1836562
21
139.041295
0
LINE
8
DEFAULT_255_2_778
10
27.4270562
20
6.675795
11
27.4270562
21
6.675795
0
ARC
8
DEFAULT_255_2_778
10
26.203217
20
6.6572576
40
1.2237938
50
325.6923199
51
0.1149315
0
ARC
8
DEFAULT_255_2_778
10
26.1839723
20
6.6716851
40
1.2478228
50
278.1621626
51
325.6431711
0
ARC
8
DEFAULT_255_2_778
10
26.1775672
20
6.7072363
40
1.2839238
50
269.9795238
51
278.219855
0
ARC
8
DEFAULT_255_2_778
10
26.1738442
20
6.6806621
40
1.2573538
50
238.5825175
51
270.1487436
0
ARC
8
DEFAULT_255_2_778
10
26.1584263
20
6.659528
40
1.2312832
50
184.805277
51
238.6821437
0
ARC
8
DEFAULT_255_2_778
10
26.1779325
20
6.6595562
40
1.2507241
50
179.9928426
51
184.7317101
0
LINE
8
DEFAULT_255_2_778
10
27.4270084
20
7.8077125
11
27.4270084
21
6.6597125
0
LINE
8
DEFAULT_255_2_778
10
27.4270084
20
6.6597125
11
27.4270084
21
6.6597125
0
LINE
8
DEFAULT_255_2_778
10
24.9272084
20
6.6597125
11
24.9272084
21
7.7492125
0
LINE
8
DEFAULT_255_2_778
10
25.9823865
20
7.4105031
11
25.7857865
21
7.2613031
0
LINE
8
DEFAULT_255_2_778
10
25.7857865
20
7.2613031
11
25.7857865
21
7.2229031
0
LINE
8
DEFAULT_255_2_778
10
25.7857865
20
7.2229031
11
26.0016865
21
7.3867031
0
LINE
8
DEFAULT_255_2_778
10
26.0016865
20
7.3867031
11
25.6973865
21
7.7648031
0
LINE
8
DEFAULT_255_2_778
10
26.1987865
20
7.5746031
11
26.0458865
21
7.7648031
0
LINE
8
DEFAULT_255_2_778
10
26.7104865
20
7.7648031
11
27.1501865
21
7.2182031
0
LINE
8
DEFAULT_255_2_778
10
27.1501865
20
7.2182031
11
27.1501865
21
7.1798031
0
LINE
8
DEFAULT_255_2_778
10
27.1501865
20
7.1798031
11
26.9530865
21
7.0303031
0
LINE
8
DEFAULT_255_2_778
10
26.9530865
20
7.0303031
11
26.5683865
21
7.5087031
0
LINE
8
DEFAULT_255_2_778
10
26.5683865
20
7.5087031
11
26.3524865
21
7.3449031
0
LINE
8
DEFAULT_255_2_778
10
26.3524865
20
7.3449031
11
26.6884865
21
6.9274031
0
LINE
8
DEFAULT_255_2_778
10
26.6884865
20
6.9274031
11
26.6884865
21
6.9658031
0
LINE
8
DEFAULT_255_2_778
10
26.6884865
20
6.9658031
11
26.3717865
21
7.3595031
0
ARC
8
DEFAULT_255_2_778
10
26.2093673
20
6.5403329
40
0.6164208
50
359.9945489
51
38.945129
0
ARC
8
DEFAULT_255_2_778
10
25.8708192
20
6.5404928
40
0.9549689
50
359.9344438
51
359.9868884
0
ARC
8
DEFAULT_255_2_778
10
26.1881125
20
6.5470019
40
0.6377203
50
270.4922629
51
359.3170054
0
ARC
8
DEFAULT_255_2_778
10
26.1767884
20
6.5978477
40
0.6887475
50
269.9999273
51
271.3979631
0
ARC
8
DEFAULT_255_2_778
10
26.172821
20
6.5646263
40
0.6555382
50
270.0000555
51
270.3466864
0
ARC
8
DEFAULT_255_2_778
10
26.1727349
20
6.5628584
40
0.6537702
50
219.0594901
51
270.0076016
0
LINE
8
DEFAULT_255_2_778
10
27.1501875
20
7.1799002
11
26.6794875
21
7.7649002
0
LINE
8
DEFAULT_255_2_778
10
25.7854875
20
7.2230002
11
25.4007875
21
7.7014002
0
LINE
8
DEFAULT_255_2_778
10
25.6656521
20
6.1511469
11
25.8627521
21
6.3006469
0
LINE
8
DEFAULT_255_2_778
10
25.8627521
20
6.3006469
11
25.8627521
21
6.3390469
0
LINE
8
DEFAULT_255_2_778
10
25.8627521
20
6.3390469
11
25.6656521
21
6.1895469
0
LINE
8
DEFAULT_255_2_778
10
25.6656521
20
6.1895469
11
25.6656521
21
6.1511469
0
LINE
8
DEFAULT_255_2_778
10
26.1985521
20
7.5362469
11
26.0146521
21
7.7648469
0
LINE
8
DEFAULT_255_2_778
10
26.3953521
20
7.7238469
11
26.1987521
21
7.5746469
0
LINE
8
DEFAULT_255_2_778
10
26.1987521
20
7.5746469
11
26.1987521
21
7.5362469
0
LINE
8
DEFAULT_255_2_778
10
26.1987521
20
7.5362469
11
26.4146521
21
7.7000469
0
LINE
8
DEFAULT_255_2_778
10
26.4146521
20
7.7000469
11
26.3625521
21
7.7648469
0
LINE
8
DEFAULT_255_2_778
10
25.7857521
20
7.2613469
11
25.4010521
21
7.7397469
0
LINE
8
DEFAULT_255_2_778
10
25.4010521
20
7.7397469
11
25.2039521
21
7.5902469
0
LINE
8
DEFAULT_255_2_778
10
25.2039521
20
7.5902469
11
25.2039521
21
7.5518469
0
LINE
8
DEFAULT_255_2_778
10
25.2039521
20
7.5518469
11
25.4010521
21
7.7013469
0
LINE
8
DEFAULT_255_2_778
10
25.4010521
20
7.7013469
11
25.4010521
21
7.7397469
0
LINE
8
DEFAULT_255_2_778
10
26.8258521
20
6.5393469
11
26.8258521
21
6.5776469
0
ARC
8
DEFAULT_255_2_778
10
26.1827271
20
6.5836847
40
0.3934486
50
269.1476099
51
356.3415844
0
ARC
8
DEFAULT_255_2_778
10
26.1745941
20
6.5839825
40
0.3937096
50
269.995104
51
270.3317889
0
ARC
8
DEFAULT_255_2_778
10
26.1745697
20
6.5925491
40
0.4022763
50
219.0749921
51
269.9986751
0
LINE
8
DEFAULT_255_2_778
10
26.324274
20
6.5533795
11
25.939574
21
7.0316795
0
LINE
8
DEFAULT_255_2_778
10
25.939574
20
7.0316795
11
26.155474
21
7.1954795
0
LINE
8
DEFAULT_255_2_778
10
26.155474
20
7.1954795
11
26.491474
21
6.7779795
0
ARC
8
DEFAULT_255_2_778
10
26.1975992
20
6.5396747
40
0.3785104
50
359.9338619
51
39.0114504
0
ARC
8
DEFAULT_255_2_778
10
26.1833406
20
6.5443911
40
0.3928025
50
269.0910452
51
359.2483062
0
ARC
8
DEFAULT_255_2_778
10
26.1748295
20
6.5453408
40
0.3937096
50
269.995104
51
270.3317889
0
ARC
8
DEFAULT_255_2_778
10
26.1748052
20
6.5539075
40
0.4022763
50
219.0749921
51
269.9986751
0
LINE
8
DEFAULT_255_2_778
10
25.9587937
20
7.0462895
11
26.3243937
21
6.5916895
0
LINE
8
DEFAULT_255_2_778
10
26.3243937
20
6.5916895
11
26.3243937
21
6.5533895
0
LINE
8
DEFAULT_255_2_778
10
26.3243937
20
6.5533895
11
26.1272937
21
6.4038895
0
LINE
8
DEFAULT_255_2_778
10
26.1272937
20
6.4038895
11
25.2038937
21
7.5518895
0
LINE
8
DEFAULT_255_2_778
10
69.9769937
20
8.1135895
11
139.0768937
21
8.1135895
0
LINE
8
DEFAULT_255_2_778
10
139.0768937
20
8.1135895
11
139.0768937
21
4.8136895
0
LINE
8
DEFAULT_255_2_778
10
139.0768937
20
4.8136895
11
140.0766937
21
4.8136895
0
LINE
8
DEFAULT_255_2_778
10
174.9770937
20
7.8137895
11
174.9770937
21
-0.1864105
0
LINE
8
DEFAULT_255_2_778
10
174.9770937
20
-0.1864105
11
173.0212937
21
-0.1864105
0
LINE
8
DEFAULT_255_2_778
10
173.0212937
20
-0.1864105
11
173.0212937
21
7.8137895
0
LINE
8
DEFAULT_255_2_778
10
166.6768937
20
5.7050895
11
166.6768937
21
5.6436895
0
LINE
8
DEFAULT_255_2_778
10
166.6768937
20
5.6436895
11
168.1767937
21
5.6436895
0
LINE
8
DEFAULT_255_2_778
10
168.1767937
20
5.6436895
11
168.1767937
21
5.8611895
0
LINE
8
DEFAULT_255_2_778
10
168.1767937
20
5.8611895
11
166.6768937
21
5.8611895
0
LINE
8
DEFAULT_255_2_778
10
166.6768937
20
5.8611895
11
166.6768937
21
5.7061895
0
LINE
8
DEFAULT_255_2_778
10
168.1770937
20
7.8143895
11
168.1770937
21
5.8611895
0
LINE
8
DEFAULT_255_2_778
10
162.9655937
20
6.1662895
11
163.1626937
21
6.3188895
0
LINE
8
DEFAULT_255_2_778
10
163.1626937
20
6.3188895
11
163.1626937
21
6.3580895
0
LINE
8
DEFAULT_255_2_778
10
163.1626937
20
6.3580895
11
162.9655937
21
6.2053895
0
LINE
8
DEFAULT_255_2_778
10
162.9655937
20
6.2053895
11
162.9655937
21
6.1662895
0
LINE
8
DEFAULT_255_2_778
10
163.2586937
20
7.0798895
11
163.6243937
21
6.6157895
0
LINE
8
DEFAULT_255_2_778
10
163.6243937
20
6.6157895
11
163.6243937
21
6.5765895
0
LINE
8
DEFAULT_255_2_778
10
163.6243937
20
6.5765895
11
163.4272937
21
6.4239895
0
LINE
8
DEFAULT_255_2_778
10
163.4272937
20
6.4239895
11
162.7705937
21
7.2573895
0
LINE
8
DEFAULT_255_2_778
10
163.6714937
20
7.3997895
11
163.9881937
21
6.9978895
0
LINE
8
DEFAULT_255_2_778
10
163.9881937
20
6.9978895
11
163.9881937
21
6.9586895
0
LINE
8
DEFAULT_255_2_778
10
163.9881937
20
6.9586895
11
163.6521937
21
7.3848895
0
LINE
8
DEFAULT_255_2_778
10
163.6521937
20
7.3848895
11
163.7801937
21
7.4841895
0
LINE
8
DEFAULT_255_2_778
10
163.1362792
20
7.3389135
11
163.0857792
21
7.2997135
0
LINE
8
DEFAULT_255_2_778
10
163.0857792
20
7.2997135
11
163.0857792
21
7.2606135
0
LINE
8
DEFAULT_255_2_778
10
163.0857792
20
7.2606135
11
163.2074792
21
7.3548135
0
LINE
8
DEFAULT_255_2_778
10
163.0857792
20
7.2995135
11
163.0669792
21
7.3230135
0
LINE
8
DEFAULT_255_2_778
10
164.1946792
20
7.5516135
11
164.4501792
21
7.2452135
0
LINE
8
DEFAULT_255_2_778
10
164.4501792
20
7.2452135
11
164.4501792
21
7.2082135
0
LINE
8
DEFAULT_255_2_778
10
164.4501792
20
7.2082135
11
164.2530792
21
7.0640135
0
LINE
8
DEFAULT_255_2_778
10
164.2530792
20
7.0640135
11
163.9001792
21
7.4870135
0
LINE
8
DEFAULT_255_2_778
10
164.4501157
20
7.2166031
11
164.1684157
21
7.5741031
0
LINE
8
DEFAULT_255_2_778
10
163.0857157
20
7.2606031
11
163.0407157
21
7.3174031
0
LINE
8
DEFAULT_255_2_778
10
165.6770157
20
7.8138031
11
165.6770157
21
5.7064031
0
LINE
8
DEFAULT_255_2_778
10
165.6770157
20
5.7064031
11
165.6770157
21
5.7064031
0
LINE
8
DEFAULT_255_2_778
10
165.6770157
20
5.7064031
11
166.6769157
21
5.7064031
0
LINE
8
DEFAULT_255_2_778
10
166.6769157
20
5.7064031
11
165.6770157
21
5.7064031
0
LINE
8
DEFAULT_255_2_778
10
165.6770157
20
5.7064031
11
165.6770157
21
7.8138031
0
ARC
8
DEFAULT_255_2_778
10
163.4985297
20
6.6994863
40
1.2286813
50
325.8498245
51
0.1197427
0
ARC
8
DEFAULT_255_2_778
10
163.4834087
20
6.7107172
40
1.2474999
50
277.9864887
51
325.8128099
0
ARC
8
DEFAULT_255_2_778
10
163.4777456
20
6.744121
40
1.2813669
50
269.9804489
51
278.0297288
0
ARC
8
DEFAULT_255_2_778
10
163.4741168
20
6.7178216
40
1.2550716
50
238.3435897
51
270.1457
0
ARC
8
DEFAULT_255_2_778
10
163.4618701
20
6.7011802
40
1.23448
50
184.8764902
51
238.4220593
0
ARC
8
DEFAULT_255_2_778
10
163.4836823
20
6.7018901
40
1.256274
50
179.9925165
51
184.8241827
0
LINE
8
DEFAULT_255_2_778
10
164.7272084
20
6.7020541
11
164.7272084
21
6.7020541
0
ARC
8
DEFAULT_255_2_778
10
163.5253562
20
6.6444164
40
1.2018535
50
322.9041557
51
0.0834408
0
ARC
8
DEFAULT_255_2_778
10
163.48744
20
6.6744439
40
1.2502082
50
279.3509589
51
322.8545862
0
ARC
8
DEFAULT_255_2_778
10
163.4779145
20
6.7181275
40
1.2948611
50
269.9731803
51
279.4527805
0
ARC
8
DEFAULT_255_2_778
10
163.4737491
20
6.6917196
40
1.268458
50
239.748915
51
270.1607717
0
ARC
8
DEFAULT_255_2_778
10
163.4430049
20
6.6485682
40
1.2157035
50
182.3270155
51
239.9760049
0
ARC
8
DEFAULT_255_2_778
10
163.4573582
20
6.6461356
40
1.2299498
50
179.9985537
51
182.1866395
0
LINE
8
DEFAULT_255_2_778
10
164.7272084
20
7.6753666
11
164.7272084
21
6.6461666
0
LINE
8
DEFAULT_255_2_778
10
164.7272084
20
6.6461666
11
164.7272084
21
6.6461666
0
LINE
8
DEFAULT_255_2_778
10
162.2274084
20
6.6461666
11
162.2274084
21
7.1173666
0
ARC
8
DEFAULT_255_2_778
10
163.488463
20
6.5640602
40
0.6375748
50
0.0046314
51
38.2682668
0
ARC
8
DEFAULT_255_2_778
10
163.4709667
20
6.5641118
40
0.6550712
50
359.8448999
51
359.9999975
0
ARC
8
DEFAULT_255_2_778
10
163.4811546
20
6.5637077
40
0.6448823
50
269.6340246
51
359.8783547
0
ARC
8
DEFAULT_255_2_778
10
163.4748477
20
6.5680028
40
0.649168
50
218.2913948
51
270.193093
0
ARC
8
DEFAULT_255_2_778
10
163.4841592
20
6.5631702
40
0.3921506
50
359.9046304
51
38.3000953
0
ARC
8
DEFAULT_255_2_778
10
163.4798214
20
6.5634987
40
0.3964892
50
269.6369911
51
359.8582006
0
ARC
8
DEFAULT_255_2_778
10
163.4759393
20
6.5926779
40
0.4256627
50
270.0088109
51
270.1844243
0
ARC
8
DEFAULT_255_2_778
10
163.4760689
20
6.566345
40
0.3993297
50
218.305758
51
269.9907888
0
ARC
8
DEFAULT_255_2_778
10
163.4791435
20
6.6031693
40
0.3969852
50
270.0043957
51
356.9706315
0
ARC
8
DEFAULT_255_2_778
10
163.479215
20
6.6304344
40
0.4242503
50
269.7108506
51
269.9944578
0
ARC
8
DEFAULT_255_2_778
10
163.4763387
20
6.5065456
40
0.300357
50
269.9532791
51
270.1402527
0
ARC
8
DEFAULT_255_2_778
10
163.4761034
20
6.6059132
40
0.3997249
50
218.315089
51
269.9986262
0
ARC
8
DEFAULT_255_2_778
10
163.4883646
20
6.6032508
40
0.6376228
50
0.0236832
51
38.2667887
0
ARC
8
DEFAULT_255_2_778
10
163.4744604
20
6.6035144
40
0.6515269
50
359.8444789
51
359.9999976
0
ARC
8
DEFAULT_255_2_778
10
140.1735086
20
110.5432236
40
105.7294172
50
270.1652156
51
273.5496514
0
ARC
8
DEFAULT_255_2_778
10
140.1866601
20
110.3585968
40
105.5443306
50
273.5487311
51
276.9273213
0
ARC
8
DEFAULT_255_2_778
10
140.1796416
20
110.4649181
40
105.6507225
50
276.9241455
51
280.2993717
0
ARC
8
DEFAULT_255_2_778
10
140.1681364
20
110.5125295
40
105.6996237
50
280.3008934
51
283.6862448
0
LINE
8
DEFAULT_255_2_778
10
164.1259849
20
6.6017459
11
164.1259849
21
6.6017459
0
LINE
8
DEFAULT_255_2_778
10
164.1259849
20
6.5626459
11
164.1259849
21
6.6017459
0
LINE
8
DEFAULT_255_2_778
10
163.6243849
20
6.5766459
11
163.2396849
21
7.0650459
0
LINE
8
DEFAULT_255_2_778
10
163.2396849
20
7.0650459
11
163.4555849
21
7.2322459
0
LINE
8
DEFAULT_255_2_778
10
163.4555849
20
7.2322459
11
163.7915849
21
6.8060459
0
LINE
8
DEFAULT_255_2_778
10
166.6768849
20
7.8143459
11
166.6768849
21
5.8612459
0
LINE
8
DEFAULT_255_2_778
10
140.1068849
20
4.8147459
11
140.4783849
21
4.8142459
0
LINE
8
DEFAULT_255_2_778
10
165.1771849
20
7.8141459
11
174.9770849
21
7.8141459
0
LINE
8
DEFAULT_255_2_778
10
174.9770849
20
7.8141459
11
174.9770849
21
145.9448459
0
LINE
8
DEFAULT_255_2_778
10
174.9770849
20
145.9448459
11
170.0769849
21
145.9448459
0
LINE
8
DEFAULT_255_2_778
10
170.0769849
20
145.9448459
11
170.0769849
21
146.8137459
0
LINE
8
DEFAULT_255_2_778
10
170.0769849
20
146.8137459
11
174.9770849
21
146.8137459
0
LINE
8
DEFAULT_255_2_778
10
174.9770849
20
146.8137459
11
174.9770849
21
145.9448459
0
LINE
8
DEFAULT_255_2_778
10
148.4769849
20
3.9813459
11
148.4769849
21
3.7138459
0
LINE
8
DEFAULT_255_2_778
10
148.4769849
20
3.7138459
11
166.6768849
21
3.7138459
0
LINE
8
DEFAULT_255_2_778
10
166.6768849
20
3.7138459
11
166.6768849
21
3.9813459
0
LINE
8
DEFAULT_255_2_778
10
148.4769849
20
3.7135459
11
148.4769849
21
2.1136459
0
LINE
8
DEFAULT_255_2_778
10
148.4769849
20
2.1136459
11
166.6768849
21
2.1136459
0
LINE
8
DEFAULT_255_2_778
10
166.6768849
20
2.1136459
11
166.6768849
21
3.7135459
0
LINE
8
DEFAULT_255_2_778
10
158.3269376
20
3.7135333
11
158.3269376
21
3.3092333
0
LINE
8
DEFAULT_255_2_778
10
158.3269376
20
3.3092333
11
156.8270376
21
3.3092333
0
LINE
8
DEFAULT_255_2_778
10
156.8270376
20
3.3092333
11
156.8270376
21
3.7135333
0
LINE
8
DEFAULT_255_2_778
10
78.4770376
20
5.7061333
11
79.4769376
21
5.7061333
0
LINE
8
DEFAULT_255_2_778
10
79.4769376
20
5.7061333
11
79.4769376
21
7.8135333
0
LINE
8
DEFAULT_255_2_778
10
79.4771242
20
7.8137447
11
79.4771242
21
5.7060447
0
LINE
8
DEFAULT_255_2_778
10
79.4771242
20
5.7060447
11
78.4772242
21
5.7060447
0
LINE
8
DEFAULT_255_2_778
10
78.4772242
20
5.7060447
11
78.4772242
21
5.8611447
0
LINE
8
DEFAULT_255_2_778
10
78.4772242
20
5.8611447
11
76.9773242
21
5.8611447
0
LINE
8
DEFAULT_255_2_778
10
76.9773242
20
5.8611447
11
76.9773242
21
5.6436447
0
LINE
8
DEFAULT_255_2_778
10
76.9773242
20
5.6436447
11
78.4772242
21
5.6436447
0
LINE
8
DEFAULT_255_2_778
10
78.4772242
20
5.6436447
11
78.4772242
21
5.7050447
0
LINE
8
DEFAULT_255_2_778
10
96.6769242
20
5.6433447
11
96.6769242
21
3.9812447
0
LINE
8
DEFAULT_255_2_778
10
96.6769242
20
3.9812447
11
78.4770242
21
3.9812447
0
LINE
8
DEFAULT_255_2_778
10
78.4770242
20
3.9812447
11
78.4770242
21
5.6433447
0
LINE
8
DEFAULT_255_2_778
10
96.6768982
20
3.9813562
11
96.6768982
21
3.7138562
0
LINE
8
DEFAULT_255_2_778
10
96.6768982
20
3.7138562
11
78.4769982
21
3.7138562
0
LINE
8
DEFAULT_255_2_778
10
78.4769982
20
3.7138562
11
78.4769982
21
3.9813562
0
LINE
8
DEFAULT_255_2_778
10
96.6768982
20
3.7135562
11
96.6768982
21
2.1136562
0
LINE
8
DEFAULT_255_2_778
10
96.6768982
20
2.1136562
11
78.4769982
21
2.1136562
0
LINE
8
DEFAULT_255_2_778
10
78.4769982
20
2.1136562
11
78.4769982
21
3.7135562
0
LINE
8
DEFAULT_255_2_778
10
78.4769982
20
7.8143562
11
78.4769982
21
5.8611562
0
LINE
8
DEFAULT_255_2_778
10
76.9770982
20
7.8143562
11
76.9770982
21
5.8611562
0
LINE
8
DEFAULT_255_2_778
10
96.6771982
20
5.7050562
11
96.6771982
21
5.6437562
0
LINE
8
DEFAULT_255_2_778
10
96.6771982
20
5.6437562
11
98.1770982
21
5.6437562
0
LINE
8
DEFAULT_255_2_778
10
98.1770982
20
5.6437562
11
98.1770982
21
5.8611562
0
LINE
8
DEFAULT_255_2_778
10
98.1770982
20
5.8611562
11
96.6771982
21
5.8611562
0
LINE
8
DEFAULT_255_2_778
10
96.6771982
20
5.8611562
11
96.6771982
21
5.7061562
0
ARC
8
DEFAULT_255_2_778
10
92.9119297
20
6.8645863
40
1.2286813
50
325.8498245
51
0.1197427
0
ARC
8
DEFAULT_255_2_778
10
92.8968087
20
6.8758172
40
1.2474999
50
277.9864887
51
325.8128099
0
ARC
8
DEFAULT_255_2_778
10
92.8911456
20
6.909221
40
1.2813669
50
269.9804489
51
278.0297288
0
ARC
8
DEFAULT_255_2_778
10
92.8875168
20
6.8829216
40
1.2550716
50
238.3435897
51
270.1457
0
ARC
8
DEFAULT_255_2_778
10
92.8752701
20
6.8662802
40
1.23448
50
184.8764902
51
238.4220593
0
ARC
8
DEFAULT_255_2_778
10
92.8970823
20
6.8669901
40
1.256274
50
179.9925165
51
184.8241827
0
LINE
8
DEFAULT_255_2_778
10
94.1406084
20
6.8671541
11
94.1406084
21
6.8671541
0
ARC
8
DEFAULT_255_2_778
10
92.8692068
20
6.8253728
40
1.2286813
50
179.8802573
51
214.1501755
0
ARC
8
DEFAULT_255_2_778
10
92.8843279
20
6.8366037
40
1.2474999
50
214.1871901
51
262.0135113
0
ARC
8
DEFAULT_255_2_778
10
92.889991
20
6.8700075
40
1.2813669
50
261.9702712
51
270.0195511
0
ARC
8
DEFAULT_255_2_778
10
92.8936198
20
6.8437081
40
1.2550716
50
269.8543
51
301.6564103
0
ARC
8
DEFAULT_255_2_778
10
92.9058665
20
6.8270666
40
1.23448
50
301.5779407
51
355.1235098
0
ARC
8
DEFAULT_255_2_778
10
92.8840543
20
6.8277765
40
1.256274
50
355.1758173
51
0.0074835
0
LINE
8
DEFAULT_255_2_778
10
95.6770282
20
5.7061406
11
96.6768282
21
5.7061406
0
LINE
8
DEFAULT_255_2_778
10
96.6768282
20
5.7061406
11
95.6770282
21
5.7061406
0
LINE
8
DEFAULT_255_2_778
10
95.6770282
20
5.7061406
11
95.6770282
21
5.7061406
0
LINE
8
DEFAULT_255_2_778
10
95.6770282
20
5.7061406
11
95.6770282
21
7.8135406
0
LINE
8
DEFAULT_255_2_778
10
91.6405282
20
7.8135406
11
91.6405282
21
6.8279406
0
LINE
8
DEFAULT_255_2_778
10
94.1403282
20
6.8279406
11
94.1403282
21
6.8279406
0
LINE
8
DEFAULT_255_2_778
10
94.1403282
20
6.8279406
11
94.1403282
21
7.8135406
0
LINE
8
DEFAULT_255_2_778
10
92.5202982
20
7.4121542
11
92.2040982
21
7.8132542
0
LINE
8
DEFAULT_255_2_778
10
92.5517625
20
7.8134958
11
92.7361625
21
7.5792958
0
LINE
8
DEFAULT_255_2_778
10
92.7361625
20
7.5792958
11
92.5202625
21
7.4120958
0
LINE
8
DEFAULT_255_2_778
10
92.5202625
20
7.4120958
11
92.5202625
21
7.4512958
0
LINE
8
DEFAULT_255_2_778
10
92.9332625
20
7.7319958
11
92.8692625
21
7.8134958
0
LINE
8
DEFAULT_255_2_778
10
93.8847625
20
7.3681958
11
93.5338625
21
7.8134958
0
LINE
8
DEFAULT_255_2_778
10
91.9384625
20
7.7480958
11
92.8618625
21
6.5762958
0
LINE
8
DEFAULT_255_2_778
10
92.8618625
20
6.5762958
11
93.0586625
21
6.7289958
0
LINE
8
DEFAULT_255_2_778
10
93.0586625
20
6.7289958
11
93.0586625
21
6.7680958
0
LINE
8
DEFAULT_255_2_778
10
93.0586625
20
6.7680958
11
92.6930625
21
7.2321958
0
LINE
8
DEFAULT_255_2_778
10
93.1060948
20
7.5516125
11
93.4227948
21
7.1497125
0
LINE
8
DEFAULT_255_2_778
10
93.4227948
20
7.1497125
11
93.4227948
21
7.1105125
0
LINE
8
DEFAULT_255_2_778
10
93.4227948
20
7.1105125
11
93.0867948
21
7.5368125
0
LINE
8
DEFAULT_255_2_778
10
93.0867948
20
7.5368125
11
93.3026948
21
7.7040125
0
LINE
8
DEFAULT_255_2_778
10
93.3026948
20
7.7040125
11
93.6873948
21
7.2156125
0
LINE
8
DEFAULT_255_2_778
10
93.6873948
20
7.2156125
11
93.8844948
21
7.3682125
0
LINE
8
DEFAULT_255_2_778
10
93.8844948
20
7.3682125
11
93.8844948
21
7.4074125
0
LINE
8
DEFAULT_255_2_778
10
93.8844948
20
7.4074125
11
93.5645948
21
7.8135125
0
LINE
8
DEFAULT_255_2_778
10
93.0383948
20
7.8135125
11
92.9332948
21
7.7320125
0
LINE
8
DEFAULT_255_2_778
10
92.9332948
20
7.7320125
11
92.9332948
21
7.7712125
0
LINE
8
DEFAULT_255_2_778
10
91.9725948
20
7.8135125
11
91.9384948
21
7.7871125
0
LINE
8
DEFAULT_255_2_778
10
91.9384948
20
7.7871125
11
91.9384948
21
7.7479125
0
LINE
8
DEFAULT_255_2_778
10
91.9384948
20
7.7479125
11
92.0231948
21
7.8135125
0
LINE
8
DEFAULT_255_2_778
10
92.9877948
20
7.8138125
11
92.9332948
21
7.7715125
0
LINE
8
DEFAULT_255_2_778
10
92.9332948
20
7.7715125
11
92.8999948
21
7.8138125
0
LINE
8
DEFAULT_255_2_778
10
92.7168948
20
7.6037125
11
92.5200948
21
7.4513125
0
LINE
8
DEFAULT_255_2_778
10
92.5200948
20
7.4513125
11
92.2347948
21
7.8133125
0
LINE
8
DEFAULT_255_2_778
10
92.5972948
20
6.4710125
11
92.4001948
21
6.3184125
0
LINE
8
DEFAULT_255_2_778
10
92.4001948
20
6.3184125
11
92.4001948
21
6.3575125
0
LINE
8
DEFAULT_255_2_778
10
92.4001948
20
6.3575125
11
92.5972948
21
6.5102125
0
LINE
8
DEFAULT_255_2_778
10
92.5972948
20
6.5102125
11
92.5972948
21
6.4710125
0
ARC
8
DEFAULT_255_2_778
10
92.9227293
20
6.7157979
40
0.6376764
50
0.0188933
51
38.2796365
0
ARC
8
DEFAULT_255_2_778
10
92.907985
20
6.7160082
40
0.6524206
50
359.8445843
51
359.9999975
0
ARC
8
DEFAULT_255_2_778
10
92.915459
20
6.7156717
40
0.6449458
50
269.6396857
51
359.8726829
0
ARC
8
DEFAULT_255_2_778
10
92.9094191
20
6.7209451
40
0.6502096
50
218.3359742
51
270.1748315
0
ARC
8
DEFAULT_255_2_778
10
92.9186592
20
6.7150702
40
0.3921506
50
359.9046304
51
38.3000953
0
ARC
8
DEFAULT_255_2_778
10
92.9143214
20
6.7153987
40
0.3964892
50
269.6369911
51
359.8582006
0
ARC
8
DEFAULT_255_2_778
10
92.9104393
20
6.7445779
40
0.4256627
50
270.0088109
51
270.1844243
0
ARC
8
DEFAULT_255_2_778
10
92.9105689
20
6.718245
40
0.3993297
50
218.305758
51
269.9907888
0
ARC
8
DEFAULT_255_2_778
10
92.9136303
20
6.7549693
40
0.3969852
50
270.0043957
51
356.9706315
0
ARC
8
DEFAULT_255_2_778
10
92.9137018
20
6.7822344
40
0.4242503
50
269.7108506
51
269.9944578
0
ARC
8
DEFAULT_255_2_778
10
92.9108255
20
6.6583456
40
0.300357
50
269.9532791
51
270.1402527
0
ARC
8
DEFAULT_255_2_778
10
92.9105902
20
6.7577132
40
0.3997249
50
218.315089
51
269.9986262
0
ARC
8
DEFAULT_255_2_778
10
92.9232285
20
6.7552187
40
0.6374319
50
359.9987315
51
38.2870872
0
ARC
8
DEFAULT_255_2_778
10
92.821789
20
6.7553156
40
0.7388714
50
359.8881267
51
359.9913932
0
LINE
8
DEFAULT_255_2_778
10
93.560659
20
6.7538729
11
93.560659
21
6.7538729
0
ARC
8
DEFAULT_255_2_778
10
63.0408268
20
131.0202756
40
0.9811192
50
0.0143374
51
11.3833271
0
ARC
8
DEFAULT_255_2_778
10
63.0322198
20
131.019186
40
0.9901608
50
22.645197
51
33.9123963
0
ARC
8
DEFAULT_255_2_778
10
63.0351418
20
131.0259306
40
0.9833709
50
45.0941963
51
56.47587
0
ARC
8
DEFAULT_255_2_778
10
63.0216015
20
131.008388
40
1.0053332
50
78.7550169
51
89.9860691
0
ARC
8
DEFAULT_255_2_778
10
6.9739211
20
130.9863892
40
1.0273337
50
90.104582
51
101.0369711
0
ARC
8
DEFAULT_255_2_778
10
6.9727152
20
131.0064901
40
1.0072961
50
112.3642329
51
123.4730809
0
ARC
8
DEFAULT_255_2_778
10
6.9586493
20
131.0229921
40
0.9851753
50
134.7275286
51
146.0682989
0
ARC
8
DEFAULT_255_2_778
10
6.9530951
20
131.021086
40
0.9809504
50
168.6153055
51
179.9812122
0
ARC
8
DEFAULT_255_2_778
10
6.892781
20
131.0212838
40
0.9206362
50
179.992291
51
180.0848029
0
LINE
8
DEFAULT_255_2_778
10
93.5606459
20
6.7144211
11
93.5606459
21
6.7536211
0
LINE
8
DEFAULT_255_2_778
10
93.0589459
20
6.7290211
11
92.6742459
21
7.2174211
0
LINE
8
DEFAULT_255_2_778
10
92.6742459
20
7.2174211
11
92.8901459
21
7.3846211
0
LINE
8
DEFAULT_255_2_778
10
92.8901459
20
7.3846211
11
93.2261459
21
6.9584211
0
LINE
8
DEFAULT_255_2_778
10
96.6771459
20
7.8143211
11
96.6771459
21
5.8612211
0
LINE
8
DEFAULT_255_2_778
10
98.1770459
20
7.8143211
11
98.1770459
21
5.8612211
0
LINE
8
DEFAULT_255_2_778
10
88.3268459
20
3.7135211
11
88.3268459
21
3.3093211
0
LINE
8
DEFAULT_255_2_778
10
88.3268459
20
3.3093211
11
86.8269459
21
3.3093211
0
LINE
8
DEFAULT_255_2_778
10
86.8269459
20
3.3093211
11
86.8269459
21
3.7135211
0
LINE
8
DEFAULT_255_2_778
10
64.0219459
20
21.5949211
11
64.0219459
21
131.0205211
0
LINE
8
DEFAULT_255_2_778
10
64.0026459
20
131.2139211
11
63.9791459
21
131.3083211
0
LINE
8
DEFAULT_255_2_778
10
63.9791459
20
131.3083211
11
63.9637459
21
131.3549211
0
LINE
8
DEFAULT_255_2_778
10
63.9637459
20
131.3549211
11
63.9460459
21
131.4004211
0
LINE
8
DEFAULT_255_2_778
10
63.8539459
20
131.5716211
11
63.8256459
21
131.6115211
0
LINE
8
DEFAULT_255_2_778
10
63.8256459
20
131.6115211
11
63.7952459
21
131.6502211
0
LINE
8
DEFAULT_255_2_778
10
63.7952459
20
131.6502211
11
63.7293459
21
131.7224211
0
LINE
8
DEFAULT_255_2_778
10
63.5782459
20
131.8457211
11
63.5364459
21
131.8719211
0
LINE
8
DEFAULT_255_2_778
10
63.5364459
20
131.8719211
11
63.4936459
21
131.8960211
0
LINE
8
DEFAULT_255_2_778
10
63.4936459
20
131.8960211
11
63.4052459
21
131.9375211
0
LINE
8
DEFAULT_255_2_778
10
63.4052459
20
131.9375211
11
63.2658459
21
131.9835211
0
LINE
8
DEFAULT_255_2_778
10
63.2658459
20
131.9835211
11
63.2176459
21
131.9944211
0
LINE
8
DEFAULT_255_2_778
10
63.0218459
20
132.0137211
11
57.8169459
21
132.0137211
0
LINE
8
DEFAULT_255_2_778
10
57.8169459
20
132.0137211
11
57.8169459
21
67.6115211
0
LINE
8
DEFAULT_255_2_778
10
57.8169459
20
67.6115211
11
12.1970459
21
67.6115211
0
LINE
8
DEFAULT_255_2_778
10
12.1970459
20
67.6115211
11
12.1970459
21
132.0137211
0
LINE
8
DEFAULT_255_2_778
10
12.1970459
20
132.0137211
11
6.9720459
21
132.0137211
0
LINE
8
DEFAULT_255_2_778
10
6.7772459
20
131.9947211
11
6.6822459
21
131.9711211
0
LINE
8
DEFAULT_255_2_778
10
6.6822459
20
131.9711211
11
6.5894459
21
131.9380211
0
LINE
8
DEFAULT_255_2_778
10
6.4171459
20
131.8467211
11
6.3769459
21
131.8187211
0
LINE
8
DEFAULT_255_2_778
10
6.3769459
20
131.8187211
11
6.3380459
21
131.7885211
0
LINE
8
DEFAULT_255_2_778
10
6.3380459
20
131.7885211
11
6.2653459
21
131.7229211
0
LINE
8
DEFAULT_255_2_778
10
6.1412459
20
131.5729211
11
6.1147459
21
131.5314211
0
LINE
8
DEFAULT_255_2_778
10
6.1147459
20
131.5314211
11
6.0904459
21
131.4888211
0
LINE
8
DEFAULT_255_2_778
10
6.0904459
20
131.4888211
11
6.0486459
21
131.4009211
0
LINE
8
DEFAULT_255_2_778
10
6.0486459
20
131.4009211
11
6.0155459
21
131.3096211
0
LINE
8
DEFAULT_255_2_778
10
6.0155459
20
131.3096211
11
6.0023459
21
131.2625211
0
LINE
8
DEFAULT_255_2_778
10
6.0023459
20
131.2625211
11
5.9914459
21
131.2147211
0
LINE
8
DEFAULT_255_2_778
10
5.9721459
20
131.0199211
11
5.9721459
21
21.5943211
0
LINE
8
DEFAULT_255_2_778
10
11.9978064
20
35.3283478
11
10.9979064
21
35.3283478
0
LINE
8
DEFAULT_255_2_778
10
10.9979064
20
35.3283478
11
10.9974064
21
24.3338478
0
LINE
8
DEFAULT_255_2_778
10
10.9974064
20
24.3338478
11
21.9972064
21
24.3351478
0
LINE
8
DEFAULT_255_2_778
10
21.9972064
20
24.3351478
11
21.9972064
21
25.3345478
0
LINE
8
DEFAULT_255_2_778
10
21.9980074
20
25.3244103
11
21.9980074
21
24.3243103
0
LINE
8
DEFAULT_255_2_778
10
11.9981074
20
35.3243103
11
11.9975074
21
35.3283103
0
LINE
8
DEFAULT_255_2_778
10
11.9975074
20
35.3283103
11
11.9970074
21
25.3331103
0
LINE
8
DEFAULT_255_2_778
10
11.9970074
20
25.3331103
11
21.9969074
21
25.3342103
0
LINE
8
DEFAULT_255_2_778
10
21.9969074
20
25.3342103
11
21.9980074
21
25.3244103
0
LINE
8
DEFAULT_255_2_778
10
21.9969142
20
24.3349561
11
21.9982142
21
24.3243561
0
LINE
8
DEFAULT_255_2_778
10
21.9982142
20
24.3243561
11
10.9982142
21
24.3243561
0
LINE
8
DEFAULT_255_2_778
10
10.9982142
20
24.3243561
11
10.9971142
21
24.3335561
0
LINE
8
DEFAULT_255_2_778
10
58.9981142
20
35.3243561
11
58.9970142
21
35.3336561
0
LINE
8
DEFAULT_255_2_778
10
58.9970142
20
35.3336561
11
58.9965142
21
24.3391561
0
LINE
8
DEFAULT_255_2_778
10
47.9964142
20
24.3378561
11
58.9962142
21
24.3391561
0
LINE
8
DEFAULT_255_2_778
10
58.9962142
20
24.3391561
11
58.9981142
21
24.3246561
0
LINE
8
DEFAULT_255_2_778
10
58.9981142
20
24.3246561
11
47.9980142
21
24.3246561
0
LINE
8
DEFAULT_255_2_778
10
47.9980142
20
24.3246561
11
47.9964142
21
25.3374561
0
LINE
8
DEFAULT_255_2_778
10
47.9964142
20
25.3374561
11
57.9964142
21
25.3384561
0
LINE
8
DEFAULT_255_2_778
10
57.9964142
20
25.3384561
11
57.9969142
21
35.3336561
0
LINE
8
DEFAULT_255_2_778
10
57.9969142
20
35.3336561
11
58.9970142
21
35.3336561
0
LINE
8
DEFAULT_255_2_778
10
11.9977736
20
25.3331807
11
11.9977736
21
35.3243807
0
LINE
8
DEFAULT_255_2_778
10
58.9978736
20
24.3242807
11
58.9978736
21
35.3243807
0
LINE
8
DEFAULT_255_2_778
10
40.4981736
20
63.6376807
11
40.4968736
21
63.6482807
0
LINE
8
DEFAULT_255_2_778
10
40.4968736
20
63.6482807
11
40.4978736
21
52.6399807
0
LINE
8
DEFAULT_255_2_778
10
40.4986736
20
52.6344807
11
40.4981736
21
63.6392807
0
LINE
8
DEFAULT_255_2_778
10
30.4987736
20
52.6347807
11
30.4982736
21
62.6388807
0
LINE
8
DEFAULT_255_2_778
10
51.4971736
20
50.6471807
11
41.4979736
21
50.6471807
0
LINE
8
DEFAULT_255_2_778
10
41.4979736
20
50.6471807
11
41.4972736
21
51.6536807
0
LINE
8
DEFAULT_255_2_778
10
41.4972736
20
51.6536807
11
52.4969736
21
51.6549807
0
LINE
8
DEFAULT_255_2_778
10
52.4969736
20
51.6549807
11
52.4977736
21
51.6475807
0
LINE
8
DEFAULT_255_2_778
10
52.4972736
20
40.6504807
11
52.4980736
21
40.6432807
0
LINE
8
DEFAULT_255_2_778
10
52.4980736
20
40.6432807
11
41.4979736
21
40.6432807
0
LINE
8
DEFAULT_255_2_778
10
41.4979736
20
40.6432807
11
41.4972736
21
40.6493807
0
LINE
8
DEFAULT_255_2_778
10
41.4972953
20
50.6533144
11
51.4971953
21
50.6543144
0
LINE
8
DEFAULT_255_2_778
10
51.4971953
20
50.6543144
11
51.4971953
21
41.6506144
0
LINE
8
DEFAULT_255_2_778
10
51.4971953
20
41.6506144
11
41.4972953
21
41.6495144
0
LINE
8
DEFAULT_255_2_778
10
41.4972953
20
41.6495144
11
41.4972953
21
40.6491144
0
LINE
8
DEFAULT_255_2_778
10
41.4972953
20
40.6491144
11
52.4970953
21
40.6505144
0
LINE
8
DEFAULT_255_2_778
10
52.4970953
20
40.6505144
11
52.4967953
21
51.6550144
0
LINE
8
DEFAULT_255_2_778
10
52.4983953
20
40.6436144
11
52.4980953
21
51.6484144
0
LINE
8
DEFAULT_255_2_778
10
43.2233953
20
43.1468144
11
49.6567953
21
46.1485144
0
LINE
8
DEFAULT_255_2_778
10
43.2241953
20
43.1407144
11
49.6577953
21
46.1419144
0
LINE
8
DEFAULT_255_2_778
10
49.6577953
20
46.1419144
11
49.6569953
21
46.1485144
0
LINE
8
DEFAULT_255_2_778
10
49.6569953
20
46.1485144
11
43.2236953
21
49.1491144
0
LINE
8
DEFAULT_255_2_778
10
43.2236953
20
49.1491144
11
43.2236953
21
43.1465144
0
LINE
8
DEFAULT_255_2_778
10
43.2236953
20
43.1465144
11
43.2241953
21
43.1407144
0
LINE
8
DEFAULT_255_2_778
10
18.4822953
20
50.5887144
11
28.4813953
21
50.5887144
0
LINE
8
DEFAULT_255_2_778
10
28.4813953
20
50.5887144
11
28.4821953
21
51.5952144
0
LINE
8
DEFAULT_255_2_778
10
28.4821953
20
51.5952144
11
17.4823953
21
51.5965144
0
LINE
8
DEFAULT_255_2_778
10
17.4823953
20
51.5965144
11
17.4815953
21
51.5891144
0
LINE
8
DEFAULT_255_2_778
10
17.4817772
20
40.5916719
11
17.4809772
21
40.5845719
0
LINE
8
DEFAULT_255_2_778
10
17.4809772
20
40.5845719
11
28.4810772
21
40.5845719
0
LINE
8
DEFAULT_255_2_778
10
28.4810772
20
40.5845719
11
28.4817772
21
40.5905719
0
LINE
8
DEFAULT_255_2_778
10
28.4821064
20
50.5945363
11
18.4822064
21
50.5955363
0
LINE
8
DEFAULT_255_2_778
10
18.4822064
20
50.5955363
11
18.4822064
21
41.5918363
0
LINE
8
DEFAULT_255_2_778
10
18.4822064
20
41.5918363
11
28.4821064
21
41.5907363
0
LINE
8
DEFAULT_255_2_778
10
28.4821064
20
41.5907363
11
28.4821064
21
40.5903363
0
LINE
8
DEFAULT_255_2_778
10
28.4821064
20
40.5903363
11
17.4823064
21
40.5917363
0
LINE
8
DEFAULT_255_2_778
10
17.4823064
20
40.5917363
11
17.4826064
21
51.5962363
0
LINE
8
DEFAULT_255_2_778
10
17.4807677
20
40.5848071
11
17.4810677
21
51.5896071
0
LINE
8
DEFAULT_255_2_778
10
26.755699
20
43.0880114
11
20.322399
21
46.0900114
0
LINE
8
DEFAULT_255_2_778
10
26.754899
20
43.0822114
11
20.321599
21
46.0833114
0
LINE
8
DEFAULT_255_2_778
10
20.321599
20
46.0833114
11
20.322399
21
46.0900114
0
LINE
8
DEFAULT_255_2_778
10
20.322399
20
46.0900114
11
26.755999
21
49.0906114
0
LINE
8
DEFAULT_255_2_778
10
26.755999
20
49.0906114
11
26.755999
21
43.0880114
0
LINE
8
DEFAULT_255_2_778
10
26.755999
20
43.0880114
11
26.754899
21
43.0822114
0
LINE
8
DEFAULT_255_2_778
10
39.5180011
20
62.6282228
11
39.5180011
21
52.6290228
0
LINE
8
DEFAULT_255_2_778
10
39.5180011
20
52.6290228
11
40.5245011
21
52.6283228
0
LINE
8
DEFAULT_255_2_778
10
40.5245011
20
52.6283228
11
40.5258011
21
63.6283228
0
LINE
8
DEFAULT_255_2_778
10
40.5258011
20
63.6283228
11
40.5184011
21
63.6291228
0
LINE
8
DEFAULT_255_2_778
10
29.5212958
20
63.6284228
11
29.5138958
21
63.6292228
0
LINE
8
DEFAULT_255_2_778
10
29.5138958
20
63.6292228
11
29.5138958
21
52.6291228
0
LINE
8
DEFAULT_255_2_778
10
29.5138958
20
52.6291228
11
29.5199958
21
52.6284228
0
LINE
8
DEFAULT_255_2_778
10
39.524196
20
52.6283259
11
39.525296
21
62.6283259
0
LINE
8
DEFAULT_255_2_778
10
39.525296
20
62.6283259
11
30.521496
21
62.6283259
0
LINE
8
DEFAULT_255_2_778
10
30.521496
20
62.6283259
11
30.520396
21
52.6283259
0
LINE
8
DEFAULT_255_2_778
10
30.520396
20
52.6283259
11
29.520296
21
52.6283259
0
LINE
8
DEFAULT_255_2_778
10
29.520296
20
52.6283259
11
29.521396
21
63.6284259
0
LINE
8
DEFAULT_255_2_778
10
29.521396
20
63.6284259
11
40.525896
21
63.6281259
0
LINE
8
DEFAULT_255_2_778
10
29.5142929
20
63.6295323
11
40.5190929
21
63.6292323
0
LINE
8
DEFAULT_255_2_778
10
32.0174886
20
54.354801
11
35.0194886
21
60.788101
0
LINE
8
DEFAULT_255_2_778
10
32.0116886
20
54.355601
11
35.0128886
21
60.788901
0
LINE
8
DEFAULT_255_2_778
10
35.0128886
20
60.788901
11
35.0194886
21
60.788101
0
LINE
8
DEFAULT_255_2_778
10
35.0194886
20
60.788101
11
38.0200886
21
54.354501
0
LINE
8
DEFAULT_255_2_778
10
38.0200886
20
54.354501
11
32.0174886
21
54.354501
0
LINE
8
DEFAULT_255_2_778
10
32.0174886
20
54.354501
11
32.0116886
21
54.355601
0
LINE
8
DEFAULT_255_2_778
10
39.4917011
20
29.6901905
11
39.4917011
21
39.6892905
0
LINE
8
DEFAULT_255_2_778
10
39.4917011
20
39.6892905
11
40.4982011
21
39.6900905
0
LINE
8
DEFAULT_255_2_778
10
40.4982011
20
39.6900905
11
40.4995011
21
28.6902905
0
LINE
8
DEFAULT_255_2_778
10
40.4995011
20
28.6902905
11
40.4921011
21
28.6894905
0
LINE
8
DEFAULT_255_2_778
10
29.4949958
20
28.6899905
11
29.4875958
21
28.6891905
0
LINE
8
DEFAULT_255_2_778
10
29.4875958
20
28.6891905
11
29.4875958
21
39.6889905
0
LINE
8
DEFAULT_255_2_778
10
29.4875958
20
39.6889905
11
29.4936958
21
39.6897905
0
LINE
8
DEFAULT_255_2_778
10
39.497896
20
39.6899936
11
39.498996
21
29.6900936
0
LINE
8
DEFAULT_255_2_778
10
39.498996
20
29.6900936
11
30.495196
21
29.6900936
0
LINE
8
DEFAULT_255_2_778
10
30.495196
20
29.6900936
11
30.494096
21
39.6899936
0
LINE
8
DEFAULT_255_2_778
10
30.494096
20
39.6899936
11
29.493996
21
39.6899936
0
LINE
8
DEFAULT_255_2_778
10
29.493996
20
39.6899936
11
29.495296
21
28.6901936
0
LINE
8
DEFAULT_255_2_778
10
29.495296
20
28.6901936
11
40.499596
21
28.6901936
0
LINE
8
DEFAULT_255_2_778
10
29.4879929
20
28.6887323
11
40.4927929
21
28.6890323
0
LINE
8
DEFAULT_255_2_778
10
31.9911886
20
37.9638687
11
34.9928886
21
31.5305687
0
LINE
8
DEFAULT_255_2_778
10
31.9853886
20
37.9630687
11
34.9865886
21
31.5297687
0
LINE
8
DEFAULT_255_2_778
10
34.9865886
20
31.5297687
11
34.9931886
21
31.5305687
0
LINE
8
DEFAULT_255_2_778
10
34.9931886
20
31.5305687
11
37.9937886
21
37.9638687
0
LINE
8
DEFAULT_255_2_778
10
37.9937886
20
37.9638687
11
31.9911886
21
37.9638687
0
LINE
8
DEFAULT_255_2_778
10
31.9911886
20
37.9638687
11
31.9853886
21
37.9630687
0
ARC
8
DEFAULT_255_2_778
10
6.9707069
20
21.5958735
40
0.9988358
50
180.0568277
51
199.3462639
0
ARC
8
DEFAULT_255_2_778
10
6.9724643
20
21.5982517
40
1.0012832
50
199.4413488
51
218.6944229
0
ARC
8
DEFAULT_255_2_778
10
6.9757782
20
21.6043101
40
1.0076606
50
218.8454894
51
237.9981329
0
ARC
8
DEFAULT_255_2_778
10
6.9678265
20
21.5940698
40
0.9947634
50
238.073957
51
250.9152051
0
ARC
8
DEFAULT_255_2_778
10
16.7960564
20
33.0116233
40
1.0826338
50
242.4235952
51
249.7704695
0
ARC
8
DEFAULT_255_2_778
10
17.3440607
20
34.4702942
40
2.6408346
50
249.5574426
51
253.850227
0
ARC
8
DEFAULT_255_2_778
10
18.153203
20
37.2265747
40
5.5134188
50
253.7405418
51
256.3407683
0
ARC
8
DEFAULT_255_2_778
10
18.6840019
20
39.3347206
40
7.6873084
50
256.206947
51
256.3453925
0
ARC
8
DEFAULT_255_2_778
10
17.1314145
20
30.984931
40
0.7810202
50
54.9549797
51
69.9428036
0
ARC
8
DEFAULT_255_2_778
10
17.3337621
20
31.278595
40
0.4244154
50
38.2044268
51
54.5546351
0
ARC
8
DEFAULT_255_2_778
10
17.358735
20
31.3023611
40
0.3901063
50
358.9162801
51
37.7299356
0
ARC
8
DEFAULT_255_2_778
10
17.4772364
20
31.2946332
40
0.2715354
50
359.9754101
51
0.0737719
0
ARC
8
DEFAULT_255_2_778
10
17.3176463
20
31.2945126
40
0.4311256
50
323.4691802
51
0.0005391
0
ARC
8
DEFAULT_255_2_778
10
17.2510664
20
31.3484474
40
0.5167433
50
293.7485318
51
323.058196
0
ARC
8
DEFAULT_255_2_778
10
17.1073923
20
31.61798
40
0.821634
50
291.4362669
51
295.3499018
0
ARC
8
DEFAULT_255_2_778
10
17.0457227
20
31.8098669
40
1.0228644
50
272.6003806
51
290.7234837
0
ARC
8
DEFAULT_255_2_778
10
17.0101388
20
32.2031669
40
1.4174843
50
269.9649503
51
273.3159841
0
ARC
8
DEFAULT_255_2_778
10
16.9960381
20
31.9482201
40
1.1626126
50
250.6292096
51
270.6521898
0
ARC
8
DEFAULT_255_2_778
10
16.9487713
20
31.7854617
40
0.9934346
50
246.4768166
51
250.0874822
0
ARC
8
DEFAULT_255_2_778
10
16.8427949
20
31.5742103
40
0.7575502
50
227.134197
51
247.4491273
0
ARC
8
DEFAULT_255_2_778
10
16.6990341
20
31.408011
40
0.5379915
50
213.8956413
51
226.3148384
0
ARC
8
DEFAULT_255_2_778
10
16.8807611
20
31.5117296
40
0.7468328
50
190.977556
51
212.725312
0
ARC
8
DEFAULT_255_2_778
10
17.3018505
20
31.6138357
40
1.1798309
50
186.6560506
51
191.9513856
0
ARC
8
DEFAULT_255_2_778
10
16.7754965
20
31.4582858
40
1.0170186
50
180.7776423
51
212.91909
0
ARC
8
DEFAULT_255_2_778
10
16.718914
20
31.4261217
40
0.9520487
50
213.1447825
51
247.2124852
0
ARC
8
DEFAULT_255_2_778
10
16.8827471
20
31.8087319
40
1.3682531
50
247.0929332
51
261.253209
0
ARC
8
DEFAULT_255_2_778
10
17.0144244
20
32.6178048
40
2.187952
50
261.0669729
51
270.3026469
0
LINE
8
DEFAULT_255_2_778
10
17.0259815
20
30.4298833
11
17.0274716
21
30.4298828
0
ARC
8
DEFAULT_255_2_778
10
17.0419899
20
31.8542773
40
1.4244684
50
269.4160294
51
287.4830608
0
ARC
8
DEFAULT_255_2_778
10
17.1043957
20
31.6225928
40
1.1847811
50
287.9705585
51
294.8009043
0
ARC
8
DEFAULT_255_2_778
10
17.2292371
20
31.3891023
40
0.9205873
50
293.843264
51
321.242757
0
ARC
8
DEFAULT_255_2_778
10
17.3037398
20
31.3165051
40
0.817103
50
321.9419687
51
327.4340351
0
ARC
8
DEFAULT_255_2_778
10
17.3044232
20
31.3297745
40
0.8237506
50
326.6305882
51
359.8684268
0
ARC
8
DEFAULT_255_2_778
10
17.3760595
20
31.3412737
40
0.7522314
50
358.9799979
51
33.3288931
0
ARC
8
DEFAULT_255_2_778
10
17.3470868
20
31.3022173
40
0.7980732
50
34.528919
51
57.9909929
0
ARC
8
DEFAULT_255_2_778
10
17.1377875
20
30.9937401
40
1.1706739
50
57.3072812
51
65.6390332
0
ARC
8
DEFAULT_255_2_778
10
17.0614273
20
30.8069471
40
1.3723535
50
65.9516447
51
71.8977394
0
ARC
8
DEFAULT_255_2_778
10
16.4291548
20
28.9260377
40
3.3566612
50
71.6151997
51
74.5151503
0
ARC
8
DEFAULT_255_2_778
10
15.5657049
20
25.8330815
40
6.5678765
50
74.4598499
51
76.3866605
0
ARC
8
DEFAULT_255_2_778
10
14.6513428
20
22.1101877
40
10.4013994
50
76.3182307
51
77.1671532
0
ARC
8
DEFAULT_255_2_778
10
18.0026493
20
36.8580903
40
4.7224899
50
254.5496051
51
257.2644752
0
ARC
8
DEFAULT_255_2_778
10
17.3725302
20
34.6009337
40
2.3790453
50
249.9878626
51
254.6948791
0
ARC
8
DEFAULT_255_2_778
10
16.8717341
20
33.2435781
40
0.9322842
50
241.3962314
51
250.359371
0
ARC
8
DEFAULT_255_2_778
10
16.5825424
20
32.7128061
40
0.3278419
50
229.0260962
51
241.3594129
0
ARC
8
DEFAULT_255_2_778
10
16.59671
20
32.723254
40
0.3450413
50
178.6002074
51
228.3874725
0
ARC
8
DEFAULT_255_2_778
10
16.6479689
20
32.7293299
40
0.3962043
50
126.0204247
51
179.6597359
0
ARC
8
DEFAULT_255_2_778
10
16.7411325
20
32.6249288
40
0.5356135
50
104.0805267
51
127.5134856
0
ARC
8
DEFAULT_255_2_778
10
16.8883845
20
32.0870824
40
1.0931899
50
92.6034789
51
104.7083071
0
ARC
8
DEFAULT_255_2_778
10
16.9338464
20
31.4667701
40
1.7150137
50
89.9390218
51
93.179385
0
ARC
8
DEFAULT_255_2_778
10
16.9479873
20
31.9931858
40
1.1886608
50
78.1904083
51
90.5936502
0
ARC
8
DEFAULT_255_2_778
10
17.0662669
20
32.5306011
40
0.6384401
50
55.1049124
51
78.7099044
0
ARC
8
DEFAULT_255_2_778
10
17.1425521
20
32.6559918
40
0.492039
50
50.6139526
51
54.0377752
0
ARC
8
DEFAULT_255_2_778
10
17.0925884
20
32.6094865
40
0.5597605
50
12.2634835
51
49.6817651
0
ARC
8
DEFAULT_255_2_778
10
16.7710296
20
32.5152255
40
0.8943205
50
5.8631519
51
13.7889875
0
ARC
8
DEFAULT_255_2_778
10
17.128027
20
32.6130643
40
0.9104182
50
1.404726
51
32.9301851
0
ARC
8
DEFAULT_255_2_778
10
17.190282
20
32.6416799
40
0.8426669
50
33.5982219
51
67.8921604
0
ARC
8
DEFAULT_255_2_778
10
17.0961449
20
32.4675073
40
1.0396883
50
66.6980987
51
66.9348398
0
ARC
8
DEFAULT_255_2_778
10
16.9818039
20
32.1698883
40
1.3583598
50
67.4156959
51
85.0277432
0
ARC
8
DEFAULT_255_2_778
10
16.9223378
20
31.6691961
40
1.8623894
50
84.5402509
51
90.0943284
0
ARC
8
DEFAULT_255_2_778
10
16.9058852
20
32.0829751
40
1.4486696
50
89.4705498
51
108.2729092
0
ARC
8
DEFAULT_255_2_778
10
16.8557732
20
32.265575
40
1.2596024
50
108.7126846
51
112.5134247
0
ARC
8
DEFAULT_255_2_778
10
16.6740035
20
32.6654017
40
0.8207807
50
111.4785953
51
139.0629966
0
ARC
8
DEFAULT_255_2_778
10
16.6143696
20
32.7292204
40
0.7339725
50
139.7762529
51
146.9336703
0
ARC
8
DEFAULT_255_2_778
10
16.6356302
20
32.7062512
40
0.7643602
50
146.3602908
51
180.1175648
0
ARC
8
DEFAULT_255_2_778
10
16.5578256
20
32.6960648
40
0.686608
50
179.2808256
51
212.0822141
0
ARC
8
DEFAULT_255_2_778
10
16.6153116
20
32.7463008
40
0.7620923
50
212.9867972
51
238.4229703
0
ARC
8
DEFAULT_255_2_778
10
16.7874783
20
32.9938408
40
1.0632716
50
237.50405
51
242.351518
0
ARC
8
DEFAULT_255_2_778
10
19.5518602
20
31.7849503
40
1.2648458
50
333.8373067
51
348.4677439
0
ARC
8
DEFAULT_255_2_778
10
19.9417169
20
31.5924528
40
0.8300558
50
310.4797292
51
333.8979817
0
ARC
8
DEFAULT_255_2_778
10
19.9497972
20
31.6016733
40
0.8319121
50
270.733499
51
309.6441486
0
ARC
8
DEFAULT_255_2_778
10
19.9195703
20
31.8884374
40
1.1193545
50
269.9898283
51
272.0927957
0
ARC
8
DEFAULT_255_2_778
10
19.9150625
20
31.7362108
40
0.9671376
50
270.0000231
51
270.2552842
0
ARC
8
DEFAULT_255_2_778
10
19.915027
20
31.7293376
40
0.9602644
50
238.5336795
51
270.0021413
0
ARC
8
DEFAULT_255_2_778
10
19.8419774
20
31.6052647
40
0.8163087
50
202.466565
51
238.3611403
0
ARC
8
DEFAULT_255_2_778
10
20.0792796
20
31.727963
40
1.0827269
50
201.1625171
51
203.6680057
0
ARC
8
DEFAULT_255_2_778
10
20.5829108
20
31.9098949
40
1.618119
50
186.3173908
51
200.7320926
0
ARC
8
DEFAULT_255_2_778
10
21.2663718
20
31.998446
40
2.3072093
50
179.8401511
51
186.6354587
0
ARC
8
DEFAULT_255_2_778
10
20.8588673
20
32.0086839
40
1.8996995
50
180.003099
51
180.1146416
0
ARC
8
DEFAULT_255_2_778
10
20.7644058
20
32.0089244
40
1.805238
50
161.5084322
51
180.0108935
0
ARC
8
DEFAULT_255_2_778
10
19.8865705
20
32.3144472
40
0.8758971
50
125.6176245
51
162.2495947
0
ARC
8
DEFAULT_255_2_778
10
19.8846219
20
32.3044064
40
0.8829559
50
96.4571376
51
125.1353803
0
ARC
8
DEFAULT_255_2_778
10
19.9465713
20
31.927927
40
1.2641598
50
89.8549506
51
97.3281743
0
ARC
8
DEFAULT_255_2_778
10
19.9634669
20
32.2827364
40
0.9094496
50
70.5121108
51
90.862841
0
ARC
8
DEFAULT_255_2_778
10
20.0304983
20
32.4950418
40
0.686987
50
52.8186754
51
69.8752953
0
ARC
8
DEFAULT_255_2_778
10
19.9771525
20
32.4461644
40
0.7582787
50
28.0030578
51
51.8391044
0
ARC
8
DEFAULT_255_2_778
10
19.5213093
20
32.1898757
40
1.2811439
50
17.0765664
51
28.5511883
0
ARC
8
DEFAULT_255_2_778
10
19.8579271
20
32.3042417
40
1.3243184
50
15.5014586
51
34.4929991
0
ARC
8
DEFAULT_255_2_778
10
20.0508501
20
32.4265461
40
1.096083
50
34.9347464
51
53.0665839
0
ARC
8
DEFAULT_255_2_778
10
20.0334809
20
32.390675
40
1.1352188
50
53.453732
51
82.953272
0
ARC
8
DEFAULT_255_2_778
10
19.9623167
20
31.9728146
40
1.5587734
50
82.2414877
51
90.148684
0
ARC
8
DEFAULT_255_2_778
10
19.9423776
20
32.0652538
40
1.4664152
50
89.3789746
51
118.775701
0
ARC
8
DEFAULT_255_2_778
10
19.8308586
20
32.2770909
40
1.2270619
50
118.9730739
51
153.6939493
0
ARC
8
DEFAULT_255_2_778
10
20.1672684
20
32.1000413
40
1.6071242
50
153.3506663
51
172.2080264
0
ARC
8
DEFAULT_255_2_778
10
20.7303918
20
32.0097424
40
2.1773303
50
171.8628094
51
180.1752443
0
ARC
8
DEFAULT_255_2_778
10
20.5982664
20
31.9854984
40
2.0452704
50
179.507388
51
202.6160143
0
ARC
8
DEFAULT_255_2_778
10
19.9544537
20
31.7081443
40
1.3443342
50
202.2560396
51
221.7806443
0
ARC
8
DEFAULT_255_2_778
10
19.7845946
20
31.5689358
40
1.1249571
50
222.257668
51
236.8585465
0
ARC
8
DEFAULT_255_2_778
10
19.7900443
20
31.5985081
40
1.1527566
50
237.4353259
51
257.9817333
0
ARC
8
DEFAULT_255_2_778
10
19.9279928
20
32.2037741
40
1.7735022
50
257.6943897
51
269.0315442
0
ARC
8
DEFAULT_255_2_778
10
19.9521794
20
32.713418
40
2.2835352
50
268.6408971
51
270.0073311
0
ARC
8
DEFAULT_255_2_778
10
19.9665931
20
31.805196
40
1.3753856
50
269.4117183
51
287.8374839
0
ARC
8
DEFAULT_255_2_778
10
20.0340594
20
31.5687234
40
1.1296441
50
288.2540378
51
308.6487114
0
ARC
8
DEFAULT_255_2_778
10
19.9849148
20
31.616828
40
1.1979353
50
309.0475089
51
335.6902971
0
ARC
8
DEFAULT_255_2_778
10
19.5150366
20
31.8445264
40
1.7199451
50
335.2214178
51
346.1355345
0
ARC
8
DEFAULT_255_2_778
10
52.6271499
20
32.2077833
40
1.0553483
50
89.0378248
51
133.5018242
0
ARC
8
DEFAULT_255_2_778
10
52.6593436
20
32.2358948
40
1.02719
50
58.6031269
51
90.8072604
0
ARC
8
DEFAULT_255_2_778
10
52.6880686
20
32.2934455
40
0.9631168
50
24.2543812
51
58.2781462
0
ARC
8
DEFAULT_255_2_778
10
52.3295753
20
32.1248692
40
1.3592305
50
6.1009927
51
24.525477
0
ARC
8
DEFAULT_255_2_778
10
51.8078585
20
32.0537019
40
1.8856182
50
359.8687621
51
6.566369
0
ARC
8
DEFAULT_255_2_778
10
51.8925306
20
32.0364457
40
1.8009875
50
348.9111471
51
0.4115792
0
ARC
8
DEFAULT_255_2_778
10
52.5179263
20
31.9085343
40
1.1626784
50
329.2286806
51
349.169388
0
ARC
8
DEFAULT_255_2_778
10
52.7014308
20
31.8096784
40
0.9544742
50
316.7000377
51
328.6917346
0
ARC
8
DEFAULT_255_2_778
10
52.670726
20
31.8327575
40
0.9926577
50
268.9720547
51
316.9460113
0
ARC
8
DEFAULT_255_2_778
10
52.6385914
20
32.1764178
40
1.336235
50
269.9991513
51
270.6142992
0
ARC
8
DEFAULT_255_2_778
10
52.612764
20
31.8369811
40
0.9971323
50
223.3747891
51
271.4830854
0
ARC
8
DEFAULT_255_2_778
10
52.6449748
20
31.867605
40
1.0415771
50
192.252507
51
223.3824079
0
ARC
8
DEFAULT_255_2_778
10
53.1657071
20
31.9942718
40
1.5773851
50
179.5455537
51
192.7345777
0
ARC
8
DEFAULT_255_2_778
10
53.9249468
20
32.0192176
40
2.3366083
50
172.1230441
51
180.3049141
0
ARC
8
DEFAULT_255_2_778
10
53.0289144
20
32.1478459
40
1.4314096
50
159.6205491
51
172.3078422
0
ARC
8
DEFAULT_255_2_778
10
52.5007293
20
32.3504926
40
0.8657374
50
135.8630407
51
160.0195933
0
ARC
8
DEFAULT_255_2_778
10
52.3974262
20
32.4370981
40
0.7313544
50
132.8151898
51
135.0965962
0
ARC
8
DEFAULT_255_2_778
10
52.5340159
20
31.847516
40
1.3248697
50
206.1515891
51
239.5841826
0
ARC
8
DEFAULT_255_2_778
10
52.6095397
20
31.9714301
40
1.4699676
50
239.4908088
51
268.0852996
0
ARC
8
DEFAULT_255_2_778
10
52.6407858
20
32.2945577
40
1.794075
50
267.4327537
51
270.0123214
0
ARC
8
DEFAULT_255_2_778
10
52.652391
20
32.0620258
40
1.5615832
50
269.5883485
51
298.1522699
0
ARC
8
DEFAULT_255_2_778
10
52.7891736
20
31.8100797
40
1.2749081
50
298.0745908
51
332.9848296
0
ARC
8
DEFAULT_255_2_778
10
52.4478423
20
31.996775
40
1.6638355
50
332.5962985
51
355.9639996
0
ARC
8
DEFAULT_255_2_778
10
52.0257383
20
32.0458332
40
2.088434
50
355.4364904
51
0.0452573
0
ARC
8
DEFAULT_255_2_778
10
52.2145179
20
32.0610583
40
1.8997022
50
359.5905551
51
15.2467092
0
ARC
8
DEFAULT_255_2_778
10
52.5072
20
32.1324293
40
1.5985735
50
15.5373675
51
26.7675859
0
ARC
8
DEFAULT_255_2_778
10
52.7596232
20
32.2673197
40
1.3124663
50
26.4728618
51
60.1956303
0
ARC
8
DEFAULT_255_2_778
10
52.6686546
20
32.1140501
40
1.4906801
50
60.0897473
51
89.3854063
0
ARC
8
DEFAULT_255_2_778
10
52.6450763
20
31.8233192
40
1.7817645
50
88.7275124
51
90.0031135
0
ARC
8
DEFAULT_255_2_778
10
52.6445024
20
32.4676753
40
1.1374087
50
89.9759717
51
90.0720753
0
ARC
8
DEFAULT_255_2_778
10
52.6311458
20
31.9353184
40
1.6698071
50
89.5907891
51
105.6939633
0
ARC
8
DEFAULT_255_2_778
10
52.5497987
20
32.2482667
40
1.3465359
50
105.9636372
51
136.0925817
0
ARC
8
DEFAULT_255_2_778
10
52.5744459
20
32.2241545
40
1.381015
50
136.0809982
51
164.8562139
0
ARC
8
DEFAULT_255_2_778
10
53.1334245
20
32.0601321
40
1.9634701
50
164.4973542
51
176.894416
0
ARC
8
DEFAULT_255_2_778
10
53.706307
20
32.0143196
40
2.5380358
50
176.5623681
51
180.0392061
0
ARC
8
DEFAULT_255_2_778
10
52.8197729
20
32.0064592
40
1.6515126
50
179.7875506
51
206.7318598
0
LINE
8
DEFAULT_255_2_778
10
6.6425716
20
20.6539828
11
6.6425716
21
20.7193828
0
LINE
8
DEFAULT_255_2_778
10
6.6425716
20
20.7193828
11
63.3515716
21
20.7193828
0
LINE
8
DEFAULT_255_2_778
10
63.3515716
20
20.7193828
11
63.3515716
21
20.6539828
0
LINE
8
DEFAULT_255_2_778
10
63.3515716
20
20.6539828
11
6.6425716
21
20.6539828
0
LINE
8
DEFAULT_255_2_778
10
16.8692716
20
31.8646828
11
17.3992716
21
31.7185828
0
LINE
8
DEFAULT_255_2_778
10
16.1299716
20
31.4770828
11
15.7585716
21
31.4444828
0
LINE
8
DEFAULT_255_2_778
10
17.6606716
20
32.6065828
11
18.0381716
21
32.6353828
0
LINE
8
DEFAULT_255_2_778
10
20.7459716
20
32.5660828
11
21.1340716
21
32.6581828
0
LINE
8
DEFAULT_255_2_778
10
21.1848716
20
31.4323828
11
20.7914716
21
31.5323828
0
LINE
8
DEFAULT_255_2_778
10
15.2793716
20
33.4807828
11
13.1264716
21
33.4807828
0
LINE
8
DEFAULT_255_2_778
10
13.1264716
20
33.4807828
11
13.1264716
21
30.4806828
0
LINE
8
DEFAULT_255_2_778
10
13.1264716
20
30.4806828
11
15.3481716
21
30.4806828
0
LINE
8
DEFAULT_255_2_778
10
15.3481716
20
30.4806828
11
15.3481716
21
30.8348828
0
LINE
8
DEFAULT_255_2_778
10
15.3481716
20
30.8348828
11
13.5206716
21
30.8348828
0
LINE
8
DEFAULT_255_2_778
10
13.5206716
20
30.8348828
11
13.5206716
21
31.8559828
0
LINE
8
DEFAULT_255_2_778
10
13.5206716
20
31.8559828
11
15.1674716
21
31.8559828
0
LINE
8
DEFAULT_255_2_778
10
15.1674716
20
31.8559828
11
15.1674716
21
32.2075828
0
LINE
8
DEFAULT_255_2_778
10
15.1674716
20
32.2075828
11
13.5206716
21
32.2075828
0
LINE
8
DEFAULT_255_2_778
10
13.5206716
20
32.2075828
11
13.5206716
21
33.1264828
0
LINE
8
DEFAULT_255_2_778
10
13.5206716
20
33.1264828
11
15.2793716
21
33.1264828
0
LINE
8
DEFAULT_255_2_778
10
15.2793716
20
33.1264828
11
15.2793716
21
33.4807828
0
LINE
8
DEFAULT_255_2_778
10
55.0298716
20
32.0633828
11
55.0298716
21
33.5513828
0
LINE
8
DEFAULT_255_2_778
10
55.0298716
20
33.5513828
11
54.6221716
21
33.5513828
0
LINE
8
DEFAULT_255_2_778
10
54.6221716
20
33.5513828
11
54.6221716
21
30.5512828
0
LINE
8
DEFAULT_255_2_778
10
54.6221716
20
30.5512828
11
55.0298716
21
30.5512828
0
LINE
8
DEFAULT_255_2_778
10
55.0298716
20
30.5512828
11
55.0298716
21
31.5905828
0
LINE
8
DEFAULT_255_2_778
10
55.0298716
20
31.5905828
11
55.5341716
21
32.0694828
0
LINE
8
DEFAULT_255_2_778
10
55.5341716
20
32.0694828
11
56.6308716
21
30.5512828
0
LINE
8
DEFAULT_255_2_778
10
56.6308716
20
30.5512828
11
57.1684716
21
30.5512828
0
LINE
8
DEFAULT_255_2_778
10
57.1684716
20
30.5512828
11
55.8196716
21
32.3358828
0
LINE
8
DEFAULT_255_2_778
10
55.8196716
20
32.3358828
11
57.1115716
21
33.5513828
0
LINE
8
DEFAULT_255_2_778
10
57.1115716
20
33.5513828
11
56.5593716
21
33.5513828
0
LINE
8
DEFAULT_255_2_778
10
56.5593716
20
33.5513828
11
55.0298716
21
32.0633828
0
LINE
8
DEFAULT_255_2_778
10
51.9003716
20
32.9735828
11
51.9006716
21
32.9732828
0
LINE
8
DEFAULT_255_2_778
10
51.3447716
20
31.2635828
11
51.3447716
21
31.2635828
0
LINE
8
DEFAULT_255_2_778
10
51.6399716
20
127.7589828
11
51.6399716
21
130.4367828
0
LINE
8
DEFAULT_255_2_778
10
51.6399716
20
130.4367828
11
51.9768716
21
130.4367828
0
LINE
8
DEFAULT_255_2_778
10
51.9768716
20
130.4367828
11
51.9768716
21
127.7589828
0
LINE
8
DEFAULT_255_2_778
10
51.9768716
20
127.7589828
11
51.6399716
21
127.7589828
0
LINE
8
DEFAULT_255_2_778
10
51.6399716
20
127.7589828
11
51.6399716
21
127.7491828
0
LINE
8
DEFAULT_255_2_778
10
51.6399716
20
127.7491828
11
51.9768716
21
127.7491828
0
LINE
8
DEFAULT_255_2_778
10
51.9768716
20
127.7491828
11
51.9768716
21
127.7589828
0
ARC
8
DEFAULT_255_2_778
10
40.5699761
20
129.3953272
40
1.3075255
50
17.9047928
51
31.0319924
0
ARC
8
DEFAULT_255_2_778
10
41.0036534
20
129.6632097
40
0.7978408
50
30.6028884
51
56.6573893
0
ARC
8
DEFAULT_255_2_778
10
41.0407585
20
129.6862266
40
0.7584399
50
58.0434961
51
88.5103984
0
ARC
8
DEFAULT_255_2_778
10
41.0151182
20
129.4333537
40
1.0120733
50
87.4314126
51
90.0156868
0
ARC
8
DEFAULT_255_2_778
10
41.0157185
20
129.3251274
40
1.1203
50
90.0448745
51
94.1357919
0
ARC
8
DEFAULT_255_2_778
10
41.021901
20
129.2271837
40
1.2184346
50
94.0935952
51
94.3503614
0
ARC
8
DEFAULT_255_2_778
10
40.9730263
20
129.1980675
40
1.2448025
50
92.0049236
51
106.3958569
0
ARC
8
DEFAULT_255_2_778
10
40.8201611
20
129.6763256
40
0.7429347
50
105.497366
51
160.1989397
0
ARC
8
DEFAULT_255_2_778
10
41.1499142
20
129.5364087
40
1.1007692
50
159.1610634
51
168.9436505
0
ARC
8
DEFAULT_255_2_778
10
41.0673089
20
129.7344247
40
0.9978183
50
179.2487235
51
196.1527825
0
ARC
8
DEFAULT_255_2_778
10
40.741228
20
129.6435069
40
0.6593253
50
196.4471116
51
252.0194869
0
ARC
8
DEFAULT_255_2_778
10
40.9506893
20
130.1596615
40
1.2155859
50
250.1385882
51
262.7449071
0
ARC
8
DEFAULT_255_2_778
10
40.8088561
20
126.32239
40
2.6314439
50
84.3622646
51
90.2543074
0
ARC
8
DEFAULT_255_2_778
10
40.9301091
20
127.5036527
40
1.4439906
50
75.2749049
51
84.5456316
0
ARC
8
DEFAULT_255_2_778
10
41.123233
20
128.2151077
40
0.7068388
50
58.7577803
51
75.7565857
0
ARC
8
DEFAULT_255_2_778
10
41.3249602
20
128.5310534
40
0.3321952
50
358.7502317
51
60.2422307
0
ARC
8
DEFAULT_255_2_778
10
41.1814233
20
128.6049439
40
0.4825235
50
289.6723671
51
350.3197706
0
ARC
8
DEFAULT_255_2_778
10
41.0215548
20
128.9897026
40
0.8988889
50
276.1288481
51
291.0117958
0
ARC
8
DEFAULT_255_2_778
10
40.9469235
20
129.568734
40
1.4826305
50
269.7841273
51
276.6074555
0
ARC
8
DEFAULT_255_2_778
10
40.9429295
20
130.0713599
40
1.9852464
50
267.143538
51
269.9540508
0
ARC
8
DEFAULT_255_2_778
10
40.9602305
20
130.4342456
40
2.3485436
50
265.2089861
51
267.1631673
0
ARC
8
DEFAULT_255_2_778
10
40.8050863
20
128.7520593
40
0.6594278
50
240.9875934
51
266.434473
0
ARC
8
DEFAULT_255_2_778
10
40.7744223
20
128.6601195
40
0.5644329
50
200.3037972
51
239.1829892
0
ARC
8
DEFAULT_255_2_778
10
40.989512
20
128.7650768
40
0.8029309
50
199.9734437
51
202.0023864
0
LINE
8
DEFAULT_255_2_778
10
40.2348764
20
128.4908079
11
39.9041764
21
128.4908079
0
ARC
8
DEFAULT_255_2_778
10
41.0595651
20
128.7401162
40
1.1819804
50
192.1765204
51
208.3352861
0
ARC
8
DEFAULT_255_2_778
10
40.7494909
20
128.5774214
40
0.8318473
50
208.608664
51
259.2520813
0
ARC
8
DEFAULT_255_2_778
10
40.881928
20
129.0761287
40
1.3470153
50
257.6733646
51
267.7981854
0
ARC
8
DEFAULT_255_2_778
10
40.8430779
20
129.7573586
40
2.0272917
50
269.6353743
51
279.7262023
0
ARC
8
DEFAULT_255_2_778
10
40.9719947
20
129.0312966
40
1.2898942
50
279.5306315
51
295.5516903
0
ARC
8
DEFAULT_255_2_778
10
41.1312616
20
128.6978135
40
0.9203311
50
295.5610092
51
329.1741514
0
ARC
8
DEFAULT_255_2_778
10
41.0797563
20
128.5766679
40
0.9118571
50
337.3974418
51
346.9607073
0
ARC
8
DEFAULT_255_2_778
10
41.2793273
20
128.5307546
40
0.7070731
50
346.9365964
51
359.7829043
0
ARC
8
DEFAULT_255_2_778
10
41.3451745
20
128.5244683
40
0.641231
50
0.3223101
51
37.9555265
0
ARC
8
DEFAULT_255_2_778
10
41.034469
20
128.2980808
40
1.0255355
50
37.2518195
51
51.0267641
0
ARC
8
DEFAULT_255_2_778
10
40.7308363
20
127.9388686
40
1.4958077
50
50.6388496
51
56.4380337
0
ARC
8
DEFAULT_255_2_778
10
40.9907027
20
128.0286856
40
1.2881568
50
63.8820129
51
88.4096382
0
ARC
8
DEFAULT_255_2_778
10
40.9627811
20
127.7102545
40
1.6073533
50
87.7297348
51
90.0108587
0
ARC
8
DEFAULT_255_2_778
10
40.8818603
20
130.6729868
40
1.3577742
50
270.9265879
51
273.4038667
0
ARC
8
DEFAULT_255_2_778
10
40.8848784
20
130.528684
40
1.2134419
50
270.0049052
51
270.8942859
0
ARC
8
DEFAULT_255_2_778
10
40.8736326
20
130.1396096
40
0.8244456
50
256.7309168
51
270.7887822
0
ARC
8
DEFAULT_255_2_778
10
40.7664914
20
129.7155308
40
0.3871591
50
225.5231041
51
257.75866
0
ARC
8
DEFAULT_255_2_778
10
40.7555865
20
129.6780976
40
0.353291
50
183.1595651
51
222.5303051
0
ARC
8
DEFAULT_255_2_778
10
40.9909792
20
129.7135261
40
0.5907035
50
179.9047631
51
185.3328444
0
ARC
8
DEFAULT_255_2_778
10
40.710424
20
129.7338271
40
0.3107487
50
110.4484238
51
183.5643703
0
ARC
8
DEFAULT_255_2_778
10
40.8568102
20
129.3915543
40
0.6828225
50
95.0571827
51
111.9240742
0
ARC
8
DEFAULT_255_2_778
10
40.9250418
20
128.8250789
40
1.253237
50
89.7972554
51
95.8815685
0
ARC
8
DEFAULT_255_2_778
10
40.975691
20
128.8327897
40
1.2463753
50
90.0221821
51
92.1249691
0
ARC
8
DEFAULT_255_2_778
10
40.9868222
20
129.2483432
40
0.830903
50
75.9314119
51
90.8008615
0
ARC
8
DEFAULT_255_2_778
10
41.1102551
20
129.6786109
40
0.3838353
50
18.0134067
51
78.1919292
0
ARC
8
DEFAULT_255_2_778
10
54.0973269
20
129.7954775
40
0.5073507
50
359.8792151
51
22.7294761
0
ARC
8
DEFAULT_255_2_778
10
53.9962004
20
129.7454929
40
0.6199766
50
23.3791155
51
42.4204247
0
ARC
8
DEFAULT_255_2_778
10
53.9042211
20
129.6728486
40
0.7369287
50
41.7658459
51
58.1335171
0
ARC
8
DEFAULT_255_2_778
10
53.8452731
20
129.5673317
40
0.8576818
50
58.5105105
51
72.7664341
0
ARC
8
DEFAULT_255_2_778
10
53.7133357
20
129.0855933
40
1.3569843
50
73.471974
51
91.0038321
0
ARC
8
DEFAULT_255_2_778
10
53.6895891
20
128.3543578
40
2.0880114
50
90.0007361
51
90.4393981
0
ARC
8
DEFAULT_255_2_778
10
53.6681888
20
128.8103725
40
1.6319443
50
89.8108438
51
104.8776891
0
ARC
8
DEFAULT_255_2_778
10
53.5401726
20
129.3016694
40
1.1242514
50
105.0009769
51
126.7391167
0
ARC
8
DEFAULT_255_2_778
10
53.5295568
20
129.3399503
40
1.0873196
50
127.4974879
51
149.4081475
0
ARC
8
DEFAULT_255_2_778
10
53.6931248
20
129.2434428
40
1.2772358
50
149.4156756
51
167.664412
0
ARC
8
DEFAULT_255_2_778
10
54.1471508
20
129.1481985
40
1.7411319
50
167.7944417
51
180.0034801
0
ARC
8
DEFAULT_255_2_778
10
54.1516485
20
129.148096
40
1.7456297
50
180.0001068
51
180.9843288
0
ARC
8
DEFAULT_255_2_778
10
54.2614944
20
129.1214209
40
1.8552209
50
180.1023168
51
192.4895515
0
ARC
8
DEFAULT_255_2_778
10
53.7701621
20
129.0138247
40
1.3522474
50
192.5406633
51
209.735814
0
ARC
8
DEFAULT_255_2_778
10
53.5614984
20
128.8956999
40
1.1124704
50
209.7835677
51
231.1508339
0
ARC
8
DEFAULT_255_2_778
10
53.4852383
20
128.8179968
40
1.0041759
50
231.758528
51
243.8755073
0
ARC
8
DEFAULT_255_2_778
10
53.5238508
20
128.899661
40
1.0945001
50
243.943078
51
255.1518629
0
ARC
8
DEFAULT_255_2_778
10
53.6041249
20
129.2419006
40
1.445918
50
255.5524054
51
270.2483285
0
ARC
8
DEFAULT_255_2_778
10
53.616685
20
129.5640701
40
1.7680851
50
269.7960619
51
269.9999996
0
ARC
8
DEFAULT_255_2_778
10
53.616419
20
129.6246315
40
1.8286466
50
270.0083333
51
271.7190699
0
ARC
8
DEFAULT_255_2_778
10
53.6206436
20
129.5320783
40
1.7360089
50
271.67134
51
272.1077584
0
ARC
8
DEFAULT_255_2_778
10
53.6507873
20
129.1429023
40
1.3460804
50
271.4347976
51
289.2274156
0
ARC
8
DEFAULT_255_2_778
10
53.7790643
20
128.7588291
40
0.9412023
50
289.5537618
51
315.3698025
0
ARC
8
DEFAULT_255_2_778
10
53.9291003
20
128.5997616
40
0.7227209
50
315.9879228
51
348.4460848
0
ARC
8
DEFAULT_255_2_778
10
53.9176391
20
128.5338004
40
0.4428039
50
338.1652484
51
349.750214
0
ARC
8
DEFAULT_255_2_778
10
53.7558446
20
128.6567735
40
0.6481703
50
309.1622783
51
317.3237326
0
ARC
8
DEFAULT_255_2_778
10
53.7552238
20
128.6566807
40
0.6484906
50
282.3546664
51
309.2099866
0
ARC
8
DEFAULT_255_2_778
10
53.6968029
20
128.9179448
40
0.9162049
50
270.5964845
51
282.4276588
0
ARC
8
DEFAULT_255_2_778
10
53.6869009
20
129.1496807
40
1.1480556
50
269.9959958
51
270.9702401
0
ARC
8
DEFAULT_255_2_778
10
53.688699
20
129.3121145
40
1.3104907
50
265.58759
51
269.9178767
0
ARC
8
DEFAULT_255_2_778
10
53.6789377
20
129.2077553
40
1.205691
50
264.0692386
51
265.6685429
0
ARC
8
DEFAULT_255_2_778
10
53.6550711
20
129.0406693
40
1.0370536
50
249.3400184
51
264.4269425
0
ARC
8
DEFAULT_255_2_778
10
53.5964194
20
128.8635891
40
0.8507016
50
228.504405
51
248.8282907
0
ARC
8
DEFAULT_255_2_778
10
53.6586009
20
128.9219873
40
0.9356746
50
209.9746935
51
228.0217497
0
ARC
8
DEFAULT_255_2_778
10
53.8209104
20
129.0152567
40
1.1228736
50
195.1917237
51
209.9594688
0
ARC
8
DEFAULT_255_2_778
10
54.1157475
20
129.0940052
40
1.4280439
50
183.6976807
51
195.140954
0
ARC
8
DEFAULT_255_2_778
10
54.4357111
20
129.1283925
40
1.7496126
50
180.3967921
51
184.1456937
0
ARC
8
DEFAULT_255_2_778
10
54.4429358
20
129.1283953
40
1.7568371
50
180.0028595
51
180.3952521
0
ARC
8
DEFAULT_255_2_778
10
54.4332162
20
129.1284051
40
1.7471176
50
174.7684842
51
180.0031981
0
ARC
8
DEFAULT_255_2_778
10
54.0151187
20
129.1730591
40
1.3267053
50
162.7081436
51
175.0425355
0
ARC
8
DEFAULT_255_2_778
10
53.7738416
20
129.2469934
40
1.0743576
50
147.1602607
51
162.6481824
0
ARC
8
DEFAULT_255_2_778
10
53.6508566
20
129.3316401
40
0.9251341
50
129.1175981
51
147.434358
0
ARC
8
DEFAULT_255_2_778
10
53.5811642
20
129.4030167
40
0.825836
50
107.4821155
51
128.490499
0
ARC
8
DEFAULT_255_2_778
10
53.6333682
20
129.2151325
40
1.0207461
50
91.8656063
51
107.1088809
0
ARC
8
DEFAULT_255_2_778
10
53.6475042
20
129.0259542
40
1.2103106
50
90.5551974
51
92.242897
0
ARC
8
DEFAULT_255_2_778
10
53.6497239
20
128.9393529
40
1.29693
50
90.0006774
51
90.616185
0
ARC
8
DEFAULT_255_2_778
10
53.6499138
20
128.9890053
40
1.2472777
50
88.061208
51
90.0094248
0
ARC
8
DEFAULT_255_2_778
10
53.6657236
20
129.2365268
40
0.9993907
50
74.0844698
51
88.4869877
0
ARC
8
DEFAULT_255_2_778
10
53.7785037
20
129.5849548
40
0.633524
50
47.7240665
51
75.2522192
0
ARC
8
DEFAULT_255_2_778
10
53.9213328
20
129.7650232
40
0.4045028
50
24.6152674
51
45.5349588
0
ARC
8
DEFAULT_255_2_778
10
53.8685147
20
129.7463881
40
0.4603108
50
5.9129295
51
23.9856366
0
ARC
8
DEFAULT_255_2_778
10
45.6250103
20
127.8298252
40
1.9046426
50
297.986052
51
305.7418204
0
ARC
8
DEFAULT_255_2_778
10
45.6705753
20
127.7306023
40
1.797614
50
306.4104172
51
312.3036385
0
ARC
8
DEFAULT_255_2_778
10
45.806371
20
127.5821849
40
1.5964477
50
312.284287
51
319.0849221
0
ARC
8
DEFAULT_255_2_778
10
48.1548955
20
124.7943111
40
0.5805958
50
202.5981735
51
232.9866764
0
ARC
8
DEFAULT_255_2_778
10
48.3941883
20
125.0807898
40
0.9535839
50
231.868199
51
251.8585371
0
ARC
8
DEFAULT_255_2_778
10
48.5801498
20
125.5957365
40
1.500924
50
251.2331839
51
264.4265116
0
ARC
8
DEFAULT_255_2_778
10
48.6261577
20
126.0070096
40
1.9147304
50
264.251559
51
269.9668726
0
ARC
8
DEFAULT_255_2_778
10
48.6271247
20
125.4579342
40
1.3656563
50
269.9129831
51
270.0290168
0
ARC
8
DEFAULT_255_2_778
10
48.6273454
20
126.1400266
40
2.047749
50
270.0131776
51
274.3615483
0
ARC
8
DEFAULT_255_2_778
10
48.6792082
20
125.6102779
40
1.5156333
50
273.9296329
51
286.9660066
0
ARC
8
DEFAULT_255_2_778
10
48.8049021
20
125.1972046
40
1.0838598
50
286.9825576
51
304.6714044
0
ARC
8
DEFAULT_255_2_778
10
48.9229587
20
125.0320448
40
0.8808745
50
304.467247
51
324.9374057
0
ARC
8
DEFAULT_255_2_778
10
49.0108434
20
124.9623517
40
0.76893
50
325.4260969
51
347.4758168
0
ARC
8
DEFAULT_255_2_778
10
48.8306045
20
125.0002064
40
0.9530914
50
347.603932
51
0.0052042
0
ARC
8
DEFAULT_255_2_778
10
48.828066
20
125.0002973
40
0.9556298
50
359.9997412
51
1.5144241
0
ARC
8
DEFAULT_255_2_778
10
48.8259781
20
125.000238
40
0.9577186
50
1.5146686
51
4.8438304
0
ARC
8
DEFAULT_255_2_778
10
48.8490057
20
125.0087567
40
0.934077
50
4.4424375
51
5.9508111
0
ARC
8
DEFAULT_255_2_778
10
48.9539357
20
125.0245725
40
0.8280871
50
5.6150917
51
24.0092448
0
ARC
8
DEFAULT_255_2_778
10
48.9537323
20
125.0058576
40
0.8360607
50
25.1752326
51
58.4949348
0
ARC
8
DEFAULT_255_2_778
10
48.8980914
20
124.9338926
40
0.9265463
50
57.8869296
51
66.8619078
0
ARC
8
DEFAULT_255_2_778
10
48.8035796
20
124.6801689
40
1.1970672
50
67.4741409
51
83.9677884
0
ARC
8
DEFAULT_255_2_778
10
48.7463394
20
124.3008499
40
1.5803932
50
83.3492279
51
89.9934622
0
ARC
8
DEFAULT_255_2_778
10
48.7465546
20
124.3082876
40
1.5729555
50
90.0012683
51
90.330697
0
ARC
8
DEFAULT_255_2_778
10
48.7463739
20
124.3172734
40
1.5639689
50
90.3259758
51
96.0927684
0
ARC
8
DEFAULT_255_2_778
10
48.7027761
20
124.7232873
40
1.155621
50
96.0799865
51
113.1434839
0
ARC
8
DEFAULT_255_2_778
10
48.6710759
20
124.8166344
40
1.0573537
50
113.552044
51
131.3392641
0
ARC
8
DEFAULT_255_2_778
10
48.4581881
20
125.1008162
40
0.5082708
50
135.0334715
51
162.7891496
0
ARC
8
DEFAULT_255_2_778
10
48.5808181
20
124.9676271
40
0.6891994
50
112.1402116
51
134.4039616
0
ARC
8
DEFAULT_255_2_778
10
48.670208
20
124.7526574
40
0.9220086
50
94.6677964
51
112.2509553
0
ARC
8
DEFAULT_255_2_778
10
48.7017877
20
124.4816338
40
1.1947403
50
90.3835947
51
95.1195309
0
ARC
8
DEFAULT_255_2_778
10
48.7014294
20
124.4994231
40
1.176949
50
90.0000098
51
90.371949
0
ARC
8
DEFAULT_255_2_778
10
48.7032928
20
124.5701551
40
1.1062187
50
80.7884503
51
90.0965253
0
ARC
8
DEFAULT_255_2_778
10
48.7635748
20
124.908149
40
0.7629526
50
60.2143584
51
81.1938668
0
ARC
8
DEFAULT_255_2_778
10
48.8316092
20
125.0370877
40
0.6172718
50
35.5420528
51
59.7498073
0
ARC
8
DEFAULT_255_2_778
10
48.8405669
20
125.0501151
40
0.6024342
50
11.9358063
51
35.0291183
0
ARC
8
DEFAULT_255_2_778
10
48.6587378
20
125.0101784
40
0.7885931
50
359.9920717
51
12.0424799
0
ARC
8
DEFAULT_255_2_778
10
48.6559814
20
125.0100699
40
0.7913496
50
359.0818644
51
359.99995
0
ARC
8
DEFAULT_255_2_778
10
48.6559582
20
125.0100731
40
0.7913727
50
354.9642035
51
359.0816581
0
ARC
8
DEFAULT_255_2_778
10
48.746107
20
124.9916022
40
0.7000293
50
336.4590928
51
355.822534
0
ARC
8
DEFAULT_255_2_778
10
48.7746136
20
124.9844516
40
0.6710565
50
314.7294741
51
336.0466872
0
ARC
8
DEFAULT_255_2_778
10
48.7758339
20
124.9848142
40
0.6704562
50
291.7776089
51
314.6335801
0
ARC
8
DEFAULT_255_2_778
10
48.6851204
20
125.2299165
40
0.9317449
50
273.8804696
51
291.3659187
0
ARC
8
DEFAULT_255_2_778
10
48.6451642
20
125.5410594
40
1.2450204
50
270.3579894
51
274.7460458
0
ARC
8
DEFAULT_255_2_778
10
48.6450713
20
125.5453216
40
1.2492829
50
270.0000017
51
270.3610261
0
ARC
8
DEFAULT_255_2_778
10
48.6453173
20
125.5568783
40
1.2608396
50
261.680213
51
269.9888232
0
ARC
8
DEFAULT_255_2_778
10
48.5799943
20
125.1425884
40
0.8414707
50
242.8242406
51
261.9994665
0
ARC
8
DEFAULT_255_2_778
10
48.4328283
20
124.8711639
40
0.5328403
50
215.3593278
51
243.572103
0
ARC
8
DEFAULT_255_2_778
10
48.3430716
20
124.7854547
40
0.410433
50
180.0289679
51
212.8517992
0
ARC
8
DEFAULT_255_2_778
10
48.3397184
20
124.7852605
40
0.4070798
50
179.2191847
51
180.0018764
0
ARC
8
DEFAULT_255_2_778
10
48.169091
20
124.7954507
40
0.5923327
50
180.449096
51
191.2681862
0
ARC
8
DEFAULT_255_2_778
10
48.3590949
20
124.8353462
40
0.7864722
50
191.4138409
51
199.6398232
0
ARC
8
DEFAULT_255_2_778
10
40.943233
20
125.7608064
40
1.3339635
50
17.3681337
51
29.9714038
0
ARC
8
DEFAULT_255_2_778
10
41.4004414
20
126.0309277
40
0.802971
50
29.5723341
51
53.4305942
0
ARC
8
DEFAULT_255_2_778
10
41.4663762
20
126.0910439
40
0.715611
50
54.8028563
51
89.3884559
0
ARC
8
DEFAULT_255_2_778
10
41.4426593
20
125.8483024
40
0.9588246
50
88.1260186
51
90.008162
0
ARC
8
DEFAULT_255_2_778
10
41.4433749
20
125.756878
40
1.0502494
50
90.046493
51
94.2715546
0
ARC
8
DEFAULT_255_2_778
10
41.4495135
20
125.6630403
40
1.1442838
50
94.2281
51
94.4928467
0
ARC
8
DEFAULT_255_2_778
10
41.4016572
20
125.6395689
40
1.1649885
50
92.0552779
51
107.2170955
0
ARC
8
DEFAULT_255_2_778
10
41.2672888
20
126.054043
40
0.7293369
50
106.771983
51
161.5100622
0
ARC
8
DEFAULT_255_2_778
10
41.6406649
20
125.898439
40
1.1331625
50
160.0355027
51
169.2805266
0
ARC
8
DEFAULT_255_2_778
10
41.5577812
20
126.0962106
40
1.0305867
50
179.2773897
51
195.5052836
0
ARC
8
DEFAULT_255_2_778
10
41.1948975
20
125.99509
40
0.6538778
50
195.4674578
51
252.5576652
0
ARC
8
DEFAULT_255_2_778
10
41.3861317
20
126.4744075
40
1.1691204
50
250.6574076
51
262.4182136
0
ARC
8
DEFAULT_255_2_778
10
41.244169
20
122.8782007
40
2.4373382
50
83.8754381
51
90.2889689
0
ARC
8
DEFAULT_255_2_778
10
41.3700584
20
124.0060501
40
1.3025042
50
73.8342195
51
84.0883572
0
ARC
8
DEFAULT_255_2_778
10
41.5641715
20
124.6544847
40
0.625692
50
55.2582604
51
74.3747099
0
ARC
8
DEFAULT_255_2_778
10
41.7329399
20
124.8952469
40
0.3316766
50
358.334672
51
55.5133783
0
ARC
8
DEFAULT_255_2_778
10
41.5911897
20
124.960119
40
0.4791161
50
290.2744107
51
351.0531718
0
ARC
8
DEFAULT_255_2_778
10
41.4449167
20
125.3136261
40
0.861533
50
275.9115331
51
291.2530299
0
ARC
8
DEFAULT_255_2_778
10
41.3761882
20
125.8535247
40
1.4056969
50
269.8012924
51
276.4315258
0
ARC
8
DEFAULT_255_2_778
10
41.3728486
20
126.3100679
40
1.8622322
50
267.0548755
51
269.9527564
0
ARC
8
DEFAULT_255_2_778
10
41.3895782
20
126.6506289
40
2.2032031
50
265.0605631
51
267.0754314
0
ARC
8
DEFAULT_255_2_778
10
41.238571
20
125.0698485
40
0.6154581
50
238.4952641
51
266.3953684
0
ARC
8
DEFAULT_255_2_778
10
41.2261116
20
125.0125465
40
0.5604248
50
200.6890209
51
236.5195266
0
ARC
8
DEFAULT_255_2_778
10
41.4501117
20
125.1211673
40
0.8086673
50
199.4038645
51
202.2818214
0
LINE
8
DEFAULT_255_2_778
10
40.6873764
20
124.8525079
11
40.3671764
21
124.8525079
0
ARC
8
DEFAULT_255_2_778
10
41.5503386
20
125.0993803
40
1.2086433
50
191.7859349
51
207.4086844
0
ARC
8
DEFAULT_255_2_778
10
41.1990557
20
124.9174237
40
0.8130327
50
207.4211146
51
260.4215189
0
ARC
8
DEFAULT_255_2_778
10
41.316958
20
125.3849634
40
1.2942444
50
258.718628
51
267.6494382
0
ARC
8
DEFAULT_255_2_778
10
41.2766922
20
125.9871375
40
1.8953729
50
269.612586
51
280.2226639
0
ARC
8
DEFAULT_255_2_778
10
41.4049427
20
125.3037831
40
1.2001154
50
279.9869623
51
297.5717504
0
ARC
8
DEFAULT_255_2_778
10
41.5395444
20
125.0359709
40
0.9004285
50
297.8672672
51
330.1579436
0
ARC
8
DEFAULT_255_2_778
10
41.460333
20
124.9348283
40
0.9275627
50
338.0366859
51
347.8583996
0
ARC
8
DEFAULT_255_2_778
10
41.6574432
20
124.8921711
40
0.7258896
50
347.8777482
51
359.8129301
0
ARC
8
DEFAULT_255_2_778
10
41.725386
20
124.8866184
40
0.6579506
50
0.2771536
51
37.8845304
0
ARC
8
DEFAULT_255_2_778
10
41.4152249
20
124.6607254
40
1.0415309
50
37.2147381
51
51.0021645
0
ARC
8
DEFAULT_255_2_778
10
41.1311721
20
124.3272342
40
1.4795022
50
50.5802683
51
55.5326467
0
ARC
8
DEFAULT_255_2_778
10
41.4164911
20
124.4571465
40
1.2216733
50
63.1390168
51
89.055529
0
ARC
8
DEFAULT_255_2_778
10
41.3920245
20
124.1584311
40
1.520877
50
88.3194034
51
90.0055773
0
ARC
8
DEFAULT_255_2_778
10
41.3138374
20
126.9493182
40
1.2724056
50
270.9572787
51
273.5162633
0
ARC
8
DEFAULT_255_2_778
10
41.3167629
20
126.8139213
40
1.1369791
50
270.0050641
51
270.9238685
0
ARC
8
DEFAULT_255_2_778
10
41.3052587
20
126.4414832
40
0.7646292
50
255.7560559
51
270.8696039
0
ARC
8
DEFAULT_255_2_778
10
41.1966066
20
126.0455395
40
0.354212
50
218.486999
51
257.0323403
0
ARC
8
DEFAULT_255_2_778
10
41.2281021
20
126.0449218
40
0.3790132
50
182.4179603
51
215.4494119
0
ARC
8
DEFAULT_255_2_778
10
41.4681183
20
126.0755014
40
0.6204423
50
179.934755
51
184.3046088
0
ARC
8
DEFAULT_255_2_778
10
41.1782392
20
126.0912568
40
0.3309051
50
140.9627552
51
182.6065979
0
ARC
8
DEFAULT_255_2_778
10
41.1942457
20
126.04988
40
0.3700562
50
104.5084514
51
137.545554
0
ARC
8
DEFAULT_255_2_778
10
41.3272096
20
125.6037847
40
0.8354087
50
91.5507286
51
105.67218
0
ARC
8
DEFAULT_255_2_778
10
41.359117
20
125.1136661
40
1.3263421
50
89.9671937
51
92.3556318
0
ARC
8
DEFAULT_255_2_778
10
41.4045797
20
125.2735513
40
1.1673129
50
90.0229134
51
92.1947295
0
ARC
8
DEFAULT_255_2_778
10
41.4161067
20
125.6716262
40
0.7693315
50
74.78598
51
90.8932707
0
ARC
8
DEFAULT_255_2_778
10
41.5295513
20
126.0496352
40
0.3749408
50
16.9122395
51
76.3554883
0
ARC
8
DEFAULT_255_2_778
10
51.7714701
20
125.2530771
40
1.2377913
50
193.6767996
51
201.8595054
0
ARC
8
DEFAULT_255_2_778
10
52.208445
20
125.3646786
40
1.6887711
50
187.9431045
51
193.8503944
0
ARC
8
DEFAULT_255_2_778
10
52.1811152
20
125.5686232
40
1.6610818
50
165.1012103
51
171.1349786
0
ARC
8
DEFAULT_255_2_778
10
51.3838849
20
125.8657267
40
0.8069346
50
145.5492313
51
152.0041521
0
ARC
8
DEFAULT_255_2_778
10
51.2224117
20
125.9857953
40
0.6056621
50
128.4518779
51
137.4572242
0
ARC
8
DEFAULT_255_2_778
10
51.1762234
20
126.0412505
40
0.5336225
50
106.9810128
51
117.7481335
0
ARC
8
DEFAULT_255_2_778
10
51.2592177
20
126.0450723
40
0.5286595
50
60.6574874
51
71.4642737
0
ARC
8
DEFAULT_255_2_778
10
51.2187477
20
125.9915885
40
0.5960476
50
41.2650871
51
50.3633478
0
ARC
8
DEFAULT_255_2_778
10
51.0256305
20
125.8490261
40
0.83652
50
27.2701251
51
33.5144177
0
ARC
8
DEFAULT_255_2_778
10
50.6864373
20
125.6977525
40
1.2082728
50
13.6312071
51
22.0065707
0
ARC
8
DEFAULT_255_2_778
10
50.2322931
20
125.5829247
40
1.6766929
50
7.8493204
51
13.7871866
0
ARC
8
DEFAULT_255_2_778
10
50.2490821
20
125.3685677
40
1.6603537
50
345.4486525
51
351.4251896
0
ARC
8
DEFAULT_255_2_778
10
50.5616301
20
125.2905284
40
1.3382276
50
337.7683876
51
345.3205983
0
ARC
8
DEFAULT_255_2_778
10
51.041688
20
125.0795884
40
0.8131614
50
325.9178233
51
332.3486234
0
ARC
8
DEFAULT_255_2_778
10
51.2198454
20
124.943835
40
0.588567
50
308.779103
51
318.078692
0
ARC
8
DEFAULT_255_2_778
10
51.2497384
20
124.9117837
40
0.5448907
50
287.498488
51
298.0747427
0
ARC
8
DEFAULT_255_2_778
10
51.1953243
20
124.9678578
40
0.6031101
50
251.6824007
51
261.4132961
0
ARC
8
DEFAULT_255_2_778
10
51.1687019
20
124.8986609
40
0.5287024
50
230.4818212
51
241.0983983
0
ARC
8
DEFAULT_255_2_778
10
51.2563111
20
124.9920798
40
0.6573154
50
213.3720709
51
221.4559723
0
ARC
8
DEFAULT_255_2_778
10
52.0422427
20
125.5932537
40
1.8128484
50
165.7625353
51
172.7030169
0
ARC
8
DEFAULT_255_2_778
10
52.1928559
20
125.3828508
40
1.9663406
50
186.269744
51
192.6805979
0
ARC
8
DEFAULT_255_2_778
10
51.2117042
20
125.0546798
40
0.9244865
50
214.0228498
51
221.1689046
0
ARC
8
DEFAULT_255_2_778
10
51.1855456
20
125.0359911
40
0.8924981
50
221.3712139
51
228.9712674
0
ARC
8
DEFAULT_255_2_778
10
51.1308898
20
124.9892104
40
0.8218957
50
238.2237301
51
246.9187031
0
ARC
8
DEFAULT_255_2_778
10
51.1857501
20
125.1710829
40
1.0121515
50
255.3566356
51
262.6677546
0
ARC
8
DEFAULT_255_2_778
10
51.3007245
20
125.0031998
40
0.8361269
50
288.7418741
51
297.4051307
0
ARC
8
DEFAULT_255_2_778
10
51.3238909
20
124.9556304
40
0.7831414
50
306.5505419
51
315.3550488
0
ARC
8
DEFAULT_255_2_778
10
51.1468242
20
125.0953663
40
1.009294
50
323.464163
51
329.9861435
0
ARC
8
DEFAULT_255_2_778
10
51.0233238
20
125.1619164
40
1.1495301
50
330.1929962
51
335.8661256
0
ARC
8
DEFAULT_255_2_778
10
50.3876846
20
125.3478662
40
1.8128741
50
345.7626093
51
352.7029922
0
ARC
8
DEFAULT_255_2_778
10
50.2849515
20
125.5637985
40
1.9173728
50
6.2641602
51
12.8404022
0
ARC
8
DEFAULT_255_2_778
10
50.7694491
20
125.6768872
40
1.4198611
50
12.7359744
51
21.7230952
0
ARC
8
DEFAULT_255_2_778
10
51.2240676
20
125.8916486
40
0.9151414
50
33.9863155
51
41.2054389
0
ARC
8
DEFAULT_255_2_778
10
51.2837342
20
125.9450384
40
0.8350805
50
41.1462978
51
49.2649093
0
ARC
8
DEFAULT_255_2_778
10
51.3009815
20
125.9633858
40
0.8100347
50
57.9964986
51
66.8162853
0
ARC
8
DEFAULT_255_2_778
10
51.2467469
20
125.7895194
40
0.9925205
50
75.2898815
51
82.7514884
0
ARC
8
DEFAULT_255_2_778
10
51.1306757
20
125.9317669
40
0.843117
50
108.7778588
51
117.3691549
0
ARC
8
DEFAULT_255_2_778
10
51.0991492
20
125.9925983
40
0.7745046
50
126.5349574
51
135.4427087
0
ARC
8
DEFAULT_255_2_778
10
51.2466148
20
125.8720806
40
0.9657442
50
143.4719021
51
150.2835389
0
ARC
8
DEFAULT_255_2_778
10
51.3341733
20
125.8180762
40
1.068564
50
150.0959394
51
156.1872401
0
ARC
8
DEFAULT_255_2_778
10
54.2463277
20
125.2626074
40
1.2668238
50
193.8009118
51
201.7971661
0
ARC
8
DEFAULT_255_2_778
10
54.6832291
20
125.3689739
40
1.716486
50
187.958789
51
193.7699841
0
ARC
8
DEFAULT_255_2_778
10
54.6303753
20
125.5686816
40
1.6629416
50
165.1096425
51
171.1400329
0
ARC
8
DEFAULT_255_2_778
10
53.8035378
20
125.8833125
40
0.774277
50
145.4425011
51
152.1763269
0
ARC
8
DEFAULT_255_2_778
10
53.6710665
20
125.9853812
40
0.6070019
50
128.5027156
51
137.4945986
0
ARC
8
DEFAULT_255_2_778
10
53.6236234
20
126.0415505
40
0.5336225
50
106.9810128
51
117.7481335
0
ARC
8
DEFAULT_255_2_778
10
53.7060162
20
126.0454571
40
0.529055
50
60.6068121
51
71.4099159
0
ARC
8
DEFAULT_255_2_778
10
53.683246
20
126.0096805
40
0.571596
50
41.0700023
51
50.5583395
0
ARC
8
DEFAULT_255_2_778
10
53.495072
20
125.863197
40
0.8108449
50
27.1186286
51
33.5572714
0
ARC
8
DEFAULT_255_2_778
10
53.110766
20
125.6904918
40
1.2328877
50
13.7392883
51
21.9382752
0
ARC
8
DEFAULT_255_2_778
10
52.7067088
20
125.5897876
40
1.6493022
50
7.7678946
51
13.8038123
0
ARC
8
DEFAULT_255_2_778
10
52.7230358
20
125.3630437
40
1.6333533
50
345.4319898
51
351.5067116
0
ARC
8
DEFAULT_255_2_778
10
53.0492149
20
125.2787345
40
1.2964549
50
337.615006
51
345.4123279
0
ARC
8
DEFAULT_255_2_778
10
53.4713809
20
125.0911513
40
0.8341077
50
325.9986505
51
332.2677961
0
ARC
8
DEFAULT_255_2_778
10
53.6724698
20
124.9390265
40
0.5812822
50
308.7207507
51
318.1371471
0
ARC
8
DEFAULT_255_2_778
10
53.6915484
20
124.9269381
40
0.5605485
50
287.5930329
51
297.8919809
0
ARC
8
DEFAULT_255_2_778
10
53.6451195
20
124.9783655
40
0.6133638
50
251.7638056
51
261.3316434
0
ARC
8
DEFAULT_255_2_778
10
53.6161019
20
124.8991609
40
0.5287024
50
230.4818212
51
241.0983983
0
ARC
8
DEFAULT_255_2_778
10
53.7302661
20
125.0135126
40
0.6910124
50
213.6103803
51
221.2928652
0
ARC
8
DEFAULT_255_2_778
10
54.4896682
20
125.5932497
40
1.8128741
50
165.7626093
51
172.7029922
0
ARC
8
DEFAULT_255_2_778
10
54.6403197
20
125.3828615
40
1.9664052
50
186.2698498
51
192.6804926
0
ARC
8
DEFAULT_255_2_778
10
53.6591042
20
125.0546798
40
0.9244865
50
214.0228498
51
221.1689046
0
ARC
8
DEFAULT_255_2_778
10
53.6329456
20
125.0359911
40
0.8924981
50
221.3712139
51
228.9712674
0
ARC
8
DEFAULT_255_2_778
10
53.5782933
20
124.9892178
40
0.8219039
50
238.2237955
51
246.9186812
0
ARC
8
DEFAULT_255_2_778
10
53.6331501
20
125.1710829
40
1.0121515
50
255.3566356
51
262.6677546
0
ARC
8
DEFAULT_255_2_778
10
53.7481245
20
125.0031998
40
0.8361269
50
288.7418741
51
297.4051307
0
ARC
8
DEFAULT_255_2_778
10
53.7712979
20
124.9556217
40
0.7831303
50
306.5505105
51
315.3551426
0
ARC
8
DEFAULT_255_2_778
10
53.5942451
20
125.0953535
40
1.0092695
50
323.4640441
51
329.986183
0
ARC
8
DEFAULT_255_2_778
10
53.4707238
20
125.1619164
40
1.1495301
50
330.1929962
51
335.8661256
0
ARC
8
DEFAULT_255_2_778
10
52.8351117
20
125.3478619
40
1.8128468
50
345.7625307
51
352.7030185
0
ARC
8
DEFAULT_255_2_778
10
52.7323532
20
125.5637988
40
1.9173711
50
6.2641557
51
12.8404037
0
ARC
8
DEFAULT_255_2_778
10
53.2168491
20
125.6768872
40
1.4198611
50
12.7359744
51
21.7230952
0
ARC
8
DEFAULT_255_2_778
10
53.6714676
20
125.8916486
40
0.9151414
50
33.9863155
51
41.2054389
0
ARC
8
DEFAULT_255_2_778
10
53.7311144
20
125.9450184
40
0.8351085
50
41.1464391
51
49.2647777
0
ARC
8
DEFAULT_255_2_778
10
53.7483849
20
125.9633931
40
0.8100267
50
57.9964329
51
66.8163073
0
ARC
8
DEFAULT_255_2_778
10
53.6941453
20
125.7895108
40
0.9925291
50
75.2899168
51
82.7514585
0
ARC
8
DEFAULT_255_2_778
10
53.5780813
20
125.9317536
40
0.8431314
50
108.7779292
51
117.3690781
0
ARC
8
DEFAULT_255_2_778
10
53.546556
20
125.9925898
40
0.7745155
50
126.5349887
51
135.4426149
0
ARC
8
DEFAULT_255_2_778
10
53.6940148
20
125.8720806
40
0.9657442
50
143.4719021
51
150.2835389
0
ARC
8
DEFAULT_255_2_778
10
53.7815733
20
125.8180762
40
1.068564
50
150.0959394
51
156.1872401
0
LINE
8
DEFAULT_255_2_778
10
42.7687764
20
127.7589079
11
42.4319764
21
127.7589079
0
LINE
8
DEFAULT_255_2_778
10
42.4319764
20
127.7589079
11
42.4319764
21
127.7491079
0
LINE
8
DEFAULT_255_2_778
10
42.4319764
20
127.7491079
11
42.7687764
21
127.7491079
0
LINE
8
DEFAULT_255_2_778
10
42.7687764
20
127.7491079
11
42.7687764
21
130.4368079
0
LINE
8
DEFAULT_255_2_778
10
42.7687764
20
130.4368079
11
42.4319764
21
130.4368079
0
LINE
8
DEFAULT_255_2_778
10
42.4319764
20
130.4368079
11
42.4319764
21
127.7589079
0
LINE
8
DEFAULT_255_2_778
10
41.4752764
20
129.7973079
11
41.8141764
21
129.7973079
0
LINE
8
DEFAULT_255_2_778
10
50.0138764
20
127.7634079
11
50.2668764
21
127.7634079
0
LINE
8
DEFAULT_255_2_778
10
50.2668764
20
127.7634079
11
50.2668764
21
130.1965079
0
LINE
8
DEFAULT_255_2_778
10
50.2668764
20
130.1965079
11
51.1822764
21
130.1965079
0
LINE
8
DEFAULT_255_2_778
10
51.1822764
20
130.1965079
11
51.1822764
21
130.4093079
0
LINE
8
DEFAULT_255_2_778
10
51.1822764
20
130.4093079
11
49.0984764
21
130.4093079
0
LINE
8
DEFAULT_255_2_778
10
49.0984764
20
130.4093079
11
49.0984764
21
130.1965079
0
LINE
8
DEFAULT_255_2_778
10
49.0984764
20
130.1965079
11
50.0138764
21
130.1965079
0
LINE
8
DEFAULT_255_2_778
10
50.0138764
20
130.1965079
11
50.0138764
21
127.7634079
0
LINE
8
DEFAULT_255_2_778
10
45.6368764
20
127.7304079
11
45.8572764
21
127.7304079
0
LINE
8
DEFAULT_255_2_778
10
45.8572764
20
127.7304079
11
45.8572764
21
130.4423079
0
LINE
8
DEFAULT_255_2_778
10
45.8572764
20
130.4423079
11
45.5058764
21
130.4423079
0
LINE
8
DEFAULT_255_2_778
10
45.5058764
20
130.4423079
11
44.5674764
21
128.0777079
0
LINE
8
DEFAULT_255_2_778
10
44.5674764
20
128.0777079
11
43.6289764
21
130.4423079
0
LINE
8
DEFAULT_255_2_778
10
43.6289764
20
130.4423079
11
43.2775764
21
130.4423079
0
LINE
8
DEFAULT_255_2_778
10
43.2775764
20
130.4423079
11
43.2775764
21
127.7304079
0
LINE
8
DEFAULT_255_2_778
10
43.2775764
20
127.7304079
11
43.4979764
21
127.7304079
0
LINE
8
DEFAULT_255_2_778
10
43.4979764
20
127.7304079
11
43.4979764
21
130.2132079
0
LINE
8
DEFAULT_255_2_778
10
43.4979764
20
130.2132079
11
44.4671764
21
127.7304079
0
LINE
8
DEFAULT_255_2_778
10
44.4671764
20
127.7304079
11
44.6669764
21
127.7304079
0
LINE
8
DEFAULT_255_2_778
10
44.6669764
20
127.7304079
11
45.6368764
21
130.2132079
0
LINE
8
DEFAULT_255_2_778
10
45.6368764
20
130.2132079
11
45.6368764
21
127.7304079
0
LINE
8
DEFAULT_255_2_778
10
54.3249764
20
129.7944079
11
54.6046764
21
129.7944079
0
LINE
8
DEFAULT_255_2_778
10
54.6371764
20
128.4550079
11
54.3533764
21
128.4550079
0
LINE
8
DEFAULT_255_2_778
10
54.3286764
20
128.3691079
11
54.3101764
21
128.3280079
0
LINE
8
DEFAULT_255_2_778
10
54.3101764
20
128.3280079
11
54.2876764
21
128.2892079
0
LINE
8
DEFAULT_255_2_778
10
54.2876764
20
128.2892079
11
54.2617764
21
128.2524079
0
LINE
8
DEFAULT_255_2_778
10
54.2617764
20
128.2524079
11
54.2323764
21
128.2174079
0
LINE
8
DEFAULT_255_2_778
10
54.3263764
20
129.7938079
11
54.3212764
21
129.8282079
0
LINE
8
DEFAULT_255_2_778
10
46.3864764
20
127.7309079
11
46.6121764
21
127.7304079
0
LINE
8
DEFAULT_255_2_778
10
46.6121764
20
127.7304079
11
46.8708764
21
128.4744079
0
LINE
8
DEFAULT_255_2_778
10
46.8708764
20
128.4744079
11
48.0710764
21
128.4744079
0
LINE
8
DEFAULT_255_2_778
10
48.0710764
20
128.4744079
11
48.3324764
21
127.7311079
0
LINE
8
DEFAULT_255_2_778
10
48.3324764
20
127.7311079
11
48.5692764
21
127.7325079
0
LINE
8
DEFAULT_255_2_778
10
48.5692764
20
127.7325079
11
47.6019764
21
130.4426079
0
LINE
8
DEFAULT_255_2_778
10
47.6019764
20
130.4426079
11
47.3442764
21
130.4426079
0
LINE
8
DEFAULT_255_2_778
10
47.3442764
20
130.4426079
11
46.3864764
21
127.7309079
0
LINE
8
DEFAULT_255_2_778
10
47.9927764
20
128.6770079
11
46.9396764
21
128.6770079
0
LINE
8
DEFAULT_255_2_778
10
46.9396764
20
128.6770079
11
47.4714764
21
130.2243079
0
LINE
8
DEFAULT_255_2_778
10
47.4714764
20
130.2243079
11
47.9927764
21
128.6770079
0
LINE
8
DEFAULT_255_2_778
10
47.9898764
20
128.6855079
11
47.4852764
21
130.2217079
0
LINE
8
DEFAULT_255_2_778
10
45.3460764
20
125.1081079
11
45.3460764
21
125.3936079
0
LINE
8
DEFAULT_255_2_778
10
45.3460764
20
125.3936079
11
46.1334764
21
125.3936079
0
LINE
8
DEFAULT_255_2_778
10
46.1334764
20
125.3936079
11
46.1334764
21
125.1081079
0
LINE
8
DEFAULT_255_2_778
10
46.1334764
20
125.1081079
11
45.3460764
21
125.1081079
0
LINE
8
DEFAULT_255_2_778
10
45.3460764
20
125.1081079
11
45.3460764
21
125.0983079
0
LINE
8
DEFAULT_255_2_778
10
45.3460764
20
125.0983079
11
46.1334764
21
125.0983079
0
LINE
8
DEFAULT_255_2_778
10
46.1334764
20
125.0983079
11
46.1334764
21
125.1081079
0
LINE
8
DEFAULT_255_2_778
10
49.7336764
20
124.9840079
11
49.7336764
21
124.9935079
0
LINE
8
DEFAULT_255_2_778
10
47.0127764
20
126.5366079
11
47.0127764
21
124.1585079
0
LINE
8
DEFAULT_255_2_778
10
47.0127764
20
124.1585079
11
47.2211764
21
124.1585079
0
LINE
8
DEFAULT_255_2_778
10
47.2211764
20
124.1585079
11
47.2211764
21
126.8043079
0
LINE
8
DEFAULT_255_2_778
10
47.2211764
20
126.8043079
11
47.0248764
21
126.8043079
0
LINE
8
DEFAULT_255_2_778
10
47.0248764
20
126.8043079
11
46.8499764
21
126.6220079
0
LINE
8
DEFAULT_255_2_778
10
46.8499764
20
126.6220079
11
46.7880764
21
126.5670079
0
LINE
8
DEFAULT_255_2_778
10
46.7880764
20
126.5670079
11
46.7235764
21
126.5172079
0
LINE
8
DEFAULT_255_2_778
10
46.7235764
20
126.5172079
11
46.6568764
21
126.4720079
0
LINE
8
DEFAULT_255_2_778
10
46.6568764
20
126.4720079
11
46.5189764
21
126.3929079
0
LINE
8
DEFAULT_255_2_778
10
46.5189764
20
126.3929079
11
46.5189764
21
126.1479079
0
LINE
8
DEFAULT_255_2_778
10
43.3627764
20
123.9606079
11
43.6958764
21
123.9598079
0
LINE
8
DEFAULT_255_2_778
10
43.6958764
20
123.9598079
11
44.8650764
21
126.5717079
0
LINE
8
DEFAULT_255_2_778
10
44.8650764
20
126.5717079
11
44.8642764
21
126.8242079
0
LINE
8
DEFAULT_255_2_778
10
44.8642764
20
126.8242079
11
42.9449764
21
126.8242079
0
LINE
8
DEFAULT_255_2_778
10
42.9449764
20
126.8242079
11
42.9449764
21
126.5802079
0
LINE
8
DEFAULT_255_2_778
10
42.9449764
20
126.5802079
11
44.5687764
21
126.5802079
0
LINE
8
DEFAULT_255_2_778
10
44.5687764
20
126.5802079
11
43.3627764
21
123.9606079
0
LINE
8
DEFAULT_255_2_778
10
47.9726764
20
125.6105079
11
48.0313764
21
126.5995079
0
LINE
8
DEFAULT_255_2_778
10
48.0313764
20
126.5995079
11
49.6090764
21
126.5995079
0
LINE
8
DEFAULT_255_2_778
10
49.6090764
20
126.5995079
11
49.6090764
21
126.8040079
0
LINE
8
DEFAULT_255_2_778
10
49.6090764
20
126.8040079
11
47.7297764
21
126.8040079
0
LINE
8
DEFAULT_255_2_778
10
47.7297764
20
126.8040079
11
47.6455764
21
125.2512079
0
LINE
8
DEFAULT_255_2_778
10
47.6455764
20
125.2512079
11
47.9726764
21
125.2512079
0
LINE
8
DEFAULT_255_2_778
10
47.9326764
20
124.7908079
11
47.5767764
21
124.7908079
0
LINE
8
DEFAULT_255_2_778
10
41.8882764
20
126.1587079
11
42.2163764
21
126.1590079
0
LINE
8
DEFAULT_255_2_778
10
50.5358764
20
125.1313079
11
50.5189764
21
125.3041079
0
LINE
8
DEFAULT_255_2_778
10
50.5189764
20
125.3041079
11
50.5141764
21
125.4785079
0
LINE
8
DEFAULT_255_2_778
10
50.5141764
20
125.4785079
11
50.5205764
21
125.6520079
0
LINE
8
DEFAULT_255_2_778
10
50.5205764
20
125.6520079
11
50.5398764
21
125.8246079
0
LINE
8
DEFAULT_255_2_778
10
50.5758764
20
125.9957079
11
50.6015764
21
126.0807079
0
LINE
8
DEFAULT_255_2_778
10
50.6015764
20
126.0807079
11
50.6329764
21
126.1638079
0
LINE
8
DEFAULT_255_2_778
10
50.6329764
20
126.1638079
11
50.6713764
21
126.2445079
0
LINE
8
DEFAULT_255_2_778
10
50.7184764
20
126.3222079
11
50.7459764
21
126.3595079
0
LINE
8
DEFAULT_255_2_778
10
50.7459764
20
126.3595079
11
50.7761764
21
126.3953079
0
LINE
8
DEFAULT_255_2_778
10
50.8457764
20
126.4601079
11
50.8854764
21
126.4887079
0
LINE
8
DEFAULT_255_2_778
10
50.8854764
20
126.4887079
11
50.9277764
21
126.5135079
0
LINE
8
DEFAULT_255_2_778
10
51.0203764
20
126.5516079
11
51.0452764
21
126.5588079
0
LINE
8
DEFAULT_255_2_778
10
51.0452764
20
126.5588079
11
51.1208764
21
126.5733079
0
LINE
8
DEFAULT_255_2_778
10
51.1208764
20
126.5733079
11
51.2246764
21
126.5791079
0
LINE
8
DEFAULT_255_2_778
10
51.2246764
20
126.5791079
11
51.3275764
21
126.5707079
0
LINE
8
DEFAULT_255_2_778
10
51.3275764
20
126.5707079
11
51.4272764
21
126.5463079
0
LINE
8
DEFAULT_255_2_778
10
51.5182764
20
126.5059079
11
51.5600764
21
126.4799079
0
LINE
8
DEFAULT_255_2_778
10
51.5600764
20
126.4799079
11
51.5989764
21
126.4506079
0
LINE
8
DEFAULT_255_2_778
10
51.6667764
20
126.3847079
11
51.6963764
21
126.3487079
0
LINE
8
DEFAULT_255_2_778
10
51.6963764
20
126.3487079
11
51.7230764
21
126.3109079
0
LINE
8
DEFAULT_255_2_778
10
51.7691764
20
126.2323079
11
51.8066764
21
126.1505079
0
LINE
8
DEFAULT_255_2_778
10
51.8932764
20
125.8119079
11
51.9101764
21
125.6393079
0
LINE
8
DEFAULT_255_2_778
10
51.9101764
20
125.6393079
11
51.9151764
21
125.4655079
0
LINE
8
DEFAULT_255_2_778
10
51.9151764
20
125.4655079
11
51.9093764
21
125.2925079
0
LINE
8
DEFAULT_255_2_778
10
51.9093764
20
125.2925079
11
51.8908764
21
125.1210079
0
LINE
8
DEFAULT_255_2_778
10
51.8003764
20
124.7842079
11
51.7820764
21
124.7429079
0
LINE
8
DEFAULT_255_2_778
10
51.7820764
20
124.7429079
11
51.7619764
21
124.7022079
0
LINE
8
DEFAULT_255_2_778
10
51.7151764
20
124.6239079
11
51.6878764
21
124.5866079
0
LINE
8
DEFAULT_255_2_778
10
51.6878764
20
124.5866079
11
51.6577764
21
124.5506079
0
LINE
8
DEFAULT_255_2_778
10
51.5884764
20
124.4850079
11
51.5489764
21
124.4564079
0
LINE
8
DEFAULT_255_2_778
10
51.5489764
20
124.4564079
11
51.5061764
21
124.4310079
0
LINE
8
DEFAULT_255_2_778
10
51.4135764
20
124.3921079
11
51.3640764
21
124.3789079
0
LINE
8
DEFAULT_255_2_778
10
51.3640764
20
124.3789079
11
51.3127764
21
124.3699079
0
LINE
8
DEFAULT_255_2_778
10
51.3127764
20
124.3699079
11
51.2089764
21
124.3635079
0
LINE
8
DEFAULT_255_2_778
10
51.2089764
20
124.3635079
11
51.1052764
21
124.3715079
0
LINE
8
DEFAULT_255_2_778
10
51.0057764
20
124.3953079
11
50.9581764
21
124.4135079
0
LINE
8
DEFAULT_255_2_778
10
50.9581764
20
124.4135079
11
50.9131764
21
124.4358079
0
LINE
8
DEFAULT_255_2_778
10
50.8322764
20
124.4908079
11
50.7962764
21
124.5228079
0
LINE
8
DEFAULT_255_2_778
10
50.7962764
20
124.5228079
11
50.7636764
21
124.5569079
0
LINE
8
DEFAULT_255_2_778
10
50.7073764
20
124.6305079
11
50.6830764
21
124.6697079
0
LINE
8
DEFAULT_255_2_778
10
50.6830764
20
124.6697079
11
50.6610764
21
124.7096079
0
LINE
8
DEFAULT_255_2_778
10
50.6610764
20
124.7096079
11
50.6232764
21
124.7919079
0
LINE
8
DEFAULT_255_2_778
10
50.6232764
20
124.7919079
11
50.6226764
21
124.7922079
0
LINE
8
DEFAULT_255_2_778
10
50.3572764
20
126.2497079
11
50.3165764
21
126.1452079
0
LINE
8
DEFAULT_255_2_778
10
50.3165764
20
126.1452079
11
50.2850764
21
126.0391079
0
LINE
8
DEFAULT_255_2_778
10
50.2440764
20
125.8235079
11
50.2252764
21
125.6047079
0
LINE
8
DEFAULT_255_2_778
10
50.2252764
20
125.6047079
11
50.2226764
21
125.4954079
0
LINE
8
DEFAULT_255_2_778
10
50.2226764
20
125.4954079
11
50.2236764
21
125.3861079
0
LINE
8
DEFAULT_255_2_778
10
50.2236764
20
125.3861079
11
50.2382764
21
125.1681079
0
LINE
8
DEFAULT_255_2_778
10
50.2744764
20
124.9512079
11
50.3030764
21
124.8437079
0
LINE
8
DEFAULT_255_2_778
10
50.3030764
20
124.8437079
11
50.3401764
21
124.7384079
0
LINE
8
DEFAULT_255_2_778
10
50.3401764
20
124.7384079
11
50.3869764
21
124.6358079
0
LINE
8
DEFAULT_255_2_778
10
50.3869764
20
124.6358079
11
50.4147764
21
124.5858079
0
LINE
8
DEFAULT_255_2_778
10
50.4147764
20
124.5858079
11
50.4454764
21
124.5374079
0
LINE
8
DEFAULT_255_2_778
10
50.5996764
20
124.3627079
11
50.6472764
21
124.3249079
0
LINE
8
DEFAULT_255_2_778
10
50.6472764
20
124.3249079
11
50.6980764
21
124.2905079
0
LINE
8
DEFAULT_255_2_778
10
50.8086764
20
124.2331079
11
50.8684764
21
124.2103079
0
LINE
8
DEFAULT_255_2_778
10
50.8684764
20
124.2103079
11
50.9298764
21
124.1918079
0
LINE
8
DEFAULT_255_2_778
10
51.0565764
20
124.1672079
11
51.1216764
21
124.1606079
0
LINE
8
DEFAULT_255_2_778
10
51.1216764
20
124.1606079
11
51.1867764
21
124.1577079
0
LINE
8
DEFAULT_255_2_778
10
51.1867764
20
124.1577079
11
51.3161764
21
124.1611079
0
LINE
8
DEFAULT_255_2_778
10
51.3161764
20
124.1611079
11
51.4447764
21
124.1783079
0
LINE
8
DEFAULT_255_2_778
10
51.4447764
20
124.1783079
11
51.5693764
21
124.2114079
0
LINE
8
DEFAULT_255_2_778
10
51.6855764
20
124.2609079
11
51.7130764
21
124.2760079
0
LINE
8
DEFAULT_255_2_778
10
51.7130764
20
124.2760079
11
51.7902764
21
124.3265079
0
LINE
8
DEFAULT_255_2_778
10
51.8810764
20
124.4053079
11
51.9212764
21
124.4490079
0
LINE
8
DEFAULT_255_2_778
10
51.9212764
20
124.4490079
11
51.9577764
21
124.4945079
0
LINE
8
DEFAULT_255_2_778
10
52.0723764
20
124.6919079
11
52.1133764
21
124.7961079
0
LINE
8
DEFAULT_255_2_778
10
52.1133764
20
124.7961079
11
52.1448764
21
124.9020079
0
LINE
8
DEFAULT_255_2_778
10
52.1858764
20
125.1176079
11
52.1974764
21
125.2269079
0
LINE
8
DEFAULT_255_2_778
10
52.1974764
20
125.2269079
11
52.2043764
21
125.3364079
0
LINE
8
DEFAULT_255_2_778
10
52.2043764
20
125.3364079
11
52.2070764
21
125.4457079
0
LINE
8
DEFAULT_255_2_778
10
52.2070764
20
125.4457079
11
52.2059764
21
125.5549079
0
LINE
8
DEFAULT_255_2_778
10
52.2059764
20
125.5549079
11
52.1908764
21
125.7730079
0
LINE
8
DEFAULT_255_2_778
10
52.0884764
20
126.2024079
11
52.0413764
21
126.3050079
0
LINE
8
DEFAULT_255_2_778
10
52.0413764
20
126.3050079
11
52.0135764
21
126.3550079
0
LINE
8
DEFAULT_255_2_778
10
52.0135764
20
126.3550079
11
51.9828764
21
126.4032079
0
LINE
8
DEFAULT_255_2_778
10
51.8286764
20
126.5778079
11
51.7810764
21
126.6159079
0
LINE
8
DEFAULT_255_2_778
10
51.7810764
20
126.6159079
11
51.7302764
21
126.6503079
0
LINE
8
DEFAULT_255_2_778
10
51.6198764
20
126.7080079
11
51.5600764
21
126.7310079
0
LINE
8
DEFAULT_255_2_778
10
51.5600764
20
126.7310079
11
51.4987764
21
126.7495079
0
LINE
8
DEFAULT_255_2_778
10
51.3719764
20
126.7741079
11
51.3068764
21
126.7808079
0
LINE
8
DEFAULT_255_2_778
10
51.3068764
20
126.7808079
11
51.2418764
21
126.7837079
0
LINE
8
DEFAULT_255_2_778
10
51.2418764
20
126.7837079
11
51.1124764
21
126.7802079
0
LINE
8
DEFAULT_255_2_778
10
51.1124764
20
126.7802079
11
50.9838764
21
126.7630079
0
LINE
8
DEFAULT_255_2_778
10
50.9838764
20
126.7630079
11
50.8592764
21
126.7300079
0
LINE
8
DEFAULT_255_2_778
10
50.7430764
20
126.6805079
11
50.7155764
21
126.6654079
0
LINE
8
DEFAULT_255_2_778
10
50.7155764
20
126.6654079
11
50.6380764
21
126.6149079
0
LINE
8
DEFAULT_255_2_778
10
50.5472764
20
126.5360079
11
50.5070764
21
126.4924079
0
LINE
8
DEFAULT_255_2_778
10
50.5070764
20
126.4924079
11
50.4705764
21
126.4469079
0
LINE
8
DEFAULT_255_2_778
10
50.3565764
20
126.2495079
11
50.3572764
21
126.2497079
0
LINE
8
DEFAULT_255_2_778
10
52.9832764
20
125.1313079
11
52.9663764
21
125.3044079
0
LINE
8
DEFAULT_255_2_778
10
52.9663764
20
125.3044079
11
52.9615764
21
125.4787079
0
LINE
8
DEFAULT_255_2_778
10
52.9615764
20
125.4787079
11
52.9679764
21
125.6523079
0
LINE
8
DEFAULT_255_2_778
10
52.9679764
20
125.6523079
11
52.9872764
21
125.8248079
0
LINE
8
DEFAULT_255_2_778
10
53.0232764
20
125.9960079
11
53.0489764
21
126.0809079
0
LINE
8
DEFAULT_255_2_778
10
53.0489764
20
126.0809079
11
53.0803764
21
126.1640079
0
LINE
8
DEFAULT_255_2_778
10
53.0803764
20
126.1640079
11
53.1187764
21
126.2447079
0
LINE
8
DEFAULT_255_2_778
10
53.1658764
20
126.3225079
11
53.1933764
21
126.3598079
0
LINE
8
DEFAULT_255_2_778
10
53.1933764
20
126.3598079
11
53.2235764
21
126.3955079
0
LINE
8
DEFAULT_255_2_778
10
53.2931764
20
126.4604079
11
53.3328764
21
126.4889079
0
LINE
8
DEFAULT_255_2_778
10
53.3328764
20
126.4889079
11
53.3751764
21
126.5138079
0
LINE
8
DEFAULT_255_2_778
10
53.4677764
20
126.5519079
11
53.4926764
21
126.5590079
0
LINE
8
DEFAULT_255_2_778
10
53.4926764
20
126.5590079
11
53.5682764
21
126.5739079
0
LINE
8
DEFAULT_255_2_778
10
53.5682764
20
126.5739079
11
53.6719764
21
126.5797079
0
LINE
8
DEFAULT_255_2_778
10
53.6719764
20
126.5797079
11
53.7749764
21
126.5712079
0
LINE
8
DEFAULT_255_2_778
10
53.7749764
20
126.5712079
11
53.8746764
21
126.5469079
0
LINE
8
DEFAULT_255_2_778
10
53.9656764
20
126.5064079
11
54.0074764
21
126.4805079
0
LINE
8
DEFAULT_255_2_778
10
54.0074764
20
126.4805079
11
54.0463764
21
126.4511079
0
LINE
8
DEFAULT_255_2_778
10
54.1141764
20
126.3852079
11
54.1437764
21
126.3492079
0
LINE
8
DEFAULT_255_2_778
10
54.1437764
20
126.3492079
11
54.1707764
21
126.3114079
0
LINE
8
DEFAULT_255_2_778
10
54.2167764
20
126.2328079
11
54.2543764
21
126.1511079
0
LINE
8
DEFAULT_255_2_778
10
54.3408764
20
125.8127079
11
54.3577764
21
125.6401079
0
LINE
8
DEFAULT_255_2_778
10
54.3577764
20
125.6401079
11
54.3628764
21
125.4663079
0
LINE
8
DEFAULT_255_2_778
10
54.3628764
20
125.4663079
11
54.3570764
21
125.2933079
0
LINE
8
DEFAULT_255_2_778
10
54.3570764
20
125.2933079
11
54.3384764
21
125.1218079
0
LINE
8
DEFAULT_255_2_778
10
54.2479764
20
124.7850079
11
54.2297764
21
124.7437079
0
LINE
8
DEFAULT_255_2_778
10
54.2297764
20
124.7437079
11
54.2096764
21
124.7030079
0
LINE
8
DEFAULT_255_2_778
10
54.1628764
20
124.6247079
11
54.1355764
21
124.5871079
0
LINE
8
DEFAULT_255_2_778
10
54.1355764
20
124.5871079
11
54.1053764
21
124.5511079
0
LINE
8
DEFAULT_255_2_778
10
54.0360764
20
124.4855079
11
53.9966764
21
124.4569079
0
LINE
8
DEFAULT_255_2_778
10
53.9966764
20
124.4569079
11
53.9537764
21
124.4315079
0
LINE
8
DEFAULT_255_2_778
10
53.8609764
20
124.3926079
11
53.8114764
21
124.3794079
0
LINE
8
DEFAULT_255_2_778
10
53.8114764
20
124.3794079
11
53.7601764
21
124.3704079
0
LINE
8
DEFAULT_255_2_778
10
53.7601764
20
124.3704079
11
53.6563764
21
124.3641079
0
LINE
8
DEFAULT_255_2_778
10
53.6563764
20
124.3641079
11
53.5526764
21
124.3720079
0
LINE
8
DEFAULT_255_2_778
10
53.4531764
20
124.3958079
11
53.4055764
21
124.4141079
0
LINE
8
DEFAULT_255_2_778
10
53.4055764
20
124.4141079
11
53.3605764
21
124.4363079
0
LINE
8
DEFAULT_255_2_778
10
53.2796764
20
124.4913079
11
53.2436764
21
124.5233079
0
LINE
8
DEFAULT_255_2_778
10
53.2436764
20
124.5233079
11
53.2110764
21
124.5575079
0
LINE
8
DEFAULT_255_2_778
10
53.1547764
20
124.6310079
11
53.1303764
21
124.6702079
0
LINE
8
DEFAULT_255_2_778
10
53.1303764
20
124.6702079
11
53.1084764
21
124.7101079
0
LINE
8
DEFAULT_255_2_778
10
53.1084764
20
124.7101079
11
53.0706764
21
124.7924079
0
LINE
8
DEFAULT_255_2_778
10
53.0706764
20
124.7924079
11
53.0700764
21
124.7922079
0
LINE
8
DEFAULT_255_2_778
10
52.8046764
20
126.2497079
11
52.7639764
21
126.1452079
0
LINE
8
DEFAULT_255_2_778
10
52.7639764
20
126.1452079
11
52.7324764
21
126.0391079
0
LINE
8
DEFAULT_255_2_778
10
52.6914764
20
125.8235079
11
52.6726764
21
125.6047079
0
LINE
8
DEFAULT_255_2_778
10
52.6726764
20
125.6047079
11
52.6700764
21
125.4954079
0
LINE
8
DEFAULT_255_2_778
10
52.6700764
20
125.4954079
11
52.6710764
21
125.3861079
0
LINE
8
DEFAULT_255_2_778
10
52.6710764
20
125.3861079
11
52.6856764
21
125.1681079
0
LINE
8
DEFAULT_255_2_778
10
52.7218764
20
124.9512079
11
52.7504764
21
124.8437079
0
LINE
8
DEFAULT_255_2_778
10
52.7504764
20
124.8437079
11
52.7874764
21
124.7384079
0
LINE
8
DEFAULT_255_2_778
10
52.7874764
20
124.7384079
11
52.8343764
21
124.6358079
0
LINE
8
DEFAULT_255_2_778
10
52.8343764
20
124.6358079
11
52.8621764
21
124.5858079
0
LINE
8
DEFAULT_255_2_778
10
52.8621764
20
124.5858079
11
52.8928764
21
124.5374079
0
LINE
8
DEFAULT_255_2_778
10
53.0470764
20
124.3627079
11
53.0946764
21
124.3249079
0
LINE
8
DEFAULT_255_2_778
10
53.0946764
20
124.3249079
11
53.1454764
21
124.2905079
0
LINE
8
DEFAULT_255_2_778
10
53.2560764
20
124.2331079
11
53.3158764
21
124.2103079
0
LINE
8
DEFAULT_255_2_778
10
53.3158764
20
124.2103079
11
53.3772764
21
124.1918079
0
LINE
8
DEFAULT_255_2_778
10
53.5039764
20
124.1672079
11
53.5690764
21
124.1606079
0
LINE
8
DEFAULT_255_2_778
10
53.5690764
20
124.1606079
11
53.6341764
21
124.1577079
0
LINE
8
DEFAULT_255_2_778
10
53.6341764
20
124.1577079
11
53.7635764
21
124.1611079
0
LINE
8
DEFAULT_255_2_778
10
53.7635764
20
124.1611079
11
53.8921764
21
124.1783079
0
LINE
8
DEFAULT_255_2_778
10
53.8921764
20
124.1783079
11
54.0167764
21
124.2114079
0
LINE
8
DEFAULT_255_2_778
10
54.1329764
20
124.2609079
11
54.1604764
21
124.2760079
0
LINE
8
DEFAULT_255_2_778
10
54.1604764
20
124.2760079
11
54.2376764
21
124.3265079
0
LINE
8
DEFAULT_255_2_778
10
54.3284764
20
124.4053079
11
54.3686764
21
124.4490079
0
LINE
8
DEFAULT_255_2_778
10
54.3686764
20
124.4490079
11
54.4051764
21
124.4945079
0
LINE
8
DEFAULT_255_2_778
10
54.5197764
20
124.6919079
11
54.5607764
21
124.7961079
0
LINE
8
DEFAULT_255_2_778
10
54.5607764
20
124.7961079
11
54.5922764
21
124.9020079
0
LINE
8
DEFAULT_255_2_778
10
54.6332764
20
125.1176079
11
54.6448764
21
125.2269079
0
LINE
8
DEFAULT_255_2_778
10
54.6448764
20
125.2269079
11
54.6517764
21
125.3364079
0
LINE
8
DEFAULT_255_2_778
10
54.6517764
20
125.3364079
11
54.6543764
21
125.4457079
0
LINE
8
DEFAULT_255_2_778
10
54.6543764
20
125.4457079
11
54.6533764
21
125.5549079
0
LINE
8
DEFAULT_255_2_778
10
54.6533764
20
125.5549079
11
54.6382764
21
125.7730079
0
LINE
8
DEFAULT_255_2_778
10
54.5358764
20
126.2024079
11
54.4887764
21
126.3050079
0
LINE
8
DEFAULT_255_2_778
10
54.4887764
20
126.3050079
11
54.4609764
21
126.3550079
0
LINE
8
DEFAULT_255_2_778
10
54.4609764
20
126.3550079
11
54.4302764
21
126.4032079
0
LINE
8
DEFAULT_255_2_778
10
54.2760764
20
126.5778079
11
54.2284764
21
126.6159079
0
LINE
8
DEFAULT_255_2_778
10
54.2284764
20
126.6159079
11
54.1776764
21
126.6503079
0
LINE
8
DEFAULT_255_2_778
10
54.0672764
20
126.7080079
11
54.0074764
21
126.7310079
0
LINE
8
DEFAULT_255_2_778
10
54.0074764
20
126.7310079
11
53.9461764
21
126.7495079
0
LINE
8
DEFAULT_255_2_778
10
53.8193764
20
126.7741079
11
53.7542764
21
126.7808079
0
LINE
8
DEFAULT_255_2_778
10
53.7542764
20
126.7808079
11
53.6891764
21
126.7837079
0
LINE
8
DEFAULT_255_2_778
10
53.6891764
20
126.7837079
11
53.5598764
21
126.7802079
0
LINE
8
DEFAULT_255_2_778
10
53.5598764
20
126.7802079
11
53.4312764
21
126.7630079
0
LINE
8
DEFAULT_255_2_778
10
53.4312764
20
126.7630079
11
53.3066764
21
126.7300079
0
LINE
8
DEFAULT_255_2_778
10
53.1904764
20
126.6805079
11
53.1629764
21
126.6654079
0
LINE
8
DEFAULT_255_2_778
10
53.1629764
20
126.6654079
11
53.0854764
21
126.6149079
0
LINE
8
DEFAULT_255_2_778
10
52.9946764
20
126.5360079
11
52.9544764
21
126.4924079
0
LINE
8
DEFAULT_255_2_778
10
52.9544764
20
126.4924079
11
52.9179764
21
126.4469079
0
LINE
8
DEFAULT_255_2_778
10
52.8039764
20
126.2495079
11
52.8046764
21
126.2497079
0
LINE
8
DEFAULT_255_2_778
10
26.6686764
20
129.0578079
11
27.6634764
21
129.0578079
0
LINE
8
DEFAULT_255_2_778
10
27.6634764
20
129.0578079
11
27.6634764
21
129.4613079
0
LINE
8
DEFAULT_255_2_778
10
27.6634764
20
129.4613079
11
26.1193764
21
129.4613079
0
LINE
8
DEFAULT_255_2_778
10
26.1193764
20
129.4613079
11
26.1193764
21
127.1758079
0
LINE
8
DEFAULT_255_2_778
10
26.1193764
20
127.1758079
11
27.7163764
21
127.1758079
0
LINE
8
DEFAULT_255_2_778
10
27.7163764
20
127.1758079
11
27.7163764
21
127.5793079
0
LINE
8
DEFAULT_255_2_778
10
27.7163764
20
127.5793079
11
26.6686764
21
127.5793079
0
LINE
8
DEFAULT_255_2_778
10
26.6686764
20
127.5793079
11
26.6686764
21
128.1341079
0
LINE
8
DEFAULT_255_2_778
10
26.6686764
20
128.1341079
11
27.6137764
21
128.1341079
0
LINE
8
DEFAULT_255_2_778
10
27.6137764
20
128.1341079
11
27.6137764
21
128.5376079
0
LINE
8
DEFAULT_255_2_778
10
27.6137764
20
128.5376079
11
26.6686764
21
128.5376079
0
LINE
8
DEFAULT_255_2_778
10
26.6686764
20
128.5376079
11
26.6686764
21
129.0578079
0
ARC
8
DEFAULT_255_2_778
10
31.5354548
20
126.945085
40
2.557321
50
79.1332536
51
86.6548793
0
ARC
8
DEFAULT_255_2_778
10
31.5523839
20
128.1564985
40
1.3447461
50
91.5557278
51
98.7345456
0
ARC
8
DEFAULT_255_2_778
10
31.4260236
20
128.721124
40
0.7643299
50
108.4306975
51
120.9903406
0
ARC
8
DEFAULT_255_2_778
10
31.3529508
20
128.8325427
40
0.6298814
50
135.8792696
51
143.5522217
0
ARC
8
DEFAULT_255_2_778
10
31.404218
20
128.7920745
40
0.6951656
50
143.379528
51
150.3333346
0
ARC
8
DEFAULT_255_2_778
10
31.4014415
20
128.7960114
40
0.6908075
50
150.5030794
51
157.4661492
0
ARC
8
DEFAULT_255_2_778
10
31.4392402
20
128.794059
40
0.7271653
50
165.1153365
51
178.3537858
0
ARC
8
DEFAULT_255_2_778
10
31.3034621
20
128.77856
40
0.5912397
50
184.6577837
51
192.7823986
0
ARC
8
DEFAULT_255_2_778
10
31.1544077
20
128.7333845
40
0.4348224
50
202.4623827
51
213.5380831
0
ARC
8
DEFAULT_255_2_778
10
31.2818827
20
128.8477957
40
0.6062088
50
223.9131816
51
231.8693506
0
ARC
8
DEFAULT_255_2_778
10
31.6838811
20
127.82396
40
0.1680666
50
18.5937228
51
30.3769057
0
ARC
8
DEFAULT_255_2_778
10
31.6665372
20
127.8182893
40
0.1863132
50
7.9161083
51
18.5459146
0
ARC
8
DEFAULT_255_2_778
10
31.5754192
20
127.8109239
40
0.2780064
50
345.4216944
51
352.5440863
0
ARC
8
DEFAULT_255_2_778
10
31.5668486
20
127.8688501
40
0.3231373
50
285.7525666
51
298.0045572
0
ARC
8
DEFAULT_255_2_778
10
31.4923792
20
128.3203945
40
0.7822618
50
270.0255336
51
276.930792
0
ARC
8
DEFAULT_255_2_778
10
31.4926871
20
128.3019011
40
0.7637684
50
269.7218364
51
270.0030559
0
ARC
8
DEFAULT_255_2_778
10
31.4926193
20
128.2936708
40
0.7555377
50
266.7491817
51
269.7239444
0
ARC
8
DEFAULT_255_2_778
10
31.5316652
20
128.925039
40
1.7904976
50
269.8339156
51
276.2398269
0
ARC
8
DEFAULT_255_2_778
10
31.5640672
20
128.5877704
40
1.4517121
50
276.4153703
51
276.9757294
0
ARC
8
DEFAULT_255_2_778
10
31.5988897
20
128.3437275
40
1.2052567
50
276.7415586
51
285.5786783
0
ARC
8
DEFAULT_255_2_778
10
31.7937425
20
127.8202975
40
0.643031
50
308.1973668
51
317.0849161
0
ARC
8
DEFAULT_255_2_778
10
31.8423838
20
127.7766876
40
0.5775718
50
326.9088087
51
336.8314034
0
ARC
8
DEFAULT_255_2_778
10
31.7814773
20
127.8041894
40
0.6443878
50
336.7139589
51
345.6194836
0
ARC
8
DEFAULT_255_2_778
10
31.5177379
20
127.8469432
40
0.912253
50
353.4162827
51
359.6612033
0
ARC
8
DEFAULT_255_2_778
10
31.7884637
20
127.8716097
40
0.6406078
50
6.2408458
51
15.1609657
0
ARC
8
DEFAULT_255_2_778
10
31.9060322
20
127.9022699
40
0.5191139
50
15.2884277
51
26.3338117
0
ARC
8
DEFAULT_255_2_778
10
31.9665513
20
127.934949
40
0.4503854
50
26.0232122
51
44.5750739
0
ARC
8
DEFAULT_255_2_778
10
31.4775511
20
128.8566489
40
0.1974333
50
180.03542
51
192.996161
0
ARC
8
DEFAULT_255_2_778
10
31.4738474
20
128.8565415
40
0.1937296
50
178.6076489
51
180.0043575
0
ARC
8
DEFAULT_255_2_778
10
31.5095218
20
128.8588402
40
0.2293594
50
167.07328
51
179.3982595
0
ARC
8
DEFAULT_255_2_778
10
31.5227825
20
128.8310754
40
0.2560877
50
110.4339967
51
128.1546586
0
LINE
8
DEFAULT_255_2_778
10
32.343775
20
129.3768489
11
32.017575
21
129.4565489
0
LINE
8
DEFAULT_255_2_778
10
31.684675
20
129.4980489
11
31.600275
21
129.5012489
0
LINE
8
DEFAULT_255_2_778
10
31.600275
20
129.5012489
11
31.515875
21
129.5007489
0
LINE
8
DEFAULT_255_2_778
10
31.348175
20
129.4856489
11
31.265075
21
129.4692489
0
LINE
8
DEFAULT_255_2_778
10
31.265075
20
129.4692489
11
31.184375
21
129.4462489
0
LINE
8
DEFAULT_255_2_778
10
31.032475
20
129.3763489
11
30.996775
21
129.3530489
0
LINE
8
DEFAULT_255_2_778
10
30.996775
20
129.3530489
11
30.962875
21
129.3276489
0
LINE
8
DEFAULT_255_2_778
10
30.962875
20
129.3276489
11
30.900775
21
129.2710489
0
LINE
8
DEFAULT_255_2_778
10
30.763375
20
129.0607489
11
30.748575
21
129.0212489
0
LINE
8
DEFAULT_255_2_778
10
30.748575
20
129.0212489
11
30.736475
21
128.9808489
0
LINE
8
DEFAULT_255_2_778
10
30.712375
20
128.8149489
11
30.712075
21
128.7725489
0
LINE
8
DEFAULT_255_2_778
10
30.712075
20
128.7725489
11
30.714175
21
128.7305489
0
LINE
8
DEFAULT_255_2_778
10
30.726875
20
128.6477489
11
30.737975
21
128.6069489
0
LINE
8
DEFAULT_255_2_778
10
30.737975
20
128.6069489
11
30.752575
21
128.5672489
0
LINE
8
DEFAULT_255_2_778
10
30.791975
20
128.4931489
11
30.817075
21
128.4590489
0
LINE
8
DEFAULT_255_2_778
10
30.817075
20
128.4590489
11
30.845175
21
128.4273489
0
LINE
8
DEFAULT_255_2_778
10
30.907575
20
128.3709489
11
30.941475
21
128.3458489
0
LINE
8
DEFAULT_255_2_778
10
30.941475
20
128.3458489
11
30.976975
21
128.3222489
0
LINE
8
DEFAULT_255_2_778
10
30.976975
20
128.3222489
11
31.050775
21
128.2801489
0
LINE
8
DEFAULT_255_2_778
10
31.050775
20
128.2801489
11
31.082275
21
128.2651489
0
LINE
8
DEFAULT_255_2_778
10
31.082275
20
128.2651489
11
31.113975
21
128.2508489
0
LINE
8
DEFAULT_255_2_778
10
31.113975
20
128.2508489
11
31.177975
21
128.2235489
0
LINE
8
DEFAULT_255_2_778
10
31.177975
20
128.2235489
11
31.307175
21
128.1714489
0
LINE
8
DEFAULT_255_2_778
10
31.307175
20
128.1714489
11
31.371975
21
128.1460489
0
LINE
8
DEFAULT_255_2_778
10
31.371975
20
128.1460489
11
31.436775
21
128.1209489
0
LINE
8
DEFAULT_255_2_778
10
31.436775
20
128.1209489
11
31.565875
21
128.0690489
0
LINE
8
DEFAULT_255_2_778
10
31.565875
20
128.0690489
11
31.629875
21
128.0418489
0
LINE
8
DEFAULT_255_2_778
10
31.629875
20
128.0418489
11
31.693175
21
128.0127489
0
LINE
8
DEFAULT_255_2_778
10
31.693175
20
128.0127489
11
31.724075
21
127.9970489
0
LINE
8
DEFAULT_255_2_778
10
31.724075
20
127.9970489
11
31.754275
21
127.9801489
0
LINE
8
DEFAULT_255_2_778
10
31.754275
20
127.9801489
11
31.783075
21
127.9605489
0
LINE
8
DEFAULT_255_2_778
10
31.783075
20
127.9605489
11
31.808475
21
127.9370489
0
LINE
8
DEFAULT_255_2_778
10
31.808475
20
127.9370489
11
31.819375
21
127.9235489
0
LINE
8
DEFAULT_255_2_778
10
31.819375
20
127.9235489
11
31.828875
21
127.9089489
0
LINE
8
DEFAULT_255_2_778
10
31.851075
20
127.8439489
11
31.853475
21
127.8095489
0
LINE
8
DEFAULT_255_2_778
10
31.853475
20
127.8095489
11
31.851075
21
127.7748489
0
LINE
8
DEFAULT_255_2_778
10
31.844475
20
127.7409489
11
31.833375
21
127.7081489
0
LINE
8
DEFAULT_255_2_778
10
31.833375
20
127.7081489
11
31.817775
21
127.6774489
0
LINE
8
DEFAULT_255_2_778
10
31.817775
20
127.6774489
11
31.797975
21
127.6494489
0
LINE
8
DEFAULT_255_2_778
10
31.797975
20
127.6494489
11
31.774375
21
127.6237489
0
LINE
8
DEFAULT_255_2_778
10
31.774375
20
127.6237489
11
31.747975
21
127.6018489
0
LINE
8
DEFAULT_255_2_778
10
31.747975
20
127.6018489
11
31.718575
21
127.5835489
0
LINE
8
DEFAULT_255_2_778
10
31.654575
20
127.5578489
11
31.620975
21
127.5496489
0
LINE
8
DEFAULT_255_2_778
10
31.620975
20
127.5496489
11
31.586775
21
127.5438489
0
LINE
8
DEFAULT_255_2_778
10
31.449775
20
127.5393489
11
31.381175
21
127.5443489
0
LINE
8
DEFAULT_255_2_778
10
31.381175
20
127.5443489
11
31.312975
21
127.5528489
0
LINE
8
DEFAULT_255_2_778
10
31.312975
20
127.5528489
11
31.178575
21
127.5785489
0
LINE
8
DEFAULT_255_2_778
10
31.178575
20
127.5785489
11
31.046475
21
127.6131489
0
LINE
8
DEFAULT_255_2_778
10
31.046475
20
127.6131489
11
30.787975
21
127.7026489
0
LINE
8
DEFAULT_255_2_778
10
30.787975
20
127.7026489
11
30.709175
21
127.2639489
0
LINE
8
DEFAULT_255_2_778
10
30.709175
20
127.2639489
11
30.908675
21
127.2062489
0
LINE
8
DEFAULT_255_2_778
10
30.908675
20
127.2062489
11
31.112675
21
127.1657489
0
LINE
8
DEFAULT_255_2_778
10
31.112675
20
127.1657489
11
31.319075
21
127.1422489
0
LINE
8
DEFAULT_255_2_778
10
31.319075
20
127.1422489
11
31.526475
21
127.1345489
0
LINE
8
DEFAULT_255_2_778
10
31.922575
20
127.1827489
11
31.970675
21
127.1977489
0
LINE
8
DEFAULT_255_2_778
10
31.970675
20
127.1977489
11
32.017775
21
127.2152489
0
LINE
8
DEFAULT_255_2_778
10
32.017775
20
127.2152489
11
32.107775
21
127.2589489
0
LINE
8
DEFAULT_255_2_778
10
32.107775
20
127.2589489
11
32.150575
21
127.2853489
0
LINE
8
DEFAULT_255_2_778
10
32.150575
20
127.2853489
11
32.191375
21
127.3149489
0
LINE
8
DEFAULT_255_2_778
10
32.264675
20
127.3824489
11
32.296975
21
127.4203489
0
LINE
8
DEFAULT_255_2_778
10
32.296975
20
127.4203489
11
32.326275
21
127.4613489
0
LINE
8
DEFAULT_255_2_778
10
32.405675
20
127.6441489
11
32.416575
21
127.6930489
0
LINE
8
DEFAULT_255_2_778
10
32.416575
20
127.6930489
11
32.423975
21
127.7423489
0
LINE
8
DEFAULT_255_2_778
10
32.429975
20
127.8415489
11
32.429275
21
127.8912489
0
LINE
8
DEFAULT_255_2_778
10
32.429275
20
127.8912489
11
32.425275
21
127.9412489
0
LINE
8
DEFAULT_255_2_778
10
32.287375
20
128.2510489
11
32.260975
21
128.2764489
0
LINE
8
DEFAULT_255_2_778
10
32.260975
20
128.2764489
11
32.233175
21
128.3000489
0
LINE
8
DEFAULT_255_2_778
10
32.233175
20
128.3000489
11
32.174475
21
128.3426489
0
LINE
8
DEFAULT_255_2_778
10
32.174475
20
128.3426489
11
32.111775
21
128.3799489
0
LINE
8
DEFAULT_255_2_778
10
32.111775
20
128.3799489
11
32.079175
21
128.3968489
0
LINE
8
DEFAULT_255_2_778
10
32.079175
20
128.3968489
11
32.046075
21
128.4124489
0
LINE
8
DEFAULT_255_2_778
10
32.046075
20
128.4124489
11
31.978875
21
128.4418489
0
LINE
8
DEFAULT_255_2_778
10
31.978875
20
128.4418489
11
31.911475
21
128.4699489
0
LINE
8
DEFAULT_255_2_778
10
31.911475
20
128.4699489
11
31.775475
21
128.5241489
0
LINE
8
DEFAULT_255_2_778
10
31.775475
20
128.5241489
11
31.707175
21
128.5506489
0
LINE
8
DEFAULT_255_2_778
10
31.707175
20
128.5506489
11
31.638875
21
128.5770489
0
LINE
8
DEFAULT_255_2_778
10
31.638875
20
128.5770489
11
31.503675
21
128.6328489
0
LINE
8
DEFAULT_255_2_778
10
31.503675
20
128.6328489
11
31.437275
21
128.6633489
0
LINE
8
DEFAULT_255_2_778
10
31.437275
20
128.6633489
11
31.404775
21
128.6799489
0
LINE
8
DEFAULT_255_2_778
10
31.404775
20
128.6799489
11
31.372975
21
128.6985489
0
LINE
8
DEFAULT_255_2_778
10
31.372975
20
128.6985489
11
31.334075
21
128.7284489
0
LINE
8
DEFAULT_255_2_778
10
31.334075
20
128.7284489
11
31.317475
21
128.7463489
0
LINE
8
DEFAULT_255_2_778
10
31.317475
20
128.7463489
11
31.303475
21
128.7667489
0
LINE
8
DEFAULT_255_2_778
10
31.303475
20
128.7667489
11
31.292575
21
128.7887489
0
LINE
8
DEFAULT_255_2_778
10
31.292575
20
128.7887489
11
31.285175
21
128.8122489
0
LINE
8
DEFAULT_255_2_778
10
31.285975
20
128.9101489
11
31.292875
21
128.9339489
0
LINE
8
DEFAULT_255_2_778
10
31.292875
20
128.9339489
11
31.302375
21
128.9564489
0
LINE
8
DEFAULT_255_2_778
10
31.302375
20
128.9564489
11
31.314575
21
128.9776489
0
LINE
8
DEFAULT_255_2_778
10
31.314575
20
128.9776489
11
31.329375
21
128.9974489
0
LINE
8
DEFAULT_255_2_778
10
31.329375
20
128.9974489
11
31.364575
21
129.0324489
0
LINE
8
DEFAULT_255_2_778
10
31.433375
20
129.0710489
11
31.471475
21
129.0829489
0
LINE
8
DEFAULT_255_2_778
10
31.471475
20
129.0829489
11
31.510075
21
129.0908489
0
LINE
8
DEFAULT_255_2_778
10
31.510075
20
129.0908489
11
31.588875
21
129.0972489
0
LINE
8
DEFAULT_255_2_778
10
31.588875
20
129.0972489
11
31.628575
21
129.0969489
0
LINE
8
DEFAULT_255_2_778
10
31.628575
20
129.0969489
11
31.668275
21
129.0951489
0
LINE
8
DEFAULT_255_2_778
10
31.668275
20
129.0951489
11
31.747175
21
129.0877489
0
LINE
8
DEFAULT_255_2_778
10
31.747175
20
129.0877489
11
31.825675
21
129.0755489
0
LINE
8
DEFAULT_255_2_778
10
31.825675
20
129.0755489
11
31.980275
21
129.0392489
0
LINE
8
DEFAULT_255_2_778
10
31.980275
20
129.0392489
11
32.043975
21
129.0205489
0
LINE
8
DEFAULT_255_2_778
10
32.043975
20
129.0205489
11
32.107275
21
128.9998489
0
LINE
8
DEFAULT_255_2_778
10
32.107275
20
128.9998489
11
32.233175
21
128.9570489
0
LINE
8
DEFAULT_255_2_778
10
32.233175
20
128.9570489
11
32.343475
21
129.3761489
0
LINE
8
DEFAULT_255_2_778
10
29.7370783
20
127.8952
11
29.4415783
21
128.4323
0
LINE
8
DEFAULT_255_2_778
10
29.4415783
20
128.4323
11
28.7914783
21
129.4613
0
LINE
8
DEFAULT_255_2_778
10
28.7914783
20
129.4613
11
28.1852783
21
129.4613
0
LINE
8
DEFAULT_255_2_778
10
28.1852783
20
129.4613
11
28.1852783
21
127.1758
0
LINE
8
DEFAULT_255_2_778
10
28.1852783
20
127.1758
11
28.7139783
21
127.1758
0
LINE
8
DEFAULT_255_2_778
10
28.7139783
20
127.1758
11
28.7139783
21
127.9614
0
LINE
8
DEFAULT_255_2_778
10
28.7139783
20
127.9614
11
28.7139783
21
128.1577
0
LINE
8
DEFAULT_255_2_778
10
28.7139783
20
128.1577
11
28.7133783
21
128.354
0
LINE
8
DEFAULT_255_2_778
10
28.7133783
20
128.354
11
28.7110783
21
128.5503
0
LINE
8
DEFAULT_255_2_778
10
28.7110783
20
128.5503
11
28.7054783
21
128.7467
0
LINE
8
DEFAULT_255_2_778
10
28.7054783
20
128.7467
11
28.9250783
21
128.3426
0
LINE
8
DEFAULT_255_2_778
10
28.9250783
20
128.3426
11
29.0449783
21
128.1463
0
LINE
8
DEFAULT_255_2_778
10
29.0449783
20
128.1463
11
29.1065783
21
128.0492
0
LINE
8
DEFAULT_255_2_778
10
29.1065783
20
128.0492
11
29.1682783
21
127.9521
0
LINE
8
DEFAULT_255_2_778
10
29.1682783
20
127.9521
11
29.6616783
21
127.1756
0
LINE
8
DEFAULT_255_2_778
10
29.6616783
20
127.1756
11
30.2574783
21
127.1756
0
LINE
8
DEFAULT_255_2_778
10
30.2574783
20
127.1756
11
30.2574783
21
129.461
0
LINE
8
DEFAULT_255_2_778
10
30.2574783
20
129.461
11
29.7288783
21
129.461
0
LINE
8
DEFAULT_255_2_778
10
29.7288783
20
129.461
11
29.7288783
21
128.6779
0
LINE
8
DEFAULT_255_2_778
10
29.7288783
20
128.6779
11
29.7288783
21
128.4821
0
LINE
8
DEFAULT_255_2_778
10
29.7288783
20
128.4821
11
29.7288783
21
128.3842
0
LINE
8
DEFAULT_255_2_778
10
29.7288783
20
128.3842
11
29.7288783
21
128.2863
0
LINE
8
DEFAULT_255_2_778
10
29.7288783
20
128.2863
11
29.7307783
21
128.0905
0
LINE
8
DEFAULT_255_2_778
10
29.7307783
20
128.0905
11
29.7330783
21
127.9926
0
LINE
8
DEFAULT_255_2_778
10
29.7330783
20
127.9926
11
29.7373783
21
127.8947
0
LINE
8
DEFAULT_255_2_778
10
24.1654783
20
127.7645
11
24.1032783
21
127.9791
0
LINE
8
DEFAULT_255_2_778
10
24.1032783
20
127.9791
11
24.0360783
21
128.1921
0
LINE
8
DEFAULT_255_2_778
10
24.0360783
20
128.1921
11
24.0180783
21
128.245
0
LINE
8
DEFAULT_255_2_778
10
24.0180783
20
128.245
11
24.0000783
21
128.2979
0
LINE
8
DEFAULT_255_2_778
10
24.0000783
20
128.2979
11
23.9641783
21
128.4038
0
LINE
8
DEFAULT_255_2_778
10
23.9641783
20
128.4038
11
23.8918783
21
128.6152
0
LINE
8
DEFAULT_255_2_778
10
23.8918783
20
128.6152
11
23.6032783
21
129.4613
0
LINE
8
DEFAULT_255_2_778
10
23.6032783
20
129.4613
11
22.7885783
21
129.4613
0
LINE
8
DEFAULT_255_2_778
10
22.7885783
20
129.4613
11
22.7885783
21
127.1758
0
LINE
8
DEFAULT_255_2_778
10
22.7885783
20
127.1758
11
23.2965783
21
127.1758
0
LINE
8
DEFAULT_255_2_778
10
23.2965783
20
127.1758
11
23.2965783
21
129.0258
0
LINE
8
DEFAULT_255_2_778
10
23.2965783
20
129.0258
11
23.3650783
21
128.7916
0
LINE
8
DEFAULT_255_2_778
10
23.3650783
20
128.7916
11
23.4402783
21
128.5596
0
LINE
8
DEFAULT_255_2_778
10
23.4402783
20
128.5596
11
23.4799783
21
128.4442
0
LINE
8
DEFAULT_255_2_778
10
23.4799783
20
128.4442
11
23.5196783
21
128.3289
0
LINE
8
DEFAULT_255_2_778
10
23.5196783
20
128.3289
11
23.5992783
21
128.0982
0
LINE
8
DEFAULT_255_2_778
10
23.5992783
20
128.0982
11
23.9175783
21
127.1756
0
LINE
8
DEFAULT_255_2_778
10
23.9175783
20
127.1756
11
24.3895783
21
127.1756
0
LINE
8
DEFAULT_255_2_778
10
24.3895783
20
127.1756
11
24.7078783
21
128.0984
0
LINE
8
DEFAULT_255_2_778
10
24.7078783
20
128.0984
11
24.8676783
21
128.5596
0
LINE
8
DEFAULT_255_2_778
10
24.8676783
20
128.5596
11
24.8877783
21
128.6173
0
LINE
8
DEFAULT_255_2_778
10
24.8877783
20
128.6173
11
24.9073783
21
128.675
0
LINE
8
DEFAULT_255_2_778
10
24.9073783
20
128.675
11
24.9446783
21
128.7911
0
LINE
8
DEFAULT_255_2_778
10
24.9446783
20
128.7911
11
25.0123783
21
129.0253
0
LINE
8
DEFAULT_255_2_778
10
25.0123783
20
129.0253
11
25.0123783
21
127.1753
0
LINE
8
DEFAULT_255_2_778
10
25.0123783
20
127.1753
11
25.5410783
21
127.1753
0
LINE
8
DEFAULT_255_2_778
10
25.5410783
20
127.1753
11
25.5410783
21
129.4608
0
LINE
8
DEFAULT_255_2_778
10
25.5410783
20
129.4608
11
24.7356783
21
129.4608
0
LINE
8
DEFAULT_255_2_778
10
24.7356783
20
129.4608
11
24.4432783
21
128.6146
0
LINE
8
DEFAULT_255_2_778
10
24.4432783
20
128.6146
11
24.3699783
21
128.4032
0
LINE
8
DEFAULT_255_2_778
10
24.3699783
20
128.4032
11
24.3332783
21
128.2974
0
LINE
8
DEFAULT_255_2_778
10
24.3332783
20
128.2974
11
24.3149783
21
128.2445
0
LINE
8
DEFAULT_255_2_778
10
24.3149783
20
128.2445
11
24.2966783
21
128.1916
0
LINE
8
DEFAULT_255_2_778
10
24.2966783
20
128.1916
11
24.2281783
21
127.9786
0
LINE
8
DEFAULT_255_2_778
10
24.2281783
20
127.9786
11
24.1654783
21
127.7637
0
LINE
8
DEFAULT_255_2_778
10
20.1443783
20
129.4613
11
19.5950783
21
129.4613
0
LINE
8
DEFAULT_255_2_778
10
19.5950783
20
129.4613
11
19.5950783
21
127.1758
0
LINE
8
DEFAULT_255_2_778
10
19.5950783
20
127.1758
11
20.1443783
21
127.1758
0
LINE
8
DEFAULT_255_2_778
10
20.1443783
20
127.1758
11
20.1443783
21
129.4613
0
LINE
8
DEFAULT_255_2_778
10
21.2722783
20
129.0578
11
22.2670783
21
129.0578
0
LINE
8
DEFAULT_255_2_778
10
22.2670783
20
129.0578
11
22.2670783
21
129.4613
0
LINE
8
DEFAULT_255_2_778
10
22.2670783
20
129.4613
11
20.7229783
21
129.4613
0
LINE
8
DEFAULT_255_2_778
10
20.7229783
20
129.4613
11
20.7229783
21
127.1758
0
LINE
8
DEFAULT_255_2_778
10
20.7229783
20
127.1758
11
22.3199783
21
127.1758
0
LINE
8
DEFAULT_255_2_778
10
22.3199783
20
127.1758
11
22.3199783
21
127.5793
0
LINE
8
DEFAULT_255_2_778
10
22.3199783
20
127.5793
11
21.2722783
21
127.5793
0
LINE
8
DEFAULT_255_2_778
10
21.2722783
20
127.5793
11
21.2722783
21
128.1342
0
LINE
8
DEFAULT_255_2_778
10
21.2722783
20
128.1342
11
22.2173783
21
128.1342
0
LINE
8
DEFAULT_255_2_778
10
22.2173783
20
128.1342
11
22.2173783
21
128.5376
0
LINE
8
DEFAULT_255_2_778
10
22.2173783
20
128.5376
11
21.2722783
21
128.5376
0
LINE
8
DEFAULT_255_2_778
10
21.2722783
20
128.5376
11
21.2722783
21
129.0578
0
ARC
8
DEFAULT_255_2_778
10
18.2567548
20
126.945085
40
2.557321
50
79.1332536
51
86.6548793
0
ARC
8
DEFAULT_255_2_778
10
18.2736839
20
128.1564985
40
1.3447461
50
91.5557278
51
98.7345456
0
ARC
8
DEFAULT_255_2_778
10
18.1473236
20
128.721124
40
0.7643299
50
108.4306975
51
120.9903406
0
ARC
8
DEFAULT_255_2_778
10
18.0742508
20
128.8325427
40
0.6298814
50
135.8792696
51
143.5522217
0
ARC
8
DEFAULT_255_2_778
10
18.125518
20
128.7920745
40
0.6951656
50
143.379528
51
150.3333346
0
ARC
8
DEFAULT_255_2_778
10
18.1227415
20
128.7960114
40
0.6908075
50
150.5030794
51
157.4661492
0
ARC
8
DEFAULT_255_2_778
10
18.1605402
20
128.794059
40
0.7271653
50
165.1153365
51
178.3537858
0
ARC
8
DEFAULT_255_2_778
10
18.0247621
20
128.77856
40
0.5912397
50
184.6577837
51
192.7823986
0
ARC
8
DEFAULT_255_2_778
10
17.8757077
20
128.7333845
40
0.4348224
50
202.4623827
51
213.5380831
0
ARC
8
DEFAULT_255_2_778
10
18.0102938
20
128.8556624
40
0.6167881
50
223.9814726
51
231.8009623
0
ARC
8
DEFAULT_255_2_778
10
18.4051811
20
127.82396
40
0.1680666
50
18.5937228
51
30.3769057
0
ARC
8
DEFAULT_255_2_778
10
18.3878372
20
127.8182893
40
0.1863132
50
7.9161083
51
18.5459146
0
ARC
8
DEFAULT_255_2_778
10
18.2967192
20
127.8109239
40
0.2780064
50
345.4216944
51
352.5440863
0
ARC
8
DEFAULT_255_2_778
10
18.2881486
20
127.8688501
40
0.3231373
50
285.7525666
51
298.0045572
0
ARC
8
DEFAULT_255_2_778
10
18.2136792
20
128.3203945
40
0.7822618
50
270.0255336
51
276.930792
0
ARC
8
DEFAULT_255_2_778
10
18.2139871
20
128.3019011
40
0.7637684
50
269.7218364
51
270.0030559
0
ARC
8
DEFAULT_255_2_778
10
18.2139193
20
128.2936708
40
0.7555377
50
266.7491817
51
269.7239444
0
ARC
8
DEFAULT_255_2_778
10
18.2529652
20
128.925039
40
1.7904976
50
269.8339156
51
276.2398269
0
ARC
8
DEFAULT_255_2_778
10
18.2853672
20
128.5877704
40
1.4517121
50
276.4153703
51
276.9757294
0
ARC
8
DEFAULT_255_2_778
10
18.3201897
20
128.3437275
40
1.2052567
50
276.7415586
51
285.5786783
0
ARC
8
DEFAULT_255_2_778
10
18.5150425
20
127.8202975
40
0.643031
50
308.1973668
51
317.0849161
0
ARC
8
DEFAULT_255_2_778
10
18.5636838
20
127.7766876
40
0.5775718
50
326.9088087
51
336.8314034
0
ARC
8
DEFAULT_255_2_778
10
18.5027773
20
127.8041894
40
0.6443878
50
336.7139589
51
345.6194836
0
ARC
8
DEFAULT_255_2_778
10
18.2390379
20
127.8469432
40
0.912253
50
353.4162827
51
359.6612033
0
ARC
8
DEFAULT_255_2_778
10
18.5097637
20
127.8716097
40
0.6406078
50
6.2408458
51
15.1609657
0
ARC
8
DEFAULT_255_2_778
10
18.6273322
20
127.9022699
40
0.5191139
50
15.2884277
51
26.3338117
0
ARC
8
DEFAULT_255_2_778
10
18.6878513
20
127.934949
40
0.4503854
50
26.0232122
51
44.5750739
0
ARC
8
DEFAULT_255_2_778
10
18.1988511
20
128.8566489
40
0.1974333
50
180.03542
51
192.996161
0
ARC
8
DEFAULT_255_2_778
10
18.1951474
20
128.8565415
40
0.1937296
50
178.6076489
51
180.0043575
0
ARC
8
DEFAULT_255_2_778
10
18.2308218
20
128.8588402
40
0.2293594
50
167.07328
51
179.3982595
0
ARC
8
DEFAULT_255_2_778
10
18.2440825
20
128.8310754
40
0.2560877
50
110.4339967
51
128.1546586
0
LINE
8
DEFAULT_255_2_778
10
19.065075
20
129.3768489
11
18.738875
21
129.4565489
0
LINE
8
DEFAULT_255_2_778
10
18.405975
20
129.4980489
11
18.321575
21
129.5012489
0
LINE
8
DEFAULT_255_2_778
10
18.321575
20
129.5012489
11
18.237175
21
129.5007489
0
LINE
8
DEFAULT_255_2_778
10
18.069475
20
129.4856489
11
17.986375
21
129.4692489
0
LINE
8
DEFAULT_255_2_778
10
17.986375
20
129.4692489
11
17.905675
21
129.4462489
0
LINE
8
DEFAULT_255_2_778
10
17.753775
20
129.3763489
11
17.718075
21
129.3530489
0
LINE
8
DEFAULT_255_2_778
10
17.718075
20
129.3530489
11
17.684175
21
129.3276489
0
LINE
8
DEFAULT_255_2_778
10
17.684175
20
129.3276489
11
17.622075
21
129.2710489
0
LINE
8
DEFAULT_255_2_778
10
17.484675
20
129.0607489
11
17.469875
21
129.0212489
0
LINE
8
DEFAULT_255_2_778
10
17.469875
20
129.0212489
11
17.457775
21
128.9808489
0
LINE
8
DEFAULT_255_2_778
10
17.433675
20
128.8149489
11
17.433375
21
128.7725489
0
LINE
8
DEFAULT_255_2_778
10
17.433375
20
128.7725489
11
17.435475
21
128.7305489
0
LINE
8
DEFAULT_255_2_778
10
17.448175
20
128.6477489
11
17.459275
21
128.6069489
0
LINE
8
DEFAULT_255_2_778
10
17.459275
20
128.6069489
11
17.473875
21
128.5672489
0
LINE
8
DEFAULT_255_2_778
10
17.513275
20
128.4931489
11
17.538375
21
128.4590489
0
LINE
8
DEFAULT_255_2_778
10
17.538375
20
128.4590489
11
17.566475
21
128.4273489
0
LINE
8
DEFAULT_255_2_778
10
17.628875
20
128.3709489
11
17.662775
21
128.3458489
0
LINE
8
DEFAULT_255_2_778
10
17.662775
20
128.3458489
11
17.698275
21
128.3222489
0
LINE
8
DEFAULT_255_2_778
10
17.698275
20
128.3222489
11
17.772075
21
128.2801489
0
LINE
8
DEFAULT_255_2_778
10
17.772075
20
128.2801489
11
17.803575
21
128.2651489
0
LINE
8
DEFAULT_255_2_778
10
17.803575
20
128.2651489
11
17.835275
21
128.2508489
0
LINE
8
DEFAULT_255_2_778
10
17.835275
20
128.2508489
11
17.899275
21
128.2235489
0
LINE
8
DEFAULT_255_2_778
10
17.899275
20
128.2235489
11
18.028475
21
128.1714489
0
LINE
8
DEFAULT_255_2_778
10
18.028475
20
128.1714489
11
18.093275
21
128.1460489
0
LINE
8
DEFAULT_255_2_778
10
18.093275
20
128.1460489
11
18.158075
21
128.1209489
0
LINE
8
DEFAULT_255_2_778
10
18.158075
20
128.1209489
11
18.287175
21
128.0690489
0
LINE
8
DEFAULT_255_2_778
10
18.287175
20
128.0690489
11
18.351175
21
128.0418489
0
LINE
8
DEFAULT_255_2_778
10
18.351175
20
128.0418489
11
18.414475
21
128.0127489
0
LINE
8
DEFAULT_255_2_778
10
18.414475
20
128.0127489
11
18.445375
21
127.9970489
0
LINE
8
DEFAULT_255_2_778
10
18.445375
20
127.9970489
11
18.475575
21
127.9801489
0
LINE
8
DEFAULT_255_2_778
10
18.475575
20
127.9801489
11
18.504375
21
127.9605489
0
LINE
8
DEFAULT_255_2_778
10
18.504375
20
127.9605489
11
18.529775
21
127.9370489
0
LINE
8
DEFAULT_255_2_778
10
18.529775
20
127.9370489
11
18.540675
21
127.9235489
0
LINE
8
DEFAULT_255_2_778
10
18.540675
20
127.9235489
11
18.550175
21
127.9089489
0
LINE
8
DEFAULT_255_2_778
10
18.572375
20
127.8439489
11
18.574775
21
127.8095489
0
LINE
8
DEFAULT_255_2_778
10
18.574775
20
127.8095489
11
18.572375
21
127.7748489
0
LINE
8
DEFAULT_255_2_778
10
18.565775
20
127.7409489
11
18.554675
21
127.7081489
0
LINE
8
DEFAULT_255_2_778
10
18.554675
20
127.7081489
11
18.539075
21
127.6774489
0
LINE
8
DEFAULT_255_2_778
10
18.539075
20
127.6774489
11
18.519275
21
127.6494489
0
LINE
8
DEFAULT_255_2_778
10
18.519275
20
127.6494489
11
18.495675
21
127.6237489
0
LINE
8
DEFAULT_255_2_778
10
18.495675
20
127.6237489
11
18.469275
21
127.6018489
0
LINE
8
DEFAULT_255_2_778
10
18.469275
20
127.6018489
11
18.439875
21
127.5835489
0
LINE
8
DEFAULT_255_2_778
10
18.375875
20
127.5578489
11
18.342275
21
127.5496489
0
LINE
8
DEFAULT_255_2_778
10
18.342275
20
127.5496489
11
18.308075
21
127.5438489
0
LINE
8
DEFAULT_255_2_778
10
18.171075
20
127.5393489
11
18.102475
21
127.5443489
0
LINE
8
DEFAULT_255_2_778
10
18.102475
20
127.5443489
11
18.034275
21
127.5528489
0
LINE
8
DEFAULT_255_2_778
10
18.034275
20
127.5528489
11
17.899875
21
127.5785489
0
LINE
8
DEFAULT_255_2_778
10
17.899875
20
127.5785489
11
17.767775
21
127.6131489
0
LINE
8
DEFAULT_255_2_778
10
17.767775
20
127.6131489
11
17.509275
21
127.7026489
0
LINE
8
DEFAULT_255_2_778
10
17.509275
20
127.7026489
11
17.430475
21
127.2639489
0
LINE
8
DEFAULT_255_2_778
10
17.430475
20
127.2639489
11
17.629975
21
127.2062489
0
LINE
8
DEFAULT_255_2_778
10
17.629975
20
127.2062489
11
17.833975
21
127.1657489
0
LINE
8
DEFAULT_255_2_778
10
17.833975
20
127.1657489
11
18.040375
21
127.1422489
0
LINE
8
DEFAULT_255_2_778
10
18.040375
20
127.1422489
11
18.247775
21
127.1345489
0
LINE
8
DEFAULT_255_2_778
10
18.643875
20
127.1827489
11
18.691975
21
127.1977489
0
LINE
8
DEFAULT_255_2_778
10
18.691975
20
127.1977489
11
18.739075
21
127.2152489
0
LINE
8
DEFAULT_255_2_778
10
18.739075
20
127.2152489
11
18.829075
21
127.2589489
0
LINE
8
DEFAULT_255_2_778
10
18.829075
20
127.2589489
11
18.871875
21
127.2853489
0
LINE
8
DEFAULT_255_2_778
10
18.871875
20
127.2853489
11
18.912675
21
127.3149489
0
LINE
8
DEFAULT_255_2_778
10
18.985975
20
127.3824489
11
19.018275
21
127.4203489
0
LINE
8
DEFAULT_255_2_778
10
19.018275
20
127.4203489
11
19.047575
21
127.4613489
0
LINE
8
DEFAULT_255_2_778
10
19.126975
20
127.6441489
11
19.137875
21
127.6930489
0
LINE
8
DEFAULT_255_2_778
10
19.137875
20
127.6930489
11
19.145275
21
127.7423489
0
LINE
8
DEFAULT_255_2_778
10
19.151275
20
127.8415489
11
19.150575
21
127.8912489
0
LINE
8
DEFAULT_255_2_778
10
19.150575
20
127.8912489
11
19.146575
21
127.9412489
0
LINE
8
DEFAULT_255_2_778
10
19.008675
20
128.2510489
11
18.982275
21
128.2764489
0
LINE
8
DEFAULT_255_2_778
10
18.982275
20
128.2764489
11
18.954475
21
128.3000489
0
LINE
8
DEFAULT_255_2_778
10
18.954475
20
128.3000489
11
18.895775
21
128.3426489
0
LINE
8
DEFAULT_255_2_778
10
18.895775
20
128.3426489
11
18.833075
21
128.3799489
0
LINE
8
DEFAULT_255_2_778
10
18.833075
20
128.3799489
11
18.800475
21
128.3968489
0
LINE
8
DEFAULT_255_2_778
10
18.800475
20
128.3968489
11
18.767375
21
128.4124489
0
LINE
8
DEFAULT_255_2_778
10
18.767375
20
128.4124489
11
18.700175
21
128.4418489
0
LINE
8
DEFAULT_255_2_778
10
18.700175
20
128.4418489
11
18.632775
21
128.4699489
0
LINE
8
DEFAULT_255_2_778
10
18.632775
20
128.4699489
11
18.496775
21
128.5241489
0
LINE
8
DEFAULT_255_2_778
10
18.496775
20
128.5241489
11
18.428475
21
128.5506489
0
LINE
8
DEFAULT_255_2_778
10
18.428475
20
128.5506489
11
18.360175
21
128.5770489
0
LINE
8
DEFAULT_255_2_778
10
18.360175
20
128.5770489
11
18.224975
21
128.6328489
0
LINE
8
DEFAULT_255_2_778
10
18.224975
20
128.6328489
11
18.158575
21
128.6633489
0
LINE
8
DEFAULT_255_2_778
10
18.158575
20
128.6633489
11
18.126075
21
128.6799489
0
LINE
8
DEFAULT_255_2_778
10
18.126075
20
128.6799489
11
18.094275
21
128.6985489
0
LINE
8
DEFAULT_255_2_778
10
18.094275
20
128.6985489
11
18.055375
21
128.7284489
0
LINE
8
DEFAULT_255_2_778
10
18.055375
20
128.7284489
11
18.038775
21
128.7463489
0
LINE
8
DEFAULT_255_2_778
10
18.038775
20
128.7463489
11
18.024775
21
128.7667489
0
LINE
8
DEFAULT_255_2_778
10
18.024775
20
128.7667489
11
18.013875
21
128.7887489
0
LINE
8
DEFAULT_255_2_778
10
18.013875
20
128.7887489
11
18.006475
21
128.8122489
0
LINE
8
DEFAULT_255_2_778
10
18.007275
20
128.9101489
11
18.014175
21
128.9339489
0
LINE
8
DEFAULT_255_2_778
10
18.014175
20
128.9339489
11
18.023675
21
128.9564489
0
LINE
8
DEFAULT_255_2_778
10
18.023675
20
128.9564489
11
18.035875
21
128.9776489
0
LINE
8
DEFAULT_255_2_778
10
18.035875
20
128.9776489
11
18.050675
21
128.9974489
0
LINE
8
DEFAULT_255_2_778
10
18.050675
20
128.9974489
11
18.085875
21
129.0324489
0
LINE
8
DEFAULT_255_2_778
10
18.154675
20
129.0710489
11
18.192775
21
129.0829489
0
LINE
8
DEFAULT_255_2_778
10
18.192775
20
129.0829489
11
18.231375
21
129.0908489
0
LINE
8
DEFAULT_255_2_778
10
18.231375
20
129.0908489
11
18.310175
21
129.0972489
0
LINE
8
DEFAULT_255_2_778
10
18.310175
20
129.0972489
11
18.349875
21
129.0969489
0
LINE
8
DEFAULT_255_2_778
10
18.349875
20
129.0969489
11
18.389575
21
129.0951489
0
LINE
8
DEFAULT_255_2_778
10
18.389575
20
129.0951489
11
18.468475
21
129.0877489
0
LINE
8
DEFAULT_255_2_778
10
18.468475
20
129.0877489
11
18.546975
21
129.0755489
0
LINE
8
DEFAULT_255_2_778
10
18.546975
20
129.0755489
11
18.701575
21
129.0392489
0
LINE
8
DEFAULT_255_2_778
10
18.701575
20
129.0392489
11
18.765275
21
129.0205489
0
LINE
8
DEFAULT_255_2_778
10
18.765275
20
129.0205489
11
18.828575
21
128.9998489
0
LINE
8
DEFAULT_255_2_778
10
18.828575
20
128.9998489
11
18.954475
21
128.9570489
0
LINE
8
DEFAULT_255_2_778
10
18.954475
20
128.9570489
11
19.064775
21
129.3761489
0
LINE
8
DEFAULT_255_2_778
10
32.8961616
20
146.8137177
11
19.2576616
21
146.8137177
0
LINE
8
DEFAULT_255_2_778
10
28.6194616
20
144.1652177
11
28.7278616
21
144.1343177
0
LINE
8
DEFAULT_255_2_778
10
28.7278616
20
144.1343177
11
29.2673616
21
146.0094177
0
LINE
8
DEFAULT_255_2_778
10
29.2673616
20
146.0094177
11
29.1588616
21
146.0406177
0
LINE
8
DEFAULT_255_2_778
10
29.1588616
20
146.0406177
11
28.6194616
21
144.1650177
0
LINE
8
DEFAULT_255_2_778
10
21.4589616
20
144.3967177
11
21.3481616
21
144.3967177
0
LINE
8
DEFAULT_255_2_778
10
21.3481616
20
145.8273177
11
21.1491616
21
145.6260177
0
LINE
8
DEFAULT_255_2_778
10
21.1491616
20
145.6260177
11
21.0920616
21
145.5818177
0
LINE
8
DEFAULT_255_2_778
10
21.0920616
20
145.5818177
11
21.0573616
21
145.5720177
0
LINE
8
DEFAULT_255_2_778
10
24.5786616
20
144.9492177
11
25.0845616
21
144.9492177
0
LINE
8
DEFAULT_255_2_778
10
25.0845616
20
144.9492177
11
25.0845616
21
144.9362177
0
LINE
8
DEFAULT_255_2_778
10
25.0845616
20
144.9362177
11
24.5786616
21
144.9362177
0
LINE
8
DEFAULT_255_2_778
10
24.5786616
20
144.9362177
11
24.5786616
21
145.0614177
0
LINE
8
DEFAULT_255_2_778
10
24.5786616
20
145.0614177
11
25.0845616
21
145.0614177
0
LINE
8
DEFAULT_255_2_778
10
25.0845616
20
145.0614177
11
25.0845616
21
144.9492177
0
ARC
8
DEFAULT_255_2_778
10
22.2378725
20
145.1241476
40
0.2014475
50
137.8082196
51
183.9426644
0
ARC
8
DEFAULT_255_2_778
10
22.2346061
20
145.0965569
40
0.2187323
50
91.6419968
51
131.8682737
0
ARC
8
DEFAULT_255_2_778
10
22.2675111
20
144.8642682
40
0.4526293
50
89.8872623
51
94.9648509
0
ARC
8
DEFAULT_255_2_778
10
22.2722613
20
145.1008397
40
0.2160912
50
12.6128975
51
91.0234164
0
ARC
8
DEFAULT_255_2_778
10
21.8430101
20
144.9442378
40
0.6717835
50
2.8635265
51
17.6591618
0
ARC
8
DEFAULT_255_2_778
10
21.2928738
20
144.897325
40
1.2237297
50
359.9003388
51
3.7705241
0
ARC
8
DEFAULT_255_2_778
10
21.8836905
20
144.9100688
40
0.633086
50
340.9561585
51
358.6538922
0
ARC
8
DEFAULT_255_2_778
10
22.1987904
20
144.7964558
40
0.298196
50
269.0990832
51
341.8362886
0
ARC
8
DEFAULT_255_2_778
10
22.2329307
20
144.8888075
40
0.3924367
50
242.5602076
51
264.3216828
0
ARC
8
DEFAULT_255_2_778
10
22.1267589
20
144.6850398
40
0.1626685
50
196.5157668
51
242.6755583
0
ARC
8
DEFAULT_255_2_778
10
22.2917896
20
144.8369694
40
0.495018
50
210.0486494
51
232.8271684
0
ARC
8
DEFAULT_255_2_778
10
22.200383
20
144.7263881
40
0.3517268
50
233.8076547
51
270.7542334
0
ARC
8
DEFAULT_255_2_778
10
22.2022903
20
144.8608308
40
0.4861466
50
270.3208866
51
282.3942535
0
ARC
8
DEFAULT_255_2_778
10
22.181779
20
144.9695873
40
0.59678
50
282.0764698
51
284.0245999
0
ARC
8
DEFAULT_255_2_778
10
22.2087571
20
144.7689835
40
0.3962537
50
287.2710382
51
346.275179
0
ARC
8
DEFAULT_255_2_778
10
21.8224834
20
144.9030631
40
0.8042364
50
343.5238621
51
355.2879452
0
ARC
8
DEFAULT_255_2_778
10
20.9482468
20
144.9017971
40
1.6770074
50
357.7855037
51
359.9696058
0
ARC
8
DEFAULT_255_2_778
10
21.5184011
20
144.9123257
40
1.1069117
50
359.4089597
51
10.59196
0
ARC
8
DEFAULT_255_2_778
10
22.0784502
20
145.0227564
40
0.5361357
50
9.9930082
51
31.3845047
0
ARC
8
DEFAULT_255_2_778
10
22.2586985
20
145.1275242
40
0.3277284
50
32.1590355
51
55.9916103
0
ARC
8
DEFAULT_255_2_778
10
22.2440157
20
144.9880359
40
0.4563458
50
64.2878029
51
80.5357371
0
ARC
8
DEFAULT_255_2_778
10
22.2638924
20
145.0894758
40
0.3530303
50
81.0106499
51
89.9206346
0
ARC
8
DEFAULT_255_2_778
10
22.2690628
20
145.0896651
40
0.3528718
50
90.7601324
51
130.5647608
0
ARC
8
DEFAULT_255_2_778
10
22.4036822
20
144.9090499
40
0.5778238
50
129.0584976
51
138.5173582
0
ARC
8
DEFAULT_255_2_778
10
29.4767169
20
145.3226597
40
0.7708426
50
2.3670584
51
18.3151333
0
ARC
8
DEFAULT_255_2_778
10
29.8126586
20
145.4411257
40
0.4147491
50
17.3622459
51
80.585124
0
ARC
8
DEFAULT_255_2_778
10
29.7342111
20
145.1195233
40
0.7452642
50
78.679508
51
90.4369782
0
ARC
8
DEFAULT_255_2_778
10
29.7304642
20
144.7977949
40
1.0669728
50
90.1040144
51
94.963274
0
ARC
8
DEFAULT_255_2_778
10
29.7542711
20
144.5151362
40
1.3506315
50
94.9320024
51
98.5958063
0
LINE
8
DEFAULT_255_2_778
10
29.5524017
20
145.8505965
11
29.5524017
21
144.4945965
0
ARC
8
DEFAULT_255_2_778
10
29.7966125
20
145.6582033
40
1.1889575
50
258.1471382
51
262.3889789
0
ARC
8
DEFAULT_255_2_778
10
29.7630142
20
145.4036826
40
0.9322291
50
262.3638916
51
267.718754
0
ARC
8
DEFAULT_255_2_778
10
29.7558933
20
145.2586868
40
0.787066
50
267.8165697
51
269.9843214
0
ARC
8
DEFAULT_255_2_778
10
29.7655251
20
145.0232729
40
0.55174
50
268.9773598
51
290.3590971
0
ARC
8
DEFAULT_255_2_778
10
29.8043267
20
144.8910813
40
0.4144188
50
291.6881514
51
338.4167192
0
ARC
8
DEFAULT_255_2_778
10
29.474574
20
145.0407244
40
0.7763024
50
337.0991571
51
351.7947986
0
ARC
8
DEFAULT_255_2_778
10
28.8861901
20
145.1323882
40
1.371762
50
351.5127791
51
0.3753309
0
ARC
8
DEFAULT_255_2_778
10
28.2910441
20
145.1399142
40
1.9668792
50
0.04253
51
2.6542596
0
ARC
8
DEFAULT_255_2_778
10
27.8909414
20
145.121656
40
2.3673982
50
2.6472473
51
4.8727507
0
ARC
8
DEFAULT_255_2_778
10
27.5972455
20
145.0979682
40
2.6620451
50
4.8437972
51
5.5298955
0
ARC
8
DEFAULT_255_2_778
10
29.3746117
20
145.0731258
40
0.9922896
50
324.3364308
51
350.8991437
0
ARC
8
DEFAULT_255_2_778
10
29.0212987
20
145.1408395
40
1.3519098
50
350.4339281
51
0.2206923
0
ARC
8
DEFAULT_255_2_778
10
28.6290492
20
145.1423809
40
1.744153
50
0.120428
51
6.2968338
0
ARC
8
DEFAULT_255_2_778
10
28.2652986
20
145.1051227
40
2.1097976
50
6.2190948
51
9.509823
0
ARC
8
DEFAULT_255_2_778
10
29.6761399
20
145.3537544
40
0.6773753
50
8.4845741
51
29.9269627
0
ARC
8
DEFAULT_255_2_778
10
29.813503
20
145.4190586
40
0.5258833
50
31.22722
51
75.4314409
0
ARC
8
DEFAULT_255_2_778
10
29.6885276
20
145.0131385
40
0.950375
50
74.2947808
51
88.8803226
0
ARC
8
DEFAULT_255_2_778
10
29.6660871
20
144.636848
40
1.3271179
50
88.2291226
51
90.0136416
0
ARC
8
DEFAULT_255_2_778
10
29.6676372
20
144.4181219
40
1.545845
50
90.0691646
51
93.8802112
0
ARC
8
DEFAULT_255_2_778
10
29.691979
20
144.0550681
40
1.909714
50
93.871748
51
97.1558877
0
ARC
8
DEFAULT_255_2_778
10
28.4583904
20
153.9317169
40
8.0436747
50
277.1043157
51
277.110672
0
ARC
8
DEFAULT_255_2_778
10
29.7807757
20
145.904382
40
1.5441315
50
257.7521351
51
264.0179708
0
ARC
8
DEFAULT_255_2_778
10
29.7421191
20
145.5460959
40
1.1837681
50
264.0715399
51
269.8889099
0
ARC
8
DEFAULT_255_2_778
10
29.7486082
20
145.2038868
40
0.8416029
50
269.4019578
51
286.1255273
0
ARC
8
DEFAULT_255_2_778
10
29.804763
20
144.9987539
40
0.6289514
50
286.4014429
51
306.7183598
0
ARC
8
DEFAULT_255_2_778
10
31.142901
20
145.5188198
40
0.2451704
50
320.8396691
51
331.9145353
0
ARC
8
DEFAULT_255_2_778
10
31.1226
20
145.5269584
40
0.2669231
50
332.4248132
51
342.5232675
0
ARC
8
DEFAULT_255_2_778
10
31.0953307
20
145.5356919
40
0.2955566
50
342.4959645
51
351.7137131
0
ARC
8
DEFAULT_255_2_778
10
31.090462
20
145.531357
40
0.3001978
50
10.7393972
51
19.7495288
0
ARC
8
DEFAULT_255_2_778
10
31.0619172
20
145.4759816
40
0.474827
50
56.2957518
51
66.979709
0
ARC
8
DEFAULT_255_2_778
10
31.1059825
20
145.5420658
40
0.3953049
50
30.7523631
51
43.484164
0
ARC
8
DEFAULT_255_2_778
10
31.1103816
20
145.5363082
40
0.3926179
50
8.522498
51
12.561317
0
ARC
8
DEFAULT_255_2_778
10
31.0846928
20
145.5321874
40
0.4186339
50
6.2959487
51
8.5592207
0
ARC
8
DEFAULT_255_2_778
10
31.0853056
20
145.532425
40
0.4179987
50
0.0538466
51
6.2727883
0
ARC
8
DEFAULT_255_2_778
10
31.1165516
20
145.532635
40
0.3867525
50
353.744931
51
0.0270823
0
ARC
8
DEFAULT_255_2_778
10
31.1385848
20
145.524231
40
0.363593
50
340.8232023
51
347.7519025
0
ARC
8
DEFAULT_255_2_778
10
31.1388526
20
145.5207042
40
0.3618011
50
313.369517
51
327.3849859
0
ARC
8
DEFAULT_255_2_778
10
31.0711616
20
145.6404723
40
0.503001
50
279.1676581
51
289.2506487
0
ARC
8
DEFAULT_255_2_778
10
26.64852
20
145.5675678
40
0.2425131
50
320.8926425
51
332.1288138
0
ARC
8
DEFAULT_255_2_778
10
26.6177759
20
145.5812945
40
0.276117
50
332.593207
51
342.3545842
0
ARC
8
DEFAULT_255_2_778
10
26.5875741
20
145.5891148
40
0.307273
50
342.6720623
51
351.5376169
0
ARC
8
DEFAULT_255_2_778
10
26.5824225
20
145.5789583
40
0.3123292
50
10.914608
51
19.5740908
0
ARC
8
DEFAULT_255_2_778
10
26.5651475
20
145.5268353
40
0.4747383
50
56.2349443
51
66.9266687
0
ARC
8
DEFAULT_255_2_778
10
26.6104269
20
145.5928406
40
0.3945758
50
30.7858218
51
43.5295969
0
ARC
8
DEFAULT_255_2_778
10
26.6285469
20
145.5899756
40
0.3778318
50
7.7831824
51
12.584367
0
ARC
8
DEFAULT_255_2_778
10
26.6310551
20
145.5902132
40
0.3753146
50
5.8698793
51
7.7991032
0
ARC
8
DEFAULT_255_2_778
10
26.5825619
20
145.5820927
40
0.4243953
50
0.0735318
51
6.290908
0
ARC
8
DEFAULT_255_2_778
10
26.6265176
20
145.5823598
40
0.3804395
50
353.7581643
51
0.0417921
0
ARC
8
DEFAULT_255_2_778
10
26.6205068
20
145.5803624
40
0.3861139
50
341.0534208
51
347.591847
0
ARC
8
DEFAULT_255_2_778
10
26.6403344
20
145.5731094
40
0.3648587
50
313.3735291
51
327.2810577
0
ARC
8
DEFAULT_255_2_778
10
26.5746807
20
145.6918545
40
0.5040823
50
279.1571425
51
289.2295108
0
ARC
8
DEFAULT_255_2_778
10
25.4630214
20
145.636793
40
0.3832001
50
89.102026
51
150.1374424
0
ARC
8
DEFAULT_255_2_778
10
25.4760392
20
145.4968666
40
0.5231266
50
90.0002432
51
90.7680476
0
ARC
8
DEFAULT_255_2_778
10
25.4726328
20
145.392768
40
0.6272345
50
79.4546143
51
89.6890411
0
ARC
8
DEFAULT_255_2_778
10
25.4353472
20
145.1759361
40
0.8472332
50
74.6374174
51
79.6593549
0
ARC
8
DEFAULT_255_2_778
10
25.5398898
20
145.6739034
40
0.3407865
50
11.1405472
51
69.3983772
0
ARC
8
DEFAULT_255_2_778
10
25.1509977
20
145.5650843
40
0.7440483
50
359.2469812
51
13.5768275
0
ARC
8
DEFAULT_255_2_778
10
24.7320234
20
145.5567248
40
1.1629594
50
356.2951077
51
359.9300887
0
ARC
8
DEFAULT_255_2_778
10
24.5622565
20
145.5662232
40
1.3329862
50
355.5930439
51
356.3592112
0
ARC
8
DEFAULT_255_2_778
10
25.543947
20
145.5922561
40
0.3703474
50
288.2296889
51
339.7044603
0
ARC
8
DEFAULT_255_2_778
10
25.5438303
20
144.9053366
40
0.3546569
50
10.7681317
51
70.9134387
0
ARC
8
DEFAULT_255_2_778
10
25.2443564
20
144.8090499
40
0.6679655
50
6.5199198
51
14.0843079
0
ARC
8
DEFAULT_255_2_778
10
25.19761
20
144.8725271
40
0.7104994
50
343.8607589
51
0.9975339
0
ARC
8
DEFAULT_255_2_778
10
25.5335839
20
144.7705532
40
0.3594497
50
274.978265
51
344.5881952
0
ARC
8
DEFAULT_255_2_778
10
25.4647431
20
145.0970687
40
0.691879
50
269.7481403
51
278.3130605
0
ARC
8
DEFAULT_255_2_778
10
25.4786314
20
144.8549848
40
0.4501068
50
243.4653482
51
267.8444543
0
ARC
8
DEFAULT_255_2_778
10
25.4033971
20
144.6918298
40
0.2705854
50
199.0312213
51
242.2840767
0
ARC
8
DEFAULT_255_2_778
10
25.4346682
20
144.7238991
40
0.2190119
50
201.1446083
51
273.3996044
0
ARC
8
DEFAULT_255_2_778
10
25.4432848
20
144.9572623
40
0.4520108
50
270.5540257
51
282.5449443
0
ARC
8
DEFAULT_255_2_778
10
25.3884717
20
145.2209095
40
0.7212792
50
282.2461768
51
288.6478966
0
ARC
8
DEFAULT_255_2_778
10
25.4652797
20
144.8237078
40
0.3249278
50
298.2554552
51
2.9476802
0
ARC
8
DEFAULT_255_2_778
10
25.1908342
20
144.8369904
40
0.5989533
50
0.3277721
51
10.1342625
0
ARC
8
DEFAULT_255_2_778
10
24.97889
20
144.80254
40
0.8136594
50
9.8962671
51
14.080891
0
ARC
8
DEFAULT_255_2_778
10
25.5462008
20
144.9258693
40
0.2341137
50
18.5882322
51
78.4613289
0
ARC
8
DEFAULT_255_2_778
10
25.4461597
20
144.6173167
40
0.5576243
50
74.7288954
51
86.6647031
0
ARC
8
DEFAULT_255_2_778
10
25.3663968
20
145.8478752
40
0.5758488
50
280.4053836
51
298.2163482
0
ARC
8
DEFAULT_255_2_778
10
25.5262199
20
145.5648475
40
0.250987
50
296.6147406
51
1.5556388
0
ARC
8
DEFAULT_255_2_778
10
25.4202591
20
145.5714267
40
0.3568553
50
0.0376474
51
3.8675158
0
ARC
8
DEFAULT_255_2_778
10
25.3168805
20
145.580243
40
0.4596744
50
1.9016023
51
23.7905764
0
ARC
8
DEFAULT_255_2_778
10
25.5248057
20
145.6697932
40
0.2333012
50
24.265855
51
83.0831892
0
ARC
8
DEFAULT_255_2_778
10
25.471924
20
145.4926305
40
0.4167098
50
78.7946283
51
89.673892
0
ARC
8
DEFAULT_255_2_778
10
25.4686912
20
145.6368774
40
0.2725138
50
88.8215552
51
150.9755383
0
LINE
8
DEFAULT_255_2_778
10
21.0545017
20
145.7052965
11
21.0545017
21
145.6923965
0
LINE
8
DEFAULT_255_2_778
10
21.0545017
20
145.6923965
11
21.0574017
21
145.5721965
0
LINE
8
DEFAULT_255_2_778
10
21.0574017
20
145.5721965
11
21.0574017
21
145.5851965
0
LINE
8
DEFAULT_255_2_778
10
21.0574017
20
145.5851965
11
21.0545017
21
145.7052965
0
LINE
8
DEFAULT_255_2_778
10
21.0545017
20
145.7052965
11
21.3193017
21
145.9767965
0
LINE
8
DEFAULT_255_2_778
10
21.3193017
20
145.9767965
11
21.4590017
21
145.9767965
0
LINE
8
DEFAULT_255_2_778
10
21.4590017
20
145.9767965
11
21.4590017
21
144.3836965
0
LINE
8
DEFAULT_255_2_778
10
21.4590017
20
144.3836965
11
21.3482017
21
144.3836965
0
LINE
8
DEFAULT_255_2_778
10
21.3482017
20
144.3836965
11
21.3482017
21
145.8402965
0
LINE
8
DEFAULT_255_2_778
10
21.3482017
20
145.8402965
11
21.1492017
21
145.6388965
0
LINE
8
DEFAULT_255_2_778
10
21.1492017
20
145.6388965
11
21.0921017
21
145.5946965
0
LINE
8
DEFAULT_255_2_778
10
21.0921017
20
145.5946965
11
21.0574017
21
145.5851965
0
LINE
8
DEFAULT_255_2_778
10
27.4447017
20
146.0002965
11
28.2281017
21
144.5845965
0
LINE
8
DEFAULT_255_2_778
10
28.2281017
20
144.5845965
11
28.2281017
21
146.0002965
0
LINE
8
DEFAULT_255_2_778
10
28.2281017
20
146.0002965
11
28.3411017
21
146.0002965
0
LINE
8
DEFAULT_255_2_778
10
28.3411017
20
146.0002965
11
28.3411017
21
144.4003965
0
LINE
8
DEFAULT_255_2_778
10
28.3411017
20
144.4003965
11
28.2014017
21
144.4003965
0
LINE
8
DEFAULT_255_2_778
10
28.2014017
20
144.4003965
11
27.4111017
21
145.8206965
0
LINE
8
DEFAULT_255_2_778
10
27.4111017
20
145.8206965
11
27.4111017
21
144.4003965
0
LINE
8
DEFAULT_255_2_778
10
27.4111017
20
144.4003965
11
27.3003017
21
144.4003965
0
LINE
8
DEFAULT_255_2_778
10
27.3003017
20
144.4003965
11
27.3003017
21
146.0002965
0
LINE
8
DEFAULT_255_2_778
10
27.3003017
20
146.0002965
11
27.4445017
21
146.0002965
0
LINE
8
DEFAULT_255_2_778
10
22.9378017
20
145.7148965
11
22.9378017
21
145.7018965
0
LINE
8
DEFAULT_255_2_778
10
22.9378017
20
145.7018965
11
22.9407017
21
145.5817965
0
LINE
8
DEFAULT_255_2_778
10
22.9407017
20
145.5817965
11
22.9407017
21
145.5944965
0
LINE
8
DEFAULT_255_2_778
10
22.9407017
20
145.5944965
11
22.9378017
21
145.7145965
0
LINE
8
DEFAULT_255_2_778
10
22.9378017
20
145.7145965
11
23.2027017
21
145.9860965
0
LINE
8
DEFAULT_255_2_778
10
23.2027017
20
145.9860965
11
23.3424017
21
145.9860965
0
LINE
8
DEFAULT_255_2_778
10
23.3424017
20
145.9860965
11
23.3424017
21
144.3929965
0
LINE
8
DEFAULT_255_2_778
10
23.3424017
20
144.3929965
11
23.2315017
21
144.3929965
0
LINE
8
DEFAULT_255_2_778
10
23.2315017
20
144.3929965
11
23.2315017
21
145.8497965
0
LINE
8
DEFAULT_255_2_778
10
23.2315017
20
145.8497965
11
23.0325017
21
145.6483965
0
LINE
8
DEFAULT_255_2_778
10
23.0325017
20
145.6483965
11
22.9754017
21
145.6042965
0
LINE
8
DEFAULT_255_2_778
10
22.9754017
20
145.6042965
11
22.9407017
21
145.5944965
0
LINE
8
DEFAULT_255_2_778
10
22.6073017
20
145.9865965
11
21.8633017
21
145.9865965
0
LINE
8
DEFAULT_255_2_778
10
21.8633017
20
145.9865965
11
21.8633017
21
145.1102965
0
LINE
8
DEFAULT_255_2_778
10
21.8633017
20
145.1102965
11
22.0369017
21
145.1102965
0
LINE
8
DEFAULT_255_2_778
10
21.9708017
20
144.6387965
11
21.8633017
21
144.5890965
0
LINE
8
DEFAULT_255_2_778
10
21.9708017
20
145.2917965
11
21.9708017
21
145.8624965
0
LINE
8
DEFAULT_255_2_778
10
21.9708017
20
145.8624965
11
22.6073017
21
145.8624965
0
LINE
8
DEFAULT_255_2_778
10
22.6073017
20
145.8624965
11
22.6073017
21
145.9865965
0
LINE
8
DEFAULT_255_2_778
10
30.2469017
20
145.3544965
11
30.2469017
21
145.3544965
0
LINE
8
DEFAULT_255_2_778
10
29.4532017
20
145.9497965
11
29.4532017
21
144.3953965
0
LINE
8
DEFAULT_255_2_778
10
30.1808017
20
144.4945965
11
30.1808017
21
144.4945965
0
LINE
8
DEFAULT_255_2_778
10
30.7959017
20
145.2486965
11
31.0817017
21
145.2494965
0
LINE
8
DEFAULT_255_2_778
10
31.0817017
20
145.2494965
11
31.1288017
21
145.2539965
0
LINE
8
DEFAULT_255_2_778
10
31.1288017
20
145.2539965
11
31.2201017
21
145.2798965
0
LINE
8
DEFAULT_255_2_778
10
31.2201017
20
145.2798965
11
31.2820017
21
145.3152965
0
LINE
8
DEFAULT_255_2_778
10
31.2820017
20
145.3152965
11
31.3005017
21
145.3301965
0
LINE
8
DEFAULT_255_2_778
10
31.3005017
20
145.3301965
11
31.3330017
21
145.3639965
0
LINE
8
DEFAULT_255_2_778
10
31.3878017
20
145.4930965
11
31.3904017
21
145.5401965
0
LINE
8
DEFAULT_255_2_778
10
31.3904017
20
145.5401965
11
31.3889017
21
145.5639965
0
LINE
8
DEFAULT_255_2_778
10
31.3889017
20
145.5639965
11
31.3854017
21
145.5872965
0
LINE
8
DEFAULT_255_2_778
10
31.3730017
20
145.6327965
11
31.3643017
21
145.6547965
0
LINE
8
DEFAULT_255_2_778
10
31.3643017
20
145.6547965
11
31.3537017
21
145.6759965
0
LINE
8
DEFAULT_255_2_778
10
31.3537017
20
145.6759965
11
31.3275017
21
145.7148965
0
LINE
8
DEFAULT_255_2_778
10
31.3275017
20
145.7148965
11
31.2949017
21
145.7494965
0
LINE
8
DEFAULT_255_2_778
10
31.2949017
20
145.7494965
11
31.2576017
21
145.7783965
0
LINE
8
DEFAULT_255_2_778
10
31.2576017
20
145.7783965
11
31.1947017
21
145.8113965
0
LINE
8
DEFAULT_255_2_778
10
31.1947017
20
145.8113965
11
31.1261017
21
145.8306965
0
LINE
8
DEFAULT_255_2_778
10
31.1261017
20
145.8306965
11
30.9846017
21
145.8367965
0
LINE
8
DEFAULT_255_2_778
10
30.9846017
20
145.8367965
11
30.7954017
21
145.8367965
0
LINE
8
DEFAULT_255_2_778
10
30.7954017
20
145.8367965
11
30.7959017
21
145.2486965
0
LINE
8
DEFAULT_255_2_778
10
30.6827017
20
145.9497965
11
31.1092017
21
145.9471965
0
LINE
8
DEFAULT_255_2_778
10
31.1092017
20
145.9471965
11
31.1793017
21
145.9354965
0
LINE
8
DEFAULT_255_2_778
10
31.1793017
20
145.9354965
11
31.2476017
21
145.9129965
0
LINE
8
DEFAULT_255_2_778
10
31.3254017
20
145.8709965
11
31.3605017
21
145.8444965
0
LINE
8
DEFAULT_255_2_778
10
31.3605017
20
145.8444965
11
31.3928017
21
145.8140965
0
LINE
8
DEFAULT_255_2_778
10
31.4457017
20
145.7441965
11
31.4661017
21
145.7050965
0
LINE
8
DEFAULT_255_2_778
10
31.4661017
20
145.7050965
11
31.4820017
21
145.6640965
0
LINE
8
DEFAULT_255_2_778
10
31.4820017
20
145.6640965
11
31.4936017
21
145.6216965
0
LINE
8
DEFAULT_255_2_778
10
31.5010017
20
145.4904965
11
31.4981017
21
145.4687965
0
LINE
8
DEFAULT_255_2_778
10
31.4981017
20
145.4687965
11
31.4939017
21
145.4470965
0
LINE
8
DEFAULT_255_2_778
10
31.4820017
20
145.4047965
11
31.4653017
21
145.3642965
0
LINE
8
DEFAULT_255_2_778
10
31.4653017
20
145.3642965
11
31.4436017
21
145.3256965
0
LINE
8
DEFAULT_255_2_778
10
31.3873017
20
145.2576965
11
31.3537017
21
145.2285965
0
LINE
8
DEFAULT_255_2_778
10
31.3537017
20
145.2285965
11
31.3172017
21
145.2033965
0
LINE
8
DEFAULT_255_2_778
10
31.3172017
20
145.2033965
11
31.2370017
21
145.1655965
0
LINE
8
DEFAULT_255_2_778
10
31.1513017
20
145.1438965
11
31.1073017
21
145.1385965
0
LINE
8
DEFAULT_255_2_778
10
31.1073017
20
145.1385965
11
30.7951017
21
145.1361965
0
LINE
8
DEFAULT_255_2_778
10
30.7951017
20
145.1361965
11
30.7951017
21
144.3503965
0
LINE
8
DEFAULT_255_2_778
10
30.7951017
20
144.3503965
11
30.6819017
21
144.3503965
0
LINE
8
DEFAULT_255_2_778
10
30.6819017
20
144.3503965
11
30.6827017
21
145.9497965
0
LINE
8
DEFAULT_255_2_778
10
26.2996017
20
145.2991965
11
26.5853017
21
145.2999965
0
LINE
8
DEFAULT_255_2_778
10
26.5853017
20
145.2999965
11
26.6324017
21
145.3044965
0
LINE
8
DEFAULT_255_2_778
10
26.6324017
20
145.3044965
11
26.7237017
21
145.3303965
0
LINE
8
DEFAULT_255_2_778
10
26.7237017
20
145.3303965
11
26.7856017
21
145.3658965
0
LINE
8
DEFAULT_255_2_778
10
26.7856017
20
145.3658965
11
26.8042017
21
145.3806965
0
LINE
8
DEFAULT_255_2_778
10
26.8042017
20
145.3806965
11
26.8367017
21
145.4145965
0
LINE
8
DEFAULT_255_2_778
10
26.8915017
20
145.5438965
11
26.8941017
21
145.5909965
0
LINE
8
DEFAULT_255_2_778
10
26.8941017
20
145.5909965
11
26.8925017
21
145.6147965
0
LINE
8
DEFAULT_255_2_778
10
26.8925017
20
145.6147965
11
26.8891017
21
145.6380965
0
LINE
8
DEFAULT_255_2_778
10
26.8767017
20
145.6835965
11
26.8679017
21
145.7055965
0
LINE
8
DEFAULT_255_2_778
10
26.8679017
20
145.7055965
11
26.8573017
21
145.7267965
0
LINE
8
DEFAULT_255_2_778
10
26.8573017
20
145.7267965
11
26.8311017
21
145.7656965
0
LINE
8
DEFAULT_255_2_778
10
26.8311017
20
145.7656965
11
26.7986017
21
145.8002965
0
LINE
8
DEFAULT_255_2_778
10
26.7986017
20
145.8002965
11
26.7613017
21
145.8291965
0
LINE
8
DEFAULT_255_2_778
10
26.7613017
20
145.8291965
11
26.6983017
21
145.8621965
0
LINE
8
DEFAULT_255_2_778
10
26.6983017
20
145.8621965
11
26.6298017
21
145.8814965
0
LINE
8
DEFAULT_255_2_778
10
26.6298017
20
145.8814965
11
26.4882017
21
145.8875965
0
LINE
8
DEFAULT_255_2_778
10
26.4882017
20
145.8875965
11
26.2991017
21
145.8875965
0
LINE
8
DEFAULT_255_2_778
10
26.2991017
20
145.8875965
11
26.2996017
21
145.2991965
0
LINE
8
DEFAULT_255_2_778
10
26.1864017
20
146.0002965
11
26.6129017
21
145.9976965
0
LINE
8
DEFAULT_255_2_778
10
26.6129017
20
145.9976965
11
26.6830017
21
145.9860965
0
LINE
8
DEFAULT_255_2_778
10
26.6830017
20
145.9860965
11
26.7512017
21
145.9635965
0
LINE
8
DEFAULT_255_2_778
10
26.8290017
20
145.9214965
11
26.8642017
21
145.8949965
0
LINE
8
DEFAULT_255_2_778
10
26.8642017
20
145.8949965
11
26.8965017
21
145.8645965
0
LINE
8
DEFAULT_255_2_778
10
26.9494017
20
145.7947965
11
26.9698017
21
145.7555965
0
LINE
8
DEFAULT_255_2_778
10
26.9698017
20
145.7555965
11
26.9857017
21
145.7145965
0
LINE
8
DEFAULT_255_2_778
10
26.9857017
20
145.7145965
11
26.9973017
21
145.6722965
0
LINE
8
DEFAULT_255_2_778
10
27.0047017
20
145.5409965
11
27.0018017
21
145.5190965
0
LINE
8
DEFAULT_255_2_778
10
27.0018017
20
145.5190965
11
26.9976017
21
145.4973965
0
LINE
8
DEFAULT_255_2_778
10
26.9857017
20
145.4549965
11
26.9690017
21
145.4145965
0
LINE
8
DEFAULT_255_2_778
10
26.9690017
20
145.4145965
11
26.9473017
21
145.3758965
0
LINE
8
DEFAULT_255_2_778
10
26.8909017
20
145.3078965
11
26.8573017
21
145.2787965
0
LINE
8
DEFAULT_255_2_778
10
26.8573017
20
145.2787965
11
26.8208017
21
145.2536965
0
LINE
8
DEFAULT_255_2_778
10
26.8208017
20
145.2536965
11
26.7407017
21
145.2158965
0
LINE
8
DEFAULT_255_2_778
10
26.6549017
20
145.1941965
11
26.6110017
21
145.1888965
0
LINE
8
DEFAULT_255_2_778
10
26.6110017
20
145.1888965
11
26.2988017
21
145.1864965
0
LINE
8
DEFAULT_255_2_778
10
26.2988017
20
145.1864965
11
26.2988017
21
144.4006965
0
LINE
8
DEFAULT_255_2_778
10
26.2988017
20
144.4006965
11
26.1856017
21
144.4006965
0
LINE
8
DEFAULT_255_2_778
10
26.1856017
20
144.4006965
11
26.1864017
21
146.0002965
0
LINE
8
DEFAULT_255_2_778
10
25.2299017
20
145.7695965
11
25.1307017
21
145.8275965
0
LINE
8
DEFAULT_255_2_778
10
25.1476017
20
144.6035965
11
25.2304017
21
144.6448965
0
LINE
8
DEFAULT_255_2_778
10
25.4786017
20
145.1739965
11
25.4704017
21
145.2814965
0
LINE
8
DEFAULT_255_2_778
10
25.2304017
20
145.7690965
11
25.2299017
21
145.7695965
0
LINE
8
DEFAULT_255_2_778
10
24.3933017
20
145.9883965
11
24.3933017
21
145.8312965
0
LINE
8
DEFAULT_255_2_778
10
24.3933017
20
145.8312965
11
23.9303017
21
144.3924965
0
LINE
8
DEFAULT_255_2_778
10
23.9303017
20
144.3924965
11
23.8228017
21
144.4254965
0
LINE
8
DEFAULT_255_2_778
10
23.8228017
20
144.4254965
11
24.2859017
21
145.8724965
0
LINE
8
DEFAULT_255_2_778
10
24.2859017
20
145.8724965
11
23.5831017
21
145.8724965
0
LINE
8
DEFAULT_255_2_778
10
23.5831017
20
145.8724965
11
23.5831017
21
145.9881965
0
LINE
8
DEFAULT_255_2_778
10
23.5831017
20
145.9881965
11
24.3851017
21
145.9881965
0
ENDSEC
0
EOF