0
SECTION
2
HEADER
9
$MEASUREMENT
70
1
0
ENDSEC
0
SECTION
2
TABLES
0
TABLE
2
LTYPE
0
LTYPE
72
65
70
64
2
CONTINUOUS
3
______
73
0
40
0
0
ENDTAB
0
TABLE
2
LAYER
0
LAYER
2
DEFAULT_255_2_778
70
0
62
255
6
CONTINUOUS
0
ENDTAB
0
ENDSEC
0
SECTION
2
ENTITIES
0
ARC
8
DEFAULT_255_2_778
10
16.7605811
20
15.7796082
40
1.8147198
50
358.8402456
51
7.72545
0
ARC
8
DEFAULT_255_2_778
10
18.132097
20
15.9758102
40
0.4293955
50
6.3838776
51
36.3211934
0
ARC
8
DEFAULT_255_2_778
10
18.2699226
20
16.0549176
40
0.2720812
50
40.0929577
51
83.3957096
0
ARC
8
DEFAULT_255_2_778
10
18.2273463
20
15.8399869
40
0.4907971
50
81.3436458
51
90.282171
0
ARC
8
DEFAULT_255_2_778
10
18.2141751
20
15.9424283
40
0.3884986
50
88.41378
51
112.5860755
0
ARC
8
DEFAULT_255_2_778
10
18.2042447
20
16.0264392
40
0.3079844
50
116.887038
51
173.2108034
0
ARC
8
DEFAULT_255_2_778
10
19.2042974
20
15.8163752
40
1.3289336
50
169.3116601
51
180.3433812
0
ARC
8
DEFAULT_255_2_778
10
22.1050995
20
15.746056
40
4.2301715
50
179.1554018
51
180.0430444
0
LINE
8
DEFAULT_255_2_778
10
17.8749292
20
15.742878
11
17.6415292
21
7.511378
0
LINE
8
DEFAULT_255_2_778
10
17.6415292
20
7.511378
11
18.8088292
21
7.511378
0
LINE
8
DEFAULT_255_2_778
10
18.8088292
20
7.511378
11
18.5749292
21
15.742878
0
ARC
8
DEFAULT_255_2_778
10
8.5869032
20
20.4835024
40
1.817599
50
358.8391135
51
7.7101423
0
ARC
8
DEFAULT_255_2_778
10
9.9615082
20
20.6797563
40
0.4292095
50
6.3670305
51
36.315228
0
ARC
8
DEFAULT_255_2_778
10
10.0992134
20
20.7587085
40
0.2720847
50
40.0948232
51
83.4059839
0
ARC
8
DEFAULT_255_2_778
10
10.0565499
20
20.5432697
40
0.4913143
50
81.3482062
51
90.2822939
0
ARC
8
DEFAULT_255_2_778
10
10.0433607
20
20.6455713
40
0.3891557
50
88.4143474
51
112.5668186
0
ARC
8
DEFAULT_255_2_778
10
10.0331436
20
20.7301682
40
0.3079775
50
116.8553271
51
173.1973645
0
ARC
8
DEFAULT_255_2_778
10
11.0322334
20
20.5201886
40
1.3279697
50
169.3043997
51
180.3442094
0
ARC
8
DEFAULT_255_2_778
10
13.9339995
20
20.449856
40
4.2301715
50
179.1554018
51
180.0430444
0
LINE
8
DEFAULT_255_2_778
10
9.7038292
20
20.446678
11
9.4704292
21
12.215178
0
LINE
8
DEFAULT_255_2_778
10
9.4704292
20
12.215178
11
10.6377292
21
12.215178
0
LINE
8
DEFAULT_255_2_778
10
10.6377292
20
12.215178
11
10.4041292
21
20.446678
0
ARC
8
DEFAULT_255_2_778
10
7.9833401
20
13.0951311
40
0.8916837
50
58.9842462
51
73.9849564
0
ARC
8
DEFAULT_255_2_778
10
8.0366461
20
13.2707215
40
0.7082069
50
74.2109661
51
89.8863174
0
ARC
8
DEFAULT_255_2_778
10
8.0429598
20
13.2403425
40
0.7386007
50
90.3807708
51
113.6053048
0
ARC
8
DEFAULT_255_2_778
10
8.1270576
20
13.028553
40
0.9663757
50
113.1460024
51
120.7193129
0
ARC
8
DEFAULT_255_2_778
10
0.7385234
20
8.8836917
40
0.7754504
50
120.136337
51
128.9151377
0
ARC
8
DEFAULT_255_2_778
10
0.4840072
20
9.1944327
40
0.3738015
50
128.4805141
51
144.1835154
0
ARC
8
DEFAULT_255_2_778
10
0.3180596
20
9.3107078
40
0.1712154
50
143.2384267
51
178.5210199
0
ARC
8
DEFAULT_255_2_778
10
0.3218967
20
9.3204284
40
0.1750756
50
181.7352289
51
218.7081572
0
ARC
8
DEFAULT_255_2_778
10
0.4986265
20
9.4502231
40
0.3942611
50
217.366035
51
232.0767499
0
ARC
8
DEFAULT_255_2_778
10
0.7470271
20
9.7596279
40
0.7910199
50
231.6577127
51
239.8061149
0
ARC
8
DEFAULT_255_2_778
10
12.1393641
20
3.1426915
40
0.8910746
50
238.9830879
51
253.9884852
0
ARC
8
DEFAULT_255_2_778
10
12.0862441
20
2.9677182
40
0.7082427
50
254.2147017
51
269.8873234
0
ARC
8
DEFAULT_255_2_778
10
12.0799206
20
2.9986963
40
0.7392358
50
270.3821636
51
293.590042
0
ARC
8
DEFAULT_255_2_778
10
11.9956776
20
3.211018
40
0.9675587
50
293.1301657
51
300.6961111
0
ARC
8
DEFAULT_255_2_778
10
19.3844073
20
7.3548846
40
0.7755924
50
300.1363886
51
308.9134962
0
ARC
8
DEFAULT_255_2_778
10
19.6389895
20
7.044045
40
0.3738254
50
308.4787614
51
324.1800011
0
ARC
8
DEFAULT_255_2_778
10
19.8049829
20
6.9277241
40
0.1711755
50
323.2339619
51
358.5196362
0
ARC
8
DEFAULT_255_2_778
10
19.801185
20
6.9180018
40
0.1749966
50
1.7355888
51
38.7172261
0
ARC
8
DEFAULT_255_2_778
10
19.6245066
20
6.7882045
40
0.3941421
50
37.3746282
51
52.0873309
0
ARC
8
DEFAULT_255_2_778
10
19.3761777
20
6.4787816
40
0.7908701
50
51.6678106
51
59.8167484
0
LINE
8
DEFAULT_255_2_778
10
7.6334013
20
13.8593269
11
0.3492013
21
9.5543269
0
LINE
8
DEFAULT_255_2_778
10
0.3492013
20
9.0759269
11
11.6802013
21
2.3790269
0
LINE
8
DEFAULT_255_2_778
10
12.4896013
20
2.3790269
11
19.7738013
21
6.6841269
0
LINE
8
DEFAULT_255_2_778
10
19.7738013
20
7.1624269
11
8.4428013
21
13.8593269
0
ARC
8
DEFAULT_255_2_778
10
12.074547
20
3.0322758
40
0.7726221
50
270.7604489
51
299.731759
0
ARC
8
DEFAULT_255_2_778
10
11.9601885
20
3.2730756
40
1.0386319
50
298.621868
51
300.6260245
0
ARC
8
DEFAULT_255_2_778
10
19.443998
20
7.2658603
40
0.66845
50
299.5436041
51
313.5057114
0
ARC
8
DEFAULT_255_2_778
10
19.7579416
20
6.9465718
40
0.2208823
50
311.4564991
51
348.7510854
0
ARC
8
DEFAULT_255_2_778
10
19.8334177
20
6.9235581
40
0.1425833
50
351.9064394
51
359.9854008
0
ARC
8
DEFAULT_255_2_778
10
19.7801657
20
4.5426827
40
0.196142
50
312.9172986
51
356.7964874
0
ARC
8
DEFAULT_255_2_778
10
19.4830656
20
4.8229953
40
0.6043235
50
300.5401809
51
315.4496244
0
ARC
8
DEFAULT_255_2_778
10
19.2525552
20
5.174597
40
1.0244732
50
300.5705467
51
301.6514478
0
ARC
8
DEFAULT_255_2_778
10
12.0602159
20
0.6850186
40
0.8189966
50
276.601288
51
301.5952846
0
ARC
8
DEFAULT_255_2_778
10
12.0847364
20
0.5563967
40
0.688475
50
270.0053876
51
275.8046966
0
LINE
8
DEFAULT_255_2_778
10
12.4893012
20
2.3793218
11
19.7736012
21
6.6843218
0
LINE
8
DEFAULT_255_2_778
10
19.9760012
20
6.9235218
11
19.9760012
21
4.5317218
0
LINE
8
DEFAULT_255_2_778
10
19.7736012
20
4.2925218
11
12.4893012
21
-0.0125782
0
LINE
8
DEFAULT_255_2_778
10
12.0848012
20
-0.1320782
11
12.0848012
21
2.2597218
0
ARC
8
DEFAULT_255_2_778
10
12.0701299
20
2.9437593
40
0.6842322
50
269.9992751
51
271.2305512
0
ARC
8
DEFAULT_255_2_778
10
12.0799301
20
3.0297497
40
0.770285
50
240.7564771
51
269.2703708
0
ARC
8
DEFAULT_255_2_778
10
12.1921424
20
3.2693243
40
1.0343212
50
239.4060529
51
241.8160487
0
ARC
8
DEFAULT_255_2_778
10
0.6642273
20
9.6574235
40
0.66845
50
226.4942886
51
240.4563959
0
ARC
8
DEFAULT_255_2_778
10
0.3502837
20
9.3381349
40
0.2208823
50
191.2489146
51
228.5435009
0
ARC
8
DEFAULT_255_2_778
10
0.2748076
20
9.3151213
40
0.1425833
50
180.0145992
51
188.0935606
0
ARC
8
DEFAULT_255_2_778
10
0.3280596
20
6.9342459
40
0.196142
50
183.2035126
51
227.0827014
0
ARC
8
DEFAULT_255_2_778
10
0.6251596
20
7.2145585
40
0.6043235
50
224.5503756
51
239.4598191
0
ARC
8
DEFAULT_255_2_778
10
0.8556701
20
7.5661601
40
1.0244732
50
238.3485522
51
239.4294533
0
ARC
8
DEFAULT_255_2_778
10
12.096749
20
0.68963
40
0.8241429
50
238.4664494
51
262.6364353
0
ARC
8
DEFAULT_255_2_778
10
12.0702163
20
0.5563981
40
0.688671
50
263.4050589
51
269.9920933
0
ARC
8
DEFAULT_255_2_778
10
12.0701299
20
0.5519593
40
0.6842322
50
269.9992751
51
271.2305512
0
LINE
8
DEFAULT_255_2_778
10
11.6657241
20
2.3789849
11
0.3346241
21
9.0758849
0
LINE
8
DEFAULT_255_2_778
10
0.1322241
20
9.3150849
11
0.1322241
21
6.9232849
0
LINE
8
DEFAULT_255_2_778
10
0.3346241
20
6.6840849
11
11.6657241
21
-0.0128151
0
LINE
8
DEFAULT_255_2_778
10
12.0848241
20
-0.1321151
11
12.0848241
21
2.2596849
0
LINE
8
DEFAULT_255_2_778
10
11.74667
20
1.8668259
11
11.74667
21
0.3970259
0
LINE
8
DEFAULT_255_2_778
10
11.74667
20
0.3970259
11
0.30737
21
7.2175259
0
LINE
8
DEFAULT_255_2_778
10
0.30737
20
7.2175259
11
0.30737
21
8.6285259
0
LINE
8
DEFAULT_255_2_778
10
0.30737
20
8.6285259
11
11.74667
21
1.8668259
0
ARC
8
DEFAULT_255_2_778
10
8.9143336
20
2.9118053
40
0.4553998
50
242.7021718
51
252.3902554
0
ARC
8
DEFAULT_255_2_778
10
8.8496708
20
2.7026313
40
0.2364712
50
251.9906576
51
269.0110569
0
ARC
8
DEFAULT_255_2_778
10
8.8461128
20
2.6027475
40
0.1365531
50
269.7803838
51
344.5882408
0
ARC
8
DEFAULT_255_2_778
10
8.5736524
20
2.7152051
40
0.4306101
50
339.791746
51
355.0863128
0
ARC
8
DEFAULT_255_2_778
10
8.2356318
20
2.7241784
40
0.7684177
50
356.5787074
51
359.9659324
0
ARC
8
DEFAULT_255_2_778
10
8.483492
20
2.7372321
40
0.5207327
50
358.5132731
51
29.3567441
0
ARC
8
DEFAULT_255_2_778
10
8.5073122
20
2.7287593
40
0.5044854
50
31.5222342
51
65.0923129
0
ARC
8
DEFAULT_255_2_778
10
8.5723278
20
2.8004798
40
0.4130566
50
69.0852705
51
79.4579885
0
ARC
8
DEFAULT_255_2_778
10
8.6030412
20
2.9602726
40
0.2503435
50
79.6776712
51
89.6630019
0
ARC
8
DEFAULT_255_2_778
10
8.6009678
20
3.0640894
40
0.1465655
50
88.6137251
51
170.2667996
0
ARC
8
DEFAULT_255_2_778
10
8.798904
20
2.9889958
40
0.3566604
50
163.7386061
51
170.359982
0
ARC
8
DEFAULT_255_2_778
10
9.1822747
20
2.9672202
40
0.7394996
50
173.6725132
51
179.9014296
0
ARC
8
DEFAULT_255_2_778
10
8.9533497
20
2.9551136
40
0.5107486
50
178.4989976
51
237.8324427
0
ARC
8
DEFAULT_255_2_778
10
9.0933932
20
3.1297164
40
0.7335539
50
235.833423
51
238.0746745
0
LINE
8
DEFAULT_255_2_778
10
8.70548
20
2.5071212
11
8.70548
21
2.5071212
0
ARC
8
DEFAULT_255_2_778
10
9.7080336
20
2.4549053
40
0.4553998
50
242.7021718
51
252.3902554
0
ARC
8
DEFAULT_255_2_778
10
9.6433708
20
2.2457313
40
0.2364712
50
251.9906576
51
269.0110569
0
ARC
8
DEFAULT_255_2_778
10
9.6398128
20
2.1458475
40
0.1365531
50
269.7803838
51
344.5882408
0
ARC
8
DEFAULT_255_2_778
10
9.3673524
20
2.2583051
40
0.4306101
50
339.791746
51
355.0863128
0
ARC
8
DEFAULT_255_2_778
10
9.0293318
20
2.2672784
40
0.7684177
50
356.5787074
51
359.9659324
0
ARC
8
DEFAULT_255_2_778
10
9.277192
20
2.2803321
40
0.5207327
50
358.5132731
51
29.3567441
0
ARC
8
DEFAULT_255_2_778
10
9.3010122
20
2.2718593
40
0.5044854
50
31.5222342
51
65.0923129
0
ARC
8
DEFAULT_255_2_778
10
9.3660278
20
2.3435798
40
0.4130566
50
69.0852705
51
79.4579885
0
ARC
8
DEFAULT_255_2_778
10
9.3967412
20
2.5033726
40
0.2503435
50
79.6776712
51
89.6630019
0
ARC
8
DEFAULT_255_2_778
10
9.3946678
20
2.6071894
40
0.1465655
50
88.6137251
51
170.2667996
0
ARC
8
DEFAULT_255_2_778
10
9.592604
20
2.5320958
40
0.3566604
50
163.7386061
51
170.359982
0
ARC
8
DEFAULT_255_2_778
10
9.9759747
20
2.5103202
40
0.7394996
50
173.6725132
51
179.9014296
0
ARC
8
DEFAULT_255_2_778
10
9.7470497
20
2.4982136
40
0.5107486
50
178.4989976
51
237.8324427
0
ARC
8
DEFAULT_255_2_778
10
9.8870932
20
2.6728164
40
0.7335539
50
235.833423
51
238.0746745
0
LINE
8
DEFAULT_255_2_778
10
9.49918
20
2.0502212
11
9.49918
21
2.0502212
0
ARC
8
DEFAULT_255_2_778
10
10.5018336
20
1.9982053
40
0.4553998
50
242.7021718
51
252.3902554
0
ARC
8
DEFAULT_255_2_778
10
10.4371708
20
1.7890313
40
0.2364712
50
251.9906576
51
269.0110569
0
ARC
8
DEFAULT_255_2_778
10
10.4336128
20
1.6891475
40
0.1365531
50
269.7803838
51
344.5882408
0
ARC
8
DEFAULT_255_2_778
10
10.1611524
20
1.8016051
40
0.4306101
50
339.791746
51
355.0863128
0
ARC
8
DEFAULT_255_2_778
10
9.8231318
20
1.8105784
40
0.7684177
50
356.5787074
51
359.9659324
0
ARC
8
DEFAULT_255_2_778
10
10.070992
20
1.8236321
40
0.5207327
50
358.5132731
51
29.3567441
0
ARC
8
DEFAULT_255_2_778
10
10.0948122
20
1.8151593
40
0.5044854
50
31.5222342
51
65.0923129
0
ARC
8
DEFAULT_255_2_778
10
10.1598278
20
1.8868798
40
0.4130566
50
69.0852705
51
79.4579885
0
ARC
8
DEFAULT_255_2_778
10
10.1905412
20
2.0466726
40
0.2503435
50
79.6776712
51
89.6630019
0
ARC
8
DEFAULT_255_2_778
10
10.1884678
20
2.1504894
40
0.1465655
50
88.6137251
51
170.2667996
0
ARC
8
DEFAULT_255_2_778
10
10.386404
20
2.0753958
40
0.3566604
50
163.7386061
51
170.359982
0
ARC
8
DEFAULT_255_2_778
10
10.7697747
20
2.0536202
40
0.7394996
50
173.6725132
51
179.9014296
0
ARC
8
DEFAULT_255_2_778
10
10.5408497
20
2.0415136
40
0.5107486
50
178.4989976
51
237.8324427
0
ARC
8
DEFAULT_255_2_778
10
10.6808932
20
2.2161164
40
0.7335539
50
235.833423
51
238.0746745
0
LINE
8
DEFAULT_255_2_778
10
10.29298
20
1.5935212
11
10.29298
21
1.5935212
0
ARC
8
DEFAULT_255_2_778
10
11.1647953
20
18.3973519
40
4.9575279
50
287.7277885
51
289.7769149
0
ARC
8
DEFAULT_255_2_778
10
7.1209619
20
29.8201958
40
17.0749912
50
289.5765786
51
289.660031
0
ARC
8
DEFAULT_255_2_778
10
27.5182032
20
-27.1763139
40
43.4613614
50
109.5980032
51
109.7027158
0
ARC
8
DEFAULT_255_2_778
10
13.9136989
20
11.1644058
40
2.7788923
50
102.5916896
51
110.5013694
0
ARC
8
DEFAULT_255_2_778
10
13.6627576
20
12.186669
40
1.7266514
50
94.2156036
51
101.8599584
0
ARC
8
DEFAULT_255_2_778
10
13.6677997
20
12.1057022
40
1.8077701
50
89.96755
51
94.1863395
0
ARC
8
DEFAULT_255_2_778
10
13.6668005
20
11.8726345
40
2.0408384
50
85.4259006
51
89.9432014
0
ARC
8
DEFAULT_255_2_778
10
13.636827
20
11.4942335
40
2.4204247
50
81.740712
51
85.4329754
0
ARC
8
DEFAULT_255_2_778
10
13.5646124
20
10.9956517
40
2.924209
50
78.5303478
51
81.7437918
0
ARC
8
DEFAULT_255_2_778
10
13.4368917
20
10.3639657
40
3.5686774
50
75.8225096
51
78.5374112
0
ARC
8
DEFAULT_255_2_778
10
13.3287636
20
9.9233925
40
4.022316
50
75.6975537
51
75.8662878
0
ARC
8
DEFAULT_255_2_778
10
13.2204732
20
11.1980995
40
2.8450185
50
41.0296032
51
67.2114502
0
ARC
8
DEFAULT_255_2_778
10
10.0792544
20
8.3410702
40
7.0907678
50
34.8626493
51
41.7827854
0
ARC
8
DEFAULT_255_2_778
10
0.660602
20
1.5228391
40
18.7175674
50
35.1209503
51
35.5076933
0
ARC
8
DEFAULT_255_2_778
10
15.3400632
20
11.9054004
40
0.7390302
50
24.6603226
51
31.4631698
0
ARC
8
DEFAULT_255_2_778
10
15.6784029
20
12.0586187
40
0.3676246
50
12.4714519
51
24.9601414
0
ARC
8
DEFAULT_255_2_778
10
15.8183751
20
12.0912536
40
0.2239135
50
0.274916
51
12.0524653
0
ARC
8
DEFAULT_255_2_778
10
15.8375624
20
12.0947607
40
0.204738
50
327.1456868
51
359.3192065
0
ARC
8
DEFAULT_255_2_778
10
15.534321
20
12.2823682
40
0.5612973
50
318.4240813
51
327.85103
0
ARC
8
DEFAULT_255_2_778
10
13.7417506
20
13.8275344
40
2.9278622
50
317.6229891
51
319.0829409
0
ARC
8
DEFAULT_255_2_778
10
15.7415689
20
12.1287448
40
0.3193756
50
276.1366106
51
300.7029846
0
ARC
8
DEFAULT_255_2_778
10
15.7598019
20
12.0228449
40
0.2122425
50
270.018897
51
274.2984696
0
ARC
8
DEFAULT_255_2_778
10
15.7595834
20
12.0087857
40
0.1981834
50
254.5650725
51
270.0834055
0
ARC
8
DEFAULT_255_2_778
10
15.7750691
20
12.0498979
40
0.2419672
50
228.2987109
51
253.6213199
0
ARC
8
DEFAULT_255_2_778
10
15.9085832
20
12.2053643
40
0.4468776
50
215.5822891
51
228.7780868
0
ARC
8
DEFAULT_255_2_778
10
16.1340217
20
12.3747111
40
0.72879
50
210.9558974
51
216.0972568
0
ARC
8
DEFAULT_255_2_778
10
11.6740455
20
9.6833366
40
4.4803286
50
31.1337866
51
33.0402229
0
ARC
8
DEFAULT_255_2_778
10
11.343091
20
9.4688524
40
4.8747065
50
33.0326292
51
35.3675618
0
ARC
8
DEFAULT_255_2_778
10
11.333274
20
9.4624323
40
4.886428
50
35.3623218
51
36.1637279
0
ARC
8
DEFAULT_255_2_778
10
12.1248294
20
10.0738822
40
3.8866558
50
35.7723087
51
45.5421354
0
ARC
8
DEFAULT_255_2_778
10
13.3090938
20
11.2542877
40
2.21476
50
46.0220171
51
51.3308502
0
ARC
8
DEFAULT_255_2_778
10
13.748402
20
11.8034194
40
1.5115265
50
51.3265879
51
57.3913107
0
ARC
8
DEFAULT_255_2_778
10
14.013251
20
12.2188767
40
1.018831
50
57.3469776
51
65.1022922
0
ARC
8
DEFAULT_255_2_778
10
14.1265308
20
12.4565069
40
0.7556
50
65.3077477
51
69.7353516
0
ARC
8
DEFAULT_255_2_778
10
13.6585169
20
11.9585768
40
1.4102356
50
58.8388895
51
66.7203816
0
ARC
8
DEFAULT_255_2_778
10
13.7094032
20
12.0759472
40
1.2823094
50
66.7363116
51
75.8658977
0
ARC
8
DEFAULT_255_2_778
10
13.7193254
20
12.1114343
40
1.2454742
50
75.9098827
51
85.8512191
0
ARC
8
DEFAULT_255_2_778
10
13.7165032
20
12.0749237
40
1.2820932
50
85.8434686
51
90.0112887
0
ARC
8
DEFAULT_255_2_778
10
13.7191082
20
11.9658458
40
1.391174
50
90.1176924
51
100.0918135
0
ARC
8
DEFAULT_255_2_778
10
13.7660107
20
11.7018021
40
1.659351
50
100.0886895
51
107.4305122
0
ARC
8
DEFAULT_255_2_778
10
13.888782
20
11.3074454
40
2.0723754
50
107.4029921
51
112.0443529
0
ARC
8
DEFAULT_255_2_778
10
14.027608
20
10.953541
40
2.4525155
50
111.9473539
51
112.4685322
0
ARC
8
DEFAULT_255_2_778
10
14.0948475
20
10.7910888
40
2.6283331
50
112.4696244
51
112.5314605
0
ARC
8
DEFAULT_255_2_778
10
14.0730476
20
10.8437105
40
2.5713746
50
112.5320878
51
112.59469
0
ARC
8
DEFAULT_255_2_778
10
14.0516764
20
10.8948276
40
2.51597
50
112.5926148
51
112.6559845
0
ARC
8
DEFAULT_255_2_778
10
14.3292954
20
10.2306976
40
3.23579
50
112.6626289
51
112.7114309
0
ARC
8
DEFAULT_255_2_778
10
14.0505148
20
10.897066
40
2.5134567
50
112.7140297
51
112.7806946
0
ARC
8
DEFAULT_255_2_778
10
14.2905968
20
10.3259085
40
3.1330211
50
112.7843353
51
112.8372694
0
ARC
8
DEFAULT_255_2_778
10
13.9282585
20
11.1862535
40
2.1994887
50
112.8366969
51
112.9113259
0
ARC
8
DEFAULT_255_2_778
10
14.3130081
20
10.2757851
40
3.1879141
50
112.9103423
51
112.9630011
0
ARC
8
DEFAULT_255_2_778
10
14.1571506
20
10.644366
40
2.7877349
50
112.968962
51
113.0285426
0
ARC
8
DEFAULT_255_2_778
10
14.182896
20
10.5840195
40
2.8533436
50
113.0302853
51
113.0892711
0
ARC
8
DEFAULT_255_2_778
10
14.1724969
20
10.6093164
40
2.8259949
50
113.0964585
51
113.1558325
0
ARC
8
DEFAULT_255_2_778
10
14.1448721
20
10.6736118
40
2.7560162
50
113.1534165
51
113.2136327
0
ARC
8
DEFAULT_255_2_778
10
14.1180128
20
10.7361271
40
2.6879752
50
113.2126999
51
113.2737656
0
ARC
8
DEFAULT_255_2_778
10
14.0915882
20
10.797507
40
2.6211488
50
113.2732932
51
113.3352314
0
ARC
8
DEFAULT_255_2_778
10
14.3842796
20
10.1191129
40
3.3599904
50
113.3357656
51
113.3835557
0
ARC
8
DEFAULT_255_2_778
10
14.3505305
20
10.1984591
40
3.2737666
50
113.3925518
51
113.4410645
0
ARC
8
DEFAULT_255_2_778
10
14.0158876
20
10.9696918
40
2.4330612
50
113.435787
51
113.5003489
0
ARC
8
DEFAULT_255_2_778
10
14.1005495
20
10.7741702
40
2.646125
50
113.4933045
51
113.552019
0
ARC
8
DEFAULT_255_2_778
10
14.4431659
20
9.9886663
40
3.5030977
50
113.5553365
51
113.5992027
0
ARC
8
DEFAULT_255_2_778
10
14.407753
20
10.070867
40
3.4135946
50
113.6068686
51
113.6513929
0
ARC
8
DEFAULT_255_2_778
10
14.619159
20
9.5892593
40
3.9395588
50
113.6578156
51
113.6959738
0
ARC
8
DEFAULT_255_2_778
10
14.1243686
20
10.7171751
40
2.7078885
50
113.7005369
51
113.7554442
0
ARC
8
DEFAULT_255_2_778
10
14.5404246
20
9.7721072
40
3.7404852
50
113.7569715
51
113.7962867
0
ARC
8
DEFAULT_255_2_778
10
14.0714974
20
10.8352949
40
2.5784779
50
113.7945003
51
113.8509097
0
ARC
8
DEFAULT_255_2_778
10
14.4656174
20
9.943645
40
3.5533472
50
113.8495645
51
113.8900505
0
ARC
8
DEFAULT_255_2_778
10
14.7423106
20
9.3207335
40
4.2349463
50
113.8997757
51
113.9333744
0
ARC
8
DEFAULT_255_2_778
10
14.6991079
20
9.420214
40
4.1264933
50
113.9454361
51
113.979541
0
ARC
8
DEFAULT_255_2_778
10
14.6571923
20
9.5159589
40
4.0219773
50
113.9882849
51
114.0228938
0
ARC
8
DEFAULT_255_2_778
10
14.3267501
20
10.2578103
40
3.2098596
50
114.026262
51
114.0691534
0
ARC
8
DEFAULT_255_2_778
10
14.5765582
20
9.6985277
40
3.8223962
50
114.0690184
51
114.104643
0
ARC
8
DEFAULT_255_2_778
10
14.5377879
20
9.7855192
40
3.7271564
50
114.1067665
51
114.1429024
0
ARC
8
DEFAULT_255_2_778
10
14.4996763
20
9.8716966
40
3.6329288
50
114.1503132
51
114.1869815
0
ARC
8
DEFAULT_255_2_778
10
14.4627173
20
9.953798
40
3.5428923
50
114.1857474
51
114.2229371
0
ARC
8
DEFAULT_255_2_778
10
14.426388
20
10.0351488
40
3.4537984
50
114.2270274
51
114.26476
0
ARC
8
DEFAULT_255_2_778
10
14.3911658
20
10.1133265
40
3.3680527
50
114.2650479
51
114.3033188
0
ARC
8
DEFAULT_255_2_778
10
14.3570207
20
10.1884312
40
3.285551
50
114.2996814
51
114.3384852
0
ARC
8
DEFAULT_255_2_778
10
14.3234503
20
10.2621865
40
3.2045154
50
114.3350816
51
114.3744327
0
ARC
8
DEFAULT_255_2_778
10
14.6510185
20
9.5383095
40
3.9990588
50
114.3691145
51
114.4003032
0
ARC
8
DEFAULT_255_2_778
10
14.2593803
20
10.4009897
40
3.0516425
50
114.3951128
51
114.4355387
0
ARC
8
DEFAULT_255_2_778
10
14.570261
20
9.7168479
40
3.8031055
50
114.4359274
51
114.4680119
0
ARC
8
DEFAULT_255_2_778
10
14.5319396
20
9.7999661
40
3.7115799
50
114.4610112
51
114.4935286
0
ARC
8
DEFAULT_255_2_778
10
14.4935372
20
9.8847334
40
3.6185195
50
114.4966508
51
114.5296411
0
ARC
8
DEFAULT_255_2_778
10
15.0164366
20
8.7391427
40
4.8778057
50
114.530793
51
114.5549997
0
ARC
8
DEFAULT_255_2_778
10
14.9664336
20
8.8493238
40
4.7568095
50
114.5586929
51
114.583245
0
ARC
8
DEFAULT_255_2_778
10
14.3859635
20
10.1177196
40
3.3618996
50
114.5801198
51
114.6144809
0
ARC
8
DEFAULT_255_2_778
10
14.3512442
20
10.1935527
40
3.2784964
50
114.6148451
51
114.6496968
0
ARC
8
DEFAULT_255_2_778
10
14.8232857
20
9.1635032
40
4.4115565
50
114.6422236
51
114.6678422
0
ARC
8
DEFAULT_255_2_778
10
14.7265351
20
9.3741565
40
4.1797473
50
114.667791
51
114.7078781
0
ARC
8
DEFAULT_255_2_778
10
14.9889804
20
8.8047229
40
4.8067497
50
114.712645
51
114.7469351
0
ARC
8
DEFAULT_255_2_778
10
14.9149372
20
8.9654021
40
4.6298312
50
114.7471659
51
114.7821867
0
ARC
8
DEFAULT_255_2_778
10
14.8445374
20
9.1167284
40
4.4629315
50
114.7759588
51
114.811698
0
ARC
8
DEFAULT_255_2_778
10
14.445608
20
9.9790511
40
3.5128024
50
114.8077493
51
114.8524168
0
ARC
8
DEFAULT_255_2_778
10
15.7952602
20
7.0641651
40
6.7249857
50
114.8489254
51
114.8718782
0
ARC
8
DEFAULT_255_2_778
10
15.6891306
20
7.2948656
40
6.4710454
50
114.8784687
51
114.9019348
0
ARC
8
DEFAULT_255_2_778
10
15.5865119
20
7.5178897
40
6.2255466
50
114.9095714
51
114.9335669
0
ARC
8
DEFAULT_255_2_778
10
15.490237
20
7.7251348
40
5.9970311
50
114.934196
51
114.9587019
0
ARC
8
DEFAULT_255_2_778
10
16.4724763
20
5.6172434
40
8.3225416
50
114.9659578
51
114.9833299
0
ARC
8
DEFAULT_255_2_778
10
14.997364
20
8.7829673
40
4.8300119
50
114.9829839
51
115.0173279
0
ARC
8
DEFAULT_255_2_778
10
15.3848592
20
7.9513143
40
5.747508
50
115.0117522
51
115.040069
0
ARC
8
DEFAULT_255_2_778
10
14.8317841
20
9.1336939
40
4.4421678
50
115.031709
51
115.067656
0
ARC
8
DEFAULT_255_2_778
10
15.0768267
20
8.6077367
40
5.0224058
50
115.0576136
51
115.0910306
0
ARC
8
DEFAULT_255_2_778
10
16.3167495
20
5.9583434
40
7.9475883
50
115.0868653
51
115.1075572
0
ARC
8
DEFAULT_255_2_778
10
18.3901861
20
1.5369697
40
12.8309973
50
115.1140376
51
115.1270135
0
ARC
8
DEFAULT_255_2_778
10
16.594317
20
5.3663157
40
8.6014541
50
115.1277955
51
115.1473594
0
ARC
8
DEFAULT_255_2_778
10
18.1949708
20
1.9568379
40
12.3679685
50
115.1477779
51
115.1610923
0
ARC
8
DEFAULT_255_2_778
10
17.930245
20
2.5236381
40
11.7423965
50
115.1678058
51
115.1815294
0
ARC
8
DEFAULT_255_2_778
10
8.8742907
20
21.7233696
40
9.4859062
50
294.8845942
51
295.3389813
0
ARC
8
DEFAULT_255_2_778
10
12.4263978
20
14.0597734
40
1.0391247
50
292.0078435
51
295.0202238
0
ARC
8
DEFAULT_255_2_778
10
12.6569138
20
13.497308
40
0.4312726
50
290.2292455
51
291.6166853
0
ARC
8
DEFAULT_255_2_778
10
12.7963299
20
13.5755364
40
0.4829965
50
252.6130887
51
271.1517234
0
ARC
8
DEFAULT_255_2_778
10
12.7204848
20
13.3440253
40
0.2394206
50
209.4167899
51
253.3786287
0
ARC
8
DEFAULT_255_2_778
10
12.8008613
20
13.3742411
40
0.3245416
50
178.4462025
51
207.0932581
0
ARC
8
DEFAULT_255_2_778
10
12.9785974
20
13.3839375
40
0.5021593
50
180.0000001
51
180.1022682
0
ARC
8
DEFAULT_255_2_778
10
12.7555298
20
13.3983703
40
0.2794646
50
118.7258504
51
182.9603326
0
ARC
8
DEFAULT_255_2_778
10
13.0533028
20
12.981798
40
0.7902357
50
118.6566079
51
123.1467338
0
ARC
8
DEFAULT_255_2_778
10
13.5595164
20
11.7688297
40
0.898673
50
96.7480748
51
137.4157937
0
ARC
8
DEFAULT_255_2_778
10
13.6213027
20
11.4257215
40
1.2468421
50
89.8580219
51
97.7150421
0
ARC
8
DEFAULT_255_2_778
10
13.6202416
20
11.0912873
40
1.5812779
50
82.8771935
51
89.8496038
0
ARC
8
DEFAULT_255_2_778
10
13.5650293
20
10.6394543
40
2.0364704
50
77.531503
51
82.9120671
0
ARC
8
DEFAULT_255_2_778
10
13.4714983
20
10.2018096
40
2.4839888
50
74.7769375
51
77.6044747
0
ARC
8
DEFAULT_255_2_778
10
13.2109803
20
10.695592
40
2.1106182
50
54.6972978
51
64.3762241
0
ARC
8
DEFAULT_255_2_778
10
13.1092725
20
10.583396
40
2.2610321
50
39.4753462
51
54.2369275
0
ARC
8
DEFAULT_255_2_778
10
11.0463917
20
8.8701538
40
4.9425654
50
34.7292576
51
39.602631
0
ARC
8
DEFAULT_255_2_778
10
10.6148683
20
8.5138237
40
5.5004162
50
35.2023824
51
35.2189747
0
LINE
8
DEFAULT_255_2_778
10
15.1093734
20
11.6846282
11
15.1102882
21
11.6833314
0
LINE
8
DEFAULT_255_2_778
10
15.1102882
20
11.6833314
11
15.1111994
21
11.6820394
0
ARC
8
DEFAULT_255_2_778
10
10.7123749
20
8.5799625
40
5.3826144
50
35.1749479
51
35.191715
0
LINE
8
DEFAULT_255_2_778
10
15.112107
20
11.680752
11
15.1130111
21
11.6794693
0
LINE
8
DEFAULT_255_2_778
10
15.1130111
20
11.6794693
11
15.1139117
21
11.6781913
0
ARC
8
DEFAULT_255_2_778
10
10.8095846
20
8.6445368
40
5.2659558
50
35.158919
51
35.175867
0
LINE
8
DEFAULT_255_2_778
10
15.1148088
20
11.6769179
11
15.1157024
21
11.6756491
0
ARC
8
DEFAULT_255_2_778
10
5.5681949
20
4.9513998
40
11.677775
50
35.1454154
51
35.1567946
0
LINE
8
DEFAULT_255_2_778
10
15.1170376
20
11.6737527
11
15.1179225
21
11.6724954
0
LINE
8
DEFAULT_255_2_778
10
15.1179225
20
11.6724954
11
15.118804
21
11.6712428
0
ARC
8
DEFAULT_255_2_778
10
5.8091619
20
5.1199765
40
11.3836956
50
35.1228221
51
35.1343439
0
LINE
8
DEFAULT_255_2_778
10
15.1201212
20
11.6693704
11
15.1209941
21
11.6681291
0
LINE
8
DEFAULT_255_2_778
10
15.1209941
20
11.6681291
11
15.1218637
21
11.6668923
0
ARC
8
DEFAULT_255_2_778
10
6.0422665
20
5.2843513
40
11.0984645
50
35.0937975
51
35.1054622
0
LINE
8
DEFAULT_255_2_778
10
15.123163
20
11.6650438
11
15.1240242
21
11.6638183
0
ARC
8
DEFAULT_255_2_778
10
6.2077272
20
5.3989441
40
10.8972015
50
35.081329
51
35.0930989
0
ARC
8
DEFAULT_255_2_778
10
52.1132916
20
37.6355116
40
45.1966228
50
215.0771168
51
215.0808796
0
ARC
8
DEFAULT_255_2_778
10
51.5249883
20
37.2060727
40
44.4683794
50
215.0637291
51
215.067525
0
LINE
8
DEFAULT_255_2_778
10
15.1287094
20
11.6571462
11
15.1295491
21
11.6559495
0
LINE
8
DEFAULT_255_2_778
10
15.1295491
20
11.6559495
11
15.1303857
21
11.6547572
0
ARC
8
DEFAULT_255_2_778
10
50.3918623
20
36.3843949
40
43.0688601
50
215.0428115
51
215.0466727
0
LINE
8
DEFAULT_255_2_778
10
15.1320523
20
11.652381
11
15.1328791
21
11.6512018
0
ARC
8
DEFAULT_255_2_778
10
49.5657724
20
35.785586
40
42.0486936
50
215.0270258
51
215.0309366
0
LINE
8
DEFAULT_255_2_778
10
15.1345265
20
11.6488517
11
15.1353439
21
11.6476854
0
ARC
8
DEFAULT_255_2_778
10
7.0543566
20
5.984595
40
9.8677732
50
35.0101017
51
35.0224601
0
LINE
8
DEFAULT_255_2_778
10
15.1365652
20
11.6459422
11
15.1373747
21
11.6447866
0
ARC
8
DEFAULT_255_2_778
10
11.6110691
20
9.1742282
40
4.3056346
50
34.9966921
51
35.0153978
0
ARC
8
DEFAULT_255_2_778
10
47.850426
20
34.5459142
40
39.93251
50
214.9963783
51
215.0003974
0
LINE
8
DEFAULT_255_2_778
10
15.1397877
20
11.6413406
11
15.1405848
21
11.6402018
0
ARC
8
DEFAULT_255_2_778
10
47.0920947
20
33.9992182
40
38.9977511
50
214.983546
51
214.9876156
0
ARC
8
DEFAULT_255_2_778
10
39.2248976
20
28.4858188
40
29.3909662
50
214.9760164
51
214.9807058
0
ARC
8
DEFAULT_255_2_778
10
46.1657144
20
33.3312358
40
37.8557721
50
214.9669248
51
214.9710587
0
LINE
8
DEFAULT_255_2_778
10
15.1451175
20
11.6337233
11
15.1458942
21
11.6326126
0
ARC
8
DEFAULT_255_2_778
10
20.274775
20
15.2172679
40
6.2574094
50
214.9503034
51
214.9688499
0
LINE
8
DEFAULT_255_2_778
10
15.1470548
20
11.6309526
11
15.1478241
21
11.6298521
0
LINE
8
DEFAULT_255_2_778
10
15.1478241
20
11.6298521
11
15.1485904
21
11.6287556
0
LINE
8
DEFAULT_255_2_778
10
15.1485904
20
11.6287556
11
15.1493539
21
11.6276633
0
LINE
8
DEFAULT_255_2_778
10
15.1493539
20
11.6276633
11
15.1501144
21
11.6265749
0
LINE
8
DEFAULT_255_2_778
10
15.1501144
20
11.6265749
11
15.150872
21
11.6254905
0
LINE
8
DEFAULT_255_2_778
10
15.150872
20
11.6254905
11
15.1516267
21
11.6244102
0
LINE
8
DEFAULT_255_2_778
10
15.1516267
20
11.6244102
11
15.1523785
21
11.6233338
0
LINE
8
DEFAULT_255_2_778
10
15.1523785
20
11.6233338
11
15.1531275
21
11.6222615
0
ARC
8
DEFAULT_255_2_778
10
43.2983597
20
31.2736038
40
34.3268023
50
214.9232123
51
214.9275629
0
LINE
8
DEFAULT_255_2_778
10
15.1546197
20
11.6201244
11
15.1553601
21
11.6190639
0
ARC
8
DEFAULT_255_2_778
10
8.4652313
20
6.9478798
40
8.1595211
50
34.9099558
51
34.9235288
0
ARC
8
DEFAULT_255_2_778
10
57.3564604
20
40.9205683
40
51.3761669
50
214.7755762
51
215.0549419
0
ARC
8
DEFAULT_255_2_778
10
24.3173417
20
17.7674373
40
11.0320432
50
215.1754954
51
215.6210424
0
ARC
8
DEFAULT_255_2_778
10
15.0013815
20
11.1238005
40
0.410955
50
21.0349875
51
32.0927749
0
ARC
8
DEFAULT_255_2_778
10
15.1698729
20
11.1871182
40
0.2309687
50
0.9154664
51
21.3772364
0
ARC
8
DEFAULT_255_2_778
10
15.1850731
20
11.190221
40
0.2157399
50
0.0000504
51
0.15601
0
ARC
8
DEFAULT_255_2_778
10
15.1634266
20
11.1999144
40
0.2375843
50
319.4492297
51
357.6617416
0
ARC
8
DEFAULT_255_2_778
10
14.5780241
20
11.6383973
40
0.968619
50
316.7636022
51
322.2547611
0
ARC
8
DEFAULT_255_2_778
10
13.0324433
20
13.0429878
40
3.0569907
50
317.3682464
51
317.4279842
0
ARC
8
DEFAULT_255_2_778
10
15.1858457
20
11.1459215
40
0.198038
50
270.163477
51
298.8947471
0
ARC
8
DEFAULT_255_2_778
10
15.1873776
20
11.1556307
40
0.2077486
50
248.5001731
51
269.7333458
0
ARC
8
DEFAULT_255_2_778
10
15.2200791
20
11.2310401
40
0.2899094
50
225.0146245
51
247.9490389
0
ARC
8
DEFAULT_255_2_778
10
15.3515807
20
11.3666673
40
0.4788073
50
210.9477763
51
225.3579471
0
ARC
8
DEFAULT_255_2_778
10
11.4457425
20
8.9713939
40
4.103021
50
31.585548
51
33.109782
0
ARC
8
DEFAULT_255_2_778
10
10.6765035
20
8.4702506
40
5.0211021
50
33.1049609
51
34.9410186
0
ARC
8
DEFAULT_255_2_778
10
10.4893878
20
8.3421033
40
5.2478832
50
34.9178772
51
37.3863359
0
ARC
8
DEFAULT_255_2_778
10
11.5028119
20
9.1356658
40
3.9608463
50
37.1665271
51
43.1884823
0
ARC
8
DEFAULT_255_2_778
10
12.4553455
20
10.0085413
40
2.6689967
50
43.5211296
51
44.7447466
0
ARC
8
DEFAULT_255_2_778
10
12.9410819
20
10.4988211
40
1.9788802
50
44.562709
51
49.6921588
0
ARC
8
DEFAULT_255_2_778
10
13.4668875
20
11.1209009
40
1.1643549
50
49.6207524
51
56.5732953
0
ARC
8
DEFAULT_255_2_778
10
13.7528872
20
11.5567804
40
0.6430267
50
56.4467691
51
66.4735908
0
ARC
8
DEFAULT_255_2_778
10
13.8395223
20
11.7458881
40
0.435074
50
66.9934194
51
70.0824196
0
ARC
8
DEFAULT_255_2_778
10
13.5284542
20
11.1734829
40
1.0836027
50
64.9221726
51
70.2401356
0
ARC
8
DEFAULT_255_2_778
10
13.6286612
20
11.4541605
40
0.7855743
50
70.1975002
51
77.3037929
0
ARC
8
DEFAULT_255_2_778
10
13.6727464
20
11.6515525
40
0.5833197
50
77.2668705
51
86.9206936
0
ARC
8
DEFAULT_255_2_778
10
13.6786437
20
11.729781
40
0.5048903
50
87.1120875
51
89.9895352
0
ARC
8
DEFAULT_255_2_778
10
13.6787182
20
11.7572231
40
0.4774483
50
89.9978747
51
110.4898767
0
ARC
8
DEFAULT_255_2_778
10
13.8071652
20
11.4403612
40
0.8192794
50
111.1476702
51
123.0794449
0
ARC
8
DEFAULT_255_2_778
10
16.8324445
20
6.6965966
40
6.4455787
50
122.597401
51
123.8206052
0
ARC
8
DEFAULT_255_2_778
10
11.0883654
20
15.3351189
40
3.9284585
50
303.1566931
51
303.294637
0
ARC
8
DEFAULT_255_2_778
10
12.3346386
20
13.4028693
40
1.6292524
50
298.1201213
51
303.6298316
0
ARC
8
DEFAULT_255_2_778
10
12.6247123
20
12.8739772
40
1.0260927
50
293.5348469
51
297.754065
0
ARC
8
DEFAULT_255_2_778
10
13.0202441
20
13.044016
40
1.1108691
50
267.2103
51
270.7321103
0
ARC
8
DEFAULT_255_2_778
10
12.9693242
20
12.0894114
40
0.1549801
50
242.62528
51
268.8367166
0
ARC
8
DEFAULT_255_2_778
10
13.0216053
20
12.1627047
40
0.2444367
50
224.3718479
51
239.6410418
0
ARC
8
DEFAULT_255_2_778
10
13.6001716
20
12.7660737
40
1.0802787
50
222.9760168
51
225.7880794
0
ARC
8
DEFAULT_255_2_778
10
17.4462607
20
16.3697077
40
6.3508141
50
222.475806
51
223.1087349
0
ARC
8
DEFAULT_255_2_778
10
13.0742957
20
12.0838777
40
0.3121696
50
152.5333279
51
180.5029328
0
ARC
8
DEFAULT_255_2_778
10
13.4165155
20
11.9012327
40
0.7000688
50
142.6075018
51
152.1884262
0
ARC
8
DEFAULT_255_2_778
10
15.1345849
20
10.6413257
40
2.8304876
50
142.1875473
51
143.4647256
0
ARC
8
DEFAULT_255_2_778
10
10.5456291
20
20.9061223
40
6.0763027
50
287.6743869
51
289.5830722
0
ARC
8
DEFAULT_255_2_778
10
6.8743341
20
31.3419235
40
17.1390248
50
289.453141
51
289.6744372
0
ARC
8
DEFAULT_255_2_778
10
32.1230652
20
-39.1870485
40
57.7731543
50
109.5988777
51
109.7035716
0
ARC
8
DEFAULT_255_2_778
10
14.1035511
20
11.5758665
40
3.9072428
50
103.5563005
51
110.3618208
0
ARC
8
DEFAULT_255_2_778
10
13.7079028
20
13.1100647
40
2.3231816
50
96.0445987
51
102.9395147
0
ARC
8
DEFAULT_255_2_778
10
13.709058
20
13.0693802
40
2.3637635
50
90.0367759
51
95.9685997
0
ARC
8
DEFAULT_255_2_778
10
13.7115325
20
13.0918996
40
2.341247
50
89.9971677
51
90.0976865
0
ARC
8
DEFAULT_255_2_778
10
13.7096399
20
12.7484825
40
2.6846647
50
85.9904509
51
89.9571389
0
ARC
8
DEFAULT_255_2_778
10
13.6799994
20
12.3239118
40
3.1102688
50
82.5965957
51
85.9926468
0
ARC
8
DEFAULT_255_2_778
10
13.6112131
20
11.7906969
40
3.647902
50
79.8088917
51
82.6043591
0
ARC
8
DEFAULT_255_2_778
10
13.4943932
20
11.1405174
40
4.3084931
50
77.2688757
51
79.8096989
0
ARC
8
DEFAULT_255_2_778
10
13.344044
20
10.4671946
40
4.9983959
50
75.6823117
51
77.2887225
0
ARC
8
DEFAULT_255_2_778
10
13.3033318
20
12.1554211
40
3.4034883
50
51.3786099
51
67.9666393
0
ARC
8
DEFAULT_255_2_778
10
12.0947167
20
10.7186701
40
5.2806001
50
37.9167392
51
50.8632473
0
ARC
8
DEFAULT_255_2_778
10
5.604584
20
5.5213584
40
13.5949857
50
34.7878698
51
38.388322
0
ARC
8
DEFAULT_255_2_778
10
15.8842738
20
12.7381847
40
1.0369533
50
25.8681934
51
31.3605277
0
ARC
8
DEFAULT_255_2_778
10
16.3035039
20
12.9393667
40
0.5719571
50
16.6769441
51
26.0572754
0
ARC
8
DEFAULT_255_2_778
10
16.544158
20
13.010189
40
0.3211034
50
0.621678
51
16.8943425
0
ARC
8
DEFAULT_255_2_778
10
16.5931869
20
13.0169071
40
0.2720749
50
327.1593741
51
359.3189307
0
ARC
8
DEFAULT_255_2_778
10
16.2484387
20
13.2254448
40
0.6749193
50
319.5139185
51
328.1568015
0
ARC
8
DEFAULT_255_2_778
10
14.7503312
20
14.4842747
40
2.6316817
50
317.5795628
51
319.8458458
0
ARC
8
DEFAULT_255_2_778
10
-5.8816813
20
33.0983808
40
30.4194881
50
317.8814442
51
317.9118949
0
ARC
8
DEFAULT_255_2_778
10
16.4523539
20
13.0927219
40
0.4576165
50
280.8747945
51
300.1556804
0
ARC
8
DEFAULT_255_2_778
10
16.4892419
20
12.9330004
40
0.293867
50
270.1173152
51
279.6869528
0
ARC
8
DEFAULT_255_2_778
10
16.4894617
20
12.9021482
40
0.2630145
50
254.5709636
51
270.0831797
0
ARC
8
DEFAULT_255_2_778
10
16.5064582
20
12.9487168
40
0.3124522
50
230.721842
51
253.8384347
0
ARC
8
DEFAULT_255_2_778
10
16.64245
20
13.1198335
40
0.5310138
50
218.2746488
51
231.052313
0
ARC
8
DEFAULT_255_2_778
10
16.9300925
20
13.3517443
40
0.9004891
50
210.8161272
51
218.5219602
0
ARC
8
DEFAULT_255_2_778
10
11.0877462
20
9.8306855
40
5.9208751
50
31.11608
51
32.949168
0
ARC
8
DEFAULT_255_2_778
10
10.6548785
20
9.5511705
40
6.4361443
50
32.9413474
51
34.9353006
0
ARC
8
DEFAULT_255_2_778
10
10.6045289
20
9.516907
40
6.4970419
50
34.9287431
51
36.154833
0
ARC
8
DEFAULT_255_2_778
10
11.6018473
20
10.2846184
40
5.2389496
50
35.8105216
51
45.054298
0
ARC
8
DEFAULT_255_2_778
10
13.1882949
20
11.846878
40
3.0125558
50
45.419722
51
51.278318
0
ARC
8
DEFAULT_255_2_778
10
13.7853252
20
12.5866207
40
2.0619505
50
51.3634067
51
56.53368
0
ARC
8
DEFAULT_255_2_778
10
14.1110297
20
13.0805261
40
1.4703211
50
56.5080941
51
62.8440495
0
ARC
8
DEFAULT_255_2_778
10
14.2976024
20
13.4431501
40
1.0625158
50
62.8709952
51
69.6015906
0
ARC
8
DEFAULT_255_2_778
10
13.6911762
20
12.8229539
40
1.8883299
50
58.851209
51
65.5943348
0
ARC
8
DEFAULT_255_2_778
10
13.7572982
20
12.9680006
40
1.7289229
50
65.6036486
51
73.1901724
0
ARC
8
DEFAULT_255_2_778
10
13.779243
20
13.038443
40
1.6551444
50
73.212167
51
81.8133051
0
ARC
8
DEFAULT_255_2_778
10
13.7763427
20
13.0115404
40
1.6821861
50
81.8460108
51
90.03627
0
ARC
8
DEFAULT_255_2_778
10
13.7781949
20
12.86124
40
1.8324884
50
90.0912074
51
99.0505755
0
ARC
8
DEFAULT_255_2_778
10
13.8252026
20
12.5662254
40
2.1312247
50
99.0509741
51
105.9492747
0
ARC
8
DEFAULT_255_2_778
10
13.9405007
20
12.1584888
40
2.554948
50
105.9227957
51
110.4573365
0
ARC
8
DEFAULT_255_2_778
10
14.1147944
20
11.6843714
40
3.0600825
50
110.4122664
51
112.5064956
0
ARC
8
DEFAULT_255_2_778
10
14.3928116
20
11.0092421
40
3.7902134
50
112.4824714
51
112.5150377
0
ARC
8
DEFAULT_255_2_778
10
14.08812
20
11.7443982
40
2.9944174
50
112.515853
51
112.5568491
0
ARC
8
DEFAULT_255_2_778
10
14.3574033
20
11.0962786
40
3.6962526
50
112.5578456
51
112.5908761
0
ARC
8
DEFAULT_255_2_778
10
14.339929
20
11.1371532
40
3.6518018
50
112.5841055
51
112.6173555
0
ARC
8
DEFAULT_255_2_778
10
14.322694
20
11.1790679
40
3.6064823
50
112.6206888
51
112.6541727
0
ARC
8
DEFAULT_255_2_778
10
14.3055951
20
11.2206016
40
3.561567
50
112.6576756
51
112.6913967
0
ARC
8
DEFAULT_255_2_778
10
14.0171404
20
11.9101234
40
2.8141404
50
112.6887098
51
112.7311539
0
ARC
8
DEFAULT_255_2_778
10
14.2720406
20
11.3012965
40
3.4741739
50
112.7286181
51
112.7628108
0
ARC
8
DEFAULT_255_2_778
10
14.2555805
20
11.340481
40
3.4316728
50
112.7625276
51
112.7969547
0
ARC
8
DEFAULT_255_2_778
10
14.2392501
20
11.3793128
40
3.3895469
50
112.7968071
51
112.8314716
0
ARC
8
DEFAULT_255_2_778
10
14.2230484
20
11.4177944
40
3.3477936
50
112.8314627
51
112.8663677
0
ARC
8
DEFAULT_255_2_778
10
14.2069747
20
11.4559285
40
3.3064105
50
112.8665005
51
112.9016493
0
ARC
8
DEFAULT_255_2_778
10
16.0316443
20
7.1386541
40
7.9934435
50
112.9071631
51
112.9216226
0
ARC
8
DEFAULT_255_2_778
10
15.9893711
20
7.2446052
40
7.8793947
50
112.9385632
51
112.9531518
0
ARC
8
DEFAULT_255_2_778
10
14.1596442
20
11.565813
40
3.1867688
50
112.9589229
51
112.9947965
0
ARC
8
DEFAULT_255_2_778
10
14.1443007
20
11.6014292
40
3.1479888
50
112.990957
51
113.0270741
0
ARC
8
DEFAULT_255_2_778
10
14.1290782
20
11.6367264
40
3.1095494
50
113.0233422
51
113.0597059
0
ARC
8
DEFAULT_255_2_778
10
14.1139757
20
11.6717071
40
3.0714483
50
113.0560844
51
113.0926979
0
ARC
8
DEFAULT_255_2_778
10
14.5163854
20
10.7283281
40
4.0970688
50
113.0948404
51
113.1357713
0
ARC
8
DEFAULT_255_2_778
10
14.0756433
20
11.7590457
40
2.976073
50
113.1296989
51
113.1855853
0
ARC
8
DEFAULT_255_2_778
10
14.4567221
20
10.8682879
40
3.9449229
50
113.1797735
51
113.2215888
0
ARC
8
DEFAULT_255_2_778
10
14.6968382
20
10.3100451
40
4.5526155
50
113.2285742
51
113.2645108
0
ARC
8
DEFAULT_255_2_778
10
14.6633058
20
10.3897942
40
4.4661062
50
113.2734029
51
113.3097352
0
ARC
8
DEFAULT_255_2_778
10
14.3706186
20
11.0698113
40
3.7257759
50
113.3141337
51
113.3573283
0
ARC
8
DEFAULT_255_2_778
10
14.3428919
20
11.1339892
40
3.6558648
50
113.3571668
51
113.4008265
0
ARC
8
DEFAULT_255_2_778
10
14.3157731
20
11.1961501
40
3.5880462
50
113.397627
51
113.4417472
0
ARC
8
DEFAULT_255_2_778
10
14.2889863
20
11.2574651
40
3.5211356
50
113.4387562
51
113.483346
0
ARC
8
DEFAULT_255_2_778
10
14.5044054
20
10.7614469
40
4.0619123
50
113.4822552
51
113.5205916
0
ARC
8
DEFAULT_255_2_778
10
14.4742469
20
10.8308797
40
3.9862125
50
113.5214003
51
113.5601443
0
ARC
8
DEFAULT_255_2_778
10
14.4444608
20
10.8993669
40
3.9115285
50
113.561198
51
113.600358
0
ARC
8
DEFAULT_255_2_778
10
14.4153572
20
10.9656214
40
3.8391637
50
113.5982079
51
113.6377789
0
ARC
8
DEFAULT_255_2_778
10
14.3867864
20
11.0313166
40
3.7675248
50
113.6403193
51
113.680312
0
ARC
8
DEFAULT_255_2_778
10
14.3587029
20
11.0945121
40
3.6983712
50
113.6750841
51
113.7154905
0
ARC
8
DEFAULT_255_2_778
10
14.3309643
20
11.1568586
40
3.6301333
50
113.7104281
51
113.7512564
0
ARC
8
DEFAULT_255_2_778
10
14.3037389
20
11.2186805
40
3.5625819
50
113.7509397
51
113.792201
0
ARC
8
DEFAULT_255_2_778
10
14.2769772
20
11.278122
40
3.4973959
50
113.783889
51
113.8255747
0
ARC
8
DEFAULT_255_2_778
10
14.250714
20
11.3370704
40
3.4328621
50
113.8220261
51
113.8641472
0
ARC
8
DEFAULT_255_2_778
10
14.2369161
20
11.3667421
40
3.4001451
50
113.8538001
51
113.9029977
0
ARC
8
DEFAULT_255_2_778
10
14.7613232
20
10.1833542
40
4.6945212
50
113.9021906
51
113.9374827
0
ARC
8
DEFAULT_255_2_778
10
14.7199136
20
10.2766014
40
4.592493
50
113.9373107
51
113.9730418
0
ARC
8
DEFAULT_255_2_778
10
14.6791672
20
10.3690392
40
4.4914735
50
113.9772085
51
114.013394
0
ARC
8
DEFAULT_255_2_778
10
14.1219953
20
11.6187849
40
3.1231517
50
114.0067051
51
114.0582467
0
ARC
8
DEFAULT_255_2_778
10
14.6003329
20
10.5455551
40
4.2981533
50
114.0484723
51
114.0855658
0
ARC
8
DEFAULT_255_2_778
10
14.9410879
20
9.7840151
40
5.1324534
50
114.0889482
51
114.1197151
0
ARC
8
DEFAULT_255_2_778
10
14.4775863
20
10.8192412
40
3.9982018
50
114.1197795
51
114.1616872
0
ARC
8
DEFAULT_255_2_778
10
14.4397176
20
10.9030932
40
3.9061955
50
114.1583217
51
114.2007773
0
ARC
8
DEFAULT_255_2_778
10
15.9188407
20
7.6127133
40
7.5137439
50
114.2029615
51
114.2248071
0
ARC
8
DEFAULT_255_2_778
10
15.3067274
20
8.976132
40
6.0192233
50
114.2364487
51
114.2643376
0
ARC
8
DEFAULT_255_2_778
10
14.4310546
20
10.9193349
40
3.8878294
50
114.2678477
51
114.3105695
0
ARC
8
DEFAULT_255_2_778
10
14.8407006
20
10.0110973
40
4.8841753
50
114.3037197
51
114.3381798
0
ARC
8
DEFAULT_255_2_778
10
15.2776637
20
9.0464365
40
5.9431875
50
114.3436956
51
114.3719289
0
ARC
8
DEFAULT_255_2_778
10
15.2165353
20
9.182352
40
5.7941589
50
114.3759404
51
114.4045841
0
ARC
8
DEFAULT_255_2_778
10
15.1564661
20
9.315775
40
5.6478379
50
114.4088988
51
114.4379642
0
ARC
8
DEFAULT_255_2_778
10
15.0972326
20
9.4481308
40
5.5028345
50
114.4466046
51
114.4761106
0
ARC
8
DEFAULT_255_2_778
10
15.6931848
20
8.1389642
40
6.9412631
50
114.4760333
51
114.49917
0
ARC
8
DEFAULT_255_2_778
10
15.6201803
20
8.3018176
40
6.7627983
50
114.508492
51
114.5319805
0
ARC
8
DEFAULT_255_2_778
10
15.549679
20
8.4580148
40
6.5914288
50
114.5382055
51
114.5620421
0
ARC
8
DEFAULT_255_2_778
10
14.879244
20
9.9252037
40
4.9783181
50
114.5633099
51
114.5945266
0
ARC
8
DEFAULT_255_2_778
10
14.4031947
20
10.9643013
40
3.8353627
50
114.5886411
51
114.6287195
0
ARC
8
DEFAULT_255_2_778
10
15.3485534
20
8.9012014
40
6.1047425
50
114.624852
51
114.6497576
0
ARC
8
DEFAULT_255_2_778
10
15.2846976
20
9.0414754
40
5.9506187
50
114.6542553
51
114.6795281
0
ARC
8
DEFAULT_255_2_778
10
15.2230721
20
9.1758523
40
5.802785
50
114.6806308
51
114.7062656
0
ARC
8
DEFAULT_255_2_778
10
15.1636089
20
9.3045304
40
5.6610322
50
114.7038666
51
114.7298576
0
ARC
8
DEFAULT_255_2_778
10
16.0343171
20
7.4139575
40
7.7424738
50
114.7295076
51
114.7483048
0
ARC
8
DEFAULT_255_2_778
10
15.9510424
20
7.5977409
40
7.5407084
50
114.7582688
51
114.7773593
0
ARC
8
DEFAULT_255_2_778
10
14.4430133
20
10.8638023
40
3.9433054
50
114.7712551
51
114.8073651
0
ARC
8
DEFAULT_255_2_778
10
14.4036065
20
10.946807
40
3.8514263
50
114.7933184
51
114.8298886
0
ARC
8
DEFAULT_255_2_778
10
15.7192373
20
8.1030707
40
6.9847506
50
114.8286938
51
114.84864
0
ARC
8
DEFAULT_255_2_778
10
17.5277938
20
4.1982951
40
11.2880226
50
114.8498957
51
114.862104
0
ARC
8
DEFAULT_255_2_778
10
14.7000022
20
10.3006301
40
4.5623332
50
114.861121
51
114.8909991
0
ARC
8
DEFAULT_255_2_778
10
15.5089908
20
8.5552464
40
6.4860864
50
114.8841217
51
114.9049103
0
ARC
8
DEFAULT_255_2_778
10
17.1718196
20
4.9748287
40
10.4337933
50
114.907307
51
114.9200901
0
ARC
8
DEFAULT_255_2_778
10
14.5665182
20
10.5823401
40
4.250608
50
114.9202005
51
114.9512389
0
ARC
8
DEFAULT_255_2_778
10
16.9485159
20
5.4611829
40
9.8986311
50
114.9473908
51
114.9605749
0
ARC
8
DEFAULT_255_2_778
10
16.8453073
20
5.6832225
40
9.6537768
50
114.9613508
51
114.9747231
0
ARC
8
DEFAULT_255_2_778
10
16.7411421
20
5.9091457
40
9.4049982
50
114.9805947
51
114.9941723
0
ARC
8
DEFAULT_255_2_778
10
16.642699
20
6.1209593
40
9.1714261
50
114.9958765
51
115.0096494
0
ARC
8
DEFAULT_255_2_778
10
23.171295
20
-7.8693708
40
24.6100756
50
115.0137199
51
115.0187972
0
ARC
8
DEFAULT_255_2_778
10
22.8369717
20
-7.1372703
40
23.805279
50
115.0348345
51
115.0400268
0
ARC
8
DEFAULT_255_2_778
10
16.3624346
20
6.7220809
40
8.5081799
50
115.0398794
51
115.0542503
0
ARC
8
DEFAULT_255_2_778
10
22.2858967
20
-5.944656
40
22.4915136
50
115.0594609
51
115.0648386
0
ARC
8
DEFAULT_255_2_778
10
22.0192957
20
-5.3677121
40
21.8559574
50
115.0725029
51
115.0779773
0
ARC
8
DEFAULT_255_2_778
10
14.185219
20
11.3724108
40
3.3734123
50
115.0737479
51
115.1088337
0
ARC
8
DEFAULT_255_2_778
10
21.5036624
20
-4.2519365
40
20.6268131
50
115.1000972
51
115.1057735
0
ARC
8
DEFAULT_255_2_778
10
14.6203157
20
10.4374051
40
4.4046919
50
115.099281
51
115.1255768
0
ARC
8
DEFAULT_255_2_778
10
21.0512943
20
-3.2804502
40
19.5551717
50
115.1192016
51
115.1250609
0
ARC
8
DEFAULT_255_2_778
10
20.8321048
20
-2.8096715
40
19.0358697
50
115.1293951
51
115.1353496
0
ARC
8
DEFAULT_255_2_778
10
133.3267929
20
-242.4296502
40
283.7485228
50
115.1478092
51
115.1484015
0
ARC
8
DEFAULT_255_2_778
10
17.4148869
20
4.4762077
40
10.9884219
50
115.1564057
51
115.1714549
0
ARC
8
DEFAULT_255_2_778
10
20.9015543
20
-2.9432012
40
19.1862557
50
115.1711102
51
115.1795907
0
ARC
8
DEFAULT_255_2_778
10
20.5874564
20
-2.2710014
40
18.4442942
50
115.1849962
51
115.1936763
0
ARC
8
DEFAULT_255_2_778
10
2.5424315
20
35.9942921
40
23.8624054
50
295.092718
51
295.2890631
0
ARC
8
DEFAULT_255_2_778
10
11.7659834
20
16.2891847
40
2.1054518
50
293.2821754
51
295.1898459
0
ARC
8
DEFAULT_255_2_778
10
12.3140511
20
15.0183316
40
0.7214569
50
290.4260439
51
293.1931426
0
ARC
8
DEFAULT_255_2_778
10
12.556099
20
15.0199492
40
0.6777816
50
255.5183619
51
270.823315
0
ARC
8
DEFAULT_255_2_778
10
12.4718957
20
14.7083004
40
0.354996
50
226.2106134
51
256.0984492
0
ARC
8
DEFAULT_255_2_778
10
12.5061348
20
14.7072531
40
0.378789
50
176.7935401
51
222.3594157
0
ARC
8
DEFAULT_255_2_778
10
13.1341741
20
14.7295618
40
1.006236
50
180.0127721
51
180.0638606
0
ARC
8
DEFAULT_255_2_778
10
12.5288804
20
14.7422861
40
0.4011513
50
154.1235925
51
181.8497394
0
ARC
8
DEFAULT_255_2_778
10
12.5470241
20
14.7031046
40
0.4354349
50
119.6802113
51
150.5244723
0
ARC
8
DEFAULT_255_2_778
10
12.9241743
20
14.1466853
40
1.1068319
50
118.8507429
51
122.380952
0
ARC
8
DEFAULT_255_2_778
10
12.8719121
20
14.2470081
40
0.9937467
50
118.9667866
51
119.002568
0
LINE
8
DEFAULT_255_2_778
10
12.6743381
20
13.6752375
11
12.6743381
21
13.6752375
0
LINE
8
DEFAULT_255_2_778
10
12.8984381
20
12.3766375
11
12.8978381
21
12.3769375
0
LINE
8
DEFAULT_255_2_778
10
12.3906381
20
15.1164375
11
12.3904381
21
15.1166375
0
LINE
8
DEFAULT_255_2_778
10
3.5016792
20
6.4816979
11
3.5016792
21
5.5593979
0
LINE
8
DEFAULT_255_2_778
10
3.5016792
20
5.5593979
11
0.5436792
21
7.2622979
0
LINE
8
DEFAULT_255_2_778
10
0.5436792
20
7.2622979
11
0.5436792
21
8.1845979
0
LINE
8
DEFAULT_255_2_778
10
0.5436792
20
8.1845979
11
3.5016792
21
6.4816979
0
ENDSEC
0
EOF