0
SECTION
2
HEADER
9
$MEASUREMENT
70
1
0
ENDSEC
0
SECTION
2
TABLES
0
TABLE
2
LTYPE
0
LTYPE
72
65
70
64
2
CONTINUOUS
3
______
73
0
40
0
0
ENDTAB
0
TABLE
2
LAYER
0
LAYER
2
DEFAULT_255_2_778
70
0
62
255
6
CONTINUOUS
0
LAYER
2
DEFAULT_255_2_778_2
70
0
62
255
6
CONTINUOUS
0
ENDTAB
0
ENDSEC
0
SECTION
2
ENTITIES
0
LINE
8
DEFAULT_255_2_778
10
2.4899814
20
8.6612114
11
9.4768814
21
12.4201114
0
LINE
8
DEFAULT_255_2_778
10
9.4768814
20
12.4201114
11
16.5059814
21
8.6212114
0
LINE
8
DEFAULT_255_2_778
10
16.5059814
20
8.6212114
11
9.5191814
21
4.8623114
0
LINE
8
DEFAULT_255_2_778
10
9.5191814
20
4.8623114
11
2.4899814
21
8.6612114
0
ARC
8
DEFAULT_255_2_778
10
9.9219385
20
4.6276716
40
0.493135
50
118.2571187
51
171.3026939
0
ARC
8
DEFAULT_255_2_778
10
16.4792984
20
8.2530068
40
0.3948898
50
101.6966725
51
111.172381
0
ARC
8
DEFAULT_255_2_778
10
16.4422996
20
8.430137
40
0.2139371
50
90.5225726
51
101.6107507
0
ARC
8
DEFAULT_255_2_778
10
16.4449433
20
8.5427906
40
0.1013788
50
357.6646091
51
92.5977589
0
ARC
8
DEFAULT_255_2_778
10
16.2439662
20
8.5026364
40
0.3044106
50
359.7561301
51
6.7961598
0
ARC
8
DEFAULT_255_2_778
10
16.3586676
20
5.913072
40
0.1900269
50
312.4217323
51
356.672049
0
ARC
8
DEFAULT_255_2_778
10
16.0623844
20
6.196771
40
0.5999441
50
300.0962863
51
315.0334488
0
ARC
8
DEFAULT_255_2_778
10
15.8160289
20
6.580648
40
1.0558062
50
299.546231
51
301.2167574
0
ARC
8
DEFAULT_255_2_778
10
9.5136257
20
2.5708578
40
0.4846559
50
282.4527017
51
291.1473695
0
ARC
8
DEFAULT_255_2_778
10
9.5611654
20
2.3538684
40
0.2625206
50
270.6162351
51
282.533225
0
ARC
8
DEFAULT_255_2_778
10
9.5570183
20
2.209168
40
0.1180108
50
182.5313683
51
273.3862151
0
ARC
8
DEFAULT_255_2_778
10
9.7739475
20
2.2600095
40
0.3394844
50
179.539033
51
189.5038529
0
LINE
8
DEFAULT_255_2_778
10
9.4344741
20
2.2627407
11
9.4344741
21
4.7022407
0
LINE
8
DEFAULT_255_2_778
10
9.6884741
20
5.0620407
11
16.3366741
21
8.6212407
0
LINE
8
DEFAULT_255_2_778
10
16.5483741
20
8.5013407
11
16.5483741
21
5.9020407
0
LINE
8
DEFAULT_255_2_778
10
16.3366741
20
5.6621407
11
9.6884741
21
2.1188407
0
LINE
8
DEFAULT_255_2_778
10
9.4344741
20
2.2627407
11
9.4344741
21
2.2627407
0
ARC
8
DEFAULT_255_2_778
10
2.5334678
20
8.5406922
40
0.1280952
50
109.8014347
51
179.7221148
0
LINE
8
DEFAULT_255_2_778
10
2.4053741
20
5.9418135
11
9.5192741
21
2.1030135
0
LINE
8
DEFAULT_255_2_778
10
9.5192741
20
2.1030135
11
9.5192741
21
4.8623135
0
LINE
8
DEFAULT_255_2_778
10
9.5192741
20
4.8623135
11
2.4900741
21
8.6612135
0
LINE
8
DEFAULT_255_2_778
10
2.4053741
20
8.5413135
11
2.4053741
21
5.9418135
0
LINE
8
DEFAULT_255_2_778
10
10.3238042
20
3.862076
11
13.9232042
21
5.781676
0
LINE
8
DEFAULT_255_2_778
10
14.3887885
20
5.7652948
11
14.3887885
21
6.4206948
0
LINE
8
DEFAULT_255_2_778
10
14.3887885
20
6.4206948
11
14.5043885
21
6.3550948
0
LINE
8
DEFAULT_255_2_778
10
14.5043885
20
6.3550948
11
14.5043885
21
5.6996948
0
LINE
8
DEFAULT_255_2_778
10
14.5043885
20
5.6996948
11
14.3887885
21
5.7652948
0
LINE
8
DEFAULT_255_2_778
10
14.9851958
20
6.7415781
11
14.3887958
21
6.4206781
0
LINE
8
DEFAULT_255_2_778
10
14.3887958
20
6.4206781
11
14.5043958
21
6.3549781
0
LINE
8
DEFAULT_255_2_778
10
14.5043958
20
6.3549781
11
15.1073958
21
6.6769781
0
LINE
8
DEFAULT_255_2_778
10
15.1073958
20
6.6769781
11
14.9851958
21
6.7415781
0
LINE
8
DEFAULT_255_2_778
10
15.1075073
20
6.0253854
11
15.1075073
21
6.6770854
0
LINE
8
DEFAULT_255_2_778
10
15.1075073
20
6.6770854
11
14.5045073
21
6.3550854
0
LINE
8
DEFAULT_255_2_778
10
14.5045073
20
6.3550854
11
14.5045073
21
5.6996854
0
LINE
8
DEFAULT_255_2_778
10
14.5045073
20
5.6996854
11
15.1075073
21
6.0253854
0
LINE
8
DEFAULT_255_2_778
10
15.4487885
20
6.3250948
11
15.4487885
21
6.9804948
0
LINE
8
DEFAULT_255_2_778
10
15.4487885
20
6.9804948
11
15.5643885
21
6.9148948
0
LINE
8
DEFAULT_255_2_778
10
15.5643885
20
6.9148948
11
15.5643885
21
6.2594948
0
LINE
8
DEFAULT_255_2_778
10
15.5643885
20
6.2594948
11
15.4487885
21
6.3250948
0
LINE
8
DEFAULT_255_2_778
10
16.0451958
20
7.3014781
11
15.4487958
21
6.9805781
0
LINE
8
DEFAULT_255_2_778
10
15.4487958
20
6.9805781
11
15.5643958
21
6.9148781
0
LINE
8
DEFAULT_255_2_778
10
15.5643958
20
6.9148781
11
16.1673958
21
7.2368781
0
LINE
8
DEFAULT_255_2_778
10
16.1673958
20
7.2368781
11
16.0451958
21
7.3014781
0
LINE
8
DEFAULT_255_2_778
10
16.1674073
20
6.5851854
11
16.1674073
21
7.2368854
0
LINE
8
DEFAULT_255_2_778
10
16.1674073
20
7.2368854
11
15.5644073
21
6.9148854
0
LINE
8
DEFAULT_255_2_778
10
15.5644073
20
6.9148854
11
15.5644073
21
6.2594854
0
LINE
8
DEFAULT_255_2_778
10
15.5644073
20
6.2594854
11
16.1674073
21
6.5851854
0
LINE
8
DEFAULT_255_2_778
10
2.4899814
20
11.9402114
11
9.4768814
21
15.6991114
0
LINE
8
DEFAULT_255_2_778
10
9.4768814
20
15.6991114
11
16.5059814
21
11.9002114
0
LINE
8
DEFAULT_255_2_778
10
16.5059814
20
11.9002114
11
9.5191814
21
8.1413114
0
LINE
8
DEFAULT_255_2_778
10
9.5191814
20
8.1413114
11
2.4899814
21
11.9402114
0
ARC
8
DEFAULT_255_2_778
10
9.9219385
20
7.9066716
40
0.493135
50
118.2571187
51
171.3026939
0
ARC
8
DEFAULT_255_2_778
10
16.4792984
20
11.5320068
40
0.3948898
50
101.6966725
51
111.172381
0
ARC
8
DEFAULT_255_2_778
10
16.4422996
20
11.709137
40
0.2139371
50
90.5225726
51
101.6107507
0
ARC
8
DEFAULT_255_2_778
10
16.4449433
20
11.8217906
40
0.1013788
50
357.6646091
51
92.5977589
0
ARC
8
DEFAULT_255_2_778
10
16.2439662
20
11.7816364
40
0.3044106
50
359.7561301
51
6.7961598
0
ARC
8
DEFAULT_255_2_778
10
16.3586676
20
9.192072
40
0.1900269
50
312.4217323
51
356.672049
0
ARC
8
DEFAULT_255_2_778
10
16.0623844
20
9.475771
40
0.5999441
50
300.0962863
51
315.0334488
0
ARC
8
DEFAULT_255_2_778
10
15.8160289
20
9.859648
40
1.0558062
50
299.546231
51
301.2167574
0
ARC
8
DEFAULT_255_2_778
10
9.5136257
20
5.8498578
40
0.4846559
50
282.4527017
51
291.1473695
0
ARC
8
DEFAULT_255_2_778
10
9.5611654
20
5.6328684
40
0.2625206
50
270.6162351
51
282.533225
0
ARC
8
DEFAULT_255_2_778
10
9.5570183
20
5.488168
40
0.1180108
50
182.5313683
51
273.3862151
0
ARC
8
DEFAULT_255_2_778
10
9.7739475
20
5.5390095
40
0.3394844
50
179.539033
51
189.5038529
0
LINE
8
DEFAULT_255_2_778
10
9.4344741
20
5.5417407
11
9.4344741
21
7.9812407
0
LINE
8
DEFAULT_255_2_778
10
9.6884741
20
8.3410407
11
16.3366741
21
11.9002407
0
LINE
8
DEFAULT_255_2_778
10
16.5483741
20
11.7803407
11
16.5483741
21
9.1810407
0
LINE
8
DEFAULT_255_2_778
10
16.3366741
20
8.9411407
11
9.6884741
21
5.3978407
0
LINE
8
DEFAULT_255_2_778
10
9.4344741
20
5.5417407
11
9.4344741
21
5.5417407
0
ARC
8
DEFAULT_255_2_778
10
2.5334678
20
11.8195922
40
0.1280952
50
109.8014347
51
179.7221148
0
LINE
8
DEFAULT_255_2_778
10
2.4053741
20
9.2207135
11
9.5192741
21
5.3819135
0
LINE
8
DEFAULT_255_2_778
10
9.5192741
20
5.3819135
11
9.5192741
21
8.1412135
0
LINE
8
DEFAULT_255_2_778
10
9.5192741
20
8.1412135
11
2.4900741
21
11.9401135
0
LINE
8
DEFAULT_255_2_778
10
2.4053741
20
11.8202135
11
2.4053741
21
9.2207135
0
LINE
8
DEFAULT_255_2_778
10
10.3238042
20
7.141376
11
13.9232042
21
9.060976
0
LINE
8
DEFAULT_255_2_778
10
14.3887885
20
9.0442948
11
14.3887885
21
9.6996948
0
LINE
8
DEFAULT_255_2_778
10
14.3887885
20
9.6996948
11
14.5043885
21
9.6340948
0
LINE
8
DEFAULT_255_2_778
10
14.5043885
20
9.6340948
11
14.5043885
21
8.9786948
0
LINE
8
DEFAULT_255_2_778
10
14.5043885
20
8.9786948
11
14.3887885
21
9.0442948
0
LINE
8
DEFAULT_255_2_778
10
14.9851958
20
10.0205781
11
14.3887958
21
9.6996781
0
LINE
8
DEFAULT_255_2_778
10
14.3887958
20
9.6996781
11
14.5043958
21
9.6339781
0
LINE
8
DEFAULT_255_2_778
10
14.5043958
20
9.6339781
11
15.1073958
21
9.9559781
0
LINE
8
DEFAULT_255_2_778
10
15.1073958
20
9.9559781
11
14.9851958
21
10.0205781
0
LINE
8
DEFAULT_255_2_778
10
15.1075073
20
9.3045854
11
15.1075073
21
9.9562854
0
LINE
8
DEFAULT_255_2_778
10
15.1075073
20
9.9562854
11
14.5045073
21
9.6342854
0
LINE
8
DEFAULT_255_2_778
10
14.5045073
20
9.6342854
11
14.5045073
21
8.9788854
0
LINE
8
DEFAULT_255_2_778
10
14.5045073
20
8.9788854
11
15.1075073
21
9.3045854
0
LINE
8
DEFAULT_255_2_778
10
15.4487885
20
9.6040948
11
15.4487885
21
10.2594948
0
LINE
8
DEFAULT_255_2_778
10
15.4487885
20
10.2594948
11
15.5643885
21
10.1938948
0
LINE
8
DEFAULT_255_2_778
10
15.5643885
20
10.1938948
11
15.5643885
21
9.5384948
0
LINE
8
DEFAULT_255_2_778
10
15.5643885
20
9.5384948
11
15.4487885
21
9.6040948
0
LINE
8
DEFAULT_255_2_778
10
16.0451958
20
10.5804781
11
15.4487958
21
10.2595781
0
LINE
8
DEFAULT_255_2_778
10
15.4487958
20
10.2595781
11
15.5643958
21
10.1938781
0
LINE
8
DEFAULT_255_2_778
10
15.5643958
20
10.1938781
11
16.1673958
21
10.5158781
0
LINE
8
DEFAULT_255_2_778
10
16.1673958
20
10.5158781
11
16.0451958
21
10.5804781
0
LINE
8
DEFAULT_255_2_778
10
16.1674073
20
9.8644854
11
16.1674073
21
10.5161854
0
LINE
8
DEFAULT_255_2_778
10
16.1674073
20
10.5161854
11
15.5644073
21
10.1941854
0
LINE
8
DEFAULT_255_2_778
10
15.5644073
20
10.1941854
11
15.5644073
21
9.5387854
0
LINE
8
DEFAULT_255_2_778
10
15.5644073
20
9.5387854
11
16.1674073
21
9.8644854
0
LINE
8
DEFAULT_255_2_778
10
2.4899814
20
15.2879436
11
9.4768814
21
19.0468436
0
LINE
8
DEFAULT_255_2_778
10
9.4768814
20
19.0468436
11
16.5059814
21
15.2479436
0
LINE
8
DEFAULT_255_2_778
10
16.5059814
20
15.2479436
11
9.5191814
21
11.4887436
0
LINE
8
DEFAULT_255_2_778
10
9.5191814
20
11.4887436
11
2.4899814
21
15.2879436
0
ARC
8
DEFAULT_255_2_778
10
9.9219385
20
11.2544716
40
0.493135
50
118.2571187
51
171.3026939
0
ARC
8
DEFAULT_255_2_778
10
16.4792984
20
14.8798068
40
0.3948898
50
101.6966725
51
111.172381
0
ARC
8
DEFAULT_255_2_778
10
16.4422996
20
15.056937
40
0.2139371
50
90.5225726
51
101.6107507
0
ARC
8
DEFAULT_255_2_778
10
16.4449433
20
15.1695906
40
0.1013788
50
357.6646091
51
92.5977589
0
ARC
8
DEFAULT_255_2_778
10
16.2439662
20
15.1294364
40
0.3044106
50
359.7561301
51
6.7961598
0
ARC
8
DEFAULT_255_2_778
10
16.3586676
20
12.539872
40
0.1900269
50
312.4217323
51
356.672049
0
ARC
8
DEFAULT_255_2_778
10
16.0623844
20
12.823571
40
0.5999441
50
300.0962863
51
315.0334488
0
ARC
8
DEFAULT_255_2_778
10
15.8160289
20
13.207448
40
1.0558062
50
299.546231
51
301.2167574
0
ARC
8
DEFAULT_255_2_778
10
9.5136257
20
9.1976578
40
0.4846559
50
282.4527017
51
291.1473695
0
ARC
8
DEFAULT_255_2_778
10
9.5611654
20
8.9806684
40
0.2625206
50
270.6162351
51
282.533225
0
ARC
8
DEFAULT_255_2_778
10
9.5570183
20
8.835968
40
0.1180108
50
182.5313683
51
273.3862151
0
ARC
8
DEFAULT_255_2_778
10
9.7739475
20
8.8868095
40
0.3394844
50
179.539033
51
189.5038529
0
LINE
8
DEFAULT_255_2_778
10
9.4344741
20
8.8895407
11
9.4344741
21
11.3290407
0
LINE
8
DEFAULT_255_2_778
10
9.6884741
20
11.6888407
11
16.3366741
21
15.2480407
0
LINE
8
DEFAULT_255_2_778
10
16.5483741
20
15.1281407
11
16.5483741
21
12.5288407
0
LINE
8
DEFAULT_255_2_778
10
16.3366741
20
12.2889407
11
9.6884741
21
8.7456407
0
LINE
8
DEFAULT_255_2_778
10
9.4344741
20
8.8895407
11
9.4344741
21
8.8895407
0
ARC
8
DEFAULT_255_2_778
10
2.5334678
20
15.1673922
40
0.1280952
50
109.8014347
51
179.7221148
0
LINE
8
DEFAULT_255_2_778
10
2.4053741
20
12.5685135
11
9.5192741
21
8.7297135
0
LINE
8
DEFAULT_255_2_778
10
9.5192741
20
8.7297135
11
9.5192741
21
11.4890135
0
LINE
8
DEFAULT_255_2_778
10
9.5192741
20
11.4890135
11
2.4900741
21
15.2879135
0
LINE
8
DEFAULT_255_2_778
10
2.4053741
20
15.1680135
11
2.4053741
21
12.5685135
0
LINE
8
DEFAULT_255_2_778
10
10.3238042
20
10.489176
11
13.9232042
21
12.408776
0
LINE
8
DEFAULT_255_2_778
10
14.3887885
20
12.3919948
11
14.3887885
21
13.0473948
0
LINE
8
DEFAULT_255_2_778
10
14.3887885
20
13.0473948
11
14.5043885
21
12.9817948
0
LINE
8
DEFAULT_255_2_778
10
14.5043885
20
12.9817948
11
14.5043885
21
12.3263948
0
LINE
8
DEFAULT_255_2_778
10
14.5043885
20
12.3263948
11
14.3887885
21
12.3919948
0
LINE
8
DEFAULT_255_2_778
10
14.9851958
20
13.3683781
11
14.3887958
21
13.0474781
0
LINE
8
DEFAULT_255_2_778
10
14.3887958
20
13.0474781
11
14.5043958
21
12.9817781
0
LINE
8
DEFAULT_255_2_778
10
14.5043958
20
12.9817781
11
15.1073958
21
13.3037781
0
LINE
8
DEFAULT_255_2_778
10
15.1073958
20
13.3037781
11
14.9851958
21
13.3683781
0
LINE
8
DEFAULT_255_2_778
10
15.1075073
20
12.6520854
11
15.1075073
21
13.3037854
0
LINE
8
DEFAULT_255_2_778
10
15.1075073
20
13.3037854
11
14.5045073
21
12.9817854
0
LINE
8
DEFAULT_255_2_778
10
14.5045073
20
12.9817854
11
14.5045073
21
12.3263854
0
LINE
8
DEFAULT_255_2_778
10
14.5045073
20
12.3263854
11
15.1075073
21
12.6520854
0
LINE
8
DEFAULT_255_2_778
10
15.4487885
20
12.9518948
11
15.4487885
21
13.6072948
0
LINE
8
DEFAULT_255_2_778
10
15.4487885
20
13.6072948
11
15.5643885
21
13.5416948
0
LINE
8
DEFAULT_255_2_778
10
15.5643885
20
13.5416948
11
15.5643885
21
12.8862948
0
LINE
8
DEFAULT_255_2_778
10
15.5643885
20
12.8862948
11
15.4487885
21
12.9518948
0
LINE
8
DEFAULT_255_2_778
10
16.0451958
20
13.9282781
11
15.4487958
21
13.6073781
0
LINE
8
DEFAULT_255_2_778
10
15.4487958
20
13.6073781
11
15.5643958
21
13.5416781
0
LINE
8
DEFAULT_255_2_778
10
15.5643958
20
13.5416781
11
16.1673958
21
13.8636781
0
LINE
8
DEFAULT_255_2_778
10
16.1673958
20
13.8636781
11
16.0451958
21
13.9282781
0
LINE
8
DEFAULT_255_2_778
10
16.1674073
20
13.2119854
11
16.1674073
21
13.8636854
0
LINE
8
DEFAULT_255_2_778
10
16.1674073
20
13.8636854
11
15.5644073
21
13.5416854
0
LINE
8
DEFAULT_255_2_778
10
15.5644073
20
13.5416854
11
15.5644073
21
12.8862854
0
LINE
8
DEFAULT_255_2_778
10
15.5644073
20
12.8862854
11
16.1674073
21
13.2119854
0
LINE
8
DEFAULT_255_2_778_2
10
0.1322836
20
15.7602374
11
9.3926836
21
21.0344374
0
LINE
8
DEFAULT_255_2_778_2
10
9.3926836
20
21.0344374
11
18.6530836
21
15.7263374
0
LINE
8
DEFAULT_255_2_778_2
10
18.6530836
20
15.7263374
11
9.3926836
21
10.4521374
0
LINE
8
DEFAULT_255_2_778_2
10
9.3926836
20
10.4521374
11
0.1322836
21
15.7602374
0
LINE
8
DEFAULT_255_2_778_2
10
18.6530918
20
15.7242394
11
18.6530918
21
5.1758394
0
LINE
8
DEFAULT_255_2_778_2
10
18.6530918
20
5.1758394
11
9.3926918
21
-0.1322606
0
LINE
8
DEFAULT_255_2_778_2
10
9.3926918
20
-0.1322606
11
9.3926918
21
10.4500394
0
LINE
8
DEFAULT_255_2_778_2
10
9.3926918
20
10.4500394
11
18.6530918
21
15.7242394
0
LINE
8
DEFAULT_255_2_778_2
10
0.1322918
20
15.7242394
11
0.1322918
21
5.1758394
0
LINE
8
DEFAULT_255_2_778_2
10
0.1322918
20
5.1758394
11
9.3926918
21
-0.1322606
0
LINE
8
DEFAULT_255_2_778_2
10
9.3926918
20
-0.1322606
11
9.3926918
21
10.4500394
0
LINE
8
DEFAULT_255_2_778_2
10
9.3926918
20
10.4500394
11
0.1322918
21
15.7242394
0
ENDSEC
0
EOF