0
SECTION
2
HEADER
9
$MEASUREMENT
70
1
0
ENDSEC
0
SECTION
2
TABLES
0
TABLE
2
LTYPE
0
LTYPE
72
65
70
64
2
CONTINUOUS
3
______
73
0
40
0
0
ENDTAB
0
TABLE
2
LAYER
0
LAYER
2
DEFAULT_255_2_778
70
0
62
255
6
CONTINUOUS
0
ENDTAB
0
ENDSEC
0
SECTION
2
ENTITIES
0
LINE
8
DEFAULT_255_2_778
10
0.3596054
20
7.8493822
11
8.2021054
21
12.4163822
0
LINE
8
DEFAULT_255_2_778
10
8.2021054
20
12.4163822
11
16.0920054
21
7.8009822
0
LINE
8
DEFAULT_255_2_778
10
16.0920054
20
7.8009822
11
8.2495054
21
3.2339822
0
LINE
8
DEFAULT_255_2_778
10
8.2495054
20
3.2339822
11
0.3596054
21
7.8493822
0
ARC
8
DEFAULT_255_2_778
10
8.7501218
20
2.9627783
40
0.6006052
50
121.1280314
51
172.6604735
0
ARC
8
DEFAULT_255_2_778
10
16.0663681
20
7.4080873
40
0.4259362
50
103.2785179
51
112.7086232
0
ARC
8
DEFAULT_255_2_778
10
16.0208572
20
7.6018358
40
0.2269144
50
90.6531976
51
103.330761
0
ARC
8
DEFAULT_255_2_778
10
16.0219773
20
7.7165559
40
0.1122409
50
2.1118635
51
91.8926639
0
ARC
8
DEFAULT_255_2_778
10
15.7807693
20
7.6586101
40
0.3587845
50
359.4562159
51
9.964274
0
ARC
8
DEFAULT_255_2_778
10
15.901927
20
4.5079898
40
0.2378598
50
315.8101466
51
357.3771379
0
ARC
8
DEFAULT_255_2_778
10
15.5850518
20
4.78311
40
0.6572634
50
302.8799947
51
317.868188
0
ARC
8
DEFAULT_255_2_778
10
15.3089104
20
5.1733741
40
1.1351
50
301.4963957
51
303.8915489
0
ARC
8
DEFAULT_255_2_778
10
8.2354075
20
0.3915898
40
0.5313976
50
284.4890216
51
292.60192
0
ARC
8
DEFAULT_255_2_778
10
8.2956048
20
0.1524607
40
0.2848172
50
271.0684441
51
284.8000507
0
ARC
8
DEFAULT_255_2_778
10
8.299947
20
0.0632054
40
0.1955149
50
270.0002355
51
270.2838755
0
ARC
8
DEFAULT_255_2_778
10
8.2943513
20
-0.0004788
40
0.1319493
50
185.3301238
51
272.4308737
0
ARC
8
DEFAULT_255_2_778
10
8.5641632
20
0.0706248
40
0.4097597
50
179.2616696
51
191.7381033
0
LINE
8
DEFAULT_255_2_778
10
8.1544376
20
0.075905
11
8.1544376
21
3.039505
0
LINE
8
DEFAULT_255_2_778
10
8.4396376
20
3.476905
11
15.9019376
21
7.801005
0
LINE
8
DEFAULT_255_2_778
10
16.1395376
20
7.655205
11
16.1395376
21
4.497105
0
LINE
8
DEFAULT_255_2_778
10
15.9019376
20
4.205505
11
8.4396376
21
-0.098995
0
LINE
8
DEFAULT_255_2_778
10
8.1544376
20
0.075905
11
8.1544376
21
0.075905
0
ARC
8
DEFAULT_255_2_778
10
0.4204679
20
7.7059127
40
0.1559465
50
112.9988593
51
180.8264191
0
LINE
8
DEFAULT_255_2_778
10
0.2645376
20
4.5455634
11
8.2496376
21
-0.1184366
0
LINE
8
DEFAULT_255_2_778
10
8.2496376
20
-0.1184366
11
8.2496376
21
3.2337634
0
LINE
8
DEFAULT_255_2_778
10
8.2496376
20
3.2337634
11
0.3595376
21
7.8494634
0
LINE
8
DEFAULT_255_2_778
10
0.2645376
20
7.7036634
11
0.2645376
21
4.5455634
0
LINE
8
DEFAULT_255_2_778
10
9.1527386
20
2.0194187
11
13.1926386
21
4.3514187
0
LINE
8
DEFAULT_255_2_778
10
13.7154448
20
4.3312854
11
13.7154448
21
5.1273854
0
LINE
8
DEFAULT_255_2_778
10
13.7154448
20
5.1273854
11
13.8453448
21
5.0477854
0
LINE
8
DEFAULT_255_2_778
10
13.8453448
20
5.0477854
11
13.8453448
21
4.2515854
0
LINE
8
DEFAULT_255_2_778
10
13.8453448
20
4.2515854
11
13.7154448
21
4.3312854
0
LINE
8
DEFAULT_255_2_778
10
14.3851427
20
5.5174177
11
13.7154427
21
5.1274177
0
LINE
8
DEFAULT_255_2_778
10
13.7154427
20
5.1274177
11
13.8453427
21
5.0478177
0
LINE
8
DEFAULT_255_2_778
10
13.8453427
20
5.0478177
11
14.5221427
21
5.4391177
0
LINE
8
DEFAULT_255_2_778
10
14.5221427
20
5.4391177
11
14.3851427
21
5.5174177
0
LINE
8
DEFAULT_255_2_778
10
14.5221979
20
4.647425
11
14.5221979
21
5.439025
0
LINE
8
DEFAULT_255_2_778
10
14.5221979
20
5.439025
11
13.8453979
21
5.047725
0
LINE
8
DEFAULT_255_2_778
10
13.8453979
20
5.047725
11
13.8453979
21
4.251625
0
LINE
8
DEFAULT_255_2_778
10
13.8453979
20
4.251625
11
14.5221979
21
4.647425
0
LINE
8
DEFAULT_255_2_778
10
14.9050448
20
5.0115854
11
14.9050448
21
5.8076854
0
LINE
8
DEFAULT_255_2_778
10
14.9050448
20
5.8076854
11
15.0349448
21
5.7280854
0
LINE
8
DEFAULT_255_2_778
10
15.0349448
20
5.7280854
11
15.0349448
21
4.9318854
0
LINE
8
DEFAULT_255_2_778
10
15.0349448
20
4.9318854
11
14.9050448
21
5.0115854
0
LINE
8
DEFAULT_255_2_778
10
15.5747427
20
6.1976177
11
14.9050427
21
5.8076177
0
LINE
8
DEFAULT_255_2_778
10
14.9050427
20
5.8076177
11
15.0349427
21
5.7280177
0
LINE
8
DEFAULT_255_2_778
10
15.0349427
20
5.7280177
11
15.7117427
21
6.1193177
0
LINE
8
DEFAULT_255_2_778
10
15.7117427
20
6.1193177
11
15.5747427
21
6.1976177
0
LINE
8
DEFAULT_255_2_778
10
15.7116979
20
5.327725
11
15.7116979
21
6.119325
0
LINE
8
DEFAULT_255_2_778
10
15.7116979
20
6.119325
11
15.0348979
21
5.728025
0
LINE
8
DEFAULT_255_2_778
10
15.0348979
20
5.728025
11
15.0348979
21
4.931925
0
LINE
8
DEFAULT_255_2_778
10
15.0348979
20
4.931925
11
15.7116979
21
5.327725
0
LINE
8
DEFAULT_255_2_778
10
0.3596054
20
11.8331822
11
8.2021054
21
16.4001822
0
LINE
8
DEFAULT_255_2_778
10
8.2021054
20
16.4001822
11
16.0920054
21
11.7847822
0
LINE
8
DEFAULT_255_2_778
10
16.0920054
20
11.7847822
11
8.2495054
21
7.2177822
0
LINE
8
DEFAULT_255_2_778
10
8.2495054
20
7.2177822
11
0.3596054
21
11.8331822
0
ARC
8
DEFAULT_255_2_778
10
8.7501218
20
6.9468783
40
0.6006052
50
121.1280314
51
172.6604735
0
ARC
8
DEFAULT_255_2_778
10
16.0663681
20
11.3921873
40
0.4259362
50
103.2785179
51
112.7086232
0
ARC
8
DEFAULT_255_2_778
10
16.0208572
20
11.5859358
40
0.2269144
50
90.6531976
51
103.330761
0
ARC
8
DEFAULT_255_2_778
10
16.0219773
20
11.7006559
40
0.1122409
50
2.1118635
51
91.8926639
0
ARC
8
DEFAULT_255_2_778
10
15.7807693
20
11.6427101
40
0.3587845
50
359.4562159
51
9.964274
0
ARC
8
DEFAULT_255_2_778
10
15.901927
20
8.4920898
40
0.2378598
50
315.8101466
51
357.3771379
0
ARC
8
DEFAULT_255_2_778
10
15.5850518
20
8.76721
40
0.6572634
50
302.8799947
51
317.868188
0
ARC
8
DEFAULT_255_2_778
10
15.3089104
20
9.1574741
40
1.1351
50
301.4963957
51
303.8915489
0
ARC
8
DEFAULT_255_2_778
10
8.2354075
20
4.3756898
40
0.5313976
50
284.4890216
51
292.60192
0
ARC
8
DEFAULT_255_2_778
10
8.2956048
20
4.1365607
40
0.2848172
50
271.0684441
51
284.8000507
0
ARC
8
DEFAULT_255_2_778
10
8.299947
20
4.0473054
40
0.1955149
50
270.0002355
51
270.2838755
0
ARC
8
DEFAULT_255_2_778
10
8.2943513
20
3.9836212
40
0.1319493
50
185.3301238
51
272.4308737
0
ARC
8
DEFAULT_255_2_778
10
8.5641632
20
4.0547248
40
0.4097597
50
179.2616696
51
191.7381033
0
LINE
8
DEFAULT_255_2_778
10
8.1544376
20
4.060005
11
8.1544376
21
7.023605
0
LINE
8
DEFAULT_255_2_778
10
8.4396376
20
7.461005
11
15.9019376
21
11.785105
0
LINE
8
DEFAULT_255_2_778
10
16.1395376
20
11.639305
11
16.1395376
21
8.481205
0
LINE
8
DEFAULT_255_2_778
10
15.9019376
20
8.189605
11
8.4396376
21
3.885105
0
LINE
8
DEFAULT_255_2_778
10
8.1544376
20
4.060005
11
8.1544376
21
4.060005
0
ARC
8
DEFAULT_255_2_778
10
0.4204679
20
11.6897127
40
0.1559465
50
112.9988593
51
180.8264191
0
LINE
8
DEFAULT_255_2_778
10
0.2645376
20
8.5293634
11
8.2496376
21
3.8653634
0
LINE
8
DEFAULT_255_2_778
10
8.2496376
20
3.8653634
11
8.2496376
21
7.2178634
0
LINE
8
DEFAULT_255_2_778
10
8.2496376
20
7.2178634
11
0.3595376
21
11.8332634
0
LINE
8
DEFAULT_255_2_778
10
0.2645376
20
11.6874634
11
0.2645376
21
8.5293634
0
LINE
8
DEFAULT_255_2_778
10
9.1527386
20
6.0032187
11
13.1926386
21
8.3352187
0
LINE
8
DEFAULT_255_2_778
10
13.7154448
20
8.3150854
11
13.7154448
21
9.1111854
0
LINE
8
DEFAULT_255_2_778
10
13.7154448
20
9.1111854
11
13.8453448
21
9.0315854
0
LINE
8
DEFAULT_255_2_778
10
13.8453448
20
9.0315854
11
13.8453448
21
8.2353854
0
LINE
8
DEFAULT_255_2_778
10
13.8453448
20
8.2353854
11
13.7154448
21
8.3150854
0
LINE
8
DEFAULT_255_2_778
10
14.3851427
20
9.5012177
11
13.7154427
21
9.1112177
0
LINE
8
DEFAULT_255_2_778
10
13.7154427
20
9.1112177
11
13.8453427
21
9.0316177
0
LINE
8
DEFAULT_255_2_778
10
13.8453427
20
9.0316177
11
14.5221427
21
9.4229177
0
LINE
8
DEFAULT_255_2_778
10
14.5221427
20
9.4229177
11
14.3851427
21
9.5012177
0
LINE
8
DEFAULT_255_2_778
10
14.5221979
20
8.631325
11
14.5221979
21
9.422925
0
LINE
8
DEFAULT_255_2_778
10
14.5221979
20
9.422925
11
13.8453979
21
9.031625
0
LINE
8
DEFAULT_255_2_778
10
13.8453979
20
9.031625
11
13.8453979
21
8.235525
0
LINE
8
DEFAULT_255_2_778
10
13.8453979
20
8.235525
11
14.5221979
21
8.631325
0
LINE
8
DEFAULT_255_2_778
10
14.9050448
20
8.9953854
11
14.9050448
21
9.7914854
0
LINE
8
DEFAULT_255_2_778
10
14.9050448
20
9.7914854
11
15.0349448
21
9.7118854
0
LINE
8
DEFAULT_255_2_778
10
15.0349448
20
9.7118854
11
15.0349448
21
8.9156854
0
LINE
8
DEFAULT_255_2_778
10
15.0349448
20
8.9156854
11
14.9050448
21
8.9953854
0
LINE
8
DEFAULT_255_2_778
10
15.5747427
20
10.1814177
11
14.9050427
21
9.7914177
0
LINE
8
DEFAULT_255_2_778
10
14.9050427
20
9.7914177
11
15.0349427
21
9.7118177
0
LINE
8
DEFAULT_255_2_778
10
15.0349427
20
9.7118177
11
15.7117427
21
10.1031177
0
LINE
8
DEFAULT_255_2_778
10
15.7117427
20
10.1031177
11
15.5747427
21
10.1814177
0
LINE
8
DEFAULT_255_2_778
10
15.7116979
20
9.311525
11
15.7116979
21
10.103125
0
LINE
8
DEFAULT_255_2_778
10
15.7116979
20
10.103125
11
15.0348979
21
9.711825
0
LINE
8
DEFAULT_255_2_778
10
15.0348979
20
9.711825
11
15.0348979
21
8.915725
0
LINE
8
DEFAULT_255_2_778
10
15.0348979
20
8.915725
11
15.7116979
21
9.311525
0
LINE
8
DEFAULT_255_2_778
10
0.3596054
20
15.9003822
11
8.2021054
21
20.4673822
0
LINE
8
DEFAULT_255_2_778
10
8.2021054
20
20.4673822
11
16.0920054
21
15.8519822
0
LINE
8
DEFAULT_255_2_778
10
16.0920054
20
15.8519822
11
8.2495054
21
11.2849822
0
LINE
8
DEFAULT_255_2_778
10
8.2495054
20
11.2849822
11
0.3596054
21
15.9003822
0
ARC
8
DEFAULT_255_2_778
10
8.7501218
20
11.0140783
40
0.6006052
50
121.1280314
51
172.6604735
0
ARC
8
DEFAULT_255_2_778
10
16.0663681
20
15.4593873
40
0.4259362
50
103.2785179
51
112.7086232
0
ARC
8
DEFAULT_255_2_778
10
16.0208572
20
15.6531358
40
0.2269144
50
90.6531976
51
103.330761
0
ARC
8
DEFAULT_255_2_778
10
16.0219773
20
15.7678559
40
0.1122409
50
2.1118635
51
91.8926639
0
ARC
8
DEFAULT_255_2_778
10
15.7807693
20
15.7099101
40
0.3587845
50
359.4562159
51
9.964274
0
ARC
8
DEFAULT_255_2_778
10
15.901927
20
12.5592898
40
0.2378598
50
315.8101466
51
357.3771379
0
ARC
8
DEFAULT_255_2_778
10
15.5850518
20
12.83441
40
0.6572634
50
302.8799947
51
317.868188
0
ARC
8
DEFAULT_255_2_778
10
15.3089104
20
13.2246741
40
1.1351
50
301.4963957
51
303.8915489
0
ARC
8
DEFAULT_255_2_778
10
8.2354075
20
8.4428898
40
0.5313976
50
284.4890216
51
292.60192
0
ARC
8
DEFAULT_255_2_778
10
8.2956048
20
8.2037607
40
0.2848172
50
271.0684441
51
284.8000507
0
ARC
8
DEFAULT_255_2_778
10
8.299947
20
8.1145054
40
0.1955149
50
270.0002355
51
270.2838755
0
ARC
8
DEFAULT_255_2_778
10
8.2943513
20
8.0508212
40
0.1319493
50
185.3301238
51
272.4308737
0
ARC
8
DEFAULT_255_2_778
10
8.5641632
20
8.1219248
40
0.4097597
50
179.2616696
51
191.7381033
0
LINE
8
DEFAULT_255_2_778
10
8.1544376
20
8.127205
11
8.1544376
21
11.090805
0
LINE
8
DEFAULT_255_2_778
10
8.4396376
20
11.528205
11
15.9019376
21
15.852305
0
LINE
8
DEFAULT_255_2_778
10
16.1395376
20
15.706505
11
16.1395376
21
12.548405
0
LINE
8
DEFAULT_255_2_778
10
15.9019376
20
12.256805
11
8.4396376
21
7.952305
0
LINE
8
DEFAULT_255_2_778
10
8.1544376
20
8.127205
11
8.1544376
21
8.127205
0
ARC
8
DEFAULT_255_2_778
10
0.4204679
20
15.7569127
40
0.1559465
50
112.9988593
51
180.8264191
0
LINE
8
DEFAULT_255_2_778
10
0.2645376
20
12.5965634
11
8.2496376
21
7.9325634
0
LINE
8
DEFAULT_255_2_778
10
8.2496376
20
7.9325634
11
8.2496376
21
11.2847634
0
LINE
8
DEFAULT_255_2_778
10
8.2496376
20
11.2847634
11
0.3595376
21
15.9004634
0
LINE
8
DEFAULT_255_2_778
10
0.2645376
20
15.7546634
11
0.2645376
21
12.5965634
0
LINE
8
DEFAULT_255_2_778
10
9.1527386
20
10.0704187
11
13.1926386
21
12.4024187
0
LINE
8
DEFAULT_255_2_778
10
13.7154448
20
12.3822854
11
13.7154448
21
13.1783854
0
LINE
8
DEFAULT_255_2_778
10
13.7154448
20
13.1783854
11
13.8453448
21
13.0987854
0
LINE
8
DEFAULT_255_2_778
10
13.8453448
20
13.0987854
11
13.8453448
21
12.3025854
0
LINE
8
DEFAULT_255_2_778
10
13.8453448
20
12.3025854
11
13.7154448
21
12.3822854
0
LINE
8
DEFAULT_255_2_778
10
14.3851427
20
13.5684177
11
13.7154427
21
13.1784177
0
LINE
8
DEFAULT_255_2_778
10
13.7154427
20
13.1784177
11
13.8453427
21
13.0988177
0
LINE
8
DEFAULT_255_2_778
10
13.8453427
20
13.0988177
11
14.5221427
21
13.4901177
0
LINE
8
DEFAULT_255_2_778
10
14.5221427
20
13.4901177
11
14.3851427
21
13.5684177
0
LINE
8
DEFAULT_255_2_778
10
14.5221979
20
12.698525
11
14.5221979
21
13.490125
0
LINE
8
DEFAULT_255_2_778
10
14.5221979
20
13.490125
11
13.8453979
21
13.098825
0
LINE
8
DEFAULT_255_2_778
10
13.8453979
20
13.098825
11
13.8453979
21
12.302725
0
LINE
8
DEFAULT_255_2_778
10
13.8453979
20
12.302725
11
14.5221979
21
12.698525
0
LINE
8
DEFAULT_255_2_778
10
14.9050448
20
13.0625854
11
14.9050448
21
13.8586854
0
LINE
8
DEFAULT_255_2_778
10
14.9050448
20
13.8586854
11
15.0349448
21
13.7790854
0
LINE
8
DEFAULT_255_2_778
10
15.0349448
20
13.7790854
11
15.0349448
21
12.9828854
0
LINE
8
DEFAULT_255_2_778
10
15.0349448
20
12.9828854
11
14.9050448
21
13.0625854
0
LINE
8
DEFAULT_255_2_778
10
15.5747427
20
14.2486177
11
14.9050427
21
13.8586177
0
LINE
8
DEFAULT_255_2_778
10
14.9050427
20
13.8586177
11
15.0349427
21
13.7790177
0
LINE
8
DEFAULT_255_2_778
10
15.0349427
20
13.7790177
11
15.7117427
21
14.1703177
0
LINE
8
DEFAULT_255_2_778
10
15.7117427
20
14.1703177
11
15.5747427
21
14.2486177
0
LINE
8
DEFAULT_255_2_778
10
15.7116979
20
13.378725
11
15.7116979
21
14.170325
0
LINE
8
DEFAULT_255_2_778
10
15.7116979
20
14.170325
11
15.0348979
21
13.779025
0
LINE
8
DEFAULT_255_2_778
10
15.0348979
20
13.779025
11
15.0348979
21
12.982925
0
LINE
8
DEFAULT_255_2_778
10
15.0348979
20
12.982925
11
15.7116979
21
13.378725
0
LINE
8
DEFAULT_255_2_778
10
1.3895584
20
3.6136873
11
4.8206584
21
5.6393873
0
LINE
8
DEFAULT_255_2_778
10
4.8206584
20
5.6393873
11
4.8206584
21
13.3492873
0
LINE
8
DEFAULT_255_2_778
10
4.8206584
20
13.3492873
11
9.4646584
21
16.0099873
0
LINE
8
DEFAULT_255_2_778
10
9.4646584
20
16.0099873
11
9.4646584
21
20.7872873
0
LINE
8
DEFAULT_255_2_778
10
9.4646584
20
20.7872873
11
3.6670584
21
17.3706873
0
LINE
8
DEFAULT_255_2_778
10
3.6670584
20
17.3706873
11
1.3895584
21
13.5609873
0
LINE
8
DEFAULT_255_2_778
10
1.3895584
20
13.5609873
11
1.3895584
21
3.6136873
0
LINE
8
DEFAULT_255_2_778
10
0.9416406
20
3.8664019
11
1.3837406
21
3.6082019
0
LINE
8
DEFAULT_255_2_778
10
1.3837406
20
3.6082019
11
1.3837406
21
13.8058019
0
LINE
8
DEFAULT_255_2_778
10
1.3837406
20
13.8058019
11
0.9416406
21
14.0640019
0
LINE
8
DEFAULT_255_2_778
10
0.9416406
20
14.0640019
11
0.9416406
21
3.8664019
0
ARC
8
DEFAULT_255_2_778
10
4.4913201
20
9.5830452
40
5.0374337
50
99.3391236
51
128.0896127
0
ARC
8
DEFAULT_255_2_778
10
4.6301538
20
8.9557772
40
5.6790261
50
97.9340337
51
99.6942792
0
ARC
8
DEFAULT_255_2_778
10
-50.9921449
20
14.5927053
40
54.8384078
50
359.9871868
51
0.5211392
0
ARC
8
DEFAULT_255_2_778
10
-36.0492377
20
14.7316475
40
39.8948551
50
0.5167967
51
1.1887591
0
ARC
8
DEFAULT_255_2_778
10
-24.7022363
20
14.966966
40
28.5454139
50
1.1890402
51
1.9240177
0
ARC
8
DEFAULT_255_2_778
10
-16.7562975
20
15.2337383
40
20.5949982
50
1.9244521
51
2.7238879
0
ARC
8
DEFAULT_255_2_778
10
-10.0096722
20
15.5618408
40
13.840405
50
2.694444
51
4.062437
0
ARC
8
DEFAULT_255_2_778
10
-4.5084739
20
15.9551938
40
8.3251626
50
4.0442645
51
5.8643604
0
ARC
8
DEFAULT_255_2_778
10
-0.7243925
20
16.3491903
40
4.520632
50
5.7971781
51
8.6978904
0
ARC
8
DEFAULT_255_2_778
10
1.6998192
20
16.7252419
40
2.0674381
50
8.5558097
51
13.4423747
0
ARC
8
DEFAULT_255_2_778
10
3.0014309
20
17.0429083
40
0.7276659
50
12.939892
51
23.0368881
0
ARC
8
DEFAULT_255_2_778
10
3.4038735
20
17.2086922
40
0.2924832
50
24.0011523
51
30.1602206
0
LINE
8
DEFAULT_255_2_778
10
3.6567615
20
17.3556416
11
1.3837615
21
13.5477416
0
LINE
8
DEFAULT_255_2_778
10
3.6567615
20
17.3556416
11
3.6567615
21
17.3556416
0
ARC
8
DEFAULT_255_2_778
10
4.2604971
20
9.5643335
40
5.0329516
50
94.7210524
51
102.7981829
0
ARC
8
DEFAULT_255_2_778
10
4.0434301
20
10.5038966
40
4.0686481
50
102.7482685
51
114.3571268
0
ARC
8
DEFAULT_255_2_778
10
3.8289549
20
10.9847935
40
3.5421015
50
114.4048061
51
133.6556662
0
ARC
8
DEFAULT_255_2_778
10
4.6321493
20
9.9641481
40
4.5570639
50
125.3512041
51
135.4652098
0
ARC
8
DEFAULT_255_2_778
10
5.2527878
20
9.0958896
40
5.6243279
50
118.0070083
51
125.390352
0
ARC
8
DEFAULT_255_2_778
10
5.9017625
20
7.8823683
40
7.0004801
50
112.217446
51
118.0326144
0
ARC
8
DEFAULT_255_2_778
10
6.5093958
20
6.4097382
40
8.5935375
50
108.0531839
51
112.2553497
0
LINE
8
DEFAULT_255_2_778
10
1.3837615
20
13.5475094
11
1.3837615
21
13.1602094
0
LINE
8
DEFAULT_255_2_778
10
3.8462615
20
14.5802094
11
3.8462615
21
14.5802094
0
LINE
8
DEFAULT_255_2_778
10
9.4660709
20
20.7762374
11
3.5787709
21
17.3101374
0
LINE
8
DEFAULT_255_2_778
10
3.5787709
20
17.3101374
11
2.9625709
21
17.4845374
0
LINE
8
DEFAULT_255_2_778
10
2.9625709
20
17.4845374
11
9.0868709
21
21.0344374
0
LINE
8
DEFAULT_255_2_778
10
9.0868709
20
21.0344374
11
9.4660709
21
20.7762374
0
ARC
8
DEFAULT_255_2_778
10
1.8947697
20
13.9460392
40
0.9607078
50
172.9442256
51
177.0940318
0
ARC
8
DEFAULT_255_2_778
10
1.7301147
20
13.9550948
40
0.7958058
50
177.1441765
51
179.9667126
0
ARC
8
DEFAULT_255_2_778
10
1.4412621
20
13.9443334
40
0.5070775
50
178.7316919
51
200.3988106
0
ARC
8
DEFAULT_255_2_778
10
1.2717891
20
13.8904239
40
0.3295528
50
201.8840033
51
258.9857572
0
ARC
8
DEFAULT_255_2_778
10
1.3741616
20
14.2598853
40
0.7123949
50
256.5802774
51
270.7299487
0
ARC
8
DEFAULT_255_2_778
10
2.8849012
20
16.8254817
40
0.9358546
50
34.4920217
51
44.6239703
0
ARC
8
DEFAULT_255_2_778
10
3.1731452
20
17.1144278
40
0.5277413
50
44.2792705
51
61.7889753
0
ARC
8
DEFAULT_255_2_778
10
3.2644118
20
17.283066
40
0.3359922
50
61.9094607
51
89.643015
0
ARC
8
DEFAULT_255_2_778
10
3.2711527
20
17.2477782
40
0.3713025
50
90.7171645
51
115.3630913
0
ARC
8
DEFAULT_255_2_778
10
3.3648004
20
17.0402664
40
0.598942
50
114.9548821
51
127.545251
0
ARC
8
DEFAULT_255_2_778
10
3.5008427
20
16.8527906
40
0.8305135
50
127.1050122
51
130.4755275
0
LINE
8
DEFAULT_255_2_778
10
1.3832373
20
13.5475482
11
3.6562373
21
17.3554482
0
LINE
8
DEFAULT_255_2_778
10
2.9617373
20
17.4845482
11
0.9413373
21
14.0640482
0
ENDSEC
0
EOF