0
SECTION
2
HEADER
9
$MEASUREMENT
70
1
0
ENDSEC
0
SECTION
2
TABLES
0
TABLE
2
LTYPE
0
LTYPE
72
65
70
64
2
CONTINUOUS
3
______
73
0
40
0
0
ENDTAB
0
TABLE
2
LAYER
0
LAYER
2
DEFAULT_255_2_778
70
0
62
255
6
CONTINUOUS
0
ENDTAB
0
ENDSEC
0
SECTION
2
ENTITIES
0
ARC
8
DEFAULT_255_2_778
10
11.75751
20
15.6425012
40
2.6230103
50
160.3295873
51
180.0788001
0
ARC
8
DEFAULT_255_2_778
10
11.7476196
20
15.6414966
40
2.6140387
50
101.5847955
51
160.2358829
0
ARC
8
DEFAULT_255_2_778
10
11.7535433
20
15.6006632
40
2.6552309
50
89.9642042
51
101.5330713
0
ARC
8
DEFAULT_255_2_778
10
11.7588731
20
15.6224903
40
2.633406
50
70.3824763
51
90.0798697
0
ARC
8
DEFAULT_255_2_778
10
11.7634416
20
15.6429172
40
2.6126321
50
11.6536465
51
70.3264491
0
ARC
8
DEFAULT_255_2_778
10
11.7316756
20
15.6405389
40
2.6442269
50
359.9643504
51
11.5650817
0
ARC
8
DEFAULT_255_2_778
10
11.7528944
20
15.6352862
40
2.6230103
50
340.3295873
51
0.0788001
0
ARC
8
DEFAULT_255_2_778
10
11.7627847
20
15.6362908
40
2.6140387
50
281.5847955
51
340.2358829
0
ARC
8
DEFAULT_255_2_778
10
11.756861
20
15.6771241
40
2.6552309
50
269.9642042
51
281.5330713
0
ARC
8
DEFAULT_255_2_778
10
11.7515312
20
15.6552971
40
2.633406
50
250.3824763
51
270.0798697
0
ARC
8
DEFAULT_255_2_778
10
11.7469627
20
15.6348701
40
2.6126321
50
191.6536465
51
250.3264491
0
ARC
8
DEFAULT_255_2_778
10
11.7787287
20
15.6372484
40
2.6442269
50
179.9643504
51
191.5650817
0
LINE
8
DEFAULT_255_2_778
10
9.1345022
20
15.6388937
11
9.1345022
21
15.6388937
0
LINE
8
DEFAULT_255_2_778
10
9.9408845
20
15.0348187
11
3.0868845
21
11.8138187
0
ARC
8
DEFAULT_255_2_778
10
2.88761
20
11.6163012
40
2.6230103
50
160.3295873
51
180.0788001
0
ARC
8
DEFAULT_255_2_778
10
2.8777196
20
11.6152966
40
2.6140387
50
101.5847955
51
160.2358829
0
ARC
8
DEFAULT_255_2_778
10
2.8836433
20
11.5744632
40
2.6552309
50
89.9642042
51
101.5330713
0
ARC
8
DEFAULT_255_2_778
10
2.8889731
20
11.5962903
40
2.633406
50
70.3824763
51
90.0798697
0
ARC
8
DEFAULT_255_2_778
10
2.8935416
20
11.6167172
40
2.6126321
50
11.6536465
51
70.3264491
0
ARC
8
DEFAULT_255_2_778
10
2.8617756
20
11.6143389
40
2.6442269
50
359.9643504
51
11.5650817
0
ARC
8
DEFAULT_255_2_778
10
2.8829944
20
11.6090862
40
2.6230103
50
340.3295873
51
0.0788001
0
ARC
8
DEFAULT_255_2_778
10
2.8928847
20
11.6100908
40
2.6140387
50
281.5847955
51
340.2358829
0
ARC
8
DEFAULT_255_2_778
10
2.886961
20
11.6509241
40
2.6552309
50
269.9642042
51
281.5330713
0
ARC
8
DEFAULT_255_2_778
10
2.8816312
20
11.6290971
40
2.633406
50
250.3824763
51
270.0798697
0
ARC
8
DEFAULT_255_2_778
10
2.8770627
20
11.6086701
40
2.6126321
50
191.6536465
51
250.3264491
0
ARC
8
DEFAULT_255_2_778
10
2.9088287
20
11.6110484
40
2.6442269
50
179.9643504
51
191.5650817
0
LINE
8
DEFAULT_255_2_778
10
0.2646022
20
11.6126937
11
0.2646022
21
11.6126937
0
LINE
8
DEFAULT_255_2_778
10
2.8852886
20
10.2033374
11
4.2962886
21
3.7612374
0
ARC
8
DEFAULT_255_2_778
10
4.50021
20
3.5637012
40
2.6230103
50
160.3295873
51
180.0788001
0
ARC
8
DEFAULT_255_2_778
10
4.4903196
20
3.5626966
40
2.6140387
50
101.5847955
51
160.2358829
0
ARC
8
DEFAULT_255_2_778
10
4.4962433
20
3.5218632
40
2.6552309
50
89.9642042
51
101.5330713
0
ARC
8
DEFAULT_255_2_778
10
4.5015731
20
3.5436903
40
2.633406
50
70.3824763
51
90.0798697
0
ARC
8
DEFAULT_255_2_778
10
4.5061416
20
3.5641172
40
2.6126321
50
11.6536465
51
70.3264491
0
ARC
8
DEFAULT_255_2_778
10
4.4743756
20
3.5617389
40
2.6442269
50
359.9643504
51
11.5650817
0
ARC
8
DEFAULT_255_2_778
10
4.4955944
20
3.5564862
40
2.6230103
50
340.3295873
51
0.0788001
0
ARC
8
DEFAULT_255_2_778
10
4.5054847
20
3.5574908
40
2.6140387
50
281.5847955
51
340.2358829
0
ARC
8
DEFAULT_255_2_778
10
4.499561
20
3.5983241
40
2.6552309
50
269.9642042
51
281.5330713
0
ARC
8
DEFAULT_255_2_778
10
4.4942312
20
3.5764971
40
2.633406
50
250.3824763
51
270.0798697
0
ARC
8
DEFAULT_255_2_778
10
4.4896627
20
3.5560701
40
2.6126321
50
191.6536465
51
250.3264491
0
ARC
8
DEFAULT_255_2_778
10
4.5214287
20
3.5584484
40
2.6442269
50
179.9643504
51
191.5650817
0
LINE
8
DEFAULT_255_2_778
10
1.8772022
20
3.5600937
11
1.8772022
21
3.5600937
0
LINE
8
DEFAULT_255_2_778
10
13.5694209
20
14.6321562
11
18.2060209
21
10.4046562
0
ARC
8
DEFAULT_255_2_778
10
18.81291
20
9.2004012
40
2.6230103
50
160.3295873
51
180.0788001
0
ARC
8
DEFAULT_255_2_778
10
18.8030196
20
9.1993966
40
2.6140387
50
101.5847955
51
160.2358829
0
ARC
8
DEFAULT_255_2_778
10
18.8089433
20
9.1585632
40
2.6552309
50
89.9642042
51
101.5330713
0
ARC
8
DEFAULT_255_2_778
10
18.8142731
20
9.1803903
40
2.633406
50
70.3824763
51
90.0798697
0
ARC
8
DEFAULT_255_2_778
10
18.8188416
20
9.2008172
40
2.6126321
50
11.6536465
51
70.3264491
0
ARC
8
DEFAULT_255_2_778
10
18.7870756
20
9.1984389
40
2.6442269
50
359.9643504
51
11.5650817
0
ARC
8
DEFAULT_255_2_778
10
18.8082944
20
9.1931862
40
2.6230103
50
340.3295873
51
0.0788001
0
ARC
8
DEFAULT_255_2_778
10
18.8181847
20
9.1941908
40
2.6140387
50
281.5847955
51
340.2358829
0
ARC
8
DEFAULT_255_2_778
10
18.812261
20
9.2350241
40
2.6552309
50
269.9642042
51
281.5330713
0
ARC
8
DEFAULT_255_2_778
10
18.8069312
20
9.2131971
40
2.633406
50
250.3824763
51
270.0798697
0
ARC
8
DEFAULT_255_2_778
10
18.8023627
20
9.1927701
40
2.6126321
50
191.6536465
51
250.3264491
0
ARC
8
DEFAULT_255_2_778
10
18.8341287
20
9.1951484
40
2.6442269
50
179.9643504
51
191.5650817
0
LINE
8
DEFAULT_255_2_778
10
16.1899022
20
9.1967937
11
16.1899022
21
9.1967937
0
LINE
8
DEFAULT_255_2_778
10
17.8027386
20
7.9889562
11
14.7788386
21
3.7614562
0
ARC
8
DEFAULT_255_2_778
10
13.77331
20
2.3559012
40
2.6230103
50
160.3295873
51
180.0788001
0
ARC
8
DEFAULT_255_2_778
10
13.7634196
20
2.3548966
40
2.6140387
50
101.5847955
51
160.2358829
0
ARC
8
DEFAULT_255_2_778
10
13.7693433
20
2.3140632
40
2.6552309
50
89.9642042
51
101.5330713
0
ARC
8
DEFAULT_255_2_778
10
13.7746731
20
2.3358903
40
2.633406
50
70.3824763
51
90.0798697
0
ARC
8
DEFAULT_255_2_778
10
13.7792416
20
2.3563172
40
2.6126321
50
11.6536465
51
70.3264491
0
ARC
8
DEFAULT_255_2_778
10
13.7474756
20
2.3539389
40
2.6442269
50
359.9643504
51
11.5650817
0
ARC
8
DEFAULT_255_2_778
10
13.7686944
20
2.3486862
40
2.6230103
50
340.3295873
51
0.0788001
0
ARC
8
DEFAULT_255_2_778
10
13.7785847
20
2.3496908
40
2.6140387
50
281.5847955
51
340.2358829
0
ARC
8
DEFAULT_255_2_778
10
13.772661
20
2.3905241
40
2.6552309
50
269.9642042
51
281.5330713
0
ARC
8
DEFAULT_255_2_778
10
13.7673312
20
2.3686971
40
2.633406
50
250.3824763
51
270.0798697
0
ARC
8
DEFAULT_255_2_778
10
13.7627627
20
2.3482701
40
2.6126321
50
191.6536465
51
250.3264491
0
ARC
8
DEFAULT_255_2_778
10
13.7945287
20
2.3506484
40
2.6442269
50
179.9643504
51
191.5650817
0
LINE
8
DEFAULT_255_2_778
10
11.1503022
20
2.3522937
11
11.1503022
21
2.3522937
0
LINE
8
DEFAULT_255_2_778
10
5.908897
20
3.3587635
11
12.359697
21
2.5536635
0
ENDSEC
0
EOF