0
SECTION
2
HEADER
9
$MEASUREMENT
70
1
0
ENDSEC
0
SECTION
2
TABLES
0
TABLE
2
LTYPE
0
LTYPE
72
65
70
64
2
CONTINUOUS
3
______
73
0
40
0
0
ENDTAB
0
TABLE
2
LAYER
0
LAYER
2
DEFAULT_255_2_778
70
0
62
255
6
CONTINUOUS
0
ENDTAB
0
ENDSEC
0
SECTION
2
ENTITIES
0
LINE
8
DEFAULT_255_2_778
10
0.3596054
20
7.936953
11
8.2021054
21
12.629553
0
LINE
8
DEFAULT_255_2_778
10
8.2021054
20
12.629553
11
16.0920054
21
7.886853
0
LINE
8
DEFAULT_255_2_778
10
16.0920054
20
7.886853
11
8.2495054
21
3.194253
0
LINE
8
DEFAULT_255_2_778
10
8.2495054
20
3.194253
11
0.3596054
21
7.936953
0
ARC
8
DEFAULT_255_2_778
10
8.7678833
20
2.920405
40
0.617934
50
122.0864727
51
173.0900684
0
ARC
8
DEFAULT_255_2_778
10
16.067815
20
7.5010475
40
0.4199492
50
103.7932367
51
113.2656005
0
ARC
8
DEFAULT_255_2_778
10
16.0210135
20
7.6931648
40
0.222214
50
90.696271
51
103.8841123
0
ARC
8
DEFAULT_255_2_778
10
16.0214627
20
7.8035968
40
0.1118098
50
3.1945776
51
91.6141681
0
ARC
8
DEFAULT_255_2_778
10
15.7727945
20
7.7412817
40
0.3667664
50
359.3542119
51
10.7714843
0
ARC
8
DEFAULT_255_2_778
10
15.8920793
20
4.5028279
40
0.2476844
50
316.7483654
51
357.5518305
0
ARC
8
DEFAULT_255_2_778
10
15.5754873
20
4.7704649
40
0.662026
50
303.6021707
51
318.6524084
0
ARC
8
DEFAULT_255_2_778
10
15.2996105
20
5.1501602
40
1.1311216
50
302.1748129
51
304.5973507
0
ARC
8
DEFAULT_255_2_778
10
8.2342995
20
0.2492895
40
0.5216549
50
284.887135
51
293.1804515
0
ARC
8
DEFAULT_255_2_778
10
8.2952291
20
0.0144568
40
0.2790548
50
271.3529925
51
285.1844018
0
ARC
8
DEFAULT_255_2_778
10
8.299854
20
-0.0593633
40
0.2051662
50
270.006829
51
270.5485204
0
ARC
8
DEFAULT_255_2_778
10
8.295321
20
-0.1323207
40
0.1322874
50
185.2984362
51
271.9742918
0
ARC
8
DEFAULT_255_2_778
10
8.580554
20
-0.0564601
40
0.4261562
50
179.2190919
51
191.9276556
0
LINE
8
DEFAULT_255_2_778
10
8.1544376
20
-0.050652
11
8.1544376
21
2.994748
0
LINE
8
DEFAULT_255_2_778
10
8.4396376
20
3.443948
11
15.9019376
21
7.886848
0
LINE
8
DEFAULT_255_2_778
10
16.1395376
20
7.737148
11
16.1395376
21
4.492248
0
LINE
8
DEFAULT_255_2_778
10
15.9019376
20
4.192748
11
8.4396376
21
-0.230252
0
LINE
8
DEFAULT_255_2_778
10
8.1544376
20
-0.050652
11
8.1544376
21
-0.050652
0
ARC
8
DEFAULT_255_2_778
10
0.4249634
20
7.7903857
40
0.1604595
50
114.0629802
51
181.1730032
0
LINE
8
DEFAULT_255_2_778
10
0.2645376
20
4.5423009
11
8.2496376
21
-0.2500991
0
LINE
8
DEFAULT_255_2_778
10
8.2496376
20
-0.2500991
11
8.2496376
21
3.1942009
0
LINE
8
DEFAULT_255_2_778
10
8.2496376
20
3.1942009
11
0.3595376
21
7.9369009
0
LINE
8
DEFAULT_255_2_778
10
0.2645376
20
7.7871009
11
0.2645376
21
4.5423009
0
LINE
8
DEFAULT_255_2_778
10
9.1527386
20
1.9462656
11
13.1926386
21
4.3425656
0
LINE
8
DEFAULT_255_2_778
10
13.7154448
20
4.3219239
11
13.7154448
21
5.1400239
0
LINE
8
DEFAULT_255_2_778
10
13.7154448
20
5.1400239
11
13.8453448
21
5.0582239
0
LINE
8
DEFAULT_255_2_778
10
13.8453448
20
5.0582239
11
13.8453448
21
4.2402239
0
LINE
8
DEFAULT_255_2_778
10
13.8453448
20
4.2402239
11
13.7154448
21
4.3219239
0
LINE
8
DEFAULT_255_2_778
10
14.3851427
20
5.5408677
11
13.7154427
21
5.1402677
0
LINE
8
DEFAULT_255_2_778
10
13.7154427
20
5.1402677
11
13.8453427
21
5.0585677
0
LINE
8
DEFAULT_255_2_778
10
13.8453427
20
5.0585677
11
14.5221427
21
5.4604677
0
LINE
8
DEFAULT_255_2_778
10
14.5221427
20
5.4604677
11
14.3851427
21
5.5408677
0
LINE
8
DEFAULT_255_2_778
10
14.5221979
20
4.6467969
11
14.5221979
21
5.4600969
0
LINE
8
DEFAULT_255_2_778
10
14.5221979
20
5.4600969
11
13.8453979
21
5.0581969
0
LINE
8
DEFAULT_255_2_778
10
13.8453979
20
5.0581969
11
13.8453979
21
4.2400969
0
LINE
8
DEFAULT_255_2_778
10
13.8453979
20
4.2400969
11
14.5221979
21
4.6467969
0
LINE
8
DEFAULT_255_2_778
10
14.9050448
20
5.0209239
11
14.9050448
21
5.8390239
0
LINE
8
DEFAULT_255_2_778
10
14.9050448
20
5.8390239
11
15.0349448
21
5.7572239
0
LINE
8
DEFAULT_255_2_778
10
15.0349448
20
5.7572239
11
15.0349448
21
4.9392239
0
LINE
8
DEFAULT_255_2_778
10
15.0349448
20
4.9392239
11
14.9050448
21
5.0209239
0
LINE
8
DEFAULT_255_2_778
10
15.5747427
20
6.2395677
11
14.9050427
21
5.8389677
0
LINE
8
DEFAULT_255_2_778
10
14.9050427
20
5.8389677
11
15.0349427
21
5.7572677
0
LINE
8
DEFAULT_255_2_778
10
15.0349427
20
5.7572677
11
15.7117427
21
6.1591677
0
LINE
8
DEFAULT_255_2_778
10
15.7117427
20
6.1591677
11
15.5747427
21
6.2395677
0
LINE
8
DEFAULT_255_2_778
10
15.7116979
20
5.3458969
11
15.7116979
21
6.1591969
0
LINE
8
DEFAULT_255_2_778
10
15.7116979
20
6.1591969
11
15.0348979
21
5.7572969
0
LINE
8
DEFAULT_255_2_778
10
15.0348979
20
5.7572969
11
15.0348979
21
4.9391969
0
LINE
8
DEFAULT_255_2_778
10
15.0348979
20
4.9391969
11
15.7116979
21
5.3458969
0
LINE
8
DEFAULT_255_2_778
10
0.3596054
20
12.0306207
11
8.2021054
21
16.7232207
0
LINE
8
DEFAULT_255_2_778
10
8.2021054
20
16.7232207
11
16.0920054
21
11.9805207
0
LINE
8
DEFAULT_255_2_778
10
16.0920054
20
11.9805207
11
8.2495054
21
7.2882207
0
LINE
8
DEFAULT_255_2_778
10
8.2495054
20
7.2882207
11
0.3596054
21
12.0306207
0
ARC
8
DEFAULT_255_2_778
10
8.7679156
20
7.014105
40
0.617934
50
122.0864727
51
173.0900684
0
ARC
8
DEFAULT_255_2_778
10
16.0676473
20
11.5947475
40
0.4199492
50
103.7932367
51
113.2656005
0
ARC
8
DEFAULT_255_2_778
10
16.0208457
20
11.7868648
40
0.222214
50
90.696271
51
103.8841123
0
ARC
8
DEFAULT_255_2_778
10
16.021295
20
11.8972968
40
0.1118098
50
3.1945776
51
91.6141681
0
ARC
8
DEFAULT_255_2_778
10
15.7726268
20
11.8349817
40
0.3667664
50
359.3542119
51
10.7714843
0
ARC
8
DEFAULT_255_2_778
10
15.8919116
20
8.5965279
40
0.2476844
50
316.7483654
51
357.5518305
0
ARC
8
DEFAULT_255_2_778
10
15.5753196
20
8.8641649
40
0.662026
50
303.6021707
51
318.6524084
0
ARC
8
DEFAULT_255_2_778
10
15.2994428
20
9.2438602
40
1.1311216
50
302.1748129
51
304.5973507
0
ARC
8
DEFAULT_255_2_778
10
8.2343318
20
4.3429895
40
0.5216549
50
284.887135
51
293.1804515
0
ARC
8
DEFAULT_255_2_778
10
8.2952614
20
4.1081568
40
0.2790548
50
271.3529925
51
285.1844018
0
ARC
8
DEFAULT_255_2_778
10
8.2998863
20
4.0343367
40
0.2051662
50
270.006829
51
270.5485204
0
ARC
8
DEFAULT_255_2_778
10
8.2953533
20
3.9613793
40
0.1322874
50
185.2984362
51
271.9742918
0
ARC
8
DEFAULT_255_2_778
10
8.5805863
20
4.0372399
40
0.4261562
50
179.2190919
51
191.9276556
0
LINE
8
DEFAULT_255_2_778
10
8.1544699
20
4.043048
11
8.1544699
21
7.088448
0
LINE
8
DEFAULT_255_2_778
10
8.4396699
20
7.537648
11
15.9017699
21
11.980548
0
LINE
8
DEFAULT_255_2_778
10
16.1393699
20
11.830848
11
16.1393699
21
8.585948
0
LINE
8
DEFAULT_255_2_778
10
15.9017699
20
8.286448
11
8.4396699
21
3.863448
0
LINE
8
DEFAULT_255_2_778
10
8.1544699
20
4.043048
11
8.1544699
21
4.043048
0
ARC
8
DEFAULT_255_2_778
10
0.4249634
20
11.8839857
40
0.1604595
50
114.0629802
51
181.1730032
0
LINE
8
DEFAULT_255_2_778
10
0.2645376
20
8.6359009
11
8.2496376
21
3.8435009
0
LINE
8
DEFAULT_255_2_778
10
8.2496376
20
3.8435009
11
8.2496376
21
7.2878009
0
LINE
8
DEFAULT_255_2_778
10
8.2496376
20
7.2878009
11
0.3595376
21
12.0305009
0
LINE
8
DEFAULT_255_2_778
10
0.2645376
20
11.8807009
11
0.2645376
21
8.6359009
0
LINE
8
DEFAULT_255_2_778
10
9.1527386
20
6.0398656
11
13.1926386
21
8.4361656
0
LINE
8
DEFAULT_255_2_778
10
13.7154448
20
8.4155239
11
13.7154448
21
9.2336239
0
LINE
8
DEFAULT_255_2_778
10
13.7154448
20
9.2336239
11
13.8453448
21
9.1518239
0
LINE
8
DEFAULT_255_2_778
10
13.8453448
20
9.1518239
11
13.8453448
21
8.3338239
0
LINE
8
DEFAULT_255_2_778
10
13.8453448
20
8.3338239
11
13.7154448
21
8.4155239
0
LINE
8
DEFAULT_255_2_778
10
14.3851427
20
9.6341677
11
13.7154427
21
9.2335677
0
LINE
8
DEFAULT_255_2_778
10
13.7154427
20
9.2335677
11
13.8453427
21
9.1518677
0
LINE
8
DEFAULT_255_2_778
10
13.8453427
20
9.1518677
11
14.5221427
21
9.5537677
0
LINE
8
DEFAULT_255_2_778
10
14.5221427
20
9.5537677
11
14.3851427
21
9.6341677
0
LINE
8
DEFAULT_255_2_778
10
14.5221979
20
8.7404969
11
14.5221979
21
9.5537969
0
LINE
8
DEFAULT_255_2_778
10
14.5221979
20
9.5537969
11
13.8453979
21
9.1518969
0
LINE
8
DEFAULT_255_2_778
10
13.8453979
20
9.1518969
11
13.8453979
21
8.3337969
0
LINE
8
DEFAULT_255_2_778
10
13.8453979
20
8.3337969
11
14.5221979
21
8.7404969
0
LINE
8
DEFAULT_255_2_778
10
14.9050448
20
9.1143239
11
14.9050448
21
9.9324239
0
LINE
8
DEFAULT_255_2_778
10
14.9050448
20
9.9324239
11
15.0349448
21
9.8506239
0
LINE
8
DEFAULT_255_2_778
10
15.0349448
20
9.8506239
11
15.0349448
21
9.0326239
0
LINE
8
DEFAULT_255_2_778
10
15.0349448
20
9.0326239
11
14.9050448
21
9.1143239
0
LINE
8
DEFAULT_255_2_778
10
15.5747427
20
10.3332677
11
14.9050427
21
9.9326677
0
LINE
8
DEFAULT_255_2_778
10
14.9050427
20
9.9326677
11
15.0349427
21
9.8509677
0
LINE
8
DEFAULT_255_2_778
10
15.0349427
20
9.8509677
11
15.7117427
21
10.2528677
0
LINE
8
DEFAULT_255_2_778
10
15.7117427
20
10.2528677
11
15.5747427
21
10.3332677
0
LINE
8
DEFAULT_255_2_778
10
15.7116979
20
9.4394969
11
15.7116979
21
10.2527969
0
LINE
8
DEFAULT_255_2_778
10
15.7116979
20
10.2527969
11
15.0348979
21
9.8508969
0
LINE
8
DEFAULT_255_2_778
10
15.0348979
20
9.8508969
11
15.0348979
21
9.0327969
0
LINE
8
DEFAULT_255_2_778
10
15.0348979
20
9.0327969
11
15.7116979
21
9.4394969
0
LINE
8
DEFAULT_255_2_778
10
0.3596054
20
16.2097207
11
8.2021054
21
20.9023207
0
LINE
8
DEFAULT_255_2_778
10
8.2021054
20
20.9023207
11
16.0920054
21
16.1596207
0
LINE
8
DEFAULT_255_2_778
10
16.0920054
20
16.1596207
11
8.2495054
21
11.4673207
0
LINE
8
DEFAULT_255_2_778
10
8.2495054
20
11.4673207
11
0.3596054
21
16.2097207
0
ARC
8
DEFAULT_255_2_778
10
8.7678833
20
11.193205
40
0.617934
50
122.0864727
51
173.0900684
0
ARC
8
DEFAULT_255_2_778
10
16.067815
20
15.7738475
40
0.4199492
50
103.7932367
51
113.2656005
0
ARC
8
DEFAULT_255_2_778
10
16.0210135
20
15.9659648
40
0.222214
50
90.696271
51
103.8841123
0
ARC
8
DEFAULT_255_2_778
10
16.0214627
20
16.0763968
40
0.1118098
50
3.1945776
51
91.6141681
0
ARC
8
DEFAULT_255_2_778
10
15.7727945
20
16.0140817
40
0.3667664
50
359.3542119
51
10.7714843
0
ARC
8
DEFAULT_255_2_778
10
15.8920793
20
12.7756279
40
0.2476844
50
316.7483654
51
357.5518305
0
ARC
8
DEFAULT_255_2_778
10
15.5754873
20
13.0432649
40
0.662026
50
303.6021707
51
318.6524084
0
ARC
8
DEFAULT_255_2_778
10
15.2996105
20
13.4229602
40
1.1311216
50
302.1748129
51
304.5973507
0
ARC
8
DEFAULT_255_2_778
10
8.2342995
20
8.5220895
40
0.5216549
50
284.887135
51
293.1804515
0
ARC
8
DEFAULT_255_2_778
10
8.2952291
20
8.2872568
40
0.2790548
50
271.3529925
51
285.1844018
0
ARC
8
DEFAULT_255_2_778
10
8.299854
20
8.2134367
40
0.2051662
50
270.006829
51
270.5485204
0
ARC
8
DEFAULT_255_2_778
10
8.295321
20
8.1404793
40
0.1322874
50
185.2984362
51
271.9742918
0
ARC
8
DEFAULT_255_2_778
10
8.580554
20
8.2163399
40
0.4261562
50
179.2190919
51
191.9276556
0
LINE
8
DEFAULT_255_2_778
10
8.1544376
20
8.222148
11
8.1544376
21
11.267548
0
LINE
8
DEFAULT_255_2_778
10
8.4396376
20
11.716748
11
15.9019376
21
16.159648
0
LINE
8
DEFAULT_255_2_778
10
16.1395376
20
16.009948
11
16.1395376
21
12.765048
0
LINE
8
DEFAULT_255_2_778
10
15.9019376
20
12.465548
11
8.4396376
21
8.042548
0
LINE
8
DEFAULT_255_2_778
10
8.1544376
20
8.222148
11
8.1544376
21
8.222148
0
ARC
8
DEFAULT_255_2_778
10
0.4249634
20
16.0630857
40
0.1604595
50
114.0629802
51
181.1730032
0
LINE
8
DEFAULT_255_2_778
10
0.2645376
20
12.8150009
11
8.2496376
21
8.0226009
0
LINE
8
DEFAULT_255_2_778
10
8.2496376
20
8.0226009
11
8.2496376
21
11.4669009
0
LINE
8
DEFAULT_255_2_778
10
8.2496376
20
11.4669009
11
0.3595376
21
16.2096009
0
LINE
8
DEFAULT_255_2_778
10
0.2645376
20
16.0598009
11
0.2645376
21
12.8150009
0
LINE
8
DEFAULT_255_2_778
10
9.1527386
20
10.2189656
11
13.1926386
21
12.6152656
0
LINE
8
DEFAULT_255_2_778
10
13.7154448
20
12.5946239
11
13.7154448
21
13.4127239
0
LINE
8
DEFAULT_255_2_778
10
13.7154448
20
13.4127239
11
13.8453448
21
13.3309239
0
LINE
8
DEFAULT_255_2_778
10
13.8453448
20
13.3309239
11
13.8453448
21
12.5129239
0
LINE
8
DEFAULT_255_2_778
10
13.8453448
20
12.5129239
11
13.7154448
21
12.5946239
0
LINE
8
DEFAULT_255_2_778
10
14.3851427
20
13.8132677
11
13.7154427
21
13.4126677
0
LINE
8
DEFAULT_255_2_778
10
13.7154427
20
13.4126677
11
13.8453427
21
13.3309677
0
LINE
8
DEFAULT_255_2_778
10
13.8453427
20
13.3309677
11
14.5221427
21
13.7328677
0
LINE
8
DEFAULT_255_2_778
10
14.5221427
20
13.7328677
11
14.3851427
21
13.8132677
0
LINE
8
DEFAULT_255_2_778
10
14.5221979
20
12.9195969
11
14.5221979
21
13.7328969
0
LINE
8
DEFAULT_255_2_778
10
14.5221979
20
13.7328969
11
13.8453979
21
13.3309969
0
LINE
8
DEFAULT_255_2_778
10
13.8453979
20
13.3309969
11
13.8453979
21
12.5128969
0
LINE
8
DEFAULT_255_2_778
10
13.8453979
20
12.5128969
11
14.5221979
21
12.9195969
0
LINE
8
DEFAULT_255_2_778
10
14.9050448
20
13.2936239
11
14.9050448
21
14.1117239
0
LINE
8
DEFAULT_255_2_778
10
14.9050448
20
14.1117239
11
15.0349448
21
14.0299239
0
LINE
8
DEFAULT_255_2_778
10
15.0349448
20
14.0299239
11
15.0349448
21
13.2119239
0
LINE
8
DEFAULT_255_2_778
10
15.0349448
20
13.2119239
11
14.9050448
21
13.2936239
0
LINE
8
DEFAULT_255_2_778
10
15.5747427
20
14.5123677
11
14.9050427
21
14.1117677
0
LINE
8
DEFAULT_255_2_778
10
14.9050427
20
14.1117677
11
15.0349427
21
14.0300677
0
LINE
8
DEFAULT_255_2_778
10
15.0349427
20
14.0300677
11
15.7117427
21
14.4319677
0
LINE
8
DEFAULT_255_2_778
10
15.7117427
20
14.4319677
11
15.5747427
21
14.5123677
0
LINE
8
DEFAULT_255_2_778
10
15.7116979
20
13.6185969
11
15.7116979
21
14.4318969
0
LINE
8
DEFAULT_255_2_778
10
15.7116979
20
14.4318969
11
15.0348979
21
14.0299969
0
LINE
8
DEFAULT_255_2_778
10
15.0348979
20
14.0299969
11
15.0348979
21
13.2118969
0
LINE
8
DEFAULT_255_2_778
10
15.0348979
20
13.2118969
11
15.7116979
21
13.6185969
0
ENDSEC
0
EOF