0
SECTION
2
HEADER
9
$MEASUREMENT
70
1
0
ENDSEC
0
SECTION
2
TABLES
0
TABLE
2
LTYPE
0
LTYPE
72
65
70
64
2
CONTINUOUS
3
______
73
0
40
0
0
ENDTAB
0
TABLE
2
LAYER
0
LAYER
2
DEFAULT_255_2_778
70
0
62
255
6
CONTINUOUS
0
ENDTAB
0
ENDSEC
0
SECTION
2
ENTITIES
0
ARC
8
DEFAULT_255_2_778
10
8.380292
20
5.6432736
40
2.5791719
50
324.9576959
51
334.8864702
0
ARC
8
DEFAULT_255_2_778
10
9.0036533
20
5.2011082
40
1.81493
50
309.7481132
51
325.0868495
0
ARC
8
DEFAULT_255_2_778
10
9.2284795
20
4.9399921
40
1.4704225
50
292.9378684
51
309.5182424
0
ARC
8
DEFAULT_255_2_778
10
2.2765708
20
3.746238
40
3.9938744
50
292.8217206
51
297.8923297
0
ARC
8
DEFAULT_255_2_778
10
2.6718938
20
2.8024931
40
2.970678
50
286.4166116
51
292.8539301
0
ARC
8
DEFAULT_255_2_778
10
2.8901444
20
2.0554885
40
2.1924459
50
277.9964873
51
286.4627403
0
ARC
8
DEFAULT_255_2_778
10
2.9603856
20
1.5736014
40
1.7054748
50
270.1280647
51
277.9117697
0
ARC
8
DEFAULT_255_2_778
10
2.9593441
20
1.2645109
40
1.3963886
50
258.0380704
51
270.1991456
0
ARC
8
DEFAULT_255_2_778
10
2.9306207
20
1.1167622
40
1.2458974
50
246.3460036
51
257.9220476
0
LINE
8
DEFAULT_255_2_778
10
10.7156512
20
16.4620389
11
10.7156512
21
4.5486389
0
LINE
8
DEFAULT_255_2_778
10
9.8015512
20
3.5858389
11
4.1449512
21
0.2163389
0
LINE
8
DEFAULT_255_2_778
10
2.4307512
20
-0.0244611
11
2.4307512
21
12.7316389
0
LINE
8
DEFAULT_255_2_778
10
2.4307512
20
12.7316389
11
10.7156512
21
16.4620389
0
ARC
8
DEFAULT_255_2_778
10
7.6740155
20
14.9511845
40
15.8669282
50
248.9282721
51
250.7038156
0
ARC
8
DEFAULT_255_2_778
10
6.1032649
20
10.8825083
40
11.5055784
50
246.7033269
51
248.9426088
0
ARC
8
DEFAULT_255_2_778
10
4.7410117
20
7.7247795
40
8.0665412
50
243.9266427
51
246.7198817
0
ARC
8
DEFAULT_255_2_778
10
3.5644521
20
5.3292786
40
5.3977037
50
240.1329721
51
243.9685644
0
ARC
8
DEFAULT_255_2_778
10
2.5629393
20
3.5925811
40
3.3929279
50
234.8808591
51
240.1944321
0
ARC
8
DEFAULT_255_2_778
10
1.7484866
20
2.4424564
40
1.9836427
50
227.0201665
51
235.012156
0
ARC
8
DEFAULT_255_2_778
10
1.1186707
20
1.7738926
40
1.065166
50
214.2182634
51
227.2881569
0
ARC
8
DEFAULT_255_2_778
10
0.6786811
20
1.4824829
40
0.5375034
50
188.3264547
51
214.9068601
0
ARC
8
DEFAULT_255_2_778
10
0.5576614
20
1.4553124
40
0.4139305
50
184.9336726
51
187.0309056
0
LINE
8
DEFAULT_255_2_778
10
0.1452646
20
1.4197134
11
0.1452646
21
12.7314134
0
LINE
8
DEFAULT_255_2_778
10
0.1452646
20
12.7314134
11
2.4307646
21
11.4077134
0
LINE
8
DEFAULT_255_2_778
10
2.4307646
20
11.4077134
11
2.4307646
21
-0.0243866
0
ARC
8
DEFAULT_255_2_778
10
3.0542071
20
1.6959261
40
1.8384294
50
290.3267652
51
306.3928946
0
ARC
8
DEFAULT_255_2_778
10
3.1025703
20
1.5924505
40
1.7246231
50
269.7620016
51
290.0142516
0
ARC
8
DEFAULT_255_2_778
10
3.0999668
20
1.9034966
40
2.0356594
50
260.6826313
51
269.8716432
0
ARC
8
DEFAULT_255_2_778
10
3.1657416
20
2.3122237
40
2.4496435
50
253.8607419
51
260.7122697
0
ARC
8
DEFAULT_255_2_778
10
3.2454324
20
2.6057417
40
2.7537499
50
252.7925057
51
253.9656044
0
LINE
8
DEFAULT_255_2_778
10
2.4307823
20
11.1668504
11
4.1449823
21
12.3101504
0
LINE
8
DEFAULT_255_2_778
10
4.1449823
20
12.3101504
11
4.1449823
21
0.2160504
0
LINE
8
DEFAULT_255_2_778
10
2.4307823
20
-0.0247496
11
2.4307823
21
11.1668504
0
ARC
8
DEFAULT_255_2_778
10
9.5403978
20
13.7992221
40
4.4746297
50
115.9125604
51
120.2311536
0
ARC
8
DEFAULT_255_2_778
10
9.1845926
20
14.5343157
40
3.6579547
50
110.5798366
51
115.9313864
0
ARC
8
DEFAULT_255_2_778
10
8.9435497
20
15.1805107
40
2.9682685
50
103.6873503
51
110.6085036
0
ARC
8
DEFAULT_255_2_778
10
8.8148207
20
15.7142117
40
2.4192638
50
94.6253052
51
103.7160765
0
ARC
8
DEFAULT_255_2_778
10
8.7877908
20
15.9937757
40
2.1384349
50
90.0231194
51
94.5074685
0
ARC
8
DEFAULT_255_2_778
10
8.7902711
20
16.1695951
40
1.9626183
50
58.7830703
51
90.0975969
0
ARC
8
DEFAULT_255_2_778
10
8.5550497
20
15.7554794
40
2.4387223
50
49.9637501
51
59.0993932
0
ARC
8
DEFAULT_255_2_778
10
8.3747632
20
15.5295773
40
2.7276645
50
49.5517015
51
50.1167221
0
ARC
8
DEFAULT_255_2_778
10
7.4512622
20
15.2634141
40
3.5689325
50
36.8893013
51
41.0098463
0
ARC
8
DEFAULT_255_2_778
10
8.1049924
20
15.7515911
40
2.7530436
50
31.3493455
51
36.9303603
0
ARC
8
DEFAULT_255_2_778
10
8.6791143
20
16.1000038
40
2.0814741
50
24.3049685
51
31.3807644
0
ARC
8
DEFAULT_255_2_778
10
9.1441378
20
16.3084713
40
1.5718636
50
14.8140775
51
24.3563666
0
ARC
8
DEFAULT_255_2_778
10
9.4971549
20
16.3999944
40
1.2071811
50
0.2584092
51
14.8985414
0
ARC
8
DEFAULT_255_2_778
10
9.6184143
20
16.4075969
40
1.0859116
50
330.5851803
51
359.8861369
0
ARC
8
DEFAULT_255_2_778
10
9.3055612
20
16.5756035
40
1.4409653
50
319.2587812
51
330.8755601
0
ARC
8
DEFAULT_255_2_778
10
8.9236521
20
16.9006691
40
1.9424787
50
311.3835392
51
319.3460824
0
ARC
8
DEFAULT_255_2_778
10
8.480841
20
17.4004228
40
2.6101859
50
305.2950741
51
311.4242853
0
ARC
8
DEFAULT_255_2_778
10
8.2212128
20
17.7537932
40
3.0486221
50
305.0719961
51
305.4403933
0
ARC
8
DEFAULT_255_2_778
10
2.2072615
20
14.7619965
40
3.6576025
50
291.699267
51
297.8522332
0
ARC
8
DEFAULT_255_2_778
10
2.4014424
20
14.270626
40
3.1292566
50
283.5599828
51
291.7222661
0
ARC
8
DEFAULT_255_2_778
10
2.4931309
20
13.8823696
40
2.730326
50
270.1070897
51
283.5998368
0
LINE
8
DEFAULT_255_2_778
10
2.498234
20
11.1520484
11
2.4976134
21
11.1520483
0
ARC
8
DEFAULT_255_2_778
10
2.502949
20
13.8649566
40
2.7129135
50
252.7781362
51
269.8873135
0
ARC
8
DEFAULT_255_2_778
10
2.6409144
20
14.3240812
40
3.1923039
50
243.7502056
51
252.8527011
0
ARC
8
DEFAULT_255_2_778
10
2.931827
20
14.9176193
40
3.8532998
50
236.8077422
51
243.7740148
0
ARC
8
DEFAULT_255_2_778
10
3.3286584
20
15.5331326
40
4.5856328
50
232.6253418
51
236.8687056
0
ARC
8
DEFAULT_255_2_778
10
2.1191236
20
13.3914381
40
2.1759944
50
217.6808214
51
223.6663038
0
ARC
8
DEFAULT_255_2_778
10
1.6663676
20
13.0433114
40
1.6048741
50
209.894815
51
217.7249234
0
ARC
8
DEFAULT_255_2_778
10
1.3003996
20
12.8344061
40
1.1834815
50
199.1793239
51
209.9574168
0
ARC
8
DEFAULT_255_2_778
10
1.0256604
20
12.7412534
40
0.8933916
50
180.2967508
51
199.3253351
0
ARC
8
DEFAULT_255_2_778
10
1.0048085
20
12.7313811
40
0.8725435
50
154.1522781
51
179.6555714
0
ARC
8
DEFAULT_255_2_778
10
1.3212508
20
12.5845106
40
1.2213739
50
142.1662085
51
154.4236953
0
ARC
8
DEFAULT_255_2_778
10
1.7378979
20
12.2650479
40
1.7463919
50
133.901568
51
142.2728537
0
ARC
8
DEFAULT_255_2_778
10
2.2400655
20
11.7472332
40
2.4677094
50
127.8094747
51
133.9657429
0
ARC
8
DEFAULT_255_2_778
10
2.7325353
20
11.1218494
40
3.2637036
50
124.4145371
51
127.9094312
0
LINE
8
DEFAULT_255_2_778
10
0.8879673
20
13.8146074
11
7.2874673
21
17.6653074
0
LINE
8
DEFAULT_255_2_778
10
9.9729673
20
15.2587074
11
3.9160673
21
11.5281074
0
LINE
8
DEFAULT_255_2_778
10
0.8879673
20
13.8143074
11
0.8879673
21
13.8146074
0
LINE
8
DEFAULT_255_2_778
10
6.5695673
20
4.9696074
11
8.7727673
21
6.2748074
0
LINE
8
DEFAULT_255_2_778
10
8.7727673
20
6.2748074
11
7.8914673
21
9.0010074
0
LINE
8
DEFAULT_255_2_778
10
7.8914673
20
9.0010074
11
7.2305673
21
8.5949074
0
LINE
8
DEFAULT_255_2_778
10
7.2305673
20
8.5949074
11
6.5695673
21
4.9987074
0
ARC
8
DEFAULT_255_2_778
10
8.2725866
20
8.8980039
40
1.5406821
50
112.8414289
51
118.0053176
0
ARC
8
DEFAULT_255_2_778
10
8.0911403
20
9.3311816
40
1.0710392
50
106.0678864
51
112.891395
0
ARC
8
DEFAULT_255_2_778
10
7.996624
20
9.663594
40
0.7254539
50
96.4884082
51
106.1610694
0
ARC
8
DEFAULT_255_2_778
10
7.9737476
20
9.8452653
40
0.5423656
50
90.0956787
51
96.2559373
0
ARC
8
DEFAULT_255_2_778
10
7.9822124
20
10.0106492
40
0.3770974
50
30.8880149
51
91.4238765
0
ARC
8
DEFAULT_255_2_778
10
7.7054855
20
9.8223607
40
0.7115048
50
18.106429
51
32.4603528
0
ARC
8
DEFAULT_255_2_778
10
7.1894148
20
9.6480152
40
1.2562152
50
9.3816727
51
18.34935
0
ARC
8
DEFAULT_255_2_778
10
6.5370818
20
9.5308041
40
1.9189519
50
5.6065221
51
9.6595406
0
ARC
8
DEFAULT_255_2_778
10
5.8803193
20
9.5712581
40
2.5707421
50
0.8577471
51
3.2785225
0
ARC
8
DEFAULT_255_2_778
10
6.0277394
20
9.5741494
40
2.4232953
50
0.0023778
51
0.841574
0
ARC
8
DEFAULT_255_2_778
10
6.4526916
20
9.562043
40
1.9983803
50
347.9381714
51
0.3499884
0
ARC
8
DEFAULT_255_2_778
10
6.9934521
20
9.4365998
40
1.4433773
50
305.5238787
51
348.3221329
0
ARC
8
DEFAULT_255_2_778
10
6.7302092
20
9.776028
40
1.8726613
50
297.4084931
51
306.0447592
0
ARC
8
DEFAULT_255_2_778
10
7.0880694
20
9.3993283
40
1.3810703
50
285.963196
51
291.4117678
0
ARC
8
DEFAULT_255_2_778
10
7.1972737
20
9.0150827
40
0.9816087
50
278.9979756
51
286.0029987
0
ARC
8
DEFAULT_255_2_778
10
7.2410885
20
8.7361639
40
0.6992699
50
270.2428715
51
279.0264222
0
ARC
8
DEFAULT_255_2_778
10
7.2333121
20
8.4730036
40
0.4362355
50
240.2616878
51
271.4108169
0
ARC
8
DEFAULT_255_2_778
10
7.2446328
20
8.46318
40
0.4335706
50
207.271917
51
238.3183829
0
ARC
8
DEFAULT_255_2_778
10
7.5503882
20
8.6308162
40
0.7822028
50
193.627146
51
207.9238972
0
ARC
8
DEFAULT_255_2_778
10
7.9663829
20
8.7438787
40
1.2131829
50
189.3021717
51
194.1877617
0
ARC
8
DEFAULT_255_2_778
10
9.2864046
20
8.8121463
40
2.5310949
50
182.4521005
51
185.9953686
0
ARC
8
DEFAULT_255_2_778
10
9.0604308
20
8.8016467
40
2.304879
50
180.0141438
51
182.4316683
0
ARC
8
DEFAULT_255_2_778
10
8.651857
20
8.8129542
40
1.8963425
50
166.0373273
51
180.3588364
0
ARC
8
DEFAULT_255_2_778
10
8.344413
20
8.88107
40
1.5815674
50
129.8937416
51
165.7446145
0
ARC
8
DEFAULT_255_2_778
10
8.6756144
20
8.5228003
40
2.0690088
50
122.9867111
51
130.5674409
0
LINE
8
DEFAULT_255_2_778
10
7.5491539
20
10.2582783
11
7.5491539
21
10.2582783
0
LINE
8
DEFAULT_255_2_778
10
6.3982073
20
5.0296281
11
8.6014073
21
6.3348281
0
LINE
8
DEFAULT_255_2_778
10
8.6014073
20
6.3348281
11
7.7201073
21
9.0611281
0
LINE
8
DEFAULT_255_2_778
10
7.7201073
20
9.0611281
11
7.0591073
21
8.6550281
0
LINE
8
DEFAULT_255_2_778
10
7.0591073
20
8.6550281
11
6.3982073
21
5.0587281
0
ARC
8
DEFAULT_255_2_778
10
8.0984882
20
9.0197039
40
1.5406821
50
112.8414289
51
118.0053176
0
ARC
8
DEFAULT_255_2_778
10
7.9170419
20
9.4528816
40
1.0710392
50
106.0678864
51
112.891395
0
ARC
8
DEFAULT_255_2_778
10
7.8225256
20
9.785294
40
0.7254539
50
96.4884082
51
106.1610694
0
ARC
8
DEFAULT_255_2_778
10
7.7996493
20
9.9669653
40
0.5423656
50
90.0956787
51
96.2559373
0
ARC
8
DEFAULT_255_2_778
10
7.808114
20
10.1323492
40
0.3770974
50
30.8880149
51
91.4238765
0
ARC
8
DEFAULT_255_2_778
10
7.5313871
20
9.9440607
40
0.7115048
50
18.106429
51
32.4603528
0
ARC
8
DEFAULT_255_2_778
10
7.0153164
20
9.7697152
40
1.2562152
50
9.3816727
51
18.34935
0
ARC
8
DEFAULT_255_2_778
10
6.3629834
20
9.6525041
40
1.9189519
50
5.6065221
51
9.6595406
0
ARC
8
DEFAULT_255_2_778
10
5.7057536
20
9.6931601
40
2.5711971
50
0.8563294
51
3.2734334
0
ARC
8
DEFAULT_255_2_778
10
5.8525708
20
9.6960413
40
2.4243533
50
0.0023723
51
0.8401025
0
ARC
8
DEFAULT_255_2_778
10
6.2780005
20
9.6839311
40
1.9989609
50
347.9400123
51
0.3499909
0
ARC
8
DEFAULT_255_2_778
10
6.8191519
20
9.5583936
40
1.4435563
50
305.5284781
51
348.3250536
0
ARC
8
DEFAULT_255_2_778
10
6.5560991
20
9.8975665
40
1.8725233
50
297.4110852
51
306.0481465
0
ARC
8
DEFAULT_255_2_778
10
6.913971
20
9.5210283
40
1.3810703
50
285.963196
51
291.4117678
0
ARC
8
DEFAULT_255_2_778
10
7.0231753
20
9.1367827
40
0.9816087
50
278.9979756
51
286.0029987
0
ARC
8
DEFAULT_255_2_778
10
7.0669901
20
8.8578639
40
0.6992699
50
270.2428715
51
279.0264222
0
ARC
8
DEFAULT_255_2_778
10
7.0592137
20
8.5947036
40
0.4362355
50
240.2616878
51
271.4108169
0
ARC
8
DEFAULT_255_2_778
10
7.0705344
20
8.58488
40
0.4335706
50
207.271917
51
238.3183829
0
ARC
8
DEFAULT_255_2_778
10
7.3762898
20
8.7525162
40
0.7822028
50
193.627146
51
207.9238972
0
ARC
8
DEFAULT_255_2_778
10
7.7922845
20
8.8655787
40
1.2131829
50
189.3021717
51
194.1877617
0
ARC
8
DEFAULT_255_2_778
10
9.1123062
20
8.9338463
40
2.5310949
50
182.4521005
51
185.9953686
0
ARC
8
DEFAULT_255_2_778
10
8.8863324
20
8.9233467
40
2.304879
50
180.0141438
51
182.4316683
0
ARC
8
DEFAULT_255_2_778
10
8.4777586
20
8.9346542
40
1.8963425
50
166.0373273
51
180.3588364
0
ARC
8
DEFAULT_255_2_778
10
8.1703146
20
9.00277
40
1.5815674
50
129.8937416
51
165.7446145
0
ARC
8
DEFAULT_255_2_778
10
8.501516
20
8.6445003
40
2.0690088
50
122.9867111
51
130.5674409
0
LINE
8
DEFAULT_255_2_778
10
7.3750555
20
10.3799783
11
7.3750555
21
10.3799783
0
ARC
8
DEFAULT_255_2_778
10
6.3591367
20
14.4882572
40
3.6665839
50
189.3107286
51
193.3179018
0
ARC
8
DEFAULT_255_2_778
10
10.4962217
20
14.7063197
40
7.7976807
50
184.006895
51
185.9718844
0
ARC
8
DEFAULT_255_2_778
10
10.011851
20
14.672291
40
7.3121161
50
182.0482946
51
184.0061165
0
ARC
8
DEFAULT_255_2_778
10
9.5833801
20
14.6569729
40
6.8833715
50
180.0101088
51
182.0483445
0
ARC
8
DEFAULT_255_2_778
10
8.8092604
20
14.6669521
40
6.1092618
50
172.8769965
51
180.1049799
0
ARC
8
DEFAULT_255_2_778
10
7.886993
20
14.7848517
40
5.1794934
50
162.8869941
51
172.9060749
0
ARC
8
DEFAULT_255_2_778
10
7.4044475
20
14.9269721
40
4.6764962
50
135.9158405
51
162.8114695
0
ARC
8
DEFAULT_255_2_778
10
8.0529458
20
14.3266167
40
5.5600362
50
127.6101907
51
136.1211453
0
ARC
8
DEFAULT_255_2_778
10
8.5938993
20
13.6377151
40
6.4359125
50
123.0519401
51
127.6823556
0
ARC
8
DEFAULT_255_2_778
10
7.4174775
20
14.6255917
40
4.9863777
50
115.0888553
51
117.9057754
0
ARC
8
DEFAULT_255_2_778
10
7.0280823
20
15.4587027
40
4.066757
50
111.800717
51
115.0973408
0
ARC
8
DEFAULT_255_2_778
10
6.7451935
20
16.1665157
40
3.3045068
50
108.1216325
51
111.8043629
0
ARC
8
DEFAULT_255_2_778
10
6.5469569
20
16.7753185
40
2.6642432
50
103.5157326
51
108.1421789
0
ARC
8
DEFAULT_255_2_778
10
6.4236635
20
17.2895073
40
2.1354792
50
98.1702879
51
103.5236028
0
ARC
8
DEFAULT_255_2_778
10
6.3640334
20
17.7116858
40
1.7091116
50
91.2154914
51
98.2029186
0
ARC
8
DEFAULT_255_2_778
10
6.3563911
20
17.9122982
40
1.5083861
50
90.0022642
51
91.0869109
0
ARC
8
DEFAULT_255_2_778
10
6.3658338
20
18.1659934
40
1.2547269
50
73.9144443
51
90.4339149
0
ARC
8
DEFAULT_255_2_778
10
6.4011328
20
18.3246286
40
1.0925681
50
40.7467332
51
73.3881137
0
ARC
8
DEFAULT_255_2_778
10
6.0750846
20
18.0287076
40
1.5327777
50
28.9598497
51
41.1718762
0
ARC
8
DEFAULT_255_2_778
10
5.5187741
20
17.7165346
40
2.1706831
50
20.6609423
51
29.0594927
0
ARC
8
DEFAULT_255_2_778
10
4.6981976
20
17.4036497
40
3.0488833
50
14.5036754
51
20.7216759
0
ARC
8
DEFAULT_255_2_778
10
3.5831996
20
17.1122999
40
4.2013152
50
9.7349079
51
14.5421674
0
ARC
8
DEFAULT_255_2_778
10
2.1732604
20
16.8671178
40
5.632411
50
6.0854297
51
9.7679188
0
ARC
8
DEFAULT_255_2_778
10
1.2257763
20
16.7567692
40
6.5862606
50
5.6924005
51
6.1661845
0
ARC
8
DEFAULT_255_2_778
10
2.3209469
20
16.8626361
40
5.4859911
50
0.089195
51
5.7266844
0
ARC
8
DEFAULT_255_2_778
10
2.9982527
20
16.869702
40
4.8086789
50
357.2912147
51
0.017568
0
ARC
8
DEFAULT_255_2_778
10
-1.4329544
20
17.4655377
40
10.2631513
50
358.9454186
51
0.0031413
0
ARC
8
DEFAULT_255_2_778
10
-2.2573525
20
17.4597479
40
11.0875512
50
0.0328269
51
3.3049362
0
ARC
8
DEFAULT_255_2_778
10
0.0874771
20
17.2364448
40
8.7668121
50
5.6460349
51
8.5495729
0
ARC
8
DEFAULT_255_2_778
10
1.9124967
20
17.5128684
40
6.9209785
50
8.5327244
51
12.1366435
0
ARC
8
DEFAULT_255_2_778
10
3.4361461
20
17.8422
40
5.3621447
50
12.1191972
51
16.5150439
0
ARC
8
DEFAULT_255_2_778
10
4.6465603
20
18.2028215
40
4.0991535
50
16.4917969
51
21.9428064
0
ARC
8
DEFAULT_255_2_778
10
5.570229
20
18.5768592
40
3.1026275
50
21.9098587
51
28.8637082
0
ARC
8
DEFAULT_255_2_778
10
6.2438085
20
18.9510196
40
2.3321101
50
28.8017211
51
38.4176246
0
ARC
8
DEFAULT_255_2_778
10
6.678738
20
19.2995157
40
1.7747924
50
38.3276443
51
53.1292477
0
ARC
8
DEFAULT_255_2_778
10
6.8022792
20
19.4474859
40
1.5823232
50
53.4930869
51
82.857857
0
ARC
8
DEFAULT_255_2_778
10
6.7373638
20
19.051755
40
1.9831129
50
82.4184079
51
90.1122971
0
ARC
8
DEFAULT_255_2_778
10
6.7373642
20
18.6595073
40
2.37536
50
90.0937625
51
96.1911092
0
ARC
8
DEFAULT_255_2_778
10
6.7892728
20
18.1738807
40
2.8637525
50
96.1757736
51
101.1712374
0
ARC
8
DEFAULT_255_2_778
10
6.8991313
20
17.6120218
40
3.43625
50
101.153251
51
105.1496083
0
ARC
8
DEFAULT_255_2_778
10
7.0749582
20
16.9618624
40
4.109765
50
105.1468688
51
108.7490965
0
ARC
8
DEFAULT_255_2_778
10
7.3326566
20
16.2006227
40
4.9134403
50
108.7414294
51
111.8426197
0
ARC
8
DEFAULT_255_2_778
10
7.6590897
20
15.382833
40
5.7939726
50
111.8300883
51
114.2976516
0
ARC
8
DEFAULT_255_2_778
10
8.0609661
20
14.4925871
40
6.7707237
50
114.2973342
51
116.6141676
0
ARC
8
DEFAULT_255_2_778
10
8.4619255
20
13.6864108
40
7.6711027
50
116.5941821
51
117.8732069
0
ARC
8
DEFAULT_255_2_778
10
9.947059
20
12.6693824
40
9.3022291
50
123.0377823
51
128.5032367
0
ARC
8
DEFAULT_255_2_778
10
9.1832162
20
13.6247024
40
8.0790849
50
128.4818201
51
135.7399755
0
ARC
8
DEFAULT_255_2_778
10
8.487675
20
14.2984215
40
7.1107537
50
135.7164058
51
146.3020551
0
ARC
8
DEFAULT_255_2_778
10
8.2365259
20
14.4829471
40
6.7994415
50
146.421538
51
164.9189749
0
ARC
8
DEFAULT_255_2_778
10
9.0728944
20
14.2476034
40
7.6682434
50
164.8470376
51
172.8520065
0
ARC
8
DEFAULT_255_2_778
10
10.204015
20
14.103781
40
8.8084694
50
172.8392812
51
179.1103698
0
ARC
8
DEFAULT_255_2_778
10
11.0250076
20
14.0784339
40
9.629765
50
179.0354195
51
180.002056
0
ARC
8
DEFAULT_255_2_778
10
11.3716361
20
14.0790985
40
9.9763936
50
180.005801
51
181.5672917
0
ARC
8
DEFAULT_255_2_778
10
11.8687367
20
14.0929759
40
10.4736877
50
181.5688022
51
183.2694062
0
ARC
8
DEFAULT_255_2_778
10
12.4522803
20
14.1264417
40
11.0581899
50
183.2700864
51
184.9785357
0
ARC
8
DEFAULT_255_2_778
10
12.9635295
20
14.1699364
40
11.571285
50
184.973401
51
185.9679476
0
ARC
8
DEFAULT_255_2_778
10
7.0243891
20
13.8849558
40
5.6445977
50
189.3609129
51
190.5471184
0
LINE
8
DEFAULT_255_2_778
10
7.8015585
20
16.6424457
11
8.8284585
21
17.2766457
0
LINE
8
DEFAULT_255_2_778
10
1.4751585
20
12.8517457
11
2.7911585
21
13.6436457
0
LINE
8
DEFAULT_255_2_778
10
1.4594011
20
12.8517676
11
2.3735011
21
13.4534676
0
LINE
8
DEFAULT_255_2_778
10
2.3735011
20
13.4534676
11
2.3735011
21
12.2501676
0
LINE
8
DEFAULT_255_2_778
10
2.3735011
20
12.2501676
11
1.4594011
21
12.8517676
0
LINE
8
DEFAULT_255_2_778
10
7.8015011
20
16.6424676
11
8.7156011
21
16.0408676
0
LINE
8
DEFAULT_255_2_778
10
8.7156011
20
16.0408676
11
8.7156011
21
17.3044676
0
LINE
8
DEFAULT_255_2_778
10
8.7156011
20
17.3044676
11
7.8015011
21
16.6424676
0
ARC
8
DEFAULT_255_2_778
10
7.2891019
20
13.8897627
40
3.6827481
50
189.3195263
51
193.3091042
0
ARC
8
DEFAULT_255_2_778
10
11.4105766
20
14.1046614
40
7.7979297
50
184.0069601
51
185.9717625
0
ARC
8
DEFAULT_255_2_778
10
10.9257479
20
14.0705814
40
7.3119048
50
182.048271
51
184.0060351
0
ARC
8
DEFAULT_255_2_778
10
10.4967184
20
14.0552488
40
6.8826015
50
180.0100108
51
182.0483656
0
ARC
8
DEFAULT_255_2_778
10
9.7232055
20
14.0652423
40
6.1090988
50
172.8766132
51
180.1050052
0
ARC
8
DEFAULT_255_2_778
10
8.8012574
20
14.183111
40
5.1796509
50
162.8864747
51
172.9057202
0
ARC
8
DEFAULT_255_2_778
10
8.3191938
20
14.3250636
40
4.6771636
50
135.9166748
51
162.8106774
0
ARC
8
DEFAULT_255_2_778
10
8.9680976
20
13.7243733
40
5.5612282
50
127.6121938
51
136.1222317
0
ARC
8
DEFAULT_255_2_778
10
9.509171
20
13.0353747
40
6.4372548
50
123.0544267
51
127.6843896
0
ARC
8
DEFAULT_255_2_778
10
8.3317179
20
14.0243506
40
4.9862353
50
115.0887933
51
117.9057961
0
ARC
8
DEFAULT_255_2_778
10
7.9423899
20
14.8573175
40
4.0667737
50
111.8006412
51
115.09726
0
ARC
8
DEFAULT_255_2_778
10
7.6595035
20
15.5651209
40
3.3045333
50
108.1215275
51
111.8042459
0
ARC
8
DEFAULT_255_2_778
10
7.4612692
20
16.1739167
40
2.6642771
50
103.5156279
51
108.1420497
0
ARC
8
DEFAULT_255_2_778
10
7.3379772
20
16.6880952
40
2.1355235
50
98.1701843
51
103.5234454
0
ARC
8
DEFAULT_255_2_778
10
7.2783481
20
17.1102685
40
1.7091612
50
91.2154686
51
98.2027943
0
ARC
8
DEFAULT_255_2_778
10
7.2707059
20
17.3108838
40
1.5084328
50
90.0022641
51
91.0868956
0
ARC
8
DEFAULT_255_2_778
10
7.2801481
20
17.5645669
40
1.2547857
50
73.9148247
51
90.4338724
0
ARC
8
DEFAULT_255_2_778
10
7.315443
20
17.7231922
40
1.0926375
50
40.7483574
51
73.3885201
0
ARC
8
DEFAULT_255_2_778
10
6.9894029
20
17.4272626
40
1.5328468
50
28.961722
51
41.1734552
0
ARC
8
DEFAULT_255_2_778
10
6.4331251
20
17.1150822
40
2.1707273
50
20.6628917
51
29.0614019
0
ARC
8
DEFAULT_255_2_778
10
5.6125796
20
16.8021727
40
3.0489073
50
14.5056798
51
20.7237003
0
ARC
8
DEFAULT_255_2_778
10
4.4976213
20
16.51079
40
4.201309
50
9.7368891
51
14.5441918
0
ARC
8
DEFAULT_255_2_778
10
3.0877165
20
16.2655623
40
5.6323786
50
6.0873857
51
9.7699138
0
ARC
8
DEFAULT_255_2_778
10
2.1405276
20
16.1551956
40
6.5859372
50
5.6944808
51
6.1682898
0
ARC
8
DEFAULT_255_2_778
10
1.1154853
20
16.3715793
40
7.5910733
50
0.0328734
51
3.3009516
0
ARC
8
DEFAULT_255_2_778
10
1.8725843
20
16.3734679
40
6.8339734
50
357.2633569
51
0.0206817
0
ARC
8
DEFAULT_255_2_778
10
-0.5824185
20
16.8627929
40
10.3266851
50
358.9595496
51
0.0031384
0
ARC
8
DEFAULT_255_2_778
10
-1.4133803
20
16.8569835
40
11.1576487
50
0.0327367
51
3.2913345
0
ARC
8
DEFAULT_255_2_778
10
1.0015826
20
16.6350771
40
8.7668121
50
5.6460349
51
8.5495729
0
ARC
8
DEFAULT_255_2_778
10
2.8266022
20
16.9115007
40
6.9209785
50
8.5327244
51
12.1366435
0
ARC
8
DEFAULT_255_2_778
10
4.3502516
20
17.2408323
40
5.3621447
50
12.1191972
51
16.5150439
0
ARC
8
DEFAULT_255_2_778
10
5.5606658
20
17.6014537
40
4.0991535
50
16.4917969
51
21.9428064
0
ARC
8
DEFAULT_255_2_778
10
6.4843345
20
17.9754915
40
3.1026275
50
21.9098587
51
28.8637082
0
ARC
8
DEFAULT_255_2_778
10
7.157914
20
18.3496519
40
2.3321101
50
28.8017211
51
38.4176246
0
ARC
8
DEFAULT_255_2_778
10
7.5928435
20
18.698148
40
1.7747924
50
38.3276443
51
53.1292477
0
ARC
8
DEFAULT_255_2_778
10
7.7163847
20
18.8461182
40
1.5823232
50
53.4930869
51
82.857857
0
ARC
8
DEFAULT_255_2_778
10
7.6514693
20
18.4503873
40
1.9831129
50
82.4184079
51
90.1122971
0
ARC
8
DEFAULT_255_2_778
10
7.6514696
20
18.0581396
40
2.37536
50
90.0937625
51
96.1911092
0
ARC
8
DEFAULT_255_2_778
10
7.7033783
20
17.572513
40
2.8637525
50
96.1757736
51
101.1712374
0
ARC
8
DEFAULT_255_2_778
10
7.8132368
20
17.0106541
40
3.43625
50
101.153251
51
105.1496083
0
ARC
8
DEFAULT_255_2_778
10
7.9890637
20
16.3604947
40
4.109765
50
105.1468688
51
108.7490965
0
ARC
8
DEFAULT_255_2_778
10
8.246762
20
15.599255
40
4.9134403
50
108.7414294
51
111.8426197
0
ARC
8
DEFAULT_255_2_778
10
8.5731952
20
14.7814653
40
5.7939726
50
111.8300883
51
114.2976516
0
ARC
8
DEFAULT_255_2_778
10
8.9750716
20
13.8912194
40
6.7707237
50
114.2973342
51
116.6141676
0
ARC
8
DEFAULT_255_2_778
10
9.376031
20
13.0850431
40
7.6711027
50
116.5941821
51
117.8732069
0
ARC
8
DEFAULT_255_2_778
10
10.8620558
20
12.0675525
40
9.3031026
50
123.0408323
51
128.5059722
0
ARC
8
DEFAULT_255_2_778
10
10.098189
20
13.0228084
40
8.0799934
50
128.4845562
51
135.7421767
0
ARC
8
DEFAULT_255_2_778
10
9.4025289
20
13.6965903
40
7.1115332
50
135.718603
51
146.3035069
0
ARC
8
DEFAULT_255_2_778
10
9.1512352
20
13.8811958
40
6.8000566
50
146.4229294
51
164.9192936
0
ARC
8
DEFAULT_255_2_778
10
9.987428
20
13.6459119
40
7.6686734
50
164.8474137
51
172.8520991
0
ARC
8
DEFAULT_255_2_778
10
11.1183832
20
13.5021137
40
8.8087322
50
172.8393852
51
179.1103646
0
ARC
8
DEFAULT_255_2_778
10
11.9392503
20
13.4767704
40
9.6299022
50
179.0354263
51
180.0020568
0
ARC
8
DEFAULT_255_2_778
10
12.2858645
20
13.4774347
40
9.9765165
50
180.0058008
51
181.5672824
0
ARC
8
DEFAULT_255_2_778
10
12.7829411
20
13.4913117
40
10.4737867
50
181.5687938
51
183.2693892
0
ARC
8
DEFAULT_255_2_778
10
13.3663658
20
13.5247717
40
11.0581699
50
183.2700754
51
184.9785318
0
ARC
8
DEFAULT_255_2_778
10
13.8776421
20
13.5682694
40
11.5712922
50
184.9734009
51
185.9679475
0
ARC
8
DEFAULT_255_2_778
10
2.7727522
20
12.3227048
40
0.4059164
50
173.9938432
51
179.9817526
0
ARC
8
DEFAULT_255_2_778
10
2.7632558
20
12.3228042
40
0.3964199
50
179.9956875
51
190.5712176
0
LINE
8
DEFAULT_255_2_778
10
8.698764
20
16.047178
11
9.742564
21
16.675278
0
LINE
8
DEFAULT_255_2_778
10
2.373564
20
12.250078
11
3.705264
21
13.041978
0
ENDSEC
0
EOF