0
SECTION
2
HEADER
9
$MEASUREMENT
70
1
0
ENDSEC
0
SECTION
2
TABLES
0
TABLE
2
LTYPE
0
LTYPE
72
65
70
64
2
CONTINUOUS
3
______
73
0
40
0
0
ENDTAB
0
TABLE
2
LAYER
0
LAYER
2
DEFAULT_255_2_778
70
0
62
255
6
CONTINUOUS
0
ENDTAB
0
ENDSEC
0
SECTION
2
ENTITIES
0
ARC
8
DEFAULT_255_2_778
10
11.0015925
20
4.8308655
40
2.641389
50
170.5933112
51
173.5322872
0
ARC
8
DEFAULT_255_2_778
10
10.2154401
20
4.9188135
40
1.8503336
50
173.4961652
51
177.6836988
0
ARC
8
DEFAULT_255_2_778
10
9.8180096
20
4.9374155
40
1.4524783
50
177.7832718
51
179.9747848
0
ARC
8
DEFAULT_255_2_778
10
9.4836732
20
4.9324787
40
1.1181555
50
179.714272
51
189.4328546
0
ARC
8
DEFAULT_255_2_778
10
9.4572777
20
4.9370561
40
1.092903
50
189.8963812
51
201.1976601
0
ARC
8
DEFAULT_255_2_778
10
8.7330366
20
4.6656422
40
0.3196474
50
202.7799232
51
267.9765204
0
ARC
8
DEFAULT_255_2_778
10
8.8297879
20
5.278411
40
0.9384565
50
263.3892952
51
270.3989378
0
ARC
8
DEFAULT_255_2_778
10
8.9060684
20
6.757937
40
2.4189656
50
268.3477541
51
269.154602
0
ARC
8
DEFAULT_255_2_778
10
8.9034722
20
6.5796686
40
2.2406784
50
269.1537239
51
269.9945746
0
ARC
8
DEFAULT_255_2_778
10
8.9106555
20
6.0206369
40
1.6816628
50
269.7480307
51
275.9659208
0
ARC
8
DEFAULT_255_2_778
10
8.9860605
20
5.3237108
40
0.9806772
50
275.8163348
51
285.0249622
0
ARC
8
DEFAULT_255_2_778
10
9.1019645
20
4.9014177
40
0.5427798
50
284.764617
51
299.2794628
0
ARC
8
DEFAULT_255_2_778
10
9.2127346
20
4.7058938
40
0.3180623
50
299.1004355
51
322.4551036
0
ARC
8
DEFAULT_255_2_778
10
9.244943
20
4.6773166
40
0.2751271
50
323.0863099
51
327.7581134
0
ARC
8
DEFAULT_255_2_778
10
9.2330457
20
4.684119
40
0.2888195
50
327.8758796
51
339.5728118
0
ARC
8
DEFAULT_255_2_778
10
9.2050508
20
4.6955599
40
0.3190484
50
339.4020788
51
339.7203887
0
ARC
8
DEFAULT_255_2_778
10
9.3281707
20
5.7116265
40
1.1403369
50
278.886237
51
287.4323716
0
ARC
8
DEFAULT_255_2_778
10
9.1556255
20
6.2665315
40
1.7214477
50
287.3785207
51
294.5127626
0
ARC
8
DEFAULT_255_2_778
10
8.9440872
20
6.7439355
40
2.2435961
50
294.3697318
51
298.3767959
0
ARC
8
DEFAULT_255_2_778
10
8.7338129
20
7.1310165
40
2.6841027
50
298.3990128
51
316.8158532
0
ARC
8
DEFAULT_255_2_778
10
9.2388161
20
6.626667
40
1.9708509
50
317.4599135
51
319.0348367
0
ARC
8
DEFAULT_255_2_778
10
10.1929235
20
5.8115252
40
0.7160591
50
318.2352643
51
328.0288809
0
ARC
8
DEFAULT_255_2_778
10
10.4040792
20
5.6777523
40
0.4661041
50
328.2349509
51
339.4891545
0
ARC
8
DEFAULT_255_2_778
10
10.3646313
20
5.6820622
40
0.5046563
50
340.6001881
51
1.466452
0
ARC
8
DEFAULT_255_2_778
10
10.7049469
20
5.6982252
40
0.1642073
50
358.8665908
51
17.0048108
0
ARC
8
DEFAULT_255_2_778
10
10.7399387
20
5.7047178
40
0.1289094
50
18.7939165
51
61.0622995
0
ARC
8
DEFAULT_255_2_778
10
10.6556136
20
5.5622255
40
0.2944524
50
60.1184013
51
78.0730585
0
ARC
8
DEFAULT_255_2_778
10
10.5666203
20
5.1760071
40
0.6907629
50
77.4713077
51
87.1549685
0
ARC
8
DEFAULT_255_2_778
10
10.5301434
20
4.6518349
40
1.2161441
50
86.6642953
51
90.0999413
0
ARC
8
DEFAULT_255_2_778
10
10.6880944
20
4.9814235
40
0.9008887
50
100.2348107
51
103.0930233
0
ARC
8
DEFAULT_255_2_778
10
11.1189025
20
3.0332838
40
2.8960572
50
102.6635318
51
102.7573513
0
ARC
8
DEFAULT_255_2_778
10
11.344821
20
2.0356518
40
3.9189495
50
102.7579627
51
102.8275044
0
ARC
8
DEFAULT_255_2_778
10
11.6068405
20
0.8871641
40
5.0969471
50
102.8330912
51
102.8866092
0
ARC
8
DEFAULT_255_2_778
10
11.8090222
20
0.0060179
40
6.0009913
50
102.8920913
51
102.9375015
0
ARC
8
DEFAULT_255_2_778
10
11.7551686
20
0.2403804
40
5.7605209
50
102.9373462
51
102.9845228
0
ARC
8
DEFAULT_255_2_778
10
12.454681
20
-2.7948235
40
8.8752891
50
102.9822827
51
103.0127709
0
ARC
8
DEFAULT_255_2_778
10
14.0466674
20
-9.6770031
40
15.9391985
50
103.0180042
51
103.0348833
0
ARC
8
DEFAULT_255_2_778
10
13.9317858
20
-9.1734329
40
15.4226931
50
103.0410349
51
103.0583563
0
ARC
8
DEFAULT_255_2_778
10
6.644362
20
22.1284165
40
16.7162703
50
282.8157606
51
283.149288
0
ARC
8
DEFAULT_255_2_778
10
9.0153111
20
11.7194499
40
6.0406926
50
281.6495413
51
282.7872869
0
ARC
8
DEFAULT_255_2_778
10
9.3892762
20
9.8933065
40
4.1766537
50
279.140651
51
281.683589
0
ARC
8
DEFAULT_255_2_778
10
9.5925549
20
8.6168514
40
2.8841161
50
275.2348761
51
279.1819436
0
ARC
8
DEFAULT_255_2_778
10
9.6673463
20
7.8389667
40
2.102655
50
272.5398005
51
275.1393323
0
ARC
8
DEFAULT_255_2_778
10
8.933878
20
11.3708673
40
5.6928276
50
277.2982173
51
278.3493238
0
ARC
8
DEFAULT_255_2_778
10
9.3985214
20
7.7076169
40
2.0002351
50
274.5284659
51
277.4264711
0
ARC
8
DEFAULT_255_2_778
10
9.4572166
20
7.0237796
40
1.3139063
50
272.0968549
51
274.3313599
0
ARC
8
DEFAULT_255_2_778
10
9.4284795
20
8.0462799
40
2.3367894
50
269.8642779
51
271.8836795
0
ARC
8
DEFAULT_255_2_778
10
9.3966588
20
22.2966295
40
16.5871533
50
269.9798385
51
270.0907953
0
ARC
8
DEFAULT_255_2_778
10
9.3953764
20
5.0010676
40
0.7084242
50
90.368347
51
113.1967842
0
ARC
8
DEFAULT_255_2_778
10
9.5648784
20
4.6170029
40
1.1282144
50
113.4263111
51
127.3527262
0
ARC
8
DEFAULT_255_2_778
10
9.9416751
20
4.0841265
40
1.780575
50
126.5873347
51
127.137169
0
ARC
8
DEFAULT_255_2_778
10
9.9300517
20
4.0992072
40
1.7615355
50
127.1319154
51
127.2401477
0
ARC
8
DEFAULT_255_2_778
10
9.9926956
20
4.0165435
40
1.8652539
50
127.2354388
51
127.3366103
0
ARC
8
DEFAULT_255_2_778
10
10.1027058
20
3.8724585
40
2.0465347
50
127.338864
51
127.4301319
0
ARC
8
DEFAULT_255_2_778
10
10.0742397
20
3.9099847
40
1.9994337
50
127.4359616
51
127.528424
0
ARC
8
DEFAULT_255_2_778
10
10.0464743
20
3.9460169
40
1.9539449
50
127.5263638
51
127.6200096
0
ARC
8
DEFAULT_255_2_778
10
10.0191158
20
3.9814424
40
1.9091848
50
127.6186457
51
127.713504
0
ARC
8
DEFAULT_255_2_778
10
10.1100307
20
3.8637013
40
2.0579412
50
127.7106372
51
127.7977349
0
ARC
8
DEFAULT_255_2_778
10
10.08124
20
3.9008227
40
2.0109635
50
127.7977646
51
127.8859802
0
ARC
8
DEFAULT_255_2_778
10
10.0530257
20
3.9368692
40
1.9651882
50
127.8821362
51
127.971477
0
ARC
8
DEFAULT_255_2_778
10
10.210136
20
3.735462
40
2.2206261
50
127.9697519
51
128.0870507
0
ARC
8
DEFAULT_255_2_778
10
10.1629919
20
3.7954423
40
2.144336
50
128.0842015
51
128.2037923
0
ARC
8
DEFAULT_255_2_778
10
10.1173256
20
3.853055
40
2.0708201
50
128.1967617
51
128.318677
0
ARC
8
DEFAULT_255_2_778
10
10.4627563
20
3.4159034
40
2.6279771
50
128.317954
51
128.412529
0
ARC
8
DEFAULT_255_2_778
10
10.1926231
20
3.7566755
40
2.1931235
50
128.414183
51
128.5257463
0
ARC
8
DEFAULT_255_2_778
10
10.3509688
20
3.5573048
40
2.4477252
50
128.5186532
51
128.6170535
0
ARC
8
DEFAULT_255_2_778
10
10.2978223
20
3.623521
40
2.3628188
50
128.6122314
51
128.7125758
0
ARC
8
DEFAULT_255_2_778
10
10.5075552
20
3.361666
40
2.6983125
50
128.7101428
51
128.7966366
0
ARC
8
DEFAULT_255_2_778
10
10.4169509
20
3.474009
40
2.5539865
50
128.7915824
51
128.8815326
0
ARC
8
DEFAULT_255_2_778
10
10.5307262
20
3.3325286
40
2.7355394
50
128.8764824
51
128.9591455
0
ARC
8
DEFAULT_255_2_778
10
10.6883975
20
3.137412
40
2.9863993
50
128.9576431
51
129.0445653
0
ARC
8
DEFAULT_255_2_778
10
10.7541174
20
3.0562935
40
3.0907991
50
129.0435119
51
129.1259572
0
ARC
8
DEFAULT_255_2_778
10
10.8745214
20
2.9084527
40
3.2814663
50
129.1279326
51
129.2041608
0
ARC
8
DEFAULT_255_2_778
10
11.2653521
20
2.4296374
40
3.8995381
50
129.207127
51
129.2700931
0
ARC
8
DEFAULT_255_2_778
10
11.3587572
20
2.316328
40
4.0463822
50
129.2784377
51
129.3422444
0
ARC
8
DEFAULT_255_2_778
10
11.1919249
20
2.5202739
40
3.7828924
50
129.3463044
51
129.4132068
0
ARC
8
DEFAULT_255_2_778
10
11.4330872
20
2.2265455
40
4.1629393
50
129.4108434
51
129.4734069
0
ARC
8
DEFAULT_255_2_778
10
11.7587965
20
1.8314829
40
4.6749556
50
129.4767428
51
129.5321591
0
ARC
8
DEFAULT_255_2_778
10
11.9899045
20
1.551806
40
5.0377641
50
129.5347592
51
129.5850972
0
ARC
8
DEFAULT_255_2_778
10
12.2977115
20
1.1797705
40
5.5206259
50
129.5866607
51
129.6316236
0
ARC
8
DEFAULT_255_2_778
10
12.1315723
20
1.3801731
40
5.2603117
50
129.6302368
51
129.6764249
0
ARC
8
DEFAULT_255_2_778
10
4.7711623
20
10.1902805
40
6.2198886
50
309.0683402
51
310.0468008
0
ARC
8
DEFAULT_255_2_778
10
8.3116295
20
5.8222466
40
0.5972157
50
302.1584132
51
309.4654811
0
ARC
8
DEFAULT_255_2_778
10
8.5269499
20
5.4850293
40
0.1971476
50
294.6010922
51
301.345237
0
ARC
8
DEFAULT_255_2_778
10
8.5773965
20
5.3435365
40
0.0492539
50
269.5242828
51
309.9479916
0
ARC
8
DEFAULT_255_2_778
10
8.583713
20
5.4032259
40
0.1091489
50
241.6172681
51
266.4673884
0
ARC
8
DEFAULT_255_2_778
10
8.7824119
20
5.8276666
40
0.5776506
50
242.3424141
51
244.2911518
0
ARC
8
DEFAULT_255_2_778
10
8.4242778
20
5.1674523
40
0.1736998
50
58.7941178
51
78.0360426
0
ARC
8
DEFAULT_255_2_778
10
8.4540045
20
5.2850991
40
0.0526559
50
83.1496649
51
89.8844072
0
ARC
8
DEFAULT_255_2_778
10
8.4545945
20
5.2943096
40
0.043448
50
90.6379048
51
150.3773475
0
ARC
8
DEFAULT_255_2_778
10
8.5329154
20
5.2414629
40
0.1378433
50
147.3721208
51
163.9867658
0
ARC
8
DEFAULT_255_2_778
10
8.6702871
20
5.1954004
40
0.2826634
50
162.6934427
51
166.2517519
0
LINE
8
DEFAULT_255_2_778
10
8.3957221
20
5.2625771
11
8.3957221
21
5.2625771
0
ARC
8
DEFAULT_255_2_778
10
8.4415921
20
5.5113999
40
0.0139663
50
357.3325164
51
48.7766983
0
ARC
8
DEFAULT_255_2_778
10
8.0523795
20
5.4434843
40
0.4087368
50
3.6311281
51
9.4722333
0
ARC
8
DEFAULT_255_2_778
10
5.022233
20
5.2186632
40
3.4471914
50
2.8839887
51
4.1706928
0
LINE
8
DEFAULT_255_2_778
10
8.4650583
20
5.3921046
11
8.4651708
21
5.3900407
0
ARC
8
DEFAULT_255_2_778
10
11.1592265
20
5.5198098
40
2.6971793
50
182.7577285
51
184.6299004
0
ARC
8
DEFAULT_255_2_778
10
8.6930253
20
5.3163775
40
0.2226353
50
183.6779405
51
192.5891212
0
ARC
8
DEFAULT_255_2_778
10
8.482331
20
5.2680473
40
0.0065913
50
181.6947419
51
240.6050974
0
ARC
8
DEFAULT_255_2_778
10
8.7108169
20
5.4678171
40
0.3097256
50
221.5696861
51
252.5561286
0
ARC
8
DEFAULT_255_2_778
10
8.7496378
20
5.6269662
40
0.4733135
50
253.8482055
51
267.1205262
0
ARC
8
DEFAULT_255_2_778
10
8.7790619
20
5.9986665
40
0.8460904
50
266.3949376
51
270.1064028
0
ARC
8
DEFAULT_255_2_778
10
8.7774312
20
6.420051
40
1.2674775
50
270.1447402
51
273.841554
0
ARC
8
DEFAULT_255_2_778
10
8.733763
20
7.0945301
40
1.9433675
50
273.79384
51
276.3348972
0
ARC
8
DEFAULT_255_2_778
10
8.6308324
20
8.0286157
40
2.8831071
50
276.3197022
51
278.3134365
0
ARC
8
DEFAULT_255_2_778
10
8.2591956
20
8.6791608
40
3.5909939
50
282.6841987
51
283.3627182
0
ARC
8
DEFAULT_255_2_778
10
8.5227809
20
7.5702775
40
2.4512134
50
283.3587532
51
284.2830059
0
ARC
8
DEFAULT_255_2_778
10
8.8909909
20
6.1814138
40
1.0145383
50
283.4821938
51
291.8982033
0
ARC
8
DEFAULT_255_2_778
10
9.1281918
20
5.5930143
40
0.3801273
50
291.8020984
51
335.3202164
0
ARC
8
DEFAULT_255_2_778
10
8.5502419
20
5.9329175
40
1.0493854
50
331.6303543
51
331.6992844
0
ARC
8
DEFAULT_255_2_778
10
9.444015
20
2.5671928
40
3.1854124
50
89.9661695
51
97.5267021
0
ARC
8
DEFAULT_255_2_778
10
9.3340095
20
3.3665153
40
2.3785714
50
97.4217763
51
103.8174975
0
ARC
8
DEFAULT_255_2_778
10
9.0597934
20
4.4593562
40
1.251876
50
103.5759579
51
112.1524363
0
ARC
8
DEFAULT_255_2_778
10
8.7403801
20
5.2263167
40
0.4211399
50
111.2495734
51
127.9177891
0
ARC
8
DEFAULT_255_2_778
10
8.5558749
20
5.4648529
40
0.1195807
50
128.4126171
51
151.3405545
0
ARC
8
DEFAULT_255_2_778
10
8.5207727
20
5.4873364
40
0.0780496
50
153.4654224
51
153.710864
0
LINE
8
DEFAULT_255_2_778
10
9.4741958
20
5.4354046
11
9.4458958
21
5.7526046
0
LINE
8
DEFAULT_255_2_778
10
8.4507958
20
5.5219046
11
8.4507958
21
5.5219046
0
ARC
8
DEFAULT_255_2_778
10
5.5980014
20
11.614763
40
0.6317649
50
300.2203277
51
314.7353589
0
ARC
8
DEFAULT_255_2_778
10
5.9030002
20
11.3188038
40
0.2070261
50
312.4225408
51
353.3343469
0
ARC
8
DEFAULT_255_2_778
10
5.9662981
20
11.3033569
40
0.1425872
50
356.5487124
51
0.0001532
0
ARC
8
DEFAULT_255_2_778
10
5.9115724
20
11.6659997
40
0.1976218
50
312.9181658
51
356.7968352
0
ARC
8
DEFAULT_255_2_778
10
5.6116148
20
11.9491415
40
0.6098229
50
300.5008364
51
315.4426794
0
ARC
8
DEFAULT_255_2_778
10
5.3957842
20
12.2767793
40
1.001861
50
301.2809488
51
301.6259111
0
LINE
8
DEFAULT_255_2_778
10
4.4700854
20
10.5415573
11
4.7592854
21
10.3656573
0
LINE
8
DEFAULT_255_2_778
10
4.7592854
20
10.3656573
11
5.9159854
21
11.0688573
0
LINE
8
DEFAULT_255_2_778
10
6.1088854
20
11.3033573
11
6.1088854
21
11.6549573
0
LINE
8
DEFAULT_255_2_778
10
5.9159854
20
11.4205573
11
4.4700854
21
10.5415573
0
ARC
8
DEFAULT_255_2_778
10
5.5853323
20
11.1782121
40
0.8367599
50
106.4676075
51
121.7658018
0
ARC
8
DEFAULT_255_2_778
10
5.5317991
20
11.3495972
40
0.6572356
50
90.1222815
51
106.227501
0
ARC
8
DEFAULT_255_2_778
10
5.5254176
20
11.3190872
40
0.6877621
50
65.7749752
51
89.5852279
0
ARC
8
DEFAULT_255_2_778
10
5.4404194
20
11.110823
40
0.9125977
50
58.5830974
51
66.2735982
0
ARC
8
DEFAULT_255_2_778
10
5.5412187
20
11.2612493
40
0.7317212
50
50.0113001
51
59.1790218
0
ARC
8
DEFAULT_255_2_778
10
5.7885953
20
11.5516917
40
0.3502311
50
33.8309265
51
50.4831101
0
ARC
8
DEFAULT_255_2_778
10
5.9406281
20
11.6516782
40
0.1682804
50
1.2013014
51
34.3709726
0
ARC
8
DEFAULT_255_2_778
10
5.9328193
20
11.6604566
40
0.1761304
50
321.4937409
51
358.2917793
0
ARC
8
DEFAULT_255_2_778
10
5.7547814
20
11.7907349
40
0.3966634
50
307.8772366
51
322.7791746
0
ARC
8
DEFAULT_255_2_778
10
5.5182975
20
12.0832058
40
0.772746
50
300.9853167
51
308.4032703
0
LINE
8
DEFAULT_255_2_778
10
4.4702214
20
10.5415312
11
3.6989214
21
11.0104312
0
LINE
8
DEFAULT_255_2_778
10
3.6989214
20
11.0104312
11
5.1448214
21
11.8896312
0
LINE
8
DEFAULT_255_2_778
10
5.9161214
20
11.4207312
11
4.4702214
21
10.5415312
0
LINE
8
DEFAULT_255_2_778
10
8.1141866
20
19.131254
11
8.1141866
21
11.294554
0
LINE
8
DEFAULT_255_2_778
10
8.1141866
20
11.294554
11
1.3527866
21
7.376354
0
LINE
8
DEFAULT_255_2_778
10
1.3527866
20
7.376354
11
1.3527866
21
15.213054
0
LINE
8
DEFAULT_255_2_778
10
1.3527866
20
15.213054
11
8.1141866
21
19.131254
0
LINE
8
DEFAULT_255_2_778
10
1.0146731
20
7.5720935
11
1.0146731
21
15.4087935
0
LINE
8
DEFAULT_255_2_778
10
1.0146731
20
15.4087935
11
14.5375731
21
7.5720935
0
LINE
8
DEFAULT_255_2_778
10
14.5375731
20
7.5720935
11
14.5375731
21
-0.2646065
0
LINE
8
DEFAULT_255_2_778
10
14.5375731
20
-0.2646065
11
14.1993731
21
-0.0688065
0
LINE
8
DEFAULT_255_2_778
10
14.1993731
20
-0.0688065
11
14.1993731
21
7.3762935
0
LINE
8
DEFAULT_255_2_778
10
14.1993731
20
7.3762935
11
1.3527731
21
14.8211935
0
LINE
8
DEFAULT_255_2_778
10
1.3527731
20
14.8211935
11
1.3527731
21
7.3762935
0
LINE
8
DEFAULT_255_2_778
10
14.5375597
20
7.572154
11
21.2989597
21
11.490354
0
LINE
8
DEFAULT_255_2_778
10
21.2989597
20
11.490354
11
7.7760597
21
19.327054
0
LINE
8
DEFAULT_255_2_778
10
7.7760597
20
19.327054
11
1.0146597
21
15.408854
0
LINE
8
DEFAULT_255_2_778
10
1.0146597
20
15.408854
11
14.5375597
21
7.572154
0
LINE
8
DEFAULT_255_2_778
10
21.2988866
20
11.490354
11
21.2988866
21
3.653654
0
LINE
8
DEFAULT_255_2_778
10
21.2988866
20
3.653654
11
14.5374866
21
-0.264546
0
LINE
8
DEFAULT_255_2_778
10
14.5374866
20
-0.264546
11
14.5374866
21
7.572154
0
LINE
8
DEFAULT_255_2_778
10
14.5374866
20
7.572154
11
21.2988866
21
11.490354
0
LINE
8
DEFAULT_255_2_778
10
6.6871053
20
5.4419624
11
5.2041053
21
9.2291624
0
LINE
8
DEFAULT_255_2_778
10
5.2041053
20
9.2291624
11
6.3016053
21
9.8964624
0
LINE
8
DEFAULT_255_2_778
10
6.3016053
20
9.8964624
11
10.1669053
21
7.5450624
0
LINE
8
DEFAULT_255_2_778
10
10.1669053
20
7.5450624
11
6.6871053
21
5.4419624
0
ARC
8
DEFAULT_255_2_778
10
6.3119435
20
7.452282
40
0.7208248
50
239.5100374
51
269.1786299
0
ARC
8
DEFAULT_255_2_778
10
6.4272829
20
7.6884295
40
0.9830516
50
238.6687318
51
240.7007587
0
ARC
8
DEFAULT_255_2_778
10
6.2340945
20
7.394637
40
0.6317649
50
225.2646411
51
239.7796723
0
ARC
8
DEFAULT_255_2_778
10
5.9290957
20
7.0986777
40
0.2070261
50
186.6656531
51
227.5774592
0
ARC
8
DEFAULT_255_2_778
10
5.8657977
20
7.0832309
40
0.1425872
50
179.9998468
51
183.4512876
0
ARC
8
DEFAULT_255_2_778
10
5.9205235
20
7.4458737
40
0.1976218
50
183.2031648
51
227.0818342
0
ARC
8
DEFAULT_255_2_778
10
6.220481
20
7.7290155
40
0.6098229
50
224.5573206
51
239.4991636
0
ARC
8
DEFAULT_255_2_778
10
6.4363117
20
8.0566532
40
1.001861
50
238.3740889
51
238.7190512
0
ARC
8
DEFAULT_255_2_778
10
6.3282401
20
7.8516963
40
0.770712
50
237.6737987
51
262.6299215
0
ARC
8
DEFAULT_255_2_778
10
6.301702
20
7.7201161
40
0.6368847
50
263.4791971
51
269.9917593
0
LINE
8
DEFAULT_255_2_778
10
5.7232104
20
7.0832312
11
5.7232104
21
7.4348312
0
LINE
8
DEFAULT_255_2_778
10
6.3016104
20
7.0832312
11
6.3016104
21
6.7315312
0
LINE
8
DEFAULT_255_2_778
10
14.1994106
20
5.4171468
11
1.3528106
21
12.8620468
0
LINE
8
DEFAULT_255_2_778
10
1.3528106
20
12.8620468
11
1.3528106
21
13.2538468
0
LINE
8
DEFAULT_255_2_778
10
1.3528106
20
13.2538468
11
14.1994106
21
5.8090468
0
LINE
8
DEFAULT_255_2_778
10
14.1994106
20
5.8090468
11
14.1994106
21
5.4171468
0
LINE
8
DEFAULT_255_2_778
10
1.3528106
20
13.2538186
11
1.3528106
21
14.8212186
0
LINE
8
DEFAULT_255_2_778
10
1.3528106
20
14.8212186
11
14.1994106
21
7.3764186
0
LINE
8
DEFAULT_255_2_778
10
14.1994106
20
7.3764186
11
14.1994106
21
5.8090186
0
LINE
8
DEFAULT_255_2_778
10
14.1994106
20
5.8090186
11
1.3528106
21
13.2538186
0
ARC
8
DEFAULT_255_2_778
10
4.0603235
20
3.690618
40
0.4028153
50
142.3073819
51
180.9938285
0
ARC
8
DEFAULT_255_2_778
10
3.9390349
20
3.7879778
40
0.2473278
50
91.4054132
51
142.9750789
0
ARC
8
DEFAULT_255_2_778
10
3.9179845
20
3.7650487
40
0.2705978
50
21.1274306
51
86.8256353
0
ARC
8
DEFAULT_255_2_778
10
3.7812701
20
3.6862631
40
0.4272067
50
359.6470249
51
24.3764088
0
ARC
8
DEFAULT_255_2_778
10
3.8056331
20
3.6766866
40
0.4028955
50
322.2993683
51
0.9876506
0
ARC
8
DEFAULT_255_2_778
10
3.9268604
20
3.5792907
40
0.2474348
50
271.414587
51
322.9770203
0
ARC
8
DEFAULT_255_2_778
10
3.9479731
20
3.6019796
40
0.2704649
50
201.1170266
51
266.8198104
0
ARC
8
DEFAULT_255_2_778
10
4.0851326
20
3.6809962
40
0.4275718
50
179.646894
51
204.3744242
0
LINE
8
DEFAULT_255_2_778
10
3.6575688
20
3.6836312
11
3.6575688
21
3.6836312
0
ARC
8
DEFAULT_255_2_778
10
9.1279235
20
3.690618
40
0.4028153
50
142.3073819
51
180.9938285
0
ARC
8
DEFAULT_255_2_778
10
9.0066349
20
3.7879778
40
0.2473278
50
91.4054132
51
142.9750789
0
ARC
8
DEFAULT_255_2_778
10
8.9855845
20
3.7650487
40
0.2705978
50
21.1274306
51
86.8256353
0
ARC
8
DEFAULT_255_2_778
10
8.8488701
20
3.6862631
40
0.4272067
50
359.6470249
51
24.3764088
0
ARC
8
DEFAULT_255_2_778
10
8.8732331
20
3.6766866
40
0.4028955
50
322.2993683
51
0.9876506
0
ARC
8
DEFAULT_255_2_778
10
8.9944604
20
3.5792907
40
0.2474348
50
271.414587
51
322.9770203
0
ARC
8
DEFAULT_255_2_778
10
9.0155731
20
3.6019796
40
0.2704649
50
201.1170266
51
266.8198104
0
ARC
8
DEFAULT_255_2_778
10
9.1527326
20
3.6809962
40
0.4275718
50
179.646894
51
204.3744242
0
LINE
8
DEFAULT_255_2_778
10
8.7251688
20
3.6836312
11
8.7251688
21
3.6836312
0
ARC
8
DEFAULT_255_2_778
10
9.1829235
20
0.642818
40
0.4028153
50
142.3073819
51
180.9938285
0
ARC
8
DEFAULT_255_2_778
10
9.0616349
20
0.7401778
40
0.2473278
50
91.4054132
51
142.9750789
0
ARC
8
DEFAULT_255_2_778
10
9.0405845
20
0.7172487
40
0.2705978
50
21.1274306
51
86.8256353
0
ARC
8
DEFAULT_255_2_778
10
8.9038701
20
0.6384631
40
0.4272067
50
359.6470249
51
24.3764088
0
ARC
8
DEFAULT_255_2_778
10
8.9282331
20
0.6288866
40
0.4028955
50
322.2993683
51
0.9876506
0
ARC
8
DEFAULT_255_2_778
10
9.0494604
20
0.5314907
40
0.2474348
50
271.414587
51
322.9770203
0
ARC
8
DEFAULT_255_2_778
10
9.0705731
20
0.5541796
40
0.2704649
50
201.1170266
51
266.8198104
0
ARC
8
DEFAULT_255_2_778
10
9.2077326
20
0.6331962
40
0.4275718
50
179.646894
51
204.3744242
0
LINE
8
DEFAULT_255_2_778
10
8.7801688
20
0.6358312
11
8.7801688
21
0.6358312
0
ARC
8
DEFAULT_255_2_778
10
4.0053235
20
0.642818
40
0.4028153
50
142.3073819
51
180.9938285
0
ARC
8
DEFAULT_255_2_778
10
3.8840349
20
0.7401778
40
0.2473278
50
91.4054132
51
142.9750789
0
ARC
8
DEFAULT_255_2_778
10
3.8629845
20
0.7172487
40
0.2705978
50
21.1274306
51
86.8256353
0
ARC
8
DEFAULT_255_2_778
10
3.7262701
20
0.6384631
40
0.4272067
50
359.6470249
51
24.3764088
0
ARC
8
DEFAULT_255_2_778
10
3.7506331
20
0.6288866
40
0.4028955
50
322.2993683
51
0.9876506
0
ARC
8
DEFAULT_255_2_778
10
3.8718604
20
0.5314907
40
0.2474348
50
271.414587
51
322.9770203
0
ARC
8
DEFAULT_255_2_778
10
3.8929731
20
0.5541796
40
0.2704649
50
201.1170266
51
266.8198104
0
ARC
8
DEFAULT_255_2_778
10
4.0301326
20
0.6331962
40
0.4275718
50
179.646894
51
204.3744242
0
LINE
8
DEFAULT_255_2_778
10
3.6025688
20
0.6358312
11
3.6025688
21
0.6358312
0
LINE
8
DEFAULT_255_2_778
10
3.6025407
20
4.0351948
11
3.6025407
21
3.8007948
0
LINE
8
DEFAULT_255_2_778
10
3.6025407
20
3.8007948
11
5.6956407
21
2.6283948
0
LINE
8
DEFAULT_255_2_778
10
5.6956407
20
2.6283948
11
5.6956407
21
2.9799948
0
LINE
8
DEFAULT_255_2_778
10
5.6956407
20
2.9799948
11
3.6025407
21
4.0351948
0
LINE
8
DEFAULT_255_2_778
10
9.3310407
20
4.0351948
11
9.3310407
21
3.8007948
0
LINE
8
DEFAULT_255_2_778
10
9.3310407
20
3.8007948
11
7.2379407
21
2.6283948
0
LINE
8
DEFAULT_255_2_778
10
7.2379407
20
2.6283948
11
7.2379407
21
2.9799948
0
LINE
8
DEFAULT_255_2_778
10
7.2379407
20
2.9799948
11
9.3310407
21
4.0351948
0
LINE
8
DEFAULT_255_2_778
10
3.9880199
20
4.2699208
11
3.6025199
21
4.0355208
0
LINE
8
DEFAULT_255_2_778
10
3.6025199
20
4.0355208
11
5.6957199
21
2.9803208
0
LINE
8
DEFAULT_255_2_778
10
5.6957199
20
2.9803208
11
3.5475199
21
0.9875208
0
LINE
8
DEFAULT_255_2_778
10
3.5475199
20
0.9875208
11
3.9880199
21
0.7531208
0
LINE
8
DEFAULT_255_2_778
10
3.9880199
20
0.7531208
11
6.4666199
21
2.5115208
0
LINE
8
DEFAULT_255_2_778
10
6.4666199
20
2.5115208
11
8.9453199
21
0.7531208
0
LINE
8
DEFAULT_255_2_778
10
8.9453199
20
0.7531208
11
9.3861199
21
0.9875208
0
LINE
8
DEFAULT_255_2_778
10
9.3861199
20
0.9875208
11
7.2379199
21
2.9803208
0
LINE
8
DEFAULT_255_2_778
10
7.2379199
20
2.9803208
11
9.3310199
21
4.0355208
0
LINE
8
DEFAULT_255_2_778
10
9.3310199
20
4.0355208
11
8.9455199
21
4.2699208
0
LINE
8
DEFAULT_255_2_778
10
8.9455199
20
4.2699208
11
6.4669199
21
3.4494208
0
LINE
8
DEFAULT_255_2_778
10
6.4669199
20
3.4494208
11
3.9880199
21
4.2699208
0
ARC
8
DEFAULT_255_2_778
10
6.4940745
20
3.3522441
40
0.6063735
50
270.0302654
51
306.2313514
0
ARC
8
DEFAULT_255_2_778
10
6.5004019
20
3.4843454
40
0.738499
50
252.7767758
51
269.5339425
0
ARC
8
DEFAULT_255_2_778
10
6.6014355
20
3.8203615
40
1.0893673
50
242.3366099
51
252.9340184
0
ARC
8
DEFAULT_255_2_778
10
6.7186537
20
4.0613392
40
1.3572445
50
241.9858409
51
242.6769123
0
LINE
8
DEFAULT_255_2_778
10
6.8524698
20
4.7387208
11
6.8524698
21
2.8631208
0
LINE
8
DEFAULT_255_2_778
10
6.0811698
20
2.8631208
11
6.0811698
21
4.7387208
0
LINE
8
DEFAULT_255_2_778
10
6.0811698
20
4.7387208
11
6.8524698
21
4.7387208
0
LINE
8
DEFAULT_255_2_778
10
3.9880344
20
0.7530208
11
3.9880344
21
0.5186208
0
LINE
8
DEFAULT_255_2_778
10
3.9880344
20
0.5186208
11
3.5475344
21
0.7530208
0
LINE
8
DEFAULT_255_2_778
10
3.5475344
20
0.7530208
11
3.5475344
21
0.9874208
0
LINE
8
DEFAULT_255_2_778
10
3.5475344
20
0.9874208
11
3.9880344
21
0.7530208
0
LINE
8
DEFAULT_255_2_778
10
6.4666917
20
2.1596208
11
3.9880917
21
0.5184208
0
LINE
8
DEFAULT_255_2_778
10
3.9880917
20
0.5184208
11
3.9880917
21
0.7528208
0
LINE
8
DEFAULT_255_2_778
10
3.9880917
20
0.7528208
11
6.4666917
21
2.5112208
0
LINE
8
DEFAULT_255_2_778
10
6.4666917
20
2.5112208
11
6.4666917
21
2.1596208
0
LINE
8
DEFAULT_255_2_778
10
6.4669917
20
2.1596208
11
8.9455917
21
0.5184208
0
LINE
8
DEFAULT_255_2_778
10
8.9455917
20
0.5184208
11
8.9455917
21
0.7528208
0
LINE
8
DEFAULT_255_2_778
10
8.9455917
20
0.7528208
11
6.4669917
21
2.5112208
0
LINE
8
DEFAULT_255_2_778
10
6.4669917
20
2.5112208
11
6.4669917
21
2.1596208
0
LINE
8
DEFAULT_255_2_778
10
8.9455344
20
0.7530208
11
8.9455344
21
0.5186208
0
LINE
8
DEFAULT_255_2_778
10
8.9455344
20
0.5186208
11
9.3860344
21
0.7530208
0
LINE
8
DEFAULT_255_2_778
10
9.3860344
20
0.7530208
11
9.3860344
21
0.9874208
0
LINE
8
DEFAULT_255_2_778
10
9.3860344
20
0.9874208
11
8.9455344
21
0.7530208
0
LINE
8
DEFAULT_255_2_778
10
14.243325
20
10.7513291
11
16.381125
21
9.5313291
0
LINE
8
DEFAULT_255_2_778
10
16.381125
20
9.5313291
11
17.450025
21
10.1412291
0
LINE
8
DEFAULT_255_2_778
10
17.450025
20
10.1412291
11
15.312225
21
11.3612291
0
LINE
8
DEFAULT_255_2_778
10
15.312225
20
11.3612291
11
14.243325
21
10.7513291
0
ARC
8
DEFAULT_255_2_778
10
17.7863221
20
10.060792
40
0.0967002
50
237.9129027
51
259.9190246
0
ARC
8
DEFAULT_255_2_778
10
17.7746419
20
10.0068279
40
0.0415754
50
262.7507494
51
269.8534871
0
ARC
8
DEFAULT_255_2_778
10
17.7713469
20
9.9997457
40
0.0346403
50
275.281715
51
9.3316026
0
ARC
8
DEFAULT_255_2_778
10
17.6558984
20
10.0190665
40
0.1502568
50
354.7671859
51
0.1895615
0
ARC
8
DEFAULT_255_2_778
10
17.6743466
20
11.0816201
40
0.1318934
50
357.933253
51
62.6438936
0
ARC
8
DEFAULT_255_2_778
10
14.9758863
20
12.6620352
40
0.0967002
50
57.9129027
51
79.9190246
0
ARC
8
DEFAULT_255_2_778
10
14.9875665
20
12.7159993
40
0.0415754
50
82.7507494
51
89.8534871
0
ARC
8
DEFAULT_255_2_778
10
14.9908615
20
12.7230814
40
0.0346403
50
95.281715
51
189.3316026
0
ARC
8
DEFAULT_255_2_778
10
15.1063101
20
12.7037607
40
0.1502568
50
174.7671859
51
180.1895615
0
ARC
8
DEFAULT_255_2_778
10
15.08808
20
11.6412383
40
0.1321104
50
177.950241
51
242.5859908
0
LINE
8
DEFAULT_255_2_778
10
17.8061542
20
10.0195636
11
17.8061542
21
11.0768636
0
LINE
8
DEFAULT_255_2_778
10
17.7349542
20
11.1987636
11
15.0272542
21
12.7439636
0
LINE
8
DEFAULT_255_2_778
10
14.9560542
20
12.7032636
11
14.9560542
21
11.6459636
0
LINE
8
DEFAULT_255_2_778
10
15.0272542
20
11.5239636
11
17.7349542
21
9.9788636
0
ARC
8
DEFAULT_255_2_778
10
17.7554763
20
10.0104929
40
0.0515354
50
306.0396602
51
10.2020371
0
ARC
8
DEFAULT_255_2_778
10
17.6678844
20
11.0800677
40
0.1383506
50
358.6552331
51
29.4172538
0
ARC
8
DEFAULT_255_2_778
10
19.8192851
20
12.2996112
40
0.124743
50
358.718214
51
33.2575863
0
ARC
8
DEFAULT_255_2_778
10
19.8903362
20
11.230011
40
0.0545144
50
310.4398255
51
10.1531162
0
LINE
8
DEFAULT_255_2_778
10
17.8061969
20
10.0196208
11
17.8061969
21
11.0768208
0
LINE
8
DEFAULT_255_2_778
10
17.7883969
20
11.1480208
11
19.9235969
21
12.3680208
0
LINE
8
DEFAULT_255_2_778
10
19.9439969
20
12.2968208
11
19.9439969
21
11.2396208
0
LINE
8
DEFAULT_255_2_778
10
19.9256969
20
11.1885208
11
17.7857969
21
9.9688208
0
ARC
8
DEFAULT_255_2_778
10
17.124603
20
13.9498326
40
0.0274286
50
88.7222593
51
118.0368234
0
ARC
8
DEFAULT_255_2_778
10
17.118289
20
13.8921872
40
0.0853486
50
56.9701271
51
85.3456376
0
ARC
8
DEFAULT_255_2_778
10
19.7980697
20
12.2932015
40
0.1458308
50
30.7401537
51
59.2598463
0
ARC
8
DEFAULT_255_2_778
10
17.6682766
20
11.0750057
40
0.1402667
50
31.2356471
51
61.7301067
0
ARC
8
DEFAULT_255_2_778
10
14.9865304
20
12.6906429
40
0.0667696
50
52.6801114
51
86.0522803
0
ARC
8
DEFAULT_255_2_778
10
14.990876
20
12.7248849
40
0.0323701
50
89.5552619
51
116.9399878
0
LINE
8
DEFAULT_255_2_778
10
14.9762105
20
12.7540423
11
17.1117105
21
13.9740423
0
LINE
8
DEFAULT_255_2_778
10
17.1648105
20
13.9637423
11
19.8726105
21
12.4185423
0
LINE
8
DEFAULT_255_2_778
10
19.9234105
20
12.3677423
11
17.7882105
21
11.1477423
0
LINE
8
DEFAULT_255_2_778
10
17.7347105
20
11.1985423
11
15.0270105
21
12.7437423
0
LINE
8
DEFAULT_255_2_778
10
17.4499834
20
10.1414291
11
15.3121834
21
11.3614291
0
LINE
8
DEFAULT_255_2_778
10
15.3121834
20
11.3614291
11
15.3121834
21
11.7681291
0
LINE
8
DEFAULT_255_2_778
10
15.3121834
20
11.7681291
11
17.4499834
21
10.5481291
0
LINE
8
DEFAULT_255_2_778
10
17.4499834
20
10.5481291
11
17.4499834
21
10.1414291
0
LINE
8
DEFAULT_255_2_778
10
15.3122417
20
11.6662646
11
14.2433417
21
11.0563646
0
LINE
8
DEFAULT_255_2_778
10
14.2433417
20
11.0563646
11
14.2433417
21
10.7513646
0
LINE
8
DEFAULT_255_2_778
10
14.2433417
20
10.7513646
11
15.3122417
21
11.3611646
0
LINE
8
DEFAULT_255_2_778
10
15.3122417
20
11.3611646
11
15.3122417
21
11.6662646
0
LINE
8
DEFAULT_255_2_778
10
16.3810834
20
9.5316291
11
14.2432834
21
10.7516291
0
LINE
8
DEFAULT_255_2_778
10
14.2432834
20
10.7516291
11
14.2432834
21
11.0567291
0
LINE
8
DEFAULT_255_2_778
10
14.2432834
20
11.0567291
11
16.3810834
21
9.8367291
0
LINE
8
DEFAULT_255_2_778
10
16.3810834
20
9.8367291
11
16.3810834
21
9.5316291
0
LINE
8
DEFAULT_255_2_778
10
16.7375188
20
12.9878969
11
18.1626188
21
12.1745969
0
LINE
8
DEFAULT_255_2_778
10
18.1626188
20
12.1745969
11
17.0936188
21
11.5646969
0
LINE
8
DEFAULT_255_2_778
10
17.0936188
20
11.5646969
11
15.6686188
21
12.3779969
0
LINE
8
DEFAULT_255_2_778
10
15.6686188
20
12.3779969
11
16.7375188
21
12.9878969
0
LINE
8
DEFAULT_255_2_778
10
17.4500417
20
10.4462646
11
16.3811417
21
9.8363646
0
LINE
8
DEFAULT_255_2_778
10
16.3811417
20
9.8363646
11
16.3811417
21
9.5313646
0
LINE
8
DEFAULT_255_2_778
10
16.3811417
20
9.5313646
11
17.4500417
21
10.1411646
0
LINE
8
DEFAULT_255_2_778
10
17.4500417
20
10.1411646
11
17.4500417
21
10.4462646
0
ARC
8
DEFAULT_255_2_778
10
17.837332
20
15.5263296
40
0.0754576
50
57.6522864
51
87.0856051
0
ARC
8
DEFAULT_255_2_778
10
17.8462363
20
15.5488555
40
0.0530767
50
95.4789637
51
170.1915104
0
ARC
8
DEFAULT_255_2_778
10
17.9571934
20
15.4994852
40
0.1733929
50
160.3132621
51
165.1317388
0
ARC
8
DEFAULT_255_2_778
10
19.7878006
20
14.3646349
40
0.1407198
50
345.4477905
51
359.478301
0
ARC
8
DEFAULT_255_2_778
10
19.831007
20
14.3633741
40
0.0975076
50
359.9880075
51
64.3561385
0
LINE
8
DEFAULT_255_2_778
10
17.789606
20
15.5439774
11
17.450106
21
13.8008774
0
LINE
8
DEFAULT_255_2_778
10
17.450106
20
13.8008774
11
19.587906
21
12.5809774
0
LINE
8
DEFAULT_255_2_778
10
19.587906
20
12.5809774
11
19.924006
21
14.3292774
0
LINE
8
DEFAULT_255_2_778
10
19.873206
20
14.4512774
11
17.877706
21
15.5900774
0
LINE
8
DEFAULT_255_2_778
10
18.659006
20
13.5032774
11
18.516406
21
13.5844774
0
LINE
8
DEFAULT_255_2_778
10
18.516406
20
13.5844774
11
18.732806
21
14.6954774
0
LINE
8
DEFAULT_255_2_778
10
18.732806
20
14.6954774
11
18.875406
21
14.6142774
0
LINE
8
DEFAULT_255_2_778
10
18.875406
20
14.6142774
11
18.659006
21
13.5032774
0
LINE
8
DEFAULT_255_2_778
10
17.4805083
20
11.0056729
11
17.6435083
21
10.9141729
0
LINE
8
DEFAULT_255_2_778
10
17.6435083
20
10.9141729
11
17.6435083
21
11.0157729
0
LINE
8
DEFAULT_255_2_778
10
17.6435083
20
11.0157729
11
17.4805083
21
11.1072729
0
LINE
8
DEFAULT_255_2_778
10
17.4805083
20
11.1072729
11
17.4805083
21
11.0056729
0
ARC
8
DEFAULT_255_2_778
10
12.778135
20
9.5701058
40
0.0635688
50
238.5995207
51
268.9901085
0
ARC
8
DEFAULT_255_2_778
10
12.2262736
20
9.893407
40
0.0714686
50
173.8634113
51
232.4477077
0
LINE
8
DEFAULT_255_2_778
10
12.7450146
20
9.5158469
11
12.1827146
21
9.8367469
0
LINE
8
DEFAULT_255_2_778
10
12.1552146
20
9.9010469
11
12.7770146
21
9.5480469
0
LINE
8
DEFAULT_255_2_778
10
12.7770146
20
9.5480469
11
12.7770146
21
9.5065469
0
ARC
8
DEFAULT_255_2_778
10
12.7756536
20
9.5700516
40
0.0635688
50
271.0098915
51
301.4004793
0
ARC
8
DEFAULT_255_2_778
10
13.6472007
20
10.0766124
40
0.0716647
50
307.546904
51
5.9914048
0
LINE
8
DEFAULT_255_2_778
10
12.808774
20
9.5157927
11
13.690874
21
10.0197927
0
LINE
8
DEFAULT_255_2_778
10
13.718474
20
10.0840927
11
12.776774
21
9.5429927
0
LINE
8
DEFAULT_255_2_778
10
12.776774
20
9.5429927
11
12.776774
21
9.5064927
0
ARC
8
DEFAULT_255_2_778
10
12.1772169
20
9.906037
40
0.025022
50
191.9761878
51
250.1965623
0
ARC
8
DEFAULT_255_2_778
10
12.1774227
20
9.8956021
40
0.0252338
50
110.1273626
51
168.0085621
0
ARC
8
DEFAULT_255_2_778
10
13.09761
20
10.3777685
40
0.0642336
50
90.8656477
51
120.8832058
0
ARC
8
DEFAULT_255_2_778
10
13.0956692
20
10.3777685
40
0.0642336
50
59.1167942
51
89.1343523
0
ARC
8
DEFAULT_255_2_778
10
13.6961622
20
10.0791524
40
0.0250222
50
11.9765485
51
70.1963953
0
ARC
8
DEFAULT_255_2_778
10
13.6959567
20
10.0895872
40
0.0252335
50
290.1270864
51
348.0091588
0
ARC
8
DEFAULT_255_2_778
10
12.7757692
20
9.607421
40
0.0642336
50
270.8656477
51
300.8832058
0
ARC
8
DEFAULT_255_2_778
10
12.77771
20
9.607421
40
0.0642336
50
239.1167942
51
269.1343523
0
LINE
8
DEFAULT_255_2_778
10
12.7447396
20
9.5522948
11
12.1687396
21
9.8824948
0
LINE
8
DEFAULT_255_2_778
10
12.1687396
20
9.9192948
11
13.0646396
21
10.4328948
0
LINE
8
DEFAULT_255_2_778
10
13.1286396
20
10.4328948
11
13.7046396
21
10.1026948
0
LINE
8
DEFAULT_255_2_778
10
13.7046396
20
10.0658948
11
12.8087396
21
9.5522948
0
LINE
8
DEFAULT_255_2_778
10
13.6726688
20
10.0841177
11
12.8087688
21
9.5891177
0
LINE
8
DEFAULT_255_2_778
10
12.8087688
20
9.5891177
11
12.2327688
21
9.9190177
0
LINE
8
DEFAULT_255_2_778
10
12.2327688
20
9.9190177
11
13.0966688
21
10.4143177
0
LINE
8
DEFAULT_255_2_778
10
13.0966688
20
10.4143177
11
13.6726688
21
10.0841177
0
ARC
8
DEFAULT_255_2_778
10
12.4802546
20
9.7413075
40
0.0173723
50
87.1326751
51
147.7703473
0
ARC
8
DEFAULT_255_2_778
10
12.4810202
20
9.7330169
40
0.0256413
50
73.5322466
51
89.7688087
0
ARC
8
DEFAULT_255_2_778
10
12.4800897
20
9.7297141
40
0.0290722
50
59.9244853
51
73.6189599
0
ARC
8
DEFAULT_255_2_778
10
12.4829555
20
9.733052
40
0.0247609
50
11.8411546
51
61.7926754
0
ARC
8
DEFAULT_255_2_778
10
12.4897888
20
9.7351881
40
0.017648
50
0.0739522
51
9.6052212
0
ARC
8
DEFAULT_255_2_778
10
12.4921023
20
9.7351061
40
0.0153348
50
330.5752607
51
0.3915193
0
ARC
8
DEFAULT_255_2_778
10
12.490693
20
9.7370281
40
0.0175342
50
267.1658967
51
327.3656755
0
ARC
8
DEFAULT_255_2_778
10
12.4899221
20
9.7450971
40
0.025582
50
253.6703682
51
269.784812
0
ARC
8
DEFAULT_255_2_778
10
12.4907877
20
9.7481895
40
0.028793
50
239.9264958
51
253.7476524
0
ARC
8
DEFAULT_255_2_778
10
12.4884144
20
9.7453546
40
0.0251586
50
192.8523475
51
241.3686276
0
ARC
8
DEFAULT_255_2_778
10
12.4812425
20
9.7430255
40
0.0176613
50
180.1063424
51
190.6605809
0
ARC
8
DEFAULT_255_2_778
10
12.4786613
20
9.7431057
40
0.0150803
50
150.3220161
51
180.4291385
0
LINE
8
DEFAULT_255_2_778
10
12.4655591
20
9.7505724
11
12.4655591
21
9.7505724
0
LINE
8
DEFAULT_255_2_778
10
7.8219032
20
20.9020739
11
9.0170032
21
20.2249739
0
LINE
8
DEFAULT_255_2_778
10
9.0170032
20
20.2249739
11
6.5781032
21
18.8465739
0
LINE
8
DEFAULT_255_2_778
10
6.5781032
20
18.8465739
11
5.3586032
21
19.5235739
0
LINE
8
DEFAULT_255_2_778
10
5.3586032
20
19.5235739
11
7.8219032
21
20.9020739
0
LINE
8
DEFAULT_255_2_778
10
6.5780355
20
18.846576
11
9.0169355
21
20.225076
0
LINE
8
DEFAULT_255_2_778
10
9.0169355
20
20.225076
11
9.0169355
21
16.839176
0
LINE
8
DEFAULT_255_2_778
10
9.0169355
20
16.839176
11
6.5780355
21
15.460676
0
LINE
8
DEFAULT_255_2_778
10
6.5780355
20
15.460676
11
6.5780355
21
18.846576
0
LINE
8
DEFAULT_255_2_778
10
5.3585677
20
19.5236708
11
6.5780677
21
18.8465708
0
LINE
8
DEFAULT_255_2_778
10
6.5780677
20
18.8465708
11
6.5780677
21
15.4607708
0
LINE
8
DEFAULT_255_2_778
10
6.5780677
20
15.4607708
11
5.3585677
21
16.1377708
0
LINE
8
DEFAULT_255_2_778
10
5.3585677
20
16.1377708
11
5.3585677
21
19.5236708
0
LINE
8
DEFAULT_255_2_778
10
6.3341136
20
18.6894187
11
6.3341136
21
18.5926187
0
LINE
8
DEFAULT_255_2_778
10
6.3341136
20
18.5926187
11
5.6025136
21
18.9990187
0
LINE
8
DEFAULT_255_2_778
10
5.6025136
20
18.9990187
11
5.6025136
21
19.0958187
0
LINE
8
DEFAULT_255_2_778
10
5.6025136
20
19.0958187
11
6.3341136
21
18.6894187
0
LINE
8
DEFAULT_255_2_778
10
6.3341136
20
18.4957187
11
6.3341136
21
18.3989187
0
LINE
8
DEFAULT_255_2_778
10
6.3341136
20
18.3989187
11
5.6025136
21
18.8053187
0
LINE
8
DEFAULT_255_2_778
10
5.6025136
20
18.8053187
11
5.6025136
21
18.9021187
0
LINE
8
DEFAULT_255_2_778
10
5.6025136
20
18.9021187
11
6.3341136
21
18.4957187
0
LINE
8
DEFAULT_255_2_778
10
6.3341136
20
18.3023187
11
6.3341136
21
18.2055187
0
LINE
8
DEFAULT_255_2_778
10
6.3341136
20
18.2055187
11
5.6025136
21
18.6119187
0
LINE
8
DEFAULT_255_2_778
10
5.6025136
20
18.6119187
11
5.6025136
21
18.7087187
0
LINE
8
DEFAULT_255_2_778
10
5.6025136
20
18.7087187
11
6.3341136
21
18.3023187
0
ARC
8
DEFAULT_255_2_778
10
5.9146139
20
16.3303948
40
0.1122062
50
85.9370956
51
146.5766499
0
ARC
8
DEFAULT_255_2_778
10
5.9208281
20
16.2402792
40
0.2020473
50
70.0949681
51
89.5077626
0
ARC
8
DEFAULT_255_2_778
10
5.9099843
20
16.2064368
40
0.2375635
50
59.9169668
51
70.4147902
0
ARC
8
DEFAULT_255_2_778
10
5.929153
20
16.2301057
40
0.207528
50
24.763592
51
61.2209001
0
ARC
8
DEFAULT_255_2_778
10
5.9848039
20
16.2606319
40
0.1442751
50
17.1916934
51
23.0126572
0
ARC
8
DEFAULT_255_2_778
10
6.0091367
20
16.2674337
40
0.1190212
50
0.3933627
51
17.5258463
0
ARC
8
DEFAULT_255_2_778
10
6.036244
20
16.2673763
40
0.0919152
50
330.2743229
51
0.5451421
0
ARC
8
DEFAULT_255_2_778
10
6.0224559
20
16.2836673
40
0.1122051
50
265.9548233
51
326.5387157
0
ARC
8
DEFAULT_255_2_778
10
6.0163015
20
16.3738924
40
0.2021583
50
250.0175508
51
269.5009278
0
ARC
8
DEFAULT_255_2_778
10
6.0272989
20
16.4080993
40
0.238068
50
239.9163534
51
250.3434942
0
ARC
8
DEFAULT_255_2_778
10
6.0079547
20
16.3840944
40
0.2076535
50
204.8328342
51
241.214845
0
ARC
8
DEFAULT_255_2_778
10
5.9523252
20
16.3535131
40
0.1443911
50
197.2827622
51
203.090236
0
ARC
8
DEFAULT_255_2_778
10
5.9278536
20
16.3466373
40
0.1189836
50
180.3999749
51
197.6222064
0
ARC
8
DEFAULT_255_2_778
10
5.9005488
20
16.3466867
40
0.0916801
50
150.2352566
51
180.5499653
0
LINE
8
DEFAULT_255_2_778
10
5.820964
20
16.3922003
11
5.820964
21
16.3922003
0
ARC
8
DEFAULT_255_2_778
10
10.1492375
20
13.7173431
40
0.7851521
50
116.1418687
51
125.3857161
0
ARC
8
DEFAULT_255_2_778
10
9.9054632
20
14.0550726
40
0.3686599
50
124.8929207
51
141.8056203
0
ARC
8
DEFAULT_255_2_778
10
9.7482666
20
14.1756329
40
0.1705878
50
140.9829875
51
178.7492917
0
ARC
8
DEFAULT_255_2_778
10
9.7656344
20
14.1843918
40
0.1879824
50
181.5349475
51
213.7404046
0
ARC
8
DEFAULT_255_2_778
10
9.944935
20
14.2959448
40
0.3991006
50
212.760437
51
227.0255679
0
ARC
8
DEFAULT_255_2_778
10
10.1650742
20
14.5218308
40
0.7144695
50
226.457269
51
232.6484922
0
ARC
8
DEFAULT_255_2_778
10
11.0438907
20
13.6274892
40
0.4059108
50
238.2348045
51
257.4279495
0
ARC
8
DEFAULT_255_2_778
10
11.0237849
20
13.5510775
40
0.3269685
50
257.9521477
51
269.9504361
0
ARC
8
DEFAULT_255_2_778
10
11.0168353
20
13.5963371
40
0.3722878
50
271.0260771
51
302.6128086
0
ARC
8
DEFAULT_255_2_778
10
10.8587184
20
13.8602315
40
0.6798532
50
301.8508139
51
315.773482
0
ARC
8
DEFAULT_255_2_778
10
10.6288415
20
14.0985665
40
1.0108721
50
315.1811935
51
318.7369217
0
LINE
8
DEFAULT_255_2_778
10
10.9871032
20
14.6838787
11
9.8033032
21
14.4221787
0
LINE
8
DEFAULT_255_2_778
10
9.7316032
20
13.9538787
11
10.8302032
21
13.2823787
0
LINE
8
DEFAULT_255_2_778
10
11.3887032
20
13.4318787
11
11.9647032
21
14.0858787
0
LINE
8
DEFAULT_255_2_778
10
11.9647032
20
14.0858787
11
10.9871032
21
14.6838787
0
ARC
8
DEFAULT_255_2_778
10
10.0511456
20
13.6525479
40
0.8267395
50
107.6319267
51
115.1752994
0
ARC
8
DEFAULT_255_2_778
10
9.8433261
20
14.0867639
40
0.3453816
50
114.6165577
51
129.2215018
0
ARC
8
DEFAULT_255_2_778
10
9.6932672
20
14.263287
40
0.113837
50
126.8892148
51
168.312594
0
ARC
8
DEFAULT_255_2_778
10
9.6605701
20
14.2745623
40
0.0796564
50
171.4920146
51
180.0136411
0
ARC
8
DEFAULT_255_2_778
10
9.695266
20
14.2798818
40
0.1144769
50
182.6729045
51
219.6473169
0
ARC
8
DEFAULT_255_2_778
10
9.85523
20
14.3996824
40
0.3142404
50
217.8562085
51
232.1084686
0
ARC
8
DEFAULT_255_2_778
10
10.0892582
20
14.6891219
40
0.6864265
50
231.5304656
51
238.5317071
0
ARC
8
DEFAULT_255_2_778
10
11.0444136
20
13.7755241
40
0.4064847
50
238.2018602
51
257.1578569
0
ARC
8
DEFAULT_255_2_778
10
11.023855
20
13.6984076
40
0.3267405
50
257.667102
51
269.9466182
0
ARC
8
DEFAULT_255_2_778
10
11.0168634
20
13.7434453
40
0.3718381
50
271.0304697
51
302.6583358
0
ARC
8
DEFAULT_255_2_778
10
10.8582651
20
14.0077295
40
0.6799849
50
301.8923196
51
315.819918
0
ARC
8
DEFAULT_255_2_778
10
10.6278146
20
14.246297
40
1.0115689
50
315.2260411
51
318.7820503
0
LINE
8
DEFAULT_255_2_778
10
10.9874254
20
14.8333488
11
9.8007254
21
14.4404488
0
LINE
8
DEFAULT_255_2_778
10
9.7309254
20
14.1036488
11
10.8302254
21
13.4300488
0
LINE
8
DEFAULT_255_2_778
10
11.3887254
20
13.5797488
11
11.9645254
21
14.2345488
0
LINE
8
DEFAULT_255_2_778
10
11.9645254
20
14.2345488
11
10.9874254
21
14.8333488
0
ARC
8
DEFAULT_255_2_778
10
13.3821524
20
16.9032338
40
0.2422987
50
359.6242227
51
62.4433587
0
ARC
8
DEFAULT_255_2_778
10
8.4102094
20
19.5881768
40
0.5237338
50
61.4087934
51
77.1271814
0
ARC
8
DEFAULT_255_2_778
10
8.4503733
20
19.7501621
40
0.3568851
50
77.6194385
51
89.7836415
0
ARC
8
DEFAULT_255_2_778
10
8.4518389
20
19.7983947
40
0.30865
50
90.0219009
51
126.0167688
0
ARC
8
DEFAULT_255_2_778
10
13.0607216
20
13.268843
40
0.6689705
50
300.6189647
51
316.4496639
0
ARC
8
DEFAULT_255_2_778
10
13.358429
20
12.9972027
40
0.266171
50
314.6753501
51
358.0497966
0
LINE
8
DEFAULT_255_2_778
10
13.6244459
20
12.9881447
11
13.6244459
21
16.9016447
0
LINE
8
DEFAULT_255_2_778
10
13.4942459
20
17.1180447
11
8.6608459
21
20.0480447
0
LINE
8
DEFAULT_255_2_778
10
8.2703459
20
20.0480447
11
13.4014459
21
12.6931447
0
ARC
8
DEFAULT_255_2_778
10
13.1961003
20
16.8246015
40
0.2422987
50
359.6242227
51
62.4433587
0
ARC
8
DEFAULT_255_2_778
10
8.2501169
20
19.8486033
40
0.2124093
50
57.8353644
51
71.7157466
0
ARC
8
DEFAULT_255_2_778
10
8.2892775
20
19.9654267
40
0.0891997
50
72.0576325
51
88.9831435
0
ARC
8
DEFAULT_255_2_778
10
8.2931561
20
19.9990568
40
0.055603
50
92.3661632
51
178.5409918
0
ARC
8
DEFAULT_255_2_778
10
8.4760702
20
19.9533861
40
0.2431027
50
168.8318163
51
180.8422996
0
LINE
8
DEFAULT_255_2_778
10
13.4383938
20
13.2252124
11
13.4383938
21
16.8230124
0
LINE
8
DEFAULT_255_2_778
10
13.3081938
20
17.0394124
11
8.3631938
21
20.0284124
0
LINE
8
DEFAULT_255_2_778
10
8.2329938
20
19.9498124
11
8.2329938
21
16.3753124
0
LINE
8
DEFAULT_255_2_778
10
8.2329938
20
16.3753124
11
13.4383938
21
13.2252124
0
ARC
8
DEFAULT_255_2_778
10
8.4905747
20
15.9262011
40
0.2578514
50
177.3750025
51
240.3955938
0
ARC
8
DEFAULT_255_2_778
10
13.4212707
20
12.8926195
40
0.2124093
50
237.8353644
51
251.7157466
0
ARC
8
DEFAULT_255_2_778
10
13.3821101
20
12.7757961
40
0.0891997
50
252.0576325
51
268.9831435
0
ARC
8
DEFAULT_255_2_778
10
13.3782315
20
12.742166
40
0.055603
50
272.3661632
51
358.5409918
0
ARC
8
DEFAULT_255_2_778
10
13.1953175
20
12.7878367
40
0.2431027
50
348.8318163
51
0.8422996
0
LINE
8
DEFAULT_255_2_778
10
8.2329938
20
16.3754104
11
8.2329938
21
15.9380104
0
LINE
8
DEFAULT_255_2_778
10
8.3631938
20
15.7020104
11
13.3081938
21
12.7128104
0
LINE
8
DEFAULT_255_2_778
10
13.4383938
20
12.7914104
11
13.4383938
21
13.2250104
0
LINE
8
DEFAULT_255_2_778
10
13.4383938
20
13.2250104
11
8.2329938
21
16.3754104
0
LINE
8
DEFAULT_255_2_778
10
8.4190636
20
16.4492239
11
8.4190636
21
19.7980239
0
LINE
8
DEFAULT_255_2_778
10
8.4190636
20
19.7980239
11
13.2527636
21
16.8762239
0
LINE
8
DEFAULT_255_2_778
10
13.2527636
20
16.8762239
11
13.2527636
21
13.5388239
0
LINE
8
DEFAULT_255_2_778
10
13.2527636
20
13.5388239
11
8.4190636
21
16.4492239
0
ARC
8
DEFAULT_255_2_778
10
11.7434776
20
10.0642896
40
0.1338943
50
238.8411344
51
269.1104823
0
ARC
8
DEFAULT_255_2_778
10
10.5830936
20
10.7384656
40
0.145502
50
176.1203028
51
232.8374513
0
ARC
8
DEFAULT_255_2_778
10
10.747842
20
10.757156
40
0.3100431
50
179.9897617
51
181.6348649
0
LINE
8
DEFAULT_255_2_778
10
11.674199
20
9.9497114
11
10.495199
21
10.6225114
0
LINE
8
DEFAULT_255_2_778
10
10.437799
20
10.7572114
11
11.741099
21
10.0169114
0
LINE
8
DEFAULT_255_2_778
10
11.741099
20
10.0169114
11
11.741399
21
9.9304114
0
ARC
8
DEFAULT_255_2_778
10
11.7395394
20
10.0639939
40
0.1333792
50
270.9022316
51
301.3036187
0
ARC
8
DEFAULT_255_2_778
10
13.5694988
20
11.1238692
40
0.1467402
50
307.3579329
51
4.1618254
0
ARC
8
DEFAULT_255_2_778
10
13.405908
20
11.14188
40
0.3100314
50
358.6394592
51
0.0094767
0
LINE
8
DEFAULT_255_2_778
10
11.8088396
20
9.9500312
11
13.6585396
21
11.0072312
0
LINE
8
DEFAULT_255_2_778
10
13.7159396
20
11.1419312
11
11.7416396
21
10.0076312
0
LINE
8
DEFAULT_255_2_778
10
11.7416396
20
10.0076312
11
11.7416396
21
9.9306312
0
ARC
8
DEFAULT_255_2_778
10
10.4980393
20
10.7847617
40
0.0729084
50
211.2620961
51
244.6954604
0
ARC
8
DEFAULT_255_2_778
10
10.4574435
20
10.757512
40
0.0241684
50
180.505112
51
205.9779567
0
ARC
8
DEFAULT_255_2_778
10
10.4748209
20
10.7513838
40
0.0419638
50
117.4796811
51
171.8967632
0
ARC
8
DEFAULT_255_2_778
10
10.5385805
20
10.6700667
40
0.1447851
50
119.6860761
51
125.0376073
0
ARC
8
DEFAULT_255_2_778
10
12.4146112
20
11.7573315
40
0.1343336
50
90.8893934
51
121.0240006
0
ARC
8
DEFAULT_255_2_778
10
12.4104909
20
11.7578661
40
0.1337983
50
58.9130688
51
89.1284647
0
ARC
8
DEFAULT_255_2_778
10
13.6559129
20
11.1144362
40
0.0729084
50
31.2620961
51
64.6954604
0
ARC
8
DEFAULT_255_2_778
10
13.6965086
20
11.1416859
40
0.0241684
50
0.505112
51
25.9779567
0
ARC
8
DEFAULT_255_2_778
10
13.6791312
20
11.147814
40
0.0419638
50
297.4796811
51
351.8967632
0
ARC
8
DEFAULT_255_2_778
10
13.6153717
20
11.2291312
40
0.1447851
50
299.6860761
51
305.0376073
0
ARC
8
DEFAULT_255_2_778
10
11.7393519
20
10.1418255
40
0.134293
50
270.8956533
51
301.0289761
0
ARC
8
DEFAULT_255_2_778
10
11.7434754
20
10.1410244
40
0.1334908
50
238.8764756
51
269.1310892
0
LINE
8
DEFAULT_255_2_778
10
11.6744761
20
10.0267489
11
10.4668761
21
10.7188489
0
LINE
8
DEFAULT_255_2_778
10
10.4668761
20
10.7958489
11
12.3453761
21
11.8724489
0
LINE
8
DEFAULT_255_2_778
10
12.4795761
20
11.8724489
11
13.6870761
21
11.1803489
0
LINE
8
DEFAULT_255_2_778
10
13.6870761
20
11.1033489
11
11.8085761
21
10.0267489
0
LINE
8
DEFAULT_255_2_778
10
13.6199521
20
11.1419875
11
11.8086521
21
10.1036875
0
LINE
8
DEFAULT_255_2_778
10
11.8086521
20
10.1036875
11
10.6010521
21
10.7958875
0
LINE
8
DEFAULT_255_2_778
10
10.6010521
20
10.7958875
11
12.4123521
21
11.8340875
0
LINE
8
DEFAULT_255_2_778
10
12.4123521
20
11.8340875
11
13.6199521
21
11.1419875
0
ARC
8
DEFAULT_255_2_778
10
11.1198089
20
10.4229193
40
0.0364232
50
87.1595421
51
147.8697704
0
ARC
8
DEFAULT_255_2_778
10
11.1214326
20
10.4063818
40
0.0529164
50
74.3276842
51
89.8037908
0
ARC
8
DEFAULT_255_2_778
10
11.1197438
20
10.4001484
40
0.0593742
50
59.8514433
51
74.3835291
0
ARC
8
DEFAULT_255_2_778
10
11.1252565
20
10.4061841
40
0.0514156
50
11.568343
51
61.7858256
0
ARC
8
DEFAULT_255_2_778
10
11.1392801
20
10.4105372
40
0.0368326
50
0.0714125
51
9.3085297
0
ARC
8
DEFAULT_255_2_778
10
11.1439472
20
10.4103692
40
0.0321661
50
330.2151304
51
0.3809003
0
ARC
8
DEFAULT_255_2_778
10
11.1408673
20
10.4138986
40
0.0366246
50
267.1860479
51
327.8158302
0
ARC
8
DEFAULT_255_2_778
10
11.1392271
20
10.4298751
40
0.0525571
50
254.9151633
51
269.8279985
0
ARC
8
DEFAULT_255_2_778
10
11.1407384
20
10.435617
40
0.0584946
50
239.7429861
51
254.9494732
0
ARC
8
DEFAULT_255_2_778
10
11.135744
20
10.4305631
40
0.0516429
50
191.4451869
51
241.7043248
0
ARC
8
DEFAULT_255_2_778
10
11.1212795
20
10.4260732
40
0.0366071
50
180.0664018
51
189.0491676
0
ARC
8
DEFAULT_255_2_778
10
11.1168683
20
10.4262292
40
0.0321965
50
150.0751488
51
180.352994
0
LINE
8
DEFAULT_255_2_778
10
11.0889642
20
10.4422908
11
11.0889642
21
10.4422908
0
LINE
8
DEFAULT_255_2_778
10
10.166851
20
7.5454073
11
10.036151
21
7.6248073
0
LINE
8
DEFAULT_255_2_778
10
10.036151
20
7.6248073
11
10.009951
21
7.4658073
0
LINE
8
DEFAULT_255_2_778
10
10.009951
20
7.4658073
11
10.166851
21
7.5454073
0
ARC
8
DEFAULT_255_2_778
10
2.9117288
20
13.8015531
40
2.0612029
50
2.8068607
51
6.1741087
0
ARC
8
DEFAULT_255_2_778
10
1.8833334
20
13.7495972
40
3.0909092
50
1.8980816
51
2.8352905
0
ARC
8
DEFAULT_255_2_778
10
-3.0508332
20
13.5869173
40
8.0277569
50
1.5321603
51
1.8921046
0
ARC
8
DEFAULT_255_2_778
10
10.7675969
20
13.9405689
40
5.7952105
50
181.3744388
51
182.6431815
0
ARC
8
DEFAULT_255_2_778
10
8.4466258
20
13.8424046
40
3.4721934
50
182.7912595
51
184.3153611
0
ARC
8
DEFAULT_255_2_778
10
4.3218091
20
15.2830312
40
1.8262833
50
286.3959369
51
291.2685947
0
ARC
8
DEFAULT_255_2_778
10
4.4533846
20
14.8331018
40
1.3575108
50
279.9481944
51
286.4287854
0
ARC
8
DEFAULT_255_2_778
10
4.5079326
20
14.519106
40
1.0388127
50
271.128577
51
279.9767279
0
ARC
8
DEFAULT_255_2_778
10
4.5127106
20
14.4106221
40
0.9302595
50
270.0015151
51
270.9659537
0
ARC
8
DEFAULT_255_2_778
10
4.5118328
20
14.359925
40
0.879563
50
251.8806935
51
270.0587853
0
ARC
8
DEFAULT_255_2_778
10
4.6156212
20
14.662462
40
1.199384
50
241.4097043
51
251.663162
0
ARC
8
DEFAULT_255_2_778
10
5.0763293
20
15.5254331
40
2.177613
50
237.4154742
51
241.6317125
0
ARC
8
DEFAULT_255_2_778
10
6.1347871
20
17.2018649
40
4.1602108
50
236.1717535
51
237.5666484
0
ARC
8
DEFAULT_255_2_778
10
2.5616472
20
13.8551611
40
1.2618649
50
355.0343371
51
357.2415768
0
ARC
8
DEFAULT_255_2_778
10
2.2368736
20
13.8700169
40
1.5869775
50
357.2701389
51
0.0546243
0
ARC
8
DEFAULT_255_2_778
10
1.7437279
20
13.8683145
40
2.080125
50
0.0885664
51
3.5577424
0
ARC
8
DEFAULT_255_2_778
10
1.4748633
20
13.8539911
40
2.3493614
50
3.4994927
51
5.0199762
0
ARC
8
DEFAULT_255_2_778
10
1.6291908
20
13.8680692
40
2.1943941
50
5.0063987
51
6.2403435
0
ARC
8
DEFAULT_255_2_778
10
2.1730477
20
13.9277909
40
1.6472682
50
6.2316154
51
7.0930164
0
ARC
8
DEFAULT_255_2_778
10
3.0593144
20
14.0385791
40
0.7541042
50
7.0547526
51
7.7243077
0
ARC
8
DEFAULT_255_2_778
10
4.2315249
20
14.4893745
40
0.5501718
50
214.3854318
51
219.4307381
0
ARC
8
DEFAULT_255_2_778
10
4.4717997
20
14.6546369
40
0.8417937
50
210.521291
51
214.4321961
0
ARC
8
DEFAULT_255_2_778
10
4.6530671
20
14.763937
40
1.0534558
50
209.8639096
51
210.6353589
0
ARC
8
DEFAULT_255_2_778
10
5.0283624
20
14.9710477
40
1.4820629
50
203.9400012
51
209.5829877
0
ARC
8
DEFAULT_255_2_778
10
5.758427
20
15.2977082
40
2.2818741
50
198.4370087
51
203.9980729
0
ARC
8
DEFAULT_255_2_778
10
5.9996003
20
15.3840346
40
2.5379764
50
193.1478641
51
198.5639166
0
ARC
8
DEFAULT_255_2_778
10
5.4788723
20
15.2671837
40
2.0043246
50
186.6685387
51
193.2810612
0
ARC
8
DEFAULT_255_2_778
10
4.7857184
20
15.1854139
40
1.3063649
50
180.2523995
51
186.6367919
0
ARC
8
DEFAULT_255_2_778
10
4.3657052
20
15.181686
40
0.8863414
50
175.0199793
51
180.1310246
0
ARC
8
DEFAULT_255_2_778
10
4.1341929
20
15.2014978
40
0.6539833
50
169.9844421
51
174.9884204
0
ARC
8
DEFAULT_255_2_778
10
5.3164121
20
15.0184754
40
1.8501904
50
163.8203284
51
170.7702075
0
ARC
8
DEFAULT_255_2_778
10
4.9873656
20
15.1141154
40
1.5075265
50
155.7450159
51
163.8265265
0
ARC
8
DEFAULT_255_2_778
10
4.7939264
20
15.2005092
40
1.2956727
50
147.2076923
51
155.7141942
0
ARC
8
DEFAULT_255_2_778
10
4.7426234
20
15.2318492
40
1.2355724
50
145.6699053
51
147.1409231
0
ARC
8
DEFAULT_255_2_778
10
4.7434165
20
15.2311128
40
1.2366428
50
140.6324705
51
145.6624523
0
ARC
8
DEFAULT_255_2_778
10
4.8166856
20
15.1706056
40
1.3316659
50
137.4492334
51
140.6194093
0
ARC
8
DEFAULT_255_2_778
10
4.89262
20
14.9779806
40
1.5205652
50
130.8429506
51
134.0351408
0
ARC
8
DEFAULT_255_2_778
10
4.6628579
20
15.2411742
40
1.1711976
50
128.967072
51
130.7602336
0
ARC
8
DEFAULT_255_2_778
10
4.3865526
20
15.6119873
40
0.7093643
50
96.4959086
51
130.4506089
0
ARC
8
DEFAULT_255_2_778
10
4.432455
20
15.2579171
40
1.0663688
50
89.7632796
51
96.7941579
0
ARC
8
DEFAULT_255_2_778
10
4.433296
20
14.7396362
40
1.5846446
50
85.7991051
51
89.8711086
0
ARC
8
DEFAULT_255_2_778
10
4.379546
20
13.9949174
40
2.3313001
50
82.8284922
51
85.8224006
0
ARC
8
DEFAULT_255_2_778
10
4.2369632
20
12.8517356
40
3.4833391
50
80.6804776
51
82.8490097
0
ARC
8
DEFAULT_255_2_778
10
4.0624393
20
11.7564807
40
4.5924027
50
80.1535788
51
80.7446717
0
ARC
8
DEFAULT_255_2_778
10
2.7654823
20
6.7011282
40
9.8037955
50
77.6869441
51
77.7371581
0
ARC
8
DEFAULT_255_2_778
10
4.2691635
20
13.5544871
40
2.7874302
50
76.3857886
51
77.8430105
0
ARC
8
DEFAULT_255_2_778
10
4.6725534
20
15.1948121
40
1.0982589
50
66.354596
51
76.6962415
0
ARC
8
DEFAULT_255_2_778
10
4.5670615
20
14.9696142
40
1.3468754
50
60.0846045
51
66.0859929
0
ARC
8
DEFAULT_255_2_778
10
5.0368475
20
15.8829639
40
0.3245421
50
23.8882342
51
51.5233921
0
ARC
8
DEFAULT_255_2_778
10
4.5514521
20
15.6290576
40
0.8719043
50
20.9363538
51
26.227829
0
ARC
8
DEFAULT_255_2_778
10
3.3280048
20
15.1633045
40
2.1810059
50
18.3733529
51
20.8792932
0
ARC
8
DEFAULT_255_2_778
10
7.2133442
20
16.4466714
40
1.9108085
50
198.1711174
51
200.5882683
0
ARC
8
DEFAULT_255_2_778
10
4.5748211
20
15.6664262
40
0.8566297
50
359.809759
51
7.2637327
0
ARC
8
DEFAULT_255_2_778
10
4.1454368
20
15.6657701
40
1.2860112
50
357.4306231
51
359.9025089
0
ARC
8
DEFAULT_255_2_778
10
1.6226314
20
15.7878194
40
3.8117617
50
356.101675
51
357.2978728
0
ARC
8
DEFAULT_255_2_778
10
7.8714753
20
15.3547033
40
2.4520806
50
175.9315868
51
178.9161399
0
ARC
8
DEFAULT_255_2_778
10
6.9235907
20
15.3811763
40
1.5038891
50
179.2414348
51
179.9973603
0
ARC
8
DEFAULT_255_2_778
10
6.8646609
20
15.3812185
40
1.4449594
50
179.9989243
51
180.5822156
0
ARC
8
DEFAULT_255_2_778
10
5.7044243
20
15.4608265
40
0.2998589
50
198.3276601
51
225.2448596
0
ARC
8
DEFAULT_255_2_778
10
5.9573117
20
15.6834648
40
0.6364212
50
223.1894235
51
224.191758
0
ARC
8
DEFAULT_255_2_778
10
2.2856686
20
11.9406778
40
4.6068172
50
44.6472455
51
45.7373417
0
ARC
8
DEFAULT_255_2_778
10
5.4986795
20
15.1078446
40
0.0953492
50
14.3813095
51
47.4367785
0
ARC
8
DEFAULT_255_2_778
10
5.5524877
20
15.1259699
40
0.0389516
50
0.0600316
51
8.2019147
0
ARC
8
DEFAULT_255_2_778
10
5.5548238
20
15.1259978
40
0.0366154
50
359.1319168
51
0.0201702
0
ARC
8
DEFAULT_255_2_778
10
5.545896
20
15.1278117
40
0.0456004
50
314.6905655
51
357.0225952
0
ARC
8
DEFAULT_255_2_778
10
5.4837714
20
15.184096
40
0.129386
50
302.1600806
51
316.7199542
0
ARC
8
DEFAULT_255_2_778
10
5.4303056
20
15.2611567
40
0.2231223
50
302.1920831
51
303.2499477
0
ARC
8
DEFAULT_255_2_778
10
5.3494916
20
14.9689824
40
0.2248461
50
13.3546261
51
27.3653105
0
ARC
8
DEFAULT_255_2_778
10
5.1069751
20
14.9086211
40
0.4747544
50
5.3586044
51
13.6820736
0
ARC
8
DEFAULT_255_2_778
10
4.6739466
20
14.8660983
40
0.9098635
50
359.7706313
51
5.4780545
0
ARC
8
DEFAULT_255_2_778
10
4.8616992
20
14.8618859
40
0.7221038
50
359.984919
51
0.0452303
0
ARC
8
DEFAULT_255_2_778
10
3.9842775
20
14.8670095
40
1.5995343
50
355.7436251
51
359.8096623
0
ARC
8
DEFAULT_255_2_778
10
3.1136109
20
14.9289765
40
2.4724003
50
353.016916
51
355.8090742
0
ARC
8
DEFAULT_255_2_778
10
2.0865385
20
15.055637
40
3.5072531
50
349.9112722
51
353.0029775
0
ARC
8
DEFAULT_255_2_778
10
1.6732085
20
15.1249488
40
3.9263358
50
348.8125536
51
349.972038
0
ARC
8
DEFAULT_255_2_778
10
2.0481912
20
15.0494182
40
3.5438245
50
347.3318399
51
348.8342413
0
ARC
8
DEFAULT_255_2_778
10
3.1893807
20
14.7912419
40
2.3737971
50
345.6827668
51
347.3710359
0
ARC
8
DEFAULT_255_2_778
10
4.5207197
20
14.4494439
40
0.9992861
50
343.2450461
51
345.7948502
0
ARC
8
DEFAULT_255_2_778
10
5.3058075
20
14.2103727
40
0.1786276
50
336.7703415
51
344.0782238
0
ARC
8
DEFAULT_255_2_778
10
5.4640629
20
14.1414354
40
0.0060832
50
301.2362664
51
345.5634455
0
ARC
8
DEFAULT_255_2_778
10
5.2472223
20
14.4239279
40
0.3621415
50
282.6052656
51
307.3995443
0
ARC
8
DEFAULT_255_2_778
10
4.9769338
20
15.5353619
40
1.5059217
50
273.9249169
51
283.4127337
0
ARC
8
DEFAULT_255_2_778
10
4.1933075
20
24.2606224
40
10.2660155
50
274.3984756
51
274.9549754
0
ARC
8
DEFAULT_255_2_778
10
6.1534649
20
-0.8177764
40
14.888884
50
94.5179983
51
94.5958164
0
LINE
8
DEFAULT_255_2_778
10
4.9604761
20
14.0232357
11
4.9609761
21
14.0232357
0
ARC
8
DEFAULT_255_2_778
10
4.8975144
20
14.6209612
40
0.0967148
50
239.5369242
51
268.7166747
0
ARC
8
DEFAULT_255_2_778
10
4.8937979
20
14.6160686
40
0.0918109
50
270.9675652
51
297.8552908
0
ARC
8
DEFAULT_255_2_778
10
4.8528705
20
14.6995989
40
0.1848074
50
296.9736909
51
305.6879623
0
ARC
8
DEFAULT_255_2_778
10
4.5032629
20
14.5645818
40
0.4576673
50
358.1112118
51
0.0288206
0
ARC
8
DEFAULT_255_2_778
10
3.7214196
20
14.5359216
40
1.2398473
50
1.3352029
51
7.2950467
0
ARC
8
DEFAULT_255_2_778
10
6.2528912
20
14.8537727
40
1.311508
50
180.8614257
51
187.0257072
0
ARC
8
DEFAULT_255_2_778
10
5.5102771
20
14.8374826
40
0.568756
50
170.3423719
51
180.3452631
0
ARC
8
DEFAULT_255_2_778
10
5.2614508
20
14.9217752
40
0.3120675
50
160.996078
51
177.9575398
0
ARC
8
DEFAULT_255_2_778
10
5.2460612
20
14.9217126
40
0.2975803
50
148.6371241
51
160.019765
0
ARC
8
DEFAULT_255_2_778
10
5.7526621
20
14.6046101
40
0.8952271
50
143.0981072
51
148.182298
0
ARC
8
DEFAULT_255_2_778
10
3.1179493
20
16.5596674
40
2.3856403
50
323.5451622
51
325.8939145
0
ARC
8
DEFAULT_255_2_778
10
3.8300212
20
16.0684107
40
1.5206017
50
326.1758738
51
326.3128671
0
ARC
8
DEFAULT_255_2_778
10
4.9031521
20
15.3137459
40
0.2116366
50
335.2068064
51
0.6853133
0
ARC
8
DEFAULT_255_2_778
10
4.7592988
20
15.3108533
40
0.3555162
50
0.8741652
51
15.1387758
0
ARC
8
DEFAULT_255_2_778
10
4.0747395
20
15.1238996
40
1.0651444
50
15.2295559
51
21.1129189
0
ARC
8
DEFAULT_255_2_778
10
5.8915828
20
15.8403072
40
0.8879019
50
193.155081
51
202.0084193
0
ARC
8
DEFAULT_255_2_778
10
5.2700914
20
15.6877855
40
0.248109
50
180.528477
51
191.52092
0
ARC
8
DEFAULT_255_2_778
10
5.1880761
20
15.6861253
40
0.1660842
50
170.268988
51
180.216733
0
ARC
8
DEFAULT_255_2_778
10
6.9949625
20
14.3321179
40
2.4069342
50
142.1460605
51
144.9558565
0
ARC
8
DEFAULT_255_2_778
10
6.5790328
20
14.6537774
40
1.8811393
50
138.9110205
51
142.107674
0
ARC
8
DEFAULT_255_2_778
10
8.4896965
20
12.9451728
40
4.4442491
50
136.9820037
51
138.4983154
0
ARC
8
DEFAULT_255_2_778
10
3.6281005
20
17.4527835
40
2.185575
50
317.533192
51
317.9297237
0
ARC
8
DEFAULT_255_2_778
10
4.4618426
20
16.7058141
40
1.0661761
50
317.7067662
51
321.3690093
0
ARC
8
DEFAULT_255_2_778
10
4.6402306
20
16.5593473
40
0.8353885
50
321.5781475
51
327.3909657
0
ARC
8
DEFAULT_255_2_778
10
4.3802121
20
16.7251134
40
1.1437517
50
327.4154573
51
331.2891569
0
ARC
8
DEFAULT_255_2_778
10
4.0768673
20
16.8951575
40
1.4914932
50
331.1579916
51
331.7802042
0
ARC
8
DEFAULT_255_2_778
10
5.3727776
20
16.2129154
40
0.0294087
50
308.491765
51
0.2229529
0
ARC
8
DEFAULT_255_2_778
10
5.3374104
20
16.2076611
40
0.0649977
50
4.7379475
51
40.1116917
0
ARC
8
DEFAULT_255_2_778
10
5.1989642
20
16.1048345
40
0.2373639
50
37.5624853
51
50.7705017
0
ARC
8
DEFAULT_255_2_778
10
4.9849062
20
15.8504569
40
0.5698073
50
50.2739906
51
57.9332351
0
ARC
8
DEFAULT_255_2_778
10
4.7399621
20
15.4658559
40
1.025778
50
57.7441298
51
63.0035741
0
ARC
8
DEFAULT_255_2_778
10
4.6087496
20
15.2176526
40
1.3065047
50
62.8173341
51
63.4693292
0
ARC
8
DEFAULT_255_2_778
10
4.4629904
20
14.9143666
40
1.6429683
50
63.6458148
51
69.0909812
0
ARC
8
DEFAULT_255_2_778
10
4.2792038
20
14.4384855
40
2.1531032
50
69.041775
51
74.4752914
0
ARC
8
DEFAULT_255_2_778
10
4.2024921
20
14.1685856
40
2.4336886
50
74.4359021
51
80.4171899
0
ARC
8
DEFAULT_255_2_778
10
4.196469
20
14.141791
40
2.4611124
50
80.3827691
51
86.855268
0
ARC
8
DEFAULT_255_2_778
10
4.3300981
20
15.1813241
40
1.4178739
50
89.9440915
51
90.0186388
0
ARC
8
DEFAULT_255_2_778
10
4.3263303
20
14.4637082
40
2.1354924
50
89.9112843
51
99.7257675
0
ARC
8
DEFAULT_255_2_778
10
4.2222089
20
15.0440274
40
1.5459311
50
99.5556494
51
108.9231328
0
ARC
8
DEFAULT_255_2_778
10
3.9695593
20
15.7659553
40
0.7811014
50
108.5655941
51
121.2214174
0
ARC
8
DEFAULT_255_2_778
10
3.7728846
20
16.1017827
40
0.3920101
50
122.0815411
51
128.7752362
0
ARC
8
DEFAULT_255_2_778
10
4.1018625
20
15.7380315
40
0.8820877
50
130.6377286
51
137.2810023
0
ARC
8
DEFAULT_255_2_778
10
3.7892188
20
16.0238353
40
0.4585064
50
137.0159011
51
149.7219467
0
ARC
8
DEFAULT_255_2_778
10
3.6904868
20
16.0854527
40
0.3421924
50
150.2965604
51
153.9387418
0
ARC
8
DEFAULT_255_2_778
10
3.7653944
20
16.0640815
40
0.4190971
50
155.8135446
51
182.9638071
0
ARC
8
DEFAULT_255_2_778
10
4.6156267
20
16.0405218
40
1.2687703
50
179.9146375
51
179.9935028
0
ARC
8
DEFAULT_255_2_778
10
4.9285607
20
16.0420915
40
1.5817047
50
180.0516518
51
181.1626634
0
ARC
8
DEFAULT_255_2_778
10
3.301793
20
16.0196323
40
0.0464
50
316.8958253
51
348.0152553
0
ARC
8
DEFAULT_255_2_778
10
3.2645101
20
16.0489991
40
0.0937747
50
316.8453707
51
319.3621846
0
ARC
8
DEFAULT_255_2_778
10
3.2477553
20
16.0646826
40
0.1167244
50
314.8388165
51
316.8544423
0
ARC
8
DEFAULT_255_2_778
10
3.2267361
20
16.0857902
40
0.1465127
50
313.2491322
51
314.8471487
0
ARC
8
DEFAULT_255_2_778
10
3.2039808
20
16.1099028
40
0.1796671
50
312.3295507
51
313.2660938
0
ARC
8
DEFAULT_255_2_778
10
3.1824527
20
16.1335426
40
0.2116405
50
311.5384579
51
312.3285951
0
ARC
8
DEFAULT_255_2_778
10
3.1533625
20
16.1663647
40
0.2554985
50
310.8908523
51
311.5405407
0
ARC
8
DEFAULT_255_2_778
10
3.1231523
20
16.2012296
40
0.3016311
50
310.3479477
51
310.8935848
0
ARC
8
DEFAULT_255_2_778
10
4.5753388
20
14.4027551
40
2.0100468
50
128.7049368
51
130.5440814
0
ARC
8
DEFAULT_255_2_778
10
3.5400056
20
15.6236879
40
0.40931
50
131.5086628
51
139.5107547
0
ARC
8
DEFAULT_255_2_778
10
3.5301931
20
15.6342143
40
0.3950159
50
139.747809
51
152.8425677
0
ARC
8
DEFAULT_255_2_778
10
3.6337908
20
15.5818157
40
0.5111098
50
152.9169876
51
163.7008817
0
ARC
8
DEFAULT_255_2_778
10
3.8470206
20
15.5188077
40
0.7334532
50
163.6514886
51
171.891975
0
ARC
8
DEFAULT_255_2_778
10
4.0245806
20
15.4894306
40
0.9133906
50
171.6385223
51
172.7058766
0
ARC
8
DEFAULT_255_2_778
10
3.6450628
20
15.5593175
40
0.5284939
50
174.9979878
51
179.4528559
0
ARC
8
DEFAULT_255_2_778
10
3.7131154
20
15.5578838
40
0.5965576
50
179.3775788
51
180.0012939
0
ARC
8
DEFAULT_255_2_778
10
3.9534794
20
15.5663801
40
0.8369649
50
180.5825575
51
190.8250021
0
ARC
8
DEFAULT_255_2_778
10
4.6343483
20
15.6933437
40
1.5295662
50
190.7062709
51
197.9980215
0
ARC
8
DEFAULT_255_2_778
10
5.6772599
20
16.0300492
40
2.6254826
50
197.954079
51
203.8422195
0
ARC
8
DEFAULT_255_2_778
10
6.5005562
20
16.3801733
40
3.5200699
50
203.6379921
51
205.2410579
0
ARC
8
DEFAULT_255_2_778
10
7.3229672
20
16.7801334
40
4.4345263
50
205.3841357
51
211.5427066
0
ARC
8
DEFAULT_255_2_778
10
7.4043506
20
16.8239311
40
4.5268004
50
211.4762862
51
212.3028281
0
ARC
8
DEFAULT_255_2_778
10
7.1494665
20
16.6615698
40
4.2245985
50
212.2889258
51
214.0534377
0
ARC
8
DEFAULT_255_2_778
10
6.6374043
20
16.3148687
40
3.6062062
50
214.0453365
51
215.8586336
0
ARC
8
DEFAULT_255_2_778
10
6.3855567
20
16.1352095
40
3.2968512
50
215.8920296
51
216.0187268
0
ARC
8
DEFAULT_255_2_778
10
4.0465778
20
14.9611725
40
0.8318939
50
246.8091183
51
253.2539824
0
ARC
8
DEFAULT_255_2_778
10
3.9810428
20
14.7415835
40
0.602735
50
253.2050842
51
261.939826
0
ARC
8
DEFAULT_255_2_778
10
3.9625307
20
14.6171592
40
0.4769451
50
262.0459405
51
269.8992888
0
ARC
8
DEFAULT_255_2_778
10
3.9607124
20
14.5740541
40
0.4338404
50
270.1294158
51
295.9154752
0
ARC
8
DEFAULT_255_2_778
10
3.7465053
20
15.0042004
40
0.9143612
50
296.2083079
51
306.0406309
0
ARC
8
DEFAULT_255_2_778
10
-1.6766745
20
22.7098237
40
10.33697
50
305.2175611
51
305.6522132
0
ARC
8
DEFAULT_255_2_778
10
5.2608058
20
13.0536024
40
1.5530163
50
121.0715475
51
125.9815629
0
ARC
8
DEFAULT_255_2_778
10
4.3169062
20
14.594368
40
0.2541865
50
304.0642276
51
329.5704756
0
ARC
8
DEFAULT_255_2_778
10
3.6128982
20
15.0191528
40
1.0764073
50
329.0537675
51
338.3071377
0
ARC
8
DEFAULT_255_2_778
10
35.6232496
20
1.5028743
40
33.6708124
50
156.9715011
51
157.0699136
0
ARC
8
DEFAULT_255_2_778
10
5.5886337
20
14.2870861
40
1.028729
50
150.5416856
51
157.8756759
0
ARC
8
DEFAULT_255_2_778
10
4.8955899
20
14.6817739
40
0.2311998
50
130.1510662
51
151.242515
0
ARC
8
DEFAULT_255_2_778
10
4.811958
20
14.7744346
40
0.1065305
50
116.1056742
51
127.9046659
0
ARC
8
DEFAULT_255_2_778
10
4.5833899
20
14.6864586
40
0.2583313
50
15.3148113
51
45.3053461
0
ARC
8
DEFAULT_255_2_778
10
4.3762997
20
14.6125725
40
0.4778697
50
1.3250905
51
17.301349
0
ARC
8
DEFAULT_255_2_778
10
4.3775943
20
14.6118353
40
0.476593
50
0.003295
51
1.4172868
0
ARC
8
DEFAULT_255_2_778
10
4.4232779
20
14.6106728
40
0.4309109
50
350.2633565
51
0.158216
0
LINE
8
DEFAULT_255_2_778
10
4.8479816
20
14.5377973
11
4.8484816
21
14.5375973
0
ARC
8
DEFAULT_255_2_778
10
12.560154
20
3.6269585
40
2.778007
50
165.5226408
51
169.0332544
0
ARC
8
DEFAULT_255_2_778
10
11.6617346
20
3.7998579
40
1.8631026
50
168.9971898
51
173.9215493
0
ARC
8
DEFAULT_255_2_778
10
11.1387645
20
3.8559662
40
1.3371316
50
173.9393509
51
179.8738441
0
ARC
8
DEFAULT_255_2_778
10
10.8962802
20
3.8569728
40
1.0946458
50
179.8985866
51
190.250448
0
ARC
8
DEFAULT_255_2_778
10
11.082223
20
3.8926318
40
1.2839679
50
190.3397454
51
195.3557987
0
ARC
8
DEFAULT_255_2_778
10
11.3712581
20
3.9682453
40
1.5827121
50
195.2245352
51
195.8019186
0
ARC
8
DEFAULT_255_2_778
10
10.1749173
20
3.6403907
40
0.3424588
50
197.5277712
51
261.1435163
0
ARC
8
DEFAULT_255_2_778
10
10.336516
20
4.2542311
40
0.976038
50
257.3153198
51
265.5365974
0
ARC
8
DEFAULT_255_2_778
10
10.5492604
20
5.7446819
40
2.4803877
50
263.3159734
51
265.4725759
0
ARC
8
DEFAULT_255_2_778
10
10.5133738
20
5.2897106
40
2.0240033
50
265.4686381
51
267.8832065
0
ARC
8
DEFAULT_255_2_778
10
10.5003641
20
4.9492449
40
1.6832893
50
267.8976787
51
269.9717301
0
ARC
8
DEFAULT_255_2_778
10
10.5062041
20
4.4709849
40
1.2050477
50
269.6828368
51
277.3962398
0
ARC
8
DEFAULT_255_2_778
10
10.5723952
20
3.9776643
40
0.7073142
50
277.2232957
51
288.7103032
0
ARC
8
DEFAULT_255_2_778
10
10.6674857
20
3.7018455
40
0.4155714
50
288.4914848
51
306.3434838
0
ARC
8
DEFAULT_255_2_778
10
10.73111
20
3.6117726
40
0.3053215
50
306.7434638
51
327.1209398
0
ARC
8
DEFAULT_255_2_778
10
10.7148059
20
3.6214621
40
0.3242749
50
327.2470088
51
334.7336748
0
ARC
8
DEFAULT_255_2_778
10
10.9246029
20
4.7212431
40
1.2409994
50
273.8559759
51
282.4182264
0
ARC
8
DEFAULT_255_2_778
10
10.7926181
20
5.3307484
40
1.8646286
50
282.3513993
51
289.3115585
0
ARC
8
DEFAULT_255_2_778
10
10.5829335
20
5.9394926
40
2.5084674
50
289.233259
51
294.811409
0
ARC
8
DEFAULT_255_2_778
10
10.4098828
20
6.3271256
40
2.9329425
50
294.7022761
51
311.1158695
0
ARC
8
DEFAULT_255_2_778
10
10.8856411
20
5.7525525
40
2.1873049
50
311.6241234
51
313.9704308
0
ARC
8
DEFAULT_255_2_778
10
11.8410327
20
4.7737446
40
0.8195818
50
313.409751
51
321.3544427
0
ARC
8
DEFAULT_255_2_778
10
12.0483537
20
4.6062622
40
0.5530679
50
321.4928104
51
329.8728868
0
ARC
8
DEFAULT_255_2_778
10
12.0710357
20
4.583542
40
0.5221117
50
330.7800863
51
356.8501345
0
ARC
8
DEFAULT_255_2_778
10
12.3602059
20
4.576093
40
0.2331222
50
354.7724993
51
359.8310911
0
ARC
8
DEFAULT_255_2_778
10
12.447544
20
4.5775253
40
0.1457983
50
359.1670175
51
20.6764735
0
ARC
8
DEFAULT_255_2_778
10
12.4461674
20
4.5717436
40
0.149209
50
22.5673062
51
57.686852
0
ARC
8
DEFAULT_255_2_778
10
12.342799
20
4.4179845
40
0.3344521
50
56.8012446
51
73.0891647
0
ARC
8
DEFAULT_255_2_778
10
12.2190756
20
4.0336526
40
0.7381833
50
72.5786086
51
81.5821058
0
ARC
8
DEFAULT_255_2_778
10
12.1290693
20
3.483514
40
1.2955991
50
81.2061724
51
85.1389203
0
ARC
8
DEFAULT_255_2_778
10
12.3135206
20
3.9340089
40
0.843754
50
95.0766299
51
97.8183439
0
ARC
8
DEFAULT_255_2_778
10
12.4834291
20
2.5927682
40
2.1956856
50
97.4497884
51
97.5585673
0
ARC
8
DEFAULT_255_2_778
10
12.5590214
20
2.022027
40
2.7714111
50
97.555683
51
97.6419502
0
ARC
8
DEFAULT_255_2_778
10
12.6026487
20
1.6957229
40
3.1006189
50
97.6391275
51
97.7161685
0
ARC
8
DEFAULT_255_2_778
10
12.6749065
20
1.1617248
40
3.6394836
50
97.7146857
51
97.7801521
0
ARC
8
DEFAULT_255_2_778
10
12.7714015
20
0.452546
40
4.3551972
50
97.7749361
51
97.8294201
0
ARC
8
DEFAULT_255_2_778
10
12.9418066
20
-0.7822906
40
5.6017358
50
97.8355759
51
97.8777028
0
ARC
8
DEFAULT_255_2_778
10
12.9249952
20
-0.6626824
40
5.4809524
50
97.8749913
51
97.9177543
0
ARC
8
DEFAULT_255_2_778
10
12.9606739
20
-0.9215343
40
5.7422513
50
97.9145755
51
97.9550673
0
ARC
8
DEFAULT_255_2_778
10
-14.5622849
20
193.953949
40
191.0672245
50
278.016149
51
278.0414379
0
ARC
8
DEFAULT_255_2_778
10
10.9446054
20
12.8653819
40
8.1911186
50
277.2560733
51
277.9849693
0
ARC
8
DEFAULT_255_2_778
10
11.3000894
20
10.0620473
40
5.3653352
50
275.5473623
51
277.271404
0
ARC
8
DEFAULT_255_2_778
10
11.4695976
20
8.2230957
40
3.5186217
50
270.7973024
51
275.6948001
0
ARC
8
DEFAULT_255_2_778
10
11.4932343
20
7.3119018
40
2.6072101
50
270.0023481
51
270.5565559
0
ARC
8
DEFAULT_255_2_778
10
11.4916339
20
6.9909718
40
2.2862807
50
267.5664925
51
270.0427853
0
ARC
8
DEFAULT_255_2_778
10
10.947696
20
12.467505
40
7.7736064
50
272.8282025
51
273.2954406
0
ARC
8
DEFAULT_255_2_778
10
11.1304468
20
8.707577
40
4.0092419
50
271.7601579
51
272.8709596
0
ARC
8
DEFAULT_255_2_778
10
11.1885564
20
6.8111647
40
2.1119394
50
270.0715901
51
271.7647023
0
ARC
8
DEFAULT_255_2_778
10
11.1898388
20
6.1471454
40
1.4479192
50
266.9973441
51
270.053675
0
ARC
8
DEFAULT_255_2_778
10
11.2620867
20
7.3334593
40
2.636408
50
264.8562082
51
266.7798669
0
ARC
8
DEFAULT_255_2_778
10
12.9299718
20
26.8292734
40
22.2034138
50
264.9910417
51
265.0800403
0
ARC
8
DEFAULT_255_2_778
10
10.928395
20
3.991594
40
0.7218105
50
84.9957324
51
90.0037754
0
ARC
8
DEFAULT_255_2_778
10
10.9364033
20
3.8912939
40
0.8221499
50
90.5614217
51
112.1257704
0
ARC
8
DEFAULT_255_2_778
10
11.1361892
20
3.3929218
40
1.3590716
50
112.0147358
51
122.7319742
0
ARC
8
DEFAULT_255_2_778
10
11.5155885
20
2.7645483
40
2.0929117
50
122.167643
51
122.6020432
0
ARC
8
DEFAULT_255_2_778
10
11.610506
20
2.6161947
40
2.2690313
50
122.6027677
51
122.689326
0
ARC
8
DEFAULT_255_2_778
10
11.5825902
20
2.6595242
40
2.217488
50
122.6869311
51
122.7745908
0
ARC
8
DEFAULT_255_2_778
10
11.6116535
20
2.6144802
40
2.2710941
50
122.7759198
51
122.8606293
0
ARC
8
DEFAULT_255_2_778
10
11.6983097
20
2.4804212
40
2.4307221
50
122.86182
51
122.9401507
0
ARC
8
DEFAULT_255_2_778
10
11.501902
20
2.7833562
40
2.069688
50
122.9371535
51
123.0281987
0
ARC
8
DEFAULT_255_2_778
10
11.7717317
20
2.3682698
40
2.5647686
50
123.0278035
51
123.1005148
0
ARC
8
DEFAULT_255_2_778
10
11.6086984
20
2.6183038
40
2.2662778
50
123.0997736
51
123.1812104
0
ARC
8
DEFAULT_255_2_778
10
11.7080229
20
2.4660977
40
2.4480249
50
123.1771941
51
123.251804
0
ARC
8
DEFAULT_255_2_778
10
11.6770504
20
2.5132202
40
2.391635
50
123.2502907
51
123.3258677
0
ARC
8
DEFAULT_255_2_778
10
11.6468787
20
2.5584401
40
2.3372749
50
123.3168847
51
123.3934166
0
ARC
8
DEFAULT_255_2_778
10
11.8563148
20
2.2407986
40
2.7177477
50
123.3941637
51
123.4592974
0
ARC
8
DEFAULT_255_2_778
10
11.8213495
20
2.2937295
40
2.6543107
50
123.4595668
51
123.5255633
0
ARC
8
DEFAULT_255_2_778
10
11.7871623
20
2.3450537
40
2.592643
50
123.5221817
51
123.5890441
0
ARC
8
DEFAULT_255_2_778
10
11.9541432
20
2.0935504
40
2.8945312
50
123.5882499
51
123.6475144
0
ARC
8
DEFAULT_255_2_778
10
12.0375553
20
1.9687124
40
3.0446712
50
123.6525369
51
123.7082908
0
ARC
8
DEFAULT_255_2_778
10
11.8803148
20
2.204517
40
2.7612487
50
123.7095157
51
123.7703502
0
ARC
8
DEFAULT_255_2_778
10
11.8654749
20
2.2261333
40
2.7350308
50
123.7636406
51
123.8547424
0
ARC
8
DEFAULT_255_2_778
10
12.0926588
20
1.8871538
40
3.1430989
50
123.8515269
51
123.9295566
0
ARC
8
DEFAULT_255_2_778
10
12.03125
20
1.9781347
40
3.0333332
50
123.9263586
51
124.005941
0
ARC
8
DEFAULT_255_2_778
10
12.1068956
20
1.8656281
40
3.1689058
50
124.0020734
51
124.0770523
0
ARC
8
DEFAULT_255_2_778
10
12.0448057
20
1.9568151
40
3.0585876
50
124.0707696
51
124.1472286
0
ARC
8
DEFAULT_255_2_778
10
12.4080613
20
1.4208663
40
3.7060409
50
124.1439836
51
124.2060896
0
ARC
8
DEFAULT_255_2_778
10
12.6933243
20
1.0014844
40
4.2132453
50
124.2081838
51
124.2619505
0
ARC
8
DEFAULT_255_2_778
10
12.6085778
20
1.1263311
40
4.0623525
50
124.2654087
51
124.3202909
0
ARC
8
DEFAULT_255_2_778
10
12.8299553
20
0.8026161
40
4.454525
50
124.3243919
51
124.3736501
0
ARC
8
DEFAULT_255_2_778
10
12.7405544
20
0.933266
40
4.2962155
50
124.3733065
51
124.4235707
0
ARC
8
DEFAULT_255_2_778
10
13.2470791
20
0.1944142
40
5.1920219
50
124.4251699
51
124.4729076
0
ARC
8
DEFAULT_255_2_778
10
12.8113432
20
0.8293093
40
4.4219845
50
124.4747618
51
124.5297749
0
ARC
8
DEFAULT_255_2_778
10
14.1988248
20
-1.1868764
40
6.8694546
50
124.5315085
51
124.5662653
0
ARC
8
DEFAULT_255_2_778
10
13.2662919
20
0.1666917
40
5.2257503
50
124.5667658
51
124.6116077
0
ARC
8
DEFAULT_255_2_778
10
14.3296685
20
-1.3734787
40
7.0973523
50
124.6144225
51
124.649135
0
ARC
8
DEFAULT_255_2_778
10
4.2796345
20
13.0845483
40
10.5105792
50
304.3628105
51
304.9083343
0
ARC
8
DEFAULT_255_2_778
10
9.7211733
20
5.1169792
40
0.8621512
50
299.1421433
51
304.7126351
0
ARC
8
DEFAULT_255_2_778
10
10.0202404
20
4.5826064
40
0.2497853
50
290.0455458
51
298.9169618
0
ARC
8
DEFAULT_255_2_778
10
10.0752804
20
4.3918743
40
0.0535172
50
269.9936876
51
304.8457373
0
ARC
8
DEFAULT_255_2_778
10
10.0763254
20
4.4098689
40
0.0715195
50
250.5378101
51
269.1580965
0
ARC
8
DEFAULT_255_2_778
10
10.1379334
20
4.5613238
40
0.2349712
50
235.3842166
51
248.6781036
0
ARC
8
DEFAULT_255_2_778
10
9.8916219
20
4.2136716
40
0.1911332
50
53.8196865
51
72.845141
0
ARC
8
DEFAULT_255_2_778
10
9.9365075
20
4.3435463
40
0.0539919
50
77.7127937
51
89.6934963
0
ARC
8
DEFAULT_255_2_778
10
9.9378061
20
4.3499934
40
0.0475548
50
91.2167506
51
143.6285442
0
ARC
8
DEFAULT_255_2_778
10
10.0078435
20
4.291251
40
0.138903
50
141.2497247
51
157.6937574
0
ARC
8
DEFAULT_255_2_778
10
10.1473229
20
4.2277904
40
0.2920889
50
156.5615729
51
161.2968505
0
LINE
8
DEFAULT_255_2_778
10
9.8706585
20
4.3214531
11
9.8703585
21
4.3214531
0
ARC
8
DEFAULT_255_2_778
10
9.949264
20
4.591213
40
0.0088755
50
354.9925275
51
52.2145529
0
ARC
8
DEFAULT_255_2_778
10
9.7833256
20
4.5664999
40
0.1764117
50
0.7451375
51
7.7988797
0
ARC
8
DEFAULT_255_2_778
10
9.3250012
20
4.5516791
40
0.634952
50
359.9031795
51
1.5445783
0
ARC
8
DEFAULT_255_2_778
10
8.2114057
20
4.5560006
40
1.7485549
50
358.3883215
51
359.8232357
0
ARC
8
DEFAULT_255_2_778
10
2.2662928
20
4.7151996
40
7.6957976
50
358.0789654
51
358.4484225
0
LINE
8
DEFAULT_255_2_778
10
9.9577653
20
4.4572203
11
9.9577396
21
4.4564274
0
ARC
8
DEFAULT_255_2_778
10
14.5983578
20
4.2932322
40
4.6434869
50
177.9859271
51
178.8766637
0
ARC
8
DEFAULT_255_2_778
10
11.2573623
20
4.3622755
40
1.3017845
50
179.0320748
51
179.9471846
0
ARC
8
DEFAULT_255_2_778
10
10.3994268
20
4.3599275
40
0.4438626
50
179.5419951
51
183.6407281
0
ARC
8
DEFAULT_255_2_778
10
10.0070165
20
4.3327293
40
0.0505663
50
181.1185087
51
198.8522957
0
ARC
8
DEFAULT_255_2_778
10
9.9616594
20
4.3171544
40
0.0026112
50
197.0282778
51
255.4195856
0
ARC
8
DEFAULT_255_2_778
10
10.2308989
20
4.5150597
40
0.3361807
50
216.5985378
51
248.4882756
0
ARC
8
DEFAULT_255_2_778
10
10.2956336
20
4.7101424
40
0.5415301
50
249.6849756
51
262.927254
0
ARC
8
DEFAULT_255_2_778
10
10.3868253
20
5.3728077
40
1.2104141
50
262.5057624
51
269.2353771
0
ARC
8
DEFAULT_255_2_778
10
10.4094743
20
6.0921249
40
1.9300138
50
268.8480274
51
270.01665
0
ARC
8
DEFAULT_255_2_778
10
10.4085879
20
6.5647248
40
2.4026139
50
270.0345141
51
271.5892816
0
ARC
8
DEFAULT_255_2_778
10
10.3895378
20
7.2644538
40
3.1026021
50
271.5825598
51
272.8633786
0
ARC
8
DEFAULT_255_2_778
10
10.3631907
20
7.8215798
40
3.6603489
50
272.8396356
51
273.2248522
0
ARC
8
DEFAULT_255_2_778
10
10.2929519
20
6.3509432
40
2.2013058
50
277.2066476
51
281.6216827
0
ARC
8
DEFAULT_255_2_778
10
10.6234362
20
4.7889829
40
0.6048593
50
280.7639795
51
296.3209623
0
ARC
8
DEFAULT_255_2_778
10
10.6967845
20
4.605931
40
0.408554
50
298.4841428
51
326.7118253
0
ARC
8
DEFAULT_255_2_778
10
10.3487401
20
4.8704025
40
0.8451813
50
324.6740747
51
326.7931183
0
ARC
8
DEFAULT_255_2_778
10
10.746435
20
1.2169822
40
3.5497905
50
85.0116254
51
88.6875095
0
ARC
8
DEFAULT_255_2_778
10
10.7481171
20
1.2879144
40
3.4788383
50
88.6884479
51
89.9972489
0
ARC
8
DEFAULT_255_2_778
10
10.7423537
20
1.6784909
40
3.0882677
50
89.8899741
51
95.5405234
0
ARC
8
DEFAULT_255_2_778
10
10.6402882
20
2.6988555
40
2.062818
50
95.4551746
51
101.4803219
0
ARC
8
DEFAULT_255_2_778
10
10.4361189
20
3.6855705
40
1.0552146
50
101.2795691
51
109.6200955
0
ARC
8
DEFAULT_255_2_778
10
10.2036873
20
4.3213801
40
0.3783132
50
108.7956994
51
125.1564692
0
ARC
8
DEFAULT_255_2_778
10
10.0568129
20
4.5318113
40
0.1217011
50
125.66807
51
147.0376754
0
LINE
8
DEFAULT_255_2_778
10
11.0559021
20
4.4075274
11
11.0551021
21
4.7533274
0
LINE
8
DEFAULT_255_2_778
10
9.9547021
20
4.5980274
11
9.9547021
21
4.5982274
0
ARC
8
DEFAULT_255_2_778
10
5.123626
20
7.7479149
40
1.1442533
50
167.3035122
51
174.799906
0
ARC
8
DEFAULT_255_2_778
10
5.0546567
20
7.7547046
40
1.0749527
50
174.8271311
51
179.9797446
0
ARC
8
DEFAULT_255_2_778
10
4.9510121
20
7.7512928
40
0.9713155
50
179.7763293
51
196.5984067
0
ARC
8
DEFAULT_255_2_778
10
4.7670835
20
7.694199
40
0.7787446
50
196.4385014
51
214.2476232
0
ARC
8
DEFAULT_255_2_778
10
4.551045
20
7.5434431
40
0.5153321
50
213.9100009
51
234.9034984
0
ARC
8
DEFAULT_255_2_778
10
4.6329053
20
7.5389134
40
0.5630083
50
227.8042579
51
256.9510542
0
ARC
8
DEFAULT_255_2_778
10
4.7263291
20
7.8915628
40
0.9277148
50
256.247652
51
268.2272678
0
ARC
8
DEFAULT_255_2_778
10
4.7448762
20
8.1983583
40
1.2349703
50
267.807512
51
270.0198136
0
ARC
8
DEFAULT_255_2_778
10
4.7324403
20
8.6759205
40
1.7125807
50
270.4303442
51
279.3639327
0
ARC
8
DEFAULT_255_2_778
10
4.5375859
20
9.8802277
40
2.9325463
50
279.2918625
51
285.7034457
0
ARC
8
DEFAULT_255_2_778
10
3.99304
20
11.832157
40
4.9590082
50
285.6562482
51
290.2668155
0
ARC
8
DEFAULT_255_2_778
10
3.4394618
20
13.3930271
40
6.6150343
50
290.0817413
51
290.4875755
0
ARC
8
DEFAULT_255_2_778
10
3.6178814
20
14.2151881
40
7.2156794
50
299.2803686
51
299.3208894
0
ARC
8
DEFAULT_255_2_778
10
3.2612494
20
14.849313
40
7.94321
50
299.3238681
51
299.3788679
0
ARC
8
DEFAULT_255_2_778
10
3.8090534
20
13.8761254
40
6.8264365
50
299.3794982
51
299.4431601
0
ARC
8
DEFAULT_255_2_778
10
3.6900241
20
14.087784
40
7.0692682
50
299.4400239
51
299.5011767
0
ARC
8
DEFAULT_255_2_778
10
3.7342513
20
14.0105407
40
6.9802606
50
299.4974405
51
299.5590486
0
ARC
8
DEFAULT_255_2_778
10
3.2478848
20
14.8673698
40
7.9655058
50
299.5617366
51
299.6154415
0
ARC
8
DEFAULT_255_2_778
10
3.2981025
20
14.7780699
40
7.8630556
50
299.6188843
51
299.673004
0
ARC
8
DEFAULT_255_2_778
10
3.3479096
20
14.6896596
40
7.761582
50
299.6766347
51
299.7311749
0
ARC
8
DEFAULT_255_2_778
10
3.7381019
20
14.0062171
40
6.9745981
50
299.7320978
51
299.7924743
0
ARC
8
DEFAULT_255_2_778
10
3.7821225
20
13.9300466
40
6.8866229
50
299.7895093
51
299.8503371
0
ARC
8
DEFAULT_255_2_778
10
3.4939292
20
14.4323092
40
7.4656939
50
299.8500614
51
299.9058776
0
ARC
8
DEFAULT_255_2_778
10
3.5413951
20
14.3498665
40
7.3705635
50
299.9055545
51
299.9617954
0
ARC
8
DEFAULT_255_2_778
10
3.5884755
20
14.2682365
40
7.2763296
50
299.961632
51
300.0183032
0
ARC
8
DEFAULT_255_2_778
10
3.421135
20
14.5576521
40
7.6106411
50
300.0191055
51
300.0730042
0
ARC
8
DEFAULT_255_2_778
10
3.8199153
20
13.8692653
40
6.8150897
50
300.0717699
51
300.1316458
0
ARC
8
DEFAULT_255_2_778
10
3.2822699
20
14.7951963
40
7.8857954
50
300.1330187
51
300.1844945
0
ARC
8
DEFAULT_255_2_778
10
3.5650035
20
14.3087777
40
7.3231754
50
300.1857974
51
300.2409383
0
ARC
8
DEFAULT_255_2_778
10
3.6119212
20
14.2285442
40
7.2302311
50
300.2399528
51
300.2955109
0
ARC
8
DEFAULT_255_2_778
10
3.4312488
20
14.5377836
40
7.5883811
50
300.2955108
51
300.3481703
0
ARC
8
DEFAULT_255_2_778
10
3.023919
20
15.2319764
40
8.3932541
50
300.353431
51
300.4007921
0
ARC
8
DEFAULT_255_2_778
10
3.5277772
20
14.3722387
40
7.3967494
50
300.4045525
51
300.4580138
0
ARC
8
DEFAULT_255_2_778
10
3.5753065
20
14.2915053
40
7.3030643
50
300.4576531
51
300.5115176
0
ARC
8
DEFAULT_255_2_778
10
3.6221858
20
14.2124287
40
7.2111365
50
300.5096133
51
300.56388
0
ARC
8
DEFAULT_255_2_778
10
3.2381196
20
14.8620751
40
7.9658199
50
300.5664748
51
300.6153441
0
ARC
8
DEFAULT_255_2_778
10
3.7145732
20
14.0566804
40
7.0300483
50
300.6163727
51
300.6714582
0
ARC
8
DEFAULT_255_2_778
10
3.5228456
20
14.3805416
40
7.4064065
50
300.6691359
51
300.7211497
0
ARC
8
DEFAULT_255_2_778
10
3.0970894
20
15.0961214
40
8.2390664
50
300.7242504
51
300.7707639
0
ARC
8
DEFAULT_255_2_778
10
3.6177824
20
14.2208339
40
7.220612
50
300.7740229
51
300.8268205
0
ARC
8
DEFAULT_255_2_778
10
3.6643822
20
14.1434204
40
7.1302558
50
300.8240395
51
300.8772276
0
ARC
8
DEFAULT_255_2_778
10
3.7103621
20
14.0668703
40
7.0409583
50
300.8757829
51
300.9293651
0
ARC
8
DEFAULT_255_2_778
10
3.4228068
20
14.5471969
40
7.6007813
50
300.9277568
51
300.9853527
0
ARC
8
DEFAULT_255_2_778
10
3.2624812
20
14.8135336
40
7.91165
50
300.9877557
51
301.0427525
0
ARC
8
DEFAULT_255_2_778
10
3.8480526
20
13.8406828
40
6.776162
50
301.0424973
51
301.1063202
0
ARC
8
DEFAULT_255_2_778
10
3.5941249
20
14.2621061
40
7.268175
50
301.1039276
51
301.163069
0
ARC
8
DEFAULT_255_2_778
10
3.4407588
20
14.5157394
40
7.5645719
50
301.1629625
51
301.2194418
0
ARC
8
DEFAULT_255_2_778
10
3.4984345
20
14.4207585
40
7.4534511
50
301.2187248
51
301.2756985
0
ARC
8
DEFAULT_255_2_778
10
3.3279853
20
14.7012926
40
7.7817075
50
301.2759798
51
301.3302192
0
ARC
8
DEFAULT_255_2_778
10
3.3875906
20
14.6023584
40
7.6662064
50
301.3341716
51
301.3888944
0
ARC
8
DEFAULT_255_2_778
10
3.4462235
20
14.5062962
40
7.5536642
50
301.3887528
51
301.4439544
0
ARC
8
DEFAULT_255_2_778
10
3.5040773
20
14.4114061
40
7.4425283
50
301.4450533
51
301.5007396
0
ARC
8
DEFAULT_255_2_778
10
3.3191845
20
14.7132658
40
7.7965122
50
301.500161
51
301.552997
0
ARC
8
DEFAULT_255_2_778
10
3.6174409
20
14.2274083
40
7.2264118
50
301.5536455
51
301.6103046
0
ARC
8
DEFAULT_255_2_778
10
3.4449517
20
14.5077434
40
7.5555627
50
301.6100228
51
301.6677273
0
ARC
8
DEFAULT_255_2_778
10
3.5073828
20
14.406281
40
7.4364315
50
301.6687401
51
301.7269887
0
ARC
8
DEFAULT_255_2_778
10
3.5687698
20
14.3077099
40
7.3203089
50
301.7240321
51
301.7828211
0
ARC
8
DEFAULT_255_2_778
10
3.4102797
20
14.5633359
40
7.6210808
50
301.7834687
51
301.8395714
0
ARC
8
DEFAULT_255_2_778
10
3.4732586
20
14.4619069
40
7.5016901
50
301.8396157
51
301.896242
0
ARC
8
DEFAULT_255_2_778
10
3.4982838
20
14.4219868
40
7.4545749
50
301.8950618
51
301.9535612
0
ARC
8
DEFAULT_255_2_778
10
3.1912203
20
14.9141609
40
8.0346812
50
301.9540059
51
302.0079183
0
ARC
8
DEFAULT_255_2_778
10
3.3676508
20
14.6313843
40
7.7013791
50
302.0099508
51
302.0667199
0
ARC
8
DEFAULT_255_2_778
10
3.2300982
20
14.8503883
40
7.9599972
50
302.068848
51
302.1238316
0
ARC
8
DEFAULT_255_2_778
10
2.9797904
20
15.2479739
40
8.4298143
50
302.1277016
51
302.1796453
0
ARC
8
DEFAULT_255_2_778
10
3.4435674
20
14.5104629
40
7.5586016
50
302.1815224
51
302.2390815
0
ARC
8
DEFAULT_255_2_778
10
3.510856
20
14.4039386
40
7.4326048
50
302.2383965
51
302.2965274
0
ARC
8
DEFAULT_255_2_778
10
2.9202899
20
15.3375211
40
8.5372968
50
302.2991311
51
302.349391
0
ARC
8
DEFAULT_255_2_778
10
3.2714382
20
14.7824823
40
7.8805069
50
302.3518642
51
302.4059374
0
ARC
8
DEFAULT_255_2_778
10
3.7061825
20
14.097842
40
7.0694983
50
302.4048504
51
302.4647113
0
ARC
8
DEFAULT_255_2_778
10
3.1473336
20
14.9766991
40
8.1109885
50
302.4630179
51
302.5148326
0
ARC
8
DEFAULT_255_2_778
10
3.6153606
20
14.2426224
40
7.2404036
50
302.5141562
51
302.5718011
0
ARC
8
DEFAULT_255_2_778
10
3.6801295
20
14.1420418
40
7.1207739
50
302.5683118
51
302.6265213
0
ARC
8
DEFAULT_255_2_778
10
3.3636774
20
14.6372759
40
7.70848
50
302.6228504
51
302.6762515
0
ARC
8
DEFAULT_255_2_778
10
3.3135134
20
14.7152514
40
7.8011977
50
302.6771803
51
302.7295832
0
ARC
8
DEFAULT_255_2_778
10
3.383267
20
14.6070163
40
7.672433
50
302.7283958
51
302.7813114
0
ARC
8
DEFAULT_255_2_778
10
2.9852474
20
15.2246963
40
8.4072446
50
302.7826697
51
302.8306278
0
ARC
8
DEFAULT_255_2_778
10
3.7688186
20
14.0105066
40
6.9621701
50
302.8295191
51
302.8870329
0
ARC
8
DEFAULT_255_2_778
10
3.1369556
20
14.9884002
40
8.1264409
50
302.8843634
51
302.9332981
0
ARC
8
DEFAULT_255_2_778
10
3.2107061
20
14.8743485
40
7.9906215
50
302.9340619
51
302.983486
0
ARC
8
DEFAULT_255_2_778
10
3.2836314
20
14.7617398
40
7.8564618
50
302.98445
51
303.0343724
0
ARC
8
DEFAULT_255_2_778
10
3.0234096
20
15.1618521
40
8.3337514
50
303.0346282
51
303.0813678
0
ARC
8
DEFAULT_255_2_778
10
3.099451
20
15.0447649
40
8.1941388
50
303.0827307
51
303.1299398
0
ARC
8
DEFAULT_255_2_778
10
3.1744347
20
14.9292132
40
8.0563904
50
303.1324975
51
303.1801838
0
ARC
8
DEFAULT_255_2_778
10
3.4198312
20
14.5545274
40
7.6084968
50
303.1777009
51
303.2278474
0
ARC
8
DEFAULT_255_2_778
10
3.320037
20
14.7074408
40
7.7910928
50
303.2255362
51
303.2741709
0
ARC
8
DEFAULT_255_2_778
10
3.0354211
20
15.1410687
40
8.3097827
50
303.2744902
51
303.3197759
0
ARC
8
DEFAULT_255_2_778
10
3.1111593
20
15.0259762
40
8.1720055
50
303.3193086
51
303.3650415
0
ARC
8
DEFAULT_255_2_778
10
3.1864084
20
14.9110259
40
8.0346159
50
303.3676985
51
303.4138941
0
ARC
8
DEFAULT_255_2_778
10
3.2598993
20
14.8001462
40
7.9015929
50
303.4118326
51
303.4584834
0
ARC
8
DEFAULT_255_2_778
10
3.332367
20
14.6907051
40
7.770334
50
303.4575958
51
303.5047091
0
ARC
8
DEFAULT_255_2_778
10
3.0174545
20
15.1663262
40
8.3407596
50
303.5049929
51
303.5485829
0
ARC
8
DEFAULT_255_2_778
10
3.0938259
20
15.0512964
40
8.2026857
50
303.548033
51
303.5920526
0
ARC
8
DEFAULT_255_2_778
10
3.1693424
20
14.9376984
40
8.0662775
50
303.5916689
51
303.6361259
0
ARC
8
DEFAULT_255_2_778
10
2.8027182
20
15.489096
40
8.7284352
50
303.6348974
51
303.6757
0
ARC
8
DEFAULT_255_2_778
10
2.8834179
20
15.3671627
40
8.5822162
50
303.6787277
51
303.7199409
0
ARC
8
DEFAULT_255_2_778
10
2.9620198
20
15.2499112
40
8.4410565
50
303.7179879
51
303.7596031
0
ARC
8
DEFAULT_255_2_778
10
3.0402254
20
15.1325678
40
8.3000402
50
303.7609184
51
303.8029506
0
ARC
8
DEFAULT_255_2_778
10
3.1168685
20
15.0182485
40
8.1624063
50
303.8023412
51
303.8447892
0
ARC
8
DEFAULT_255_2_778
10
2.6994248
20
15.6403021
40
8.9115456
50
303.8464476
51
303.8850609
0
ARC
8
DEFAULT_255_2_778
10
3.2660474
20
14.7969414
40
7.895515
50
303.8836944
51
303.9269781
0
ARC
8
DEFAULT_255_2_778
10
2.8632538
20
15.3957933
40
8.6172257
50
303.9268253
51
303.9662123
0
ARC
8
DEFAULT_255_2_778
10
2.9427238
20
15.2783921
40
8.4754569
50
303.9640674
51
304.003839
0
ARC
8
DEFAULT_255_2_778
10
3.021102
20
15.1624565
40
8.3355133
50
304.0028858
51
304.0430482
0
ARC
8
DEFAULT_255_2_778
10
2.5367164
20
15.8784012
40
9.1999239
50
304.0466176
51
304.0827574
0
ARC
8
DEFAULT_255_2_778
10
3.1742753
20
14.9365651
40
8.0625866
50
304.0809853
51
304.1219409
0
ARC
8
DEFAULT_255_2_778
10
3.4669106
20
14.505997
40
7.5419873
50
304.1164171
51
304.1599001
0
ARC
8
DEFAULT_255_2_778
10
2.7889846
20
15.5055868
40
8.7497799
50
304.1578824
51
304.1951069
0
ARC
8
DEFAULT_255_2_778
10
2.8698775
20
15.3869145
40
8.6061598
50
304.1936863
51
304.2312731
0
ARC
8
DEFAULT_255_2_778
10
2.9498618
20
15.2696978
40
8.4642541
50
304.2299835
51
304.267939
0
ARC
8
DEFAULT_255_2_778
10
3.0287484
20
15.153934
40
8.3241671
50
304.2678665
51
304.306197
0
ARC
8
DEFAULT_255_2_778
10
2.4716141
20
15.9710995
40
9.3131859
50
304.3040234
51
304.3380492
0
ARC
8
DEFAULT_255_2_778
10
2.5591318
20
15.8422643
40
9.157437
50
304.3405972
51
304.3749652
0
ARC
8
DEFAULT_255_2_778
10
2.6446167
20
15.7172041
40
9.0059521
50
304.3753084
51
304.4100157
0
ARC
8
DEFAULT_255_2_778
10
1.9372858
20
16.749315
40
10.2571794
50
304.4116966
51
304.4419619
0
ARC
8
DEFAULT_255_2_778
10
2.0339724
20
16.60739
40
10.085451
50
304.4449801
51
304.4755505
0
ARC
8
DEFAULT_255_2_778
10
3.1750636
20
14.9458267
40
8.0697919
50
304.4745317
51
304.512477
0
ARC
8
DEFAULT_255_2_778
10
2.971833
20
15.2425691
40
8.429456
50
304.5079407
51
304.544019
0
ARC
8
DEFAULT_255_2_778
10
2.3133114
20
16.1996023
40
9.5911629
50
304.5424826
51
304.5739745
0
ARC
8
DEFAULT_255_2_778
10
2.4042446
20
16.0669962
40
9.430374
50
304.5762593
51
304.6080696
0
ARC
8
DEFAULT_255_2_778
10
2.491684
20
15.9410144
40
9.2770218
50
304.6055069
51
304.6376223
0
ARC
8
DEFAULT_255_2_778
10
1.624146
20
17.1951713
40
10.8019908
50
304.6425849
51
304.6699783
0
ARC
8
DEFAULT_255_2_778
10
1.725227
20
17.0489689
40
10.6242481
50
304.6701603
51
304.697822
0
ARC
8
DEFAULT_255_2_778
10
2.1823278
20
16.3873436
40
9.8200786
50
304.702586
51
304.7471375
0
ARC
8
DEFAULT_255_2_778
10
1.8677472
20
16.8404864
40
10.371712
50
304.7483075
51
304.7900585
0
ARC
8
DEFAULT_255_2_778
10
2.6272436
20
15.7475033
40
9.0407548
50
304.789358
51
304.836766
0
ARC
8
DEFAULT_255_2_778
10
1.6517333
20
17.1493311
40
10.7486019
50
304.836241
51
304.8757091
0
ARC
8
DEFAULT_255_2_778
10
1.8045471
20
16.9292352
40
10.4806577
50
304.8783483
51
304.9184121
0
ARC
8
DEFAULT_255_2_778
10
1.380996
20
17.5350071
40
11.2198158
50
304.9212148
51
304.9582572
0
ARC
8
DEFAULT_255_2_778
10
2.3070943
20
16.2101033
40
9.6033295
50
304.9590962
51
305.0019321
0
ARC
8
DEFAULT_255_2_778
10
1.9408213
20
16.7335079
40
10.242163
50
305.0008088
51
305.0405632
0
ARC
8
DEFAULT_255_2_778
10
1.2090145
20
17.7769614
40
11.5166576
50
305.0408538
51
305.0758481
0
ARC
8
DEFAULT_255_2_778
10
1.6525769
20
17.1445385
40
10.7441899
50
305.0780899
51
305.1152177
0
ARC
8
DEFAULT_255_2_778
10
1.8044115
20
16.9285618
40
10.480183
50
305.1154059
51
305.153081
0
ARC
8
DEFAULT_255_2_778
10
1.2879722
20
17.6618428
40
11.3770724
50
305.1533491
51
305.1877004
0
ARC
8
DEFAULT_255_2_778
10
1.4484257
20
17.4344511
40
11.0987699
50
305.1871969
51
305.2220509
0
ARC
8
DEFAULT_255_2_778
10
1.6045878
20
17.2137346
40
10.8283955
50
305.2205965
51
305.2559569
0
ARC
8
DEFAULT_255_2_778
10
0.9914652
20
18.0808896
40
11.890411
50
305.2565188
51
305.288393
0
ARC
8
DEFAULT_255_2_778
10
0.9391326
20
18.154309
40
11.980572
50
305.289842
51
305.3263598
0
ARC
8
DEFAULT_255_2_778
10
1.1372449
20
17.8746691
40
11.6378667
50
305.3266691
51
305.3638162
0
ARC
8
DEFAULT_255_2_778
10
0.6480164
20
18.5638449
40
12.4830341
50
305.3642332
51
305.3984544
0
ARC
8
DEFAULT_255_2_778
10
0.0422261
20
19.4157552
40
13.5283728
50
305.3998485
51
305.4310509
0
ARC
8
DEFAULT_255_2_778
10
0.2675998
20
19.0984098
40
13.1391412
50
305.4325108
51
305.4642567
0
ARC
8
DEFAULT_255_2_778
10
0.8131357
20
18.3325003
40
12.1988078
50
305.4644917
51
305.4982795
0
ARC
8
DEFAULT_255_2_778
10
0.629314
20
18.590911
40
12.5159299
50
305.4964564
51
305.5313161
0
ARC
8
DEFAULT_255_2_778
10
-1.3768185
20
21.3994954
40
15.9674099
50
305.5326936
51
305.5596715
0
ARC
8
DEFAULT_255_2_778
10
-0.6438619
20
20.3731694
40
14.7062319
50
305.5619803
51
305.5909002
0
ARC
8
DEFAULT_255_2_778
10
0.5221489
20
18.7447356
40
12.7033896
50
305.5888544
51
305.6230083
0
ARC
8
DEFAULT_255_2_778
10
-0.7222095
20
20.4823759
40
14.8406357
50
305.6207311
51
305.6500477
0
ARC
8
DEFAULT_255_2_778
10
-0.1302358
20
19.6574855
40
13.8253145
50
305.6489714
51
305.6805139
0
ARC
8
DEFAULT_255_2_778
10
-2.1002392
20
22.4020586
40
17.2037157
50
305.6784646
51
305.7034707
0
ARC
8
DEFAULT_255_2_778
10
-1.2623879
20
21.2357657
40
15.7676676
50
305.7044219
51
305.7313372
0
ARC
8
DEFAULT_255_2_778
10
-5.1510152
20
26.6398393
40
22.4254025
50
305.7332513
51
305.7519206
0
ARC
8
DEFAULT_255_2_778
10
-4.7133257
20
26.0293717
40
21.674243
50
305.7558151
51
305.7748709
0
ARC
8
DEFAULT_255_2_778
10
-3.4357917
20
24.2548674
40
19.4877029
50
305.7774858
51
305.798394
0
ARC
8
DEFAULT_255_2_778
10
-5.4849108
20
27.0959646
40
22.9906621
50
305.7987501
51
305.8162338
0
ARC
8
DEFAULT_255_2_778
10
-2.0318491
20
22.3115797
40
17.0903253
50
305.8151644
51
305.8383676
0
ARC
8
DEFAULT_255_2_778
10
50.6628675
20
-50.3791102
40
72.6909389
50
125.8058376
51
125.9626528
0
ARC
8
DEFAULT_255_2_778
10
10.3583407
20
5.5039302
40
3.7897908
50
123.6525323
51
125.9069789
0
ARC
8
DEFAULT_255_2_778
10
8.7821926
20
7.8831299
40
0.9359046
50
116.9971923
51
124.0466956
0
ARC
8
DEFAULT_255_2_778
10
8.4560632
20
8.537584
40
0.2048249
50
95.7343354
51
118.8148112
0
ARC
8
DEFAULT_255_2_778
10
8.438732
20
8.6537116
40
0.0877284
50
90.0112881
51
92.0473277
0
ARC
8
DEFAULT_255_2_778
10
8.4402784
20
8.6808239
40
0.0606362
50
19.2074242
51
91.4777694
0
ARC
8
DEFAULT_255_2_778
10
8.3364626
20
8.6316654
40
0.1752754
50
9.423627
51
23.2209124
0
ARC
8
DEFAULT_255_2_778
10
8.1377659
20
8.5948775
40
0.3773329
50
3.6054435
51
9.9943131
0
ARC
8
DEFAULT_255_2_778
10
46.1566587
20
6.7860205
40
37.6868893
50
177.2128012
51
177.5857818
0
ARC
8
DEFAULT_255_2_778
10
43.7299026
20
6.8889627
40
35.2579509
50
177.5868009
51
177.9111423
0
ARC
8
DEFAULT_255_2_778
10
42.3887951
20
6.9380888
40
33.9159439
50
177.9114986
51
178.3217747
0
ARC
8
DEFAULT_255_2_778
10
42.9887355
20
6.9218617
40
34.5161022
50
178.3240156
51
178.7253117
0
ARC
8
DEFAULT_255_2_778
10
48.5684806
20
6.8009173
40
40.0971572
50
178.7298996
51
179.0870043
0
ARC
8
DEFAULT_255_2_778
10
80.39865
20
6.3092484
40
71.9311216
50
179.0994134
51
179.3282339
0
ARC
8
DEFAULT_255_2_778
10
797.0548275
20
-2.3753378
40
788.6399129
50
179.3077662
51
179.3143899
0
ARC
8
DEFAULT_255_2_778
10
-81.1768594
20
8.1134023
40
89.6544075
50
359.202886
51
359.3276928
0
ARC
8
DEFAULT_255_2_778
10
-25.508932
20
7.338931
40
33.9810931
50
358.8802905
51
359.2028091
0
ARC
8
DEFAULT_255_2_778
10
-10.1533332
20
7.0253528
40
18.6223034
50
357.6158441
51
358.9216691
0
ARC
8
DEFAULT_255_2_778
10
-7.0052912
20
6.9055391
40
15.4720066
50
356.5214828
51
357.5741959
0
ARC
8
DEFAULT_255_2_778
10
-7.8780575
20
6.9602434
40
16.3464841
50
355.6141461
51
356.5157029
0
ARC
8
DEFAULT_255_2_778
10
-10.1198634
20
7.1323859
40
18.5948894
50
354.8575998
51
355.6135264
0
ARC
8
DEFAULT_255_2_778
10
-11.9114585
20
7.2903737
40
20.3934343
50
354.7631608
51
354.8666779
0
ARC
8
DEFAULT_255_2_778
10
8.9386595
20
6.2261011
40
0.9638027
50
235.7949701
51
243.8633443
0
ARC
8
DEFAULT_255_2_778
10
8.8169033
20
5.9787507
40
0.6881096
50
243.8920623
51
256.402971
0
ARC
8
DEFAULT_255_2_778
10
8.8369365
20
6.0786933
40
0.789971
50
256.6948259
51
263.7512069
0
ARC
8
DEFAULT_255_2_778
10
8.9632722
20
7.3010119
40
2.0187923
50
263.962911
51
267.0665232
0
ARC
8
DEFAULT_255_2_778
10
8.7008182
20
2.2976879
40
2.991413
50
84.8042406
51
86.9504976
0
ARC
8
DEFAULT_255_2_778
10
8.8300222
20
3.8043519
40
1.4792595
50
82.9432774
51
84.5033365
0
ARC
8
DEFAULT_255_2_778
10
8.9514088
20
6.063845
40
0.7937359
50
274.3600819
51
286.1398627
0
ARC
8
DEFAULT_255_2_778
10
8.9917672
20
5.877205
40
0.6033757
50
287.3853401
51
321.3286457
0
ARC
8
DEFAULT_255_2_778
10
7.7255733
20
7.0201294
40
2.3083238
50
318.8172641
51
321.9067997
0
ARC
8
DEFAULT_255_2_778
10
3.3190604
20
10.5293475
40
7.941389
50
321.5949832
51
321.6173153
0
ARC
8
DEFAULT_255_2_778
10
5.6055474
20
8.7180715
40
5.024414
50
321.618688
51
321.6532568
0
ARC
8
DEFAULT_255_2_778
10
4.3430993
20
9.7170856
40
6.6343222
50
321.6510945
51
321.6767331
0
ARC
8
DEFAULT_255_2_778
10
59.039389
20
-33.2390429
40
62.9136329
50
141.7544071
51
141.8742664
0
ARC
8
DEFAULT_255_2_778
10
9.1855857
20
8.7821858
40
0.6336969
50
0.5624278
51
14.0210802
0
ARC
8
DEFAULT_255_2_778
10
8.9229846
20
8.7235334
40
0.9027094
50
13.594693
51
18.2783468
0
ARC
8
DEFAULT_255_2_778
10
8.2370447
20
8.4589715
40
1.6374127
50
19.5409257
51
34.3939317
0
ARC
8
DEFAULT_255_2_778
10
7.4744801
20
7.9818036
40
2.5364732
50
33.5578696
51
36.9119156
0
ARC
8
DEFAULT_255_2_778
10
7.4533179
20
7.9677276
40
2.5618478
50
36.8793712
51
39.0471864
0
ARC
8
DEFAULT_255_2_778
10
7.8020174
20
8.2516803
40
2.1121594
50
39.0238961
51
40.8334993
0
ARC
8
DEFAULT_255_2_778
10
8.2855158
20
8.6683451
40
1.4738967
50
40.8680079
51
41.7719008
0
ARC
8
DEFAULT_255_2_778
10
8.7451207
20
8.7430206
40
1.1100063
50
54.8133988
51
59.2907934
0
ARC
8
DEFAULT_255_2_778
10
8.870452
20
8.9498116
40
0.8682119
50
59.4328032
51
61.2424758
0
ARC
8
DEFAULT_255_2_778
10
8.9200676
20
9.0360423
40
0.7687491
50
61.3923053
51
83.1714996
0
ARC
8
DEFAULT_255_2_778
10
8.7780872
20
8.056094
40
1.7587974
50
82.3746635
51
87.7452326
0
ARC
8
DEFAULT_255_2_778
10
8.661209
20
5.3425805
40
4.4748195
50
87.6168073
51
90.0983923
0
ARC
8
DEFAULT_255_2_778
10
8.6390077
20
1.5856192
40
8.231787
50
89.8989585
51
90.0003876
0
ARC
8
DEFAULT_255_2_778
10
12.1777923
20
-12.2035782
40
22.3035231
50
99.1295512
51
99.6718982
0
ARC
8
DEFAULT_255_2_778
10
11.4993992
20
-8.2196673
40
18.2622655
50
99.673687
51
100.2029939
0
ARC
8
DEFAULT_255_2_778
10
10.9046216
20
-4.9240918
40
14.9134485
50
100.1968223
51
100.9694352
0
ARC
8
DEFAULT_255_2_778
10
10.3573029
20
-2.1023178
40
12.0390846
50
100.9676438
51
101.8961116
0
ARC
8
DEFAULT_255_2_778
10
9.9332016
20
-0.0897407
40
9.9823084
50
101.8953963
51
103.0197458
0
ARC
8
DEFAULT_255_2_778
10
9.6814874
20
1.0023443
40
8.8615903
50
103.0248475
51
104.4334418
0
ARC
8
DEFAULT_255_2_778
10
9.7073423
20
0.9043111
40
8.9629739
50
104.4373005
51
104.8697526
0
ARC
8
DEFAULT_255_2_778
10
10.0061237
20
-0.2108742
40
10.1174879
50
104.8844425
51
105.7610971
0
ARC
8
DEFAULT_255_2_778
10
11.4522162
20
-5.3256643
40
15.4327729
50
105.7700405
51
106.326041
0
LINE
8
DEFAULT_255_2_778
10
7.1140189
20
9.4848226
11
7.1119093
21
9.4842058
0
ARC
8
DEFAULT_255_2_778
10
8.8633118
20
3.4925958
40
6.2423394
50
106.2941252
51
106.3142204
0
LINE
8
DEFAULT_255_2_778
10
7.109808
20
9.4835912
11
7.1077148
21
9.4829788
0
ARC
8
DEFAULT_255_2_778
10
10.9914497
20
-3.7921787
40
13.8316017
50
106.3071852
51
106.3206843
0
ARC
8
DEFAULT_255_2_778
10
12.5372804
20
-9.0745641
40
19.3355264
50
106.318076
51
106.3276768
0
LINE
8
DEFAULT_255_2_778
10
7.1014778
20
9.4811528
11
7.0994169
21
9.4805491
0
ARC
8
DEFAULT_255_2_778
10
1.3775419
20
29.0030241
40
20.3437185
50
286.3293969
51
286.335422
0
LINE
8
DEFAULT_255_2_778
10
7.0973639
20
9.4799475
11
7.0953189
21
9.4793481
0
LINE
8
DEFAULT_255_2_778
10
7.0953189
20
9.4793481
11
7.0932816
21
9.4787507
0
ARC
8
DEFAULT_255_2_778
10
12.3142287
20
-8.324877
40
18.5533676
50
106.3438737
51
106.3536708
0
ARC
8
DEFAULT_255_2_778
10
10.7385649
20
-2.9604814
40
12.9623523
50
106.3471029
51
106.3610458
0
LINE
8
DEFAULT_255_2_778
10
7.0872106
20
9.4769697
11
7.0852043
21
9.4763808
0
ARC
8
DEFAULT_255_2_778
10
10.6666792
20
-2.7278262
40
12.7188691
50
106.3549759
51
106.3690517
0
LINE
8
DEFAULT_255_2_778
10
7.0822063
20
9.4755005
11
7.080219
21
9.4749168
0
ARC
8
DEFAULT_255_2_778
10
12.0617295
20
-7.484607
40
17.6759977
50
106.3690637
51
106.3790968
0
ARC
8
DEFAULT_255_2_778
10
12.003823
20
-7.2958438
40
17.4785663
50
106.3714691
51
106.3815584
0
ARC
8
DEFAULT_255_2_778
10
-8.8651174
20
63.6817433
40
56.5033948
50
286.3817536
51
286.3853743
0
ARC
8
DEFAULT_255_2_778
10
11.8832307
20
-6.8979365
40
17.0628009
50
106.3818831
51
106.392093
0
LINE
8
DEFAULT_255_2_778
10
7.0679537
20
9.4713114
11
7.06602
21
9.4707426
0
LINE
8
DEFAULT_255_2_778
10
7.06602
20
9.4707426
11
7.0640936
21
9.4701758
0
LINE
8
DEFAULT_255_2_778
10
7.0640936
20
9.4701758
11
7.0621744
21
9.469611
0
LINE
8
DEFAULT_255_2_778
10
7.0621744
20
9.469611
11
7.0602623
21
9.4690481
0
ARC
8
DEFAULT_255_2_778
10
-0.4906762
20
35.1096243
40
26.7293064
50
286.4018173
51
286.4092671
0
ARC
8
DEFAULT_255_2_778
10
11.6268603
20
-6.0526417
40
16.1795136
50
106.4065873
51
106.4170679
0
LINE
8
DEFAULT_255_2_778
10
7.0540894
20
9.4672304
11
7.0522073
21
9.466676
0
LINE
8
DEFAULT_255_2_778
10
7.0522073
20
9.466676
11
7.0503322
21
9.4661236
0
ARC
8
DEFAULT_255_2_778
10
11.5063418
20
-5.66185
40
15.7705931
50
106.4125639
51
106.4231782
0
ARC
8
DEFAULT_255_2_778
10
-0.1361665
20
33.8317011
40
25.4032892
50
286.4189108
51
286.4265564
0
ARC
8
DEFAULT_255_2_778
10
-0.0478106
20
33.5166787
40
25.076139
50
286.421019
51
286.4287147
0
ARC
8
DEFAULT_255_2_778
10
-10.4582771
20
68.5293435
40
61.6036815
50
286.283269
51
286.5028458
0
ARC
8
DEFAULT_255_2_778
10
1.8288003
20
26.5247167
40
17.8388556
50
285.766859
51
286.2296909
0
ARC
8
DEFAULT_255_2_778
10
2.7756919
20
23.1766926
40
14.359507
50
285.1386197
51
285.7607631
0
ARC
8
DEFAULT_255_2_778
10
10.005104
20
-0.2248728
40
10.1550343
50
110.0367844
51
114.5356862
0
ARC
8
DEFAULT_255_2_778
10
10.528424
20
-1.3929568
40
11.4349609
50
114.4906269
51
117.2034246
0
ARC
8
DEFAULT_255_2_778
10
10.6928192
20
-1.7179286
40
11.7991409
50
117.1920134
51
118.6975443
0
ARC
8
DEFAULT_255_2_778
10
10.6297006
20
-1.604272
40
11.6691364
50
118.693669
51
120.3547849
0
ARC
8
DEFAULT_255_2_778
10
10.3218133
20
-1.0800177
40
11.0611589
50
120.3509184
51
121.8869803
0
ARC
8
DEFAULT_255_2_778
10
9.7525364
20
-0.1665236
40
9.9848009
50
121.8822794
51
123.3936389
0
ARC
8
DEFAULT_255_2_778
10
8.9317243
20
1.0769099
40
8.4948819
50
123.3873496
51
124.9429527
0
ARC
8
DEFAULT_255_2_778
10
8.2661259
20
2.034666
40
7.3285596
50
124.9660852
51
125.5236055
0
LINE
8
DEFAULT_255_2_778
10
5.754752
20
7.1964062
11
7.146952
21
7.9214062
0
LINE
8
DEFAULT_255_2_778
10
9.629252
20
5.7066062
11
9.819252
21
8.7884062
0
LINE
8
DEFAULT_255_2_778
10
4.007952
20
7.9992062
11
4.007352
21
7.9994062
0
ARC
8
DEFAULT_255_2_778
10
5.7681827
20
7.6450088
40
1.7732661
50
186.7960086
51
192.8518185
0
ARC
8
DEFAULT_255_2_778
10
5.1413344
20
7.5000022
40
1.129869
50
192.7532435
51
202.6755764
0
ARC
8
DEFAULT_255_2_778
10
5.0465182
20
7.4769438
40
1.0336055
50
203.5224438
51
223.450058
0
ARC
8
DEFAULT_255_2_778
10
6.6771833
20
8.9451869
40
3.2276472
50
222.4641263
51
225.4120332
0
ARC
8
DEFAULT_255_2_778
10
10.510938
20
12.7650289
40
8.6394844
50
225.0886882
51
225.1093145
0
ARC
8
DEFAULT_255_2_778
10
10.3619169
20
12.6157998
40
8.4285897
50
225.1110497
51
225.1319076
0
ARC
8
DEFAULT_255_2_778
10
16.1509145
20
18.4312643
40
16.6342049
50
225.1313008
51
225.1417271
0
ARC
8
DEFAULT_255_2_778
10
15.8751888
20
18.157257
40
16.2454893
50
225.1494039
51
225.1599356
0
ARC
8
DEFAULT_255_2_778
10
15.6068898
20
17.8906152
40
15.867234
50
225.1679795
51
225.1786164
0
ARC
8
DEFAULT_255_2_778
10
7.9723179
20
10.2072565
40
5.0357666
50
225.1702994
51
225.2033612
0
ARC
8
DEFAULT_255_2_778
10
15.0699602
20
17.3524322
40
15.1070158
50
225.1952641
51
225.2061353
0
ARC
8
DEFAULT_255_2_778
10
14.8112398
20
17.0930494
40
14.7406623
50
225.2094383
51
225.2204283
0
ARC
8
DEFAULT_255_2_778
10
14.4668181
20
16.745146
40
14.2511088
50
225.2181021
51
225.2293149
0
ARC
8
DEFAULT_255_2_778
10
-16.9393723
20
-15.0093688
40
30.4109574
50
45.0949999
51
45.356588
0
ARC
8
DEFAULT_255_2_778
10
-0.7950211
20
1.2078301
40
7.5278441
50
44.6132663
51
44.9917202
0
ARC
8
DEFAULT_255_2_778
10
6.1438327
20
12.5157421
40
6.2248444
50
255.2956895
51
259.2365221
0
ARC
8
DEFAULT_255_2_778
10
5.5401323
20
9.4000711
40
3.0512654
50
259.4470513
51
266.777004
0
ARC
8
DEFAULT_255_2_778
10
5.5064552
20
8.9474408
40
2.5974706
50
266.9573528
51
269.9891223
0
ARC
8
DEFAULT_255_2_778
10
5.5064945
20
8.8558091
40
2.5058388
50
269.987825
51
276.5489317
0
ARC
8
DEFAULT_255_2_778
10
5.4953032
20
8.9415095
40
2.5922569
50
276.5786382
51
282.6490547
0
ARC
8
DEFAULT_255_2_778
10
5.4378453
20
9.1954657
40
2.8526315
50
282.6581401
51
287.9877877
0
ARC
8
DEFAULT_255_2_778
10
5.3746266
20
9.3992781
40
3.0660061
50
287.935249
51
288.679247
0
ARC
8
DEFAULT_255_2_778
10
3.4630572
20
16.4273955
40
10.223413
50
296.8936652
51
296.9260661
0
ARC
8
DEFAULT_255_2_778
10
2.9506512
20
17.4355649
40
11.3543265
50
296.9276663
51
296.9567387
0
ARC
8
DEFAULT_255_2_778
10
3.9944132
20
15.3836027
40
9.0521562
50
296.9556902
51
296.9920297
0
ARC
8
DEFAULT_255_2_778
10
2.3228905
20
18.6644239
40
12.7342447
50
296.9937762
51
297.0195185
0
ARC
8
DEFAULT_255_2_778
10
4.0635513
20
15.2510688
40
8.9026794
50
297.0194921
51
297.0561855
0
ARC
8
DEFAULT_255_2_778
10
2.4212656
20
18.4664116
40
12.5131547
50
297.056239
51
297.0822545
0
ARC
8
DEFAULT_255_2_778
10
4.1316545
20
15.1214325
40
8.7562523
50
297.0823497
51
297.1193983
0
ARC
8
DEFAULT_255_2_778
10
3.7277732
20
15.9119636
40
9.6439792
50
297.1141539
51
297.1476754
0
ARC
8
DEFAULT_255_2_778
10
2.5663182
20
18.1764554
40
12.1889547
50
297.1488353
51
297.1752657
0
ARC
8
DEFAULT_255_2_778
10
3.8010242
20
15.7709841
40
9.4851072
50
297.17648
51
297.2103269
0
ARC
8
DEFAULT_255_2_778
10
3.3365311
20
16.6749993
40
10.5014719
50
297.2088051
51
297.2392702
0
ARC
8
DEFAULT_255_2_778
10
3.8731597
20
15.6331148
40
9.3295104
50
297.2377979
51
297.271971
0
ARC
8
DEFAULT_255_2_778
10
2.7541944
20
17.8038838
40
11.7717064
50
297.2715052
51
297.2984948
0
ARC
8
DEFAULT_255_2_778
10
3.944196
20
15.4982962
40
9.1771277
50
297.2980744
51
297.3325745
0
ARC
8
DEFAULT_255_2_778
10
2.8459867
20
17.6232267
40
11.569071
50
297.3322244
51
297.3594967
0
ARC
8
DEFAULT_255_2_778
10
2.8916377
20
17.5327142
40
11.4677031
50
297.3647554
51
297.3921734
0
ARC
8
DEFAULT_255_2_778
10
2.9361869
20
17.4468728
40
11.3709904
50
297.3918688
51
297.4194241
0
ARC
8
DEFAULT_255_2_778
10
2.9813322
20
17.3575393
40
11.2709032
50
297.4248354
51
297.4525391
0
ARC
8
DEFAULT_255_2_778
10
4.1178821
20
15.1705131
40
8.8061864
50
297.4504742
51
297.4858089
0
ARC
8
DEFAULT_255_2_778
10
3.0694695
20
17.1865524
40
11.0785385
50
297.4838061
51
297.5117959
0
ARC
8
DEFAULT_255_2_778
10
3.6900687
20
15.9953525
40
9.7353703
50
297.5108144
51
297.5425557
0
ARC
8
DEFAULT_255_2_778
10
3.1560763
20
17.0196645
40
10.8905167
50
297.5416322
51
297.5699085
0
ARC
8
DEFAULT_255_2_778
10
3.7642112
20
15.8552354
40
9.5768488
50
297.5690356
51
297.6010792
0
ARC
8
DEFAULT_255_2_778
10
3.2417315
20
16.8549289
40
10.7048434
50
297.600266
51
297.6288338
0
ARC
8
DEFAULT_255_2_778
10
3.2840564
20
16.7732828
40
10.6128796
50
297.6307998
51
297.6595155
0
ARC
8
DEFAULT_255_2_778
10
4.350824
20
14.7390577
40
8.3159111
50
297.6558027
51
297.6923232
0
ARC
8
DEFAULT_255_2_778
10
2.5840335
20
18.1065988
40
12.1187893
50
297.689675
51
297.7146487
0
ARC
8
DEFAULT_255_2_778
10
4.4152273
20
14.6216598
40
8.1820304
50
297.7120253
51
297.7488871
0
ARC
8
DEFAULT_255_2_778
10
2.6791989
20
17.9226038
40
11.911645
50
297.7463313
51
297.7715638
0
ARC
8
DEFAULT_255_2_778
10
2.7262302
20
17.831387
40
11.8090212
50
297.7758738
51
297.8012376
0
ARC
8
DEFAULT_255_2_778
10
4.0505168
20
15.3202731
40
8.9701081
50
297.7997852
51
297.8330608
0
ARC
8
DEFAULT_255_2_778
10
2.8191547
20
17.6530985
40
11.6079722
50
297.8316725
51
297.8572975
0
ARC
8
DEFAULT_255_2_778
10
3.6104486
20
16.1553819
40
9.9140711
50
297.8587163
51
297.8886158
0
ARC
8
DEFAULT_255_2_778
10
4.1537703
20
15.1301713
40
8.7537889
50
297.8842112
51
297.9179568
0
ARC
8
DEFAULT_255_2_778
10
2.9554894
20
17.3930147
40
11.3143234
50
297.91464
51
297.9406584
0
ARC
8
DEFAULT_255_2_778
10
3.0003297
20
17.3073678
40
11.2176498
50
297.9432993
51
297.9694513
0
ARC
8
DEFAULT_255_2_778
10
4.2546956
20
14.9462422
40
8.5440104
50
297.9662084
51
298.0004253
0
ARC
8
DEFAULT_255_2_778
10
3.0889331
20
17.1399902
40
11.0282672
50
297.9972379
51
298.0236555
0
ARC
8
DEFAULT_255_2_778
10
3.1330329
20
17.0559838
40
10.9333904
50
298.0264851
51
298.0530399
0
ARC
8
DEFAULT_255_2_778
10
3.176256
20
16.9745669
40
10.8412116
50
298.0538037
51
298.0804918
0
ARC
8
DEFAULT_255_2_778
10
3.8397256
20
15.7316764
40
9.4323226
50
298.0785
51
298.1090686
0
ARC
8
DEFAULT_255_2_778
10
2.3063765
20
18.6026954
40
12.6871512
50
298.1082071
51
298.130855
0
ARC
8
DEFAULT_255_2_778
10
2.3569284
20
18.5057027
40
12.5777813
50
298.1360956
51
298.1588616
0
ARC
8
DEFAULT_255_2_778
10
3.3464673
20
16.6562366
40
10.4802322
50
298.1609199
51
298.1881481
0
ARC
8
DEFAULT_255_2_778
10
3.3885154
20
16.577381
40
10.3908666
50
298.1891831
51
298.2165507
0
ARC
8
DEFAULT_255_2_778
10
2.5060893
20
18.2209671
40
12.2563561
50
298.2187406
51
298.2418627
0
ARC
8
DEFAULT_255_2_778
10
4.0540079
20
15.3400962
40
8.9859636
50
298.2390644
51
298.2704927
0
ARC
8
DEFAULT_255_2_778
10
2.6026247
20
18.0401548
40
12.0513884
50
298.2677489
51
298.2911022
0
ARC
8
DEFAULT_255_2_778
10
2.6507256
20
17.9492634
40
11.9485563
50
298.2945683
51
298.3180414
0
ARC
8
DEFAULT_255_2_778
10
2.6985575
20
17.8589571
40
11.8463672
50
298.3215738
51
298.3451677
0
ARC
8
DEFAULT_255_2_778
10
3.6320857
20
16.1283888
40
9.8800657
50
298.3454098
51
298.3736018
0
ARC
8
DEFAULT_255_2_778
10
2.7926548
20
17.6824655
40
11.6463609
50
298.3739041
51
298.397738
0
ARC
8
DEFAULT_255_2_778
10
2.8389306
20
17.5962469
40
11.5485089
50
298.3992133
51
298.4231664
0
ARC
8
DEFAULT_255_2_778
10
3.7498685
20
15.9129898
40
9.6345701
50
298.4235616
51
298.4521741
0
ARC
8
DEFAULT_255_2_778
10
3.7885073
20
15.8427193
40
9.5543788
50
298.4492164
51
298.4779696
0
ARC
8
DEFAULT_255_2_778
10
2.9762271
20
17.3408579
40
11.2585556
50
298.4761939
51
298.5005108
0
ARC
8
DEFAULT_255_2_778
10
3.0214864
20
17.256808
40
11.1630953
50
298.5022111
51
298.5266514
0
ARC
8
DEFAULT_255_2_778
10
3.3516091
20
16.6500322
40
10.4723293
50
298.5251867
51
298.5641161
0
ARC
8
DEFAULT_255_2_778
10
2.574631
20
18.0765551
40
12.0967253
50
298.5656601
51
298.599188
0
ARC
8
DEFAULT_255_2_778
10
3.4755153
20
16.4235462
40
10.2141657
50
298.6008381
51
298.6403405
0
ARC
8
DEFAULT_255_2_778
10
3.5361896
20
16.3139483
40
10.0888959
50
298.6362562
51
298.6760426
0
ARC
8
DEFAULT_255_2_778
10
2.2251548
20
18.7104603
40
12.820577
50
298.6771595
51
298.7083071
0
ARC
8
DEFAULT_255_2_778
10
3.6558494
20
16.0977104
40
9.8417601
50
298.7095154
51
298.7498811
0
ARC
8
DEFAULT_255_2_778
10
3.3152866
20
16.7191301
40
10.5503823
50
298.7481766
51
298.7856369
0
ARC
8
DEFAULT_255_2_778
10
2.4562611
20
18.2823255
40
12.3340596
50
298.7862954
51
298.8181731
0
ARC
8
DEFAULT_255_2_778
10
3.4403875
20
16.4932695
40
10.2921914
50
298.8189269
51
298.8569319
0
ARC
8
DEFAULT_255_2_778
10
3.5018356
20
16.3825766
40
10.1655871
50
298.8547063
51
298.8929863
0
ARC
8
DEFAULT_255_2_778
10
3.5627854
20
16.2729066
40
10.0401191
50
298.8908571
51
298.9294157
0
ARC
8
DEFAULT_255_2_778
10
2.751174
20
17.7422794
40
11.7187405
50
298.9272309
51
298.9600961
0
ARC
8
DEFAULT_255_2_778
10
2.8221879
20
17.613653
40
11.5718129
50
298.9608231
51
298.9939341
0
ARC
8
DEFAULT_255_2_778
10
2.2761596
20
18.5974366
40
12.696969
50
298.9972666
51
299.027288
0
ARC
8
DEFAULT_255_2_778
10
3.7985849
20
15.8539048
40
9.5593352
50
299.0275383
51
299.0672081
0
ARC
8
DEFAULT_255_2_778
10
3.4313615
20
16.5161142
40
10.3165497
50
299.063027
51
299.0995959
0
ARC
8
DEFAULT_255_2_778
10
2.506743
20
18.1767723
40
12.2172613
50
299.1009213
51
299.131642
0
ARC
8
DEFAULT_255_2_778
10
2.5811474
20
18.042727
40
12.063951
50
299.1328917
51
299.1638427
0
ARC
8
DEFAULT_255_2_778
10
3.6147361
20
16.1906631
40
9.9429968
50
299.1636491
51
299.2010091
0
ARC
8
DEFAULT_255_2_778
10
2.7279209
20
17.7781277
40
11.7613712
50
299.1991998
51
299.2306212
0
ARC
8
DEFAULT_255_2_778
10
3.7333272
20
15.982023
40
9.7030142
50
299.2288835
51
299.2667746
0
ARC
8
DEFAULT_255_2_778
10
2.1773029
20
18.7589443
40
12.8861736
50
299.2660202
51
299.2944047
0
ARC
8
DEFAULT_255_2_778
10
2.2568351
20
18.6149561
40
12.7216842
50
299.299321
51
299.3279247
0
ARC
8
DEFAULT_255_2_778
10
3.9063629
20
15.6796741
40
9.3546645
50
299.3255607
51
299.3642597
0
ARC
8
DEFAULT_255_2_778
10
3.0792691
20
17.1516131
40
11.0430626
50
299.359322
51
299.3919357
0
ARC
8
DEFAULT_255_2_778
10
2.4882536
20
18.2004939
40
12.2469937
50
299.3927349
51
299.4219914
0
ARC
8
DEFAULT_255_2_778
10
2.5635016
20
18.0663002
40
12.0931429
50
299.4237832
51
299.4532597
0
ARC
8
DEFAULT_255_2_778
10
2.638115
20
17.9333677
40
11.9407025
50
299.4551529
51
299.4848523
0
ARC
8
DEFAULT_255_2_778
10
2.711301
20
17.8038623
40
11.7919482
50
299.485019
51
299.5149386
0
ARC
8
DEFAULT_255_2_778
10
2.7838744
20
17.6755619
40
11.6445444
50
299.515194
51
299.5453368
0
ARC
8
DEFAULT_255_2_778
10
3.4437983
20
16.5115042
40
10.3064374
50
299.5447793
51
299.5843004
0
ARC
8
DEFAULT_255_2_778
10
3.0778144
20
17.1574772
40
11.0488827
50
299.5809372
51
299.6175819
0
ARC
8
DEFAULT_255_2_778
10
3.1559573
20
17.0209674
40
10.89159
50
299.6151163
51
299.6520677
0
ARC
8
DEFAULT_255_2_778
10
3.2333534
20
16.8859071
40
10.7359261
50
299.6497084
51
299.6869711
0
ARC
8
DEFAULT_255_2_778
10
2.3648439
20
18.4091875
40
12.489406
50
299.6873886
51
299.7192281
0
ARC
8
DEFAULT_255_2_778
10
2.4547581
20
18.2515334
40
12.307914
50
299.7195523
51
299.7516681
0
ARC
8
DEFAULT_255_2_778
10
1.8569349
20
19.2954569
40
13.5108969
50
299.7558338
51
299.7849151
0
ARC
8
DEFAULT_255_2_778
10
3.052716
20
17.205933
40
11.1034082
50
299.7856767
51
299.8208519
0
ARC
8
DEFAULT_255_2_778
10
2.051571
20
18.9529157
40
13.1169226
50
299.8200715
51
299.8496691
0
ARC
8
DEFAULT_255_2_778
10
2.1474018
20
18.7842297
40
12.9229179
50
299.8534026
51
299.883265
0
ARC
8
DEFAULT_255_2_778
10
1.4297699
20
20.0315526
40
14.3619487
50
299.8862887
51
299.9129984
0
ARC
8
DEFAULT_255_2_778
10
2.3334236
20
18.4594966
40
12.5486782
50
299.9161377
51
299.9465243
0
ARC
8
DEFAULT_255_2_778
10
3.3058169
20
16.7722179
40
10.6012548
50
299.9449272
51
299.9832312
0
ARC
8
DEFAULT_255_2_778
10
1.8269642
20
19.3352641
40
13.5603443
50
299.983514
51
300.0132678
0
ARC
8
DEFAULT_255_2_778
10
2.5899772
20
18.0143231
40
12.0348694
50
300.013435
51
300.0467459
0
ARC
8
DEFAULT_255_2_778
10
2.0368394
20
18.9698969
40
13.13899
50
300.0482443
51
300.0785608
0
ARC
8
DEFAULT_255_2_778
10
3.1637539
20
17.0248927
40
10.8911071
50
300.0767075
51
300.1130474
0
ARC
8
DEFAULT_255_2_778
10
1.2271918
20
20.3631421
40
14.7504051
50
300.1144952
51
300.142043
0
ARC
8
DEFAULT_255_2_778
10
2.5742425
20
18.04239
40
12.0670422
50
300.1441713
51
300.1776227
0
ARC
8
DEFAULT_255_2_778
10
3.0245219
20
17.2691493
40
11.1722504
50
300.1747554
51
300.2112255
0
ARC
8
DEFAULT_255_2_778
10
2.0163592
20
19.0007971
40
13.1759959
50
300.2107196
51
300.2416795
0
ARC
8
DEFAULT_255_2_778
10
2.0351312
20
18.9683667
40
13.1385245
50
300.2421862
51
300.2732368
0
ARC
8
DEFAULT_255_2_778
10
3.1211223
20
17.1081695
40
10.9845256
50
300.2725842
51
300.3095069
0
ARC
8
DEFAULT_255_2_778
10
2.2401049
20
18.6165241
40
12.7313299
50
300.3066721
51
300.338312
0
ARC
8
DEFAULT_255_2_778
10
1.6124519
20
19.6886513
40
13.9736685
50
300.3389855
51
300.3676162
0
ARC
8
DEFAULT_255_2_778
10
2.4499609
20
18.2589672
40
12.3167381
50
300.3684025
51
300.4006638
0
ARC
8
DEFAULT_255_2_778
10
1.8446134
20
19.291081
40
13.5132766
50
300.39991
51
300.4291146
0
ARC
8
DEFAULT_255_2_778
10
1.0823352
20
20.5868072
40
15.0165974
50
300.4330453
51
300.4591475
0
ARC
8
DEFAULT_255_2_778
10
3.1513334
20
17.0693631
40
10.9357683
50
300.4571514
51
300.4927503
0
ARC
8
DEFAULT_255_2_778
10
2.1774588
20
18.7251189
40
12.8566947
50
300.4883037
51
300.5183779
0
ARC
8
DEFAULT_255_2_778
10
2.7588527
20
17.7390622
40
11.7119995
50
300.5178047
51
300.5505939
0
ARC
8
DEFAULT_255_2_778
10
1.5757328
20
19.7441875
40
14.0401533
50
300.5492749
51
300.5764411
0
ARC
8
DEFAULT_255_2_778
10
0.6556623
20
21.3007811
40
15.848333
50
300.5775843
51
300.6014876
0
ARC
8
DEFAULT_255_2_778
10
1.8088113
20
19.349878
40
13.582108
50
300.6039576
51
300.6316598
0
ARC
8
DEFAULT_255_2_778
10
1.9227594
20
19.1574786
40
13.3584973
50
300.6315866
51
300.6595613
0
ARC
8
DEFAULT_255_2_778
10
1.0528092
20
20.6245164
40
15.0640803
50
300.6604995
51
300.6851385
0
ARC
8
DEFAULT_255_2_778
10
2.6738507
20
17.8933265
40
11.8880492
50
300.6837391
51
300.7147488
0
ARC
8
DEFAULT_255_2_778
10
1.3053264
20
20.1974723
40
14.5679645
50
300.7134647
51
300.7385982
0
ARC
8
DEFAULT_255_2_778
10
0.1806075
20
22.0873639
40
16.7672104
50
300.7411262
51
300.762815
0
ARC
8
DEFAULT_255_2_778
10
0.3237708
20
21.8448448
40
16.4855898
50
300.7663803
51
300.78829
0
ARC
8
DEFAULT_255_2_778
10
0.4632265
20
21.6097909
40
16.2122805
50
300.7901099
51
300.8122379
0
ARC
8
DEFAULT_255_2_778
10
2.4045852
20
18.3545674
40
12.422115
50
300.8125802
51
300.841264
0
ARC
8
DEFAULT_255_2_778
10
2.5071829
20
18.1839988
40
12.2230684
50
300.8382385
51
300.8671919
0
ARC
8
DEFAULT_255_2_778
10
0.8706679
20
20.9236777
40
15.4143098
50
300.8639404
51
300.886744
0
ARC
8
DEFAULT_255_2_778
10
1.7895039
20
19.387152
40
13.6240106
50
300.887729
51
300.9133544
0
ARC
8
DEFAULT_255_2_778
10
2.8024961
20
17.6977228
40
11.6541573
50
300.9076398
51
300.9373937
0
ARC
8
DEFAULT_255_2_778
10
1.2551733
20
20.2811219
40
14.6654955
50
300.9337061
51
300.9571904
0
ARC
8
DEFAULT_255_2_778
10
-0.1037378
20
22.545224
40
17.3061009
50
300.9594692
51
300.9792356
0
ARC
8
DEFAULT_255_2_778
10
0.043239
20
22.2996146
40
17.0198739
50
300.9806185
51
301.0005813
0
ARC
8
DEFAULT_255_2_778
10
0.1885135
20
22.0570063
40
16.737096
50
301.002056
51
301.0222187
0
ARC
8
DEFAULT_255_2_778
10
1.3170729
20
20.1799737
40
14.5469139
50
301.0231184
51
301.0461599
0
ARC
8
DEFAULT_255_2_778
10
-1.5892906
20
25.008166
40
20.1823722
50
301.0461506
51
301.062646
0
ARC
8
DEFAULT_255_2_778
10
-1.4116315
20
24.7097696
40
19.835097
50
301.0677924
51
301.0844632
0
ARC
8
DEFAULT_255_2_778
10
-1.2397336
20
24.4225231
40
19.500346
50
301.0876691
51
301.1045114
0
ARC
8
DEFAULT_255_2_778
10
1.7868803
20
19.4054127
40
13.6410125
50
301.1060919
51
301.130006
0
ARC
8
DEFAULT_255_2_778
10
0.4378294
20
21.6416067
40
16.2526215
50
301.1254633
51
301.1453992
0
ARC
8
DEFAULT_255_2_778
10
2.0090482
20
19.0420876
40
13.2151506
50
301.1443675
51
301.16872
0
ARC
8
DEFAULT_255_2_778
10
0.7082228
20
21.1942787
40
15.7299216
50
301.165658
51
301.1859791
0
ARC
8
DEFAULT_255_2_778
10
0.8387656
20
20.9796245
40
15.4786896
50
301.1840303
51
301.2045418
0
ARC
8
DEFAULT_255_2_778
10
-3.1732612
20
27.6020679
40
23.2216293
50
301.2058396
51
301.2194196
0
ARC
8
DEFAULT_255_2_778
10
-0.9497687
20
23.9318945
40
18.9304651
50
301.2218632
51
301.2384091
0
ARC
8
DEFAULT_255_2_778
10
-0.7889219
20
23.6655607
40
18.6193301
50
301.2402372
51
301.2569461
0
ARC
8
DEFAULT_255_2_778
10
1.3386164
20
20.1611236
40
14.5196352
50
301.2555554
51
301.2768377
0
ARC
8
DEFAULT_255_2_778
10
-0.479594
20
23.1564195
40
18.0235882
50
301.2733059
51
301.2903352
0
ARC
8
DEFAULT_255_2_778
10
-0.330924
20
22.9132313
40
17.7385571
50
301.2879461
51
301.3051323
0
ARC
8
DEFAULT_255_2_778
10
-0.1797516
20
22.6638531
40
17.4469366
50
301.3064862
51
301.323842
0
ARC
8
DEFAULT_255_2_778
10
-0.0336151
20
22.4242036
40
17.1662452
50
301.3230133
51
301.3405341
0
ARC
8
DEFAULT_255_2_778
10
0.1076127
20
22.1940244
40
16.8961954
50
301.3374828
51
301.3551638
0
ARC
8
DEFAULT_255_2_778
10
0.2472758
20
21.9664979
40
16.6292247
50
301.3521491
51
301.3699929
0
ARC
8
DEFAULT_255_2_778
10
0.3861559
20
21.7395272
40
16.3631359
50
301.368499
51
301.3865109
0
ARC
8
DEFAULT_255_2_778
10
-17.1862408
20
50.5402156
40
50.1013752
50
301.3881578
51
301.3940009
0
ARC
8
DEFAULT_255_2_778
10
-2.2031226
20
25.9861118
40
21.3368511
50
301.3968484
51
301.4104765
0
ARC
8
DEFAULT_255_2_778
10
-2.0190019
20
25.682835
40
20.9820604
50
301.412985
51
301.4267503
0
ARC
8
DEFAULT_255_2_778
10
-1.8440201
20
25.3973758
40
20.647239
50
301.4254391
51
301.4393335
0
ARC
8
DEFAULT_255_2_778
10
2.1375101
20
18.8860506
40
13.0150744
50
301.4360949
51
301.457989
0
ARC
8
DEFAULT_255_2_778
10
-6.923809
20
33.701596
40
30.3819361
50
301.4536087
51
301.4629247
0
ARC
8
DEFAULT_255_2_778
10
-6.6570069
20
33.262799
40
29.8683954
50
301.4657107
51
301.4751232
0
ARC
8
DEFAULT_255_2_778
10
0.6236118
20
21.3698717
40
15.9238936
50
301.4759692
51
301.4935056
0
ARC
8
DEFAULT_255_2_778
10
-6.1285737
20
32.3927183
40
28.8504229
50
301.4919728
51
301.501587
0
ARC
8
DEFAULT_255_2_778
10
0.8746522
20
20.9672714
40
15.4494525
50
301.4975784
51
301.5154116
0
ARC
8
DEFAULT_255_2_778
10
-5.6449182
20
31.603524
40
27.9248147
50
301.5114419
51
301.5212418
0
ARC
8
DEFAULT_255_2_778
10
-8.2939621
20
35.9168894
40
32.9866864
50
301.526587
51
301.538939
0
ARC
8
DEFAULT_255_2_778
10
-2.7009648
20
26.803607
40
22.2940004
50
301.5392724
51
301.557365
0
ARC
8
DEFAULT_255_2_778
10
-2.429515
20
26.3648166
40
21.7780362
50
301.5529845
51
301.5713197
0
ARC
8
DEFAULT_255_2_778
10
-4.728861
20
30.1086233
40
26.171563
50
301.5689383
51
301.5840422
0
ARC
8
DEFAULT_255_2_778
10
-8.3902312
20
36.0632336
40
33.1617715
50
301.584565
51
301.5963655
0
ARC
8
DEFAULT_255_2_778
10
-7.9587257
20
35.3589388
40
32.3358017
50
301.5989583
51
301.6109388
0
ARC
8
DEFAULT_255_2_778
10
-7.5555601
20
34.7048028
40
31.5674034
50
301.6100635
51
301.6222125
0
LINE
8
DEFAULT_255_2_778
10
8.9957366
20
7.8244096
11
8.9995008
21
7.8267277
0
ARC
8
DEFAULT_255_2_778
10
-13.5272573
20
44.4009743
40
42.9549805
50
301.6296875
51
301.6384671
0
ARC
8
DEFAULT_255_2_778
10
-12.9697239
20
43.4939019
40
41.8902634
50
301.6400287
51
301.6489412
0
LINE
8
DEFAULT_255_2_778
10
9.0106522
20
7.8335987
11
9.0143156
21
7.8358571
0
ARC
8
DEFAULT_255_2_778
10
-26.8185231
20
65.9496701
40
68.273037
50
301.6578848
51
301.6632623
0
ARC
8
DEFAULT_255_2_778
10
-7.4053424
20
34.472448
40
31.2907832
50
301.6627593
51
301.6743749
0
ARC
8
DEFAULT_255_2_778
10
-7.0255991
20
33.8597293
40
30.5699316
50
301.6716649
51
301.6834355
0
ARC
8
DEFAULT_255_2_778
10
35.6217828
20
-35.0907822
40
50.5039592
50
121.5273084
51
121.7705252
0
ARC
8
DEFAULT_255_2_778
10
12.233228
20
3.0498497
40
5.763242
50
119.83331
51
121.6041426
0
ARC
8
DEFAULT_255_2_778
10
10.2181056
20
6.5749404
40
1.7028382
50
115.3086501
51
120.021241
0
ARC
8
DEFAULT_255_2_778
10
9.712434
20
7.6568233
40
0.5086531
50
104.0851284
51
115.9127149
0
ARC
8
DEFAULT_255_2_778
10
9.6317167
20
7.9683931
40
0.1868234
50
90.7649584
51
103.3288339
0
ARC
8
DEFAULT_255_2_778
10
9.6343519
20
8.0755304
40
0.0798343
50
23.0610164
51
93.6838202
0
ARC
8
DEFAULT_255_2_778
10
9.5438485
20
8.0320187
40
0.1802077
50
8.9136195
51
24.5184566
0
ARC
8
DEFAULT_255_2_778
10
9.3396932
20
7.9964589
40
0.3874231
50
1.5136671
51
9.4308631
0
ARC
8
DEFAULT_255_2_778
10
9.1188811
20
7.9864717
40
0.6084361
50
359.9648486
51
1.9045531
0
ARC
8
DEFAULT_255_2_778
10
8.9657935
20
7.9865717
40
0.7615239
50
358.1729413
51
359.9643929
0
ARC
8
DEFAULT_255_2_778
10
8.7736995
20
7.9926259
40
0.9537135
50
356.6432084
51
358.177345
0
ARC
8
DEFAULT_255_2_778
10
40.783822
20
6.2667141
40
31.1029148
50
176.9220512
51
177.2628142
0
ARC
8
DEFAULT_255_2_778
10
37.521726
20
6.4230801
40
27.8370735
50
177.2636521
51
177.5772881
0
ARC
8
DEFAULT_255_2_778
10
34.5625618
20
6.5474849
40
24.8752956
50
177.5754563
51
178.0074321
0
ARC
8
DEFAULT_255_2_778
10
31.776586
20
6.6442015
40
22.0876417
50
178.0068878
51
178.4960408
0
ARC
8
DEFAULT_255_2_778
10
29.837308
20
6.6959376
40
20.1476737
50
178.4983724
51
178.8748784
0
ARC
8
DEFAULT_255_2_778
10
28.3809485
20
6.724073
40
18.6910424
50
178.8734475
51
179.4426799
0
ARC
8
DEFAULT_255_2_778
10
27.475576
20
6.733456
40
17.7856216
50
179.4445356
51
179.9993917
0
ARC
8
DEFAULT_255_2_778
10
27.7556497
20
6.7343832
40
18.0656954
50
180.0023417
51
180.582313
0
ARC
8
DEFAULT_255_2_778
10
30.7138731
20
6.7670977
40
21.0240987
50
180.5895296
51
181.1360623
0
ARC
8
DEFAULT_255_2_778
10
46.3301304
20
7.0879754
40
36.6436498
50
181.1535672
51
181.5244822
0
ARC
8
DEFAULT_255_2_778
10
164.1670832
20
10.1449551
40
154.5202425
50
181.4951715
51
181.5238747
0
ARC
8
DEFAULT_255_2_778
10
-495.452905
20
-7.3782
40
505.3324609
50
1.5169334
51
1.5210806
0
ARC
8
DEFAULT_255_2_778
10
-28.6223174
20
4.9434455
40
38.3393146
50
1.112812
51
1.5778973
0
ARC
8
DEFAULT_255_2_778
10
-10.0309894
20
5.3208159
40
19.7441708
50
0.5900573
51
1.0656945
0
ARC
8
DEFAULT_255_2_778
10
-7.3099304
20
5.3499571
40
17.0229562
50
0.0034102
51
0.586296
0
ARC
8
DEFAULT_255_2_778
10
-6.7815845
20
5.3509961
40
16.4946102
50
359.4268075
51
359.9999102
0
ARC
8
DEFAULT_255_2_778
10
-7.3277409
20
5.3567797
40
17.0407972
50
358.9428474
51
359.425733
0
ARC
8
DEFAULT_255_2_778
10
-8.2696096
20
5.3740352
40
17.9828241
50
358.5808415
51
358.9432447
0
ARC
8
DEFAULT_255_2_778
10
-9.6485432
20
5.4088197
40
19.362196
50
358.1112188
51
358.5789994
0
ARC
8
DEFAULT_255_2_778
10
-11.7037053
20
5.4766808
40
21.4184782
50
357.6752607
51
358.1109857
0
ARC
8
DEFAULT_255_2_778
10
-13.3514366
20
5.5421657
40
23.0675095
50
357.5377763
51
357.6787535
0
ARC
8
DEFAULT_255_2_778
10
10.9131058
20
6.5422299
40
2.3342339
50
238.5375365
51
241.8480531
0
ARC
8
DEFAULT_255_2_778
10
10.4679045
20
5.7053737
40
1.3863292
50
241.7528043
51
247.5407648
0
ARC
8
DEFAULT_255_2_778
10
10.3105851
20
5.3280957
40
0.9775678
50
247.6144361
51
256.9839176
0
ARC
8
DEFAULT_255_2_778
10
10.406505
20
5.7920182
40
1.4512161
50
257.4194516
51
263.4442331
0
ARC
8
DEFAULT_255_2_778
10
10.7671896
20
8.6300177
40
4.3119745
50
262.9883162
51
263.719424
0
ARC
8
DEFAULT_255_2_778
10
11.1321895
20
11.8883397
40
7.5906731
50
263.671437
51
263.6821294
0
ARC
8
DEFAULT_255_2_778
10
11.113685
20
11.7151821
40
7.416531
50
263.6770076
51
263.6878197
0
ARC
8
DEFAULT_255_2_778
10
11.0955094
20
11.5449977
40
7.24538
50
263.6827148
51
263.6936492
0
ARC
8
DEFAULT_255_2_778
10
9.8583837
20
0.3390677
40
4.0286322
50
83.6908942
51
83.7117118
0
ARC
8
DEFAULT_255_2_778
10
11.0593121
20
11.221673
40
6.9200358
50
263.7096004
51
263.720765
0
ARC
8
DEFAULT_255_2_778
10
9.7332615
20
-0.834922
40
5.2092631
50
83.7104384
51
83.7271858
0
ARC
8
DEFAULT_255_2_778
10
9.8984728
20
0.6471473
40
3.7180155
50
83.717276
51
83.7389689
0
ARC
8
DEFAULT_255_2_778
10
11.1103494
20
11.6695853
40
7.3708432
50
263.7300093
51
263.7408098
0
ARC
8
DEFAULT_255_2_778
10
9.8705609
20
0.3567819
40
4.0096928
50
83.7341285
51
83.7550324
0
ARC
8
DEFAULT_255_2_778
10
9.8848325
20
0.4685302
40
3.8970549
50
83.742176
51
83.7633858
0
ARC
8
DEFAULT_255_2_778
10
11.1535898
20
12.0460317
40
7.7497595
50
263.7479477
51
263.7584651
0
ARC
8
DEFAULT_255_2_778
10
7.7404822
20
-19.1982819
40
23.6804242
50
83.7630642
51
83.7681576
0
ARC
8
DEFAULT_255_2_778
10
7.8691834
20
-18.0831203
40
22.557882
50
83.7750706
51
83.7803056
0
ARC
8
DEFAULT_255_2_778
10
11.4459747
20
14.7177581
40
10.4374368
50
263.780338
51
263.7877196
0
ARC
8
DEFAULT_255_2_778
10
11.0497199
20
11.0660736
40
6.7643163
50
263.7773027
51
263.7885333
0
ARC
8
DEFAULT_255_2_778
10
11.3865918
20
14.1722436
40
9.8886998
50
263.7954172
51
263.8029919
0
ARC
8
DEFAULT_255_2_778
10
5.032106
20
-44.3323137
40
48.9599424
50
83.7980841
51
83.8007254
0
ARC
8
DEFAULT_255_2_778
10
11.3099954
20
13.4486353
40
9.1610518
50
263.8048326
51
263.8126958
0
ARC
8
DEFAULT_255_2_778
10
7.2308949
20
-24.4075395
40
28.914258
50
83.7177665
51
83.8617675
0
ARC
8
DEFAULT_255_2_778
10
9.3446941
20
-5.1296599
40
9.5208423
50
83.6011879
51
83.6672316
0
ARC
8
DEFAULT_255_2_778
10
9.3022346
20
18.5414841
40
14.2524014
50
274.4407684
51
274.4445464
0
ARC
8
DEFAULT_255_2_778
10
9.5410617
20
15.5024635
40
11.2040123
50
274.4312378
51
274.440759
0
ARC
8
DEFAULT_255_2_778
10
9.5733033
20
15.1302181
40
10.8303886
50
274.423182
51
274.4328572
0
ARC
8
DEFAULT_255_2_778
10
9.6541886
20
14.1119888
40
9.8089536
50
274.4215043
51
274.4293767
0
ARC
8
DEFAULT_255_2_778
10
9.6269999
20
14.4822909
40
10.1802496
50
274.4209853
51
274.4309624
0
ARC
8
DEFAULT_255_2_778
10
9.4465681
20
16.8352184
40
12.5400845
50
274.4223292
51
274.4292923
0
ARC
8
DEFAULT_255_2_778
10
9.4970927
20
16.2323136
40
11.9350791
50
274.4109914
51
274.4192229
0
ARC
8
DEFAULT_255_2_778
10
9.5307698
20
15.8256377
40
11.5270175
50
274.4080833
51
274.4164565
0
ARC
8
DEFAULT_255_2_778
10
9.4555204
20
16.8101605
40
12.5144114
50
274.4128506
51
274.4185349
0
ARC
8
DEFAULT_255_2_778
10
3.8847746
20
89.0680169
40
84.9866889
50
274.4099934
51
274.4121936
0
ARC
8
DEFAULT_255_2_778
10
-63.4868309
20
965.8491531
40
964.352419
50
274.3955639
51
274.3984769
0
ARC
8
DEFAULT_255_2_778
10
9.2781691
20
19.8616036
40
15.5704688
50
274.3965656
51
274.5667472
0
ARC
8
DEFAULT_255_2_778
10
10.264837
20
7.7262782
40
3.3951554
50
274.2745257
51
276.8072204
0
ARC
8
DEFAULT_255_2_778
10
10.5647526
20
5.2844734
40
0.9350527
50
276.2939433
51
286.588802
0
ARC
8
DEFAULT_255_2_778
10
10.6680978
20
4.9158879
40
0.5523378
50
287.2306957
51
303.5848695
0
ARC
8
DEFAULT_255_2_778
10
10.5637667
20
5.0695386
40
0.7380548
50
303.7338874
51
312.1639436
0
ARC
8
DEFAULT_255_2_778
10
10.2466225
20
5.4232658
40
1.2131338
50
312.0522506
51
316.8670923
0
ARC
8
DEFAULT_255_2_778
10
9.7522453
20
5.892761
40
1.8949116
50
316.7273645
51
318.830816
0
ARC
8
DEFAULT_255_2_778
10
10.0395951
20
8.4069607
40
1.1390809
50
0.000455
51
14.93838
0
ARC
8
DEFAULT_255_2_778
10
10.0005764
20
8.3963112
40
1.1795262
50
14.9496148
51
27.3943313
0
ARC
8
DEFAULT_255_2_778
10
10.0162243
20
8.4056954
40
1.1613159
50
27.3384791
51
34.77725
0
ARC
8
DEFAULT_255_2_778
10
10.1211992
20
8.4787465
40
1.0334246
50
34.7702629
51
39.7950415
0
ARC
8
DEFAULT_255_2_778
10
10.2767745
20
8.6088644
40
0.8306091
50
39.7674659
51
44.4636334
0
ARC
8
DEFAULT_255_2_778
10
12.0380349
20
11.0366898
40
2.1847394
50
237.6238479
51
237.6677804
0
ARC
8
DEFAULT_255_2_778
10
12.3542645
20
11.5202436
40
2.7624702
50
235.2811279
51
237.4550015
0
ARC
8
DEFAULT_255_2_778
10
1.7051955
20
-3.8268162
40
15.91733
50
55.2373967
51
55.5940472
0
ARC
8
DEFAULT_255_2_778
10
10.0729102
20
8.4341996
40
1.0733951
50
54.2969962
51
70.0081382
0
ARC
8
DEFAULT_255_2_778
10
10.1126451
20
8.4876929
40
1.0097203
50
71.0892822
51
81.2569127
0
ARC
8
DEFAULT_255_2_778
10
10.0331359
20
7.97744
40
1.5261302
50
81.2184416
51
88.1733008
0
ARC
8
DEFAULT_255_2_778
10
10.0052794
20
7.375991
40
2.1281792
50
87.9398762
51
90.0323975
0
ARC
8
DEFAULT_255_2_778
10
10.587059
20
-6.2772569
40
15.7921909
50
92.115606
51
93.6380423
0
ARC
8
DEFAULT_255_2_778
10
10.3321533
20
-2.2977397
40
11.8045187
50
93.6289219
51
95.534405
0
ARC
8
DEFAULT_255_2_778
10
10.0440027
20
0.6667118
40
8.8260959
50
95.5285269
51
97.813344
0
ARC
8
DEFAULT_255_2_778
10
9.7468755
20
2.8212688
40
6.6511481
50
97.800727
51
100.7096402
0
ARC
8
DEFAULT_255_2_778
10
9.4533352
20
4.3648617
40
5.0798932
50
100.691838
51
104.6029836
0
ARC
8
DEFAULT_255_2_778
10
9.2270542
20
5.2397034
40
4.1762627
50
104.624847
51
109.2470755
0
ARC
8
DEFAULT_255_2_778
10
9.3324371
20
4.9811516
40
4.4551243
50
109.4305062
51
115.4724899
0
ARC
8
DEFAULT_255_2_778
10
10.8091985
20
1.8222187
40
7.942146
50
115.2894074
51
116.5570292
0
ARC
8
DEFAULT_255_2_778
10
14.3323916
20
-5.2499779
40
15.8433357
50
116.5192864
51
116.915981
0
ARC
8
DEFAULT_255_2_778
10
7.1775839
20
30.5142938
40
21.6372309
50
269.2100521
51
269.9544332
0
ARC
8
DEFAULT_255_2_778
10
7.8098121
20
76.6245282
40
67.7517994
50
268.9722523
51
269.2130478
0
ARC
8
DEFAULT_255_2_778
10
-0.010377
20
-374.0566539
40
382.9972392
50
89.0118608
51
89.0193459
0
ARC
8
DEFAULT_255_2_778
10
5.8286943
20
-29.9473863
40
38.8384722
50
88.9438916
51
89.5184921
0
ARC
8
DEFAULT_255_2_778
10
6.0235377
20
-9.3924862
40
18.2826737
50
89.5877424
51
89.9903309
0
ARC
8
DEFAULT_255_2_778
10
5.9886714
20
-0.8573803
40
9.7476414
50
89.776923
51
93.0344925
0
ARC
8
DEFAULT_255_2_778
10
5.7291185
20
4.0656078
40
4.8178164
50
93.0513791
51
97.9966875
0
ARC
8
DEFAULT_255_2_778
10
5.4365499
20
6.1304826
40
2.7323204
50
97.9449575
51
105.2364886
0
ARC
8
DEFAULT_255_2_778
10
5.1320851
20
7.233946
40
1.5876346
50
105.1004893
51
116.4813038
0
ARC
8
DEFAULT_255_2_778
10
4.8260339
20
7.8306987
40
0.9170568
50
115.9911731
51
139.6549095
0
ARC
8
DEFAULT_255_2_778
10
4.7162929
20
7.9415388
40
0.7617785
50
140.6652697
51
166.4636085
0
ARC
8
DEFAULT_255_2_778
10
4.968001
20
7.8791845
40
1.021091
50
166.3678462
51
179.6080659
0
ARC
8
DEFAULT_255_2_778
10
5.1960994
20
7.8691599
40
1.2492813
50
179.2198734
51
180.0014649
0
ARC
8
DEFAULT_255_2_778
10
5.3017857
20
7.8701389
40
1.3549681
50
180.042749
51
183.6992849
0
ARC
8
DEFAULT_255_2_778
10
5.4977657
20
7.8825576
40
1.5513409
50
183.6899848
51
186.6976775
0
ARC
8
DEFAULT_255_2_778
10
5.7194832
20
7.9086202
40
1.7745849
50
186.6985097
51
189.556274
0
ARC
8
DEFAULT_255_2_778
10
5.9752114
20
7.9515195
40
2.0338864
50
189.5520188
51
192.0614458
0
ARC
8
DEFAULT_255_2_778
10
6.2615315
20
8.0126351
40
2.3266565
50
192.0598886
51
194.3707486
0
LINE
8
DEFAULT_255_2_778
10
6.356576
20
6.4947697
11
8.087476
21
7.3096697
0
LINE
8
DEFAULT_255_2_778
10
11.178676
20
4.6453697
11
11.178676
21
8.4069697
0
LINE
8
DEFAULT_255_2_778
10
4.007676
20
7.4351697
11
4.007376
21
7.4351697
0
LINE
8
DEFAULT_255_2_778
10
6.7864907
20
5.5094645
11
6.3049907
21
6.4770645
0
LINE
8
DEFAULT_255_2_778
10
6.3049907
20
6.4770645
11
9.3439907
21
8.0499645
0
LINE
8
DEFAULT_255_2_778
10
9.3439907
20
8.0499645
11
10.1633907
21
7.5477645
0
LINE
8
DEFAULT_255_2_778
10
10.1633907
20
7.5477645
11
6.7864907
21
5.5094645
0
LINE
8
DEFAULT_255_2_778
10
7.2231334
20
9.8800364
11
8.8376334
21
10.4899364
0
LINE
8
DEFAULT_255_2_778
10
8.8376334
20
10.4899364
11
14.1996334
21
7.3760364
0
LINE
8
DEFAULT_255_2_778
10
14.1996334
20
7.3760364
11
14.1996334
21
5.8086364
0
LINE
8
DEFAULT_255_2_778
10
14.1996334
20
5.8086364
11
7.5395334
21
9.6551364
0
LINE
8
DEFAULT_255_2_778
10
14.1994053
20
5.4167885
11
7.0014053
21
9.5908885
0
LINE
8
DEFAULT_255_2_778
10
7.0014053
20
9.5908885
11
7.2229053
21
9.8477885
0
LINE
8
DEFAULT_255_2_778
10
7.2229053
20
9.8477885
11
14.1994053
21
5.8086885
0
LINE
8
DEFAULT_255_2_778
10
14.1994053
20
5.8086885
11
14.1994053
21
5.4167885
0
ARC
8
DEFAULT_255_2_778
10
16.2878129
20
27.365016
40
18.6936682
50
236.1140602
51
237.8664392
0
ARC
8
DEFAULT_255_2_778
10
18.9568671
20
31.6138137
40
23.7112506
50
237.8657861
51
239.4781127
0
ARC
8
DEFAULT_255_2_778
10
21.9000097
20
36.5957491
40
29.4975921
50
239.4680829
51
240.710431
0
ARC
8
DEFAULT_255_2_778
10
24.9838021
20
42.0900044
40
35.798117
50
240.7078133
51
241.7997172
0
ARC
8
DEFAULT_255_2_778
10
8.2600018
20
11.1597534
40
0.6480103
50
252.6924995
51
270.030054
0
ARC
8
DEFAULT_255_2_778
10
8.2526722
20
11.2766842
40
0.7649795
50
270.574446
51
291.449974
0
ARC
8
DEFAULT_255_2_778
10
8.1404609
20
11.5872607
40
1.0951172
50
290.9720265
51
299.5599162
0
ARC
8
DEFAULT_255_2_778
10
19.0335727
20
-0.8257142
40
15.4441673
50
127.4441328
51
132.0933653
0
ARC
8
DEFAULT_255_2_778
10
18.2932209
20
0.1298297
40
14.2353934
50
124.4716123
51
127.4165988
0
ARC
8
DEFAULT_255_2_778
10
9.819319
20
12.4495506
40
0.7173953
50
305.5104232
51
325.4498554
0
ARC
8
DEFAULT_255_2_778
10
9.3575548
20
12.784199
40
1.2875799
50
324.8380971
51
334.3570452
0
ARC
8
DEFAULT_255_2_778
10
10.1371484
20
11.0520833
40
1.2351849
50
72.025495
51
84.3403821
0
ARC
8
DEFAULT_255_2_778
10
10.1767382
20
11.3792877
40
0.9056994
50
84.7913406
51
89.9387231
0
ARC
8
DEFAULT_255_2_778
10
10.1770482
20
11.4877654
40
0.7972214
50
89.9526662
51
94.9745354
0
ARC
8
DEFAULT_255_2_778
10
19.3673129
20
-7.5287089
40
21.8677827
50
115.0510932
51
117.9971345
0
ARC
8
DEFAULT_255_2_778
10
20.6296272
20
-9.9200854
40
24.5718652
50
117.9785022
51
119.8433554
0
ARC
8
DEFAULT_255_2_778
10
10.6173846
20
15.8043102
40
4.9361365
50
221.3247681
51
243.3316214
0
ARC
8
DEFAULT_255_2_778
10
11.0014885
20
16.172815
40
5.4679725
50
219.3490634
51
221.5668765
0
ARC
8
DEFAULT_255_2_778
10
10.9441905
20
12.4562874
40
0.0029249
50
92.6276881
51
122.0301523
0
ARC
8
DEFAULT_255_2_778
10
10.9396038
20
12.4527842
40
0.007817
50
340.0340492
51
55.2773631
0
ARC
8
DEFAULT_255_2_778
10
10.7789662
20
12.4548457
40
0.1680515
50
350.5545417
51
358.38687
0
LINE
8
DEFAULT_255_2_778
10
11.2863708
20
12.5777531
11
11.2852708
21
12.5658531
0
ARC
8
DEFAULT_255_2_778
10
10.5851211
20
12.3524254
40
0.2395542
50
163.3789573
51
178.8849751
0
ARC
8
DEFAULT_255_2_778
10
10.4425092
20
12.3512966
40
0.0970698
50
176.5801331
51
227.1356986
0
ARC
8
DEFAULT_255_2_778
10
10.653076
20
12.2342177
40
0.1271696
50
236.6023634
51
269.9765195
0
ARC
8
DEFAULT_255_2_778
10
10.6469226
20
12.2916266
40
0.1846793
50
271.8932577
51
301.0132418
0
ARC
8
DEFAULT_255_2_778
10
11.4081161
20
12.6071246
40
0.125886
50
294.028624
51
311.2242369
0
ARC
8
DEFAULT_255_2_778
10
11.4715541
20
12.5372113
40
0.0315383
50
308.2422841
51
356.2692337
0
ARC
8
DEFAULT_255_2_778
10
11.4743265
20
12.5340057
40
0.0287222
50
2.3016257
51
37.785632
0
ARC
8
DEFAULT_255_2_778
10
11.5289836
20
12.5805364
40
0.0431089
50
208.297609
51
222.1555732
0
ARC
8
DEFAULT_255_2_778
10
11.4922126
20
12.5597657
40
0.0012326
50
68.0259899
51
164.2353616
0
ARC
8
DEFAULT_255_2_778
10
11.4925893
20
12.5494307
40
0.0114785
50
84.0659113
51
89.5781784
0
LINE
8
DEFAULT_255_2_778
10
10.376476
20
12.2801475
11
10.583076
21
12.1280475
0
LINE
8
DEFAULT_255_2_778
10
10.742076
20
12.1333475
11
11.459376
21
12.4921475
0
LINE
8
DEFAULT_255_2_778
10
11.493776
20
12.5608475
11
10.355576
21
12.4209475
0
ARC
8
DEFAULT_255_2_778
10
11.69007
20
13.7252315
40
1.9373018
50
230.6489646
51
231.6623713
0
ARC
8
DEFAULT_255_2_778
10
10.693701
20
12.441105
40
0.3123916
50
228.9073688
51
260.8550647
0
ARC
8
DEFAULT_255_2_778
10
10.6775392
20
12.3956399
40
0.2650795
50
262.7424794
51
270.0552168
0
ARC
8
DEFAULT_255_2_778
10
10.677334
20
12.4287005
40
0.2981403
50
270.0885219
51
277.429475
0
ARC
8
DEFAULT_255_2_778
10
10.4242296
20
12.8343639
40
0.75953
50
292.5813578
51
309.7222741
0
ARC
8
DEFAULT_255_2_778
10
9.8304814
20
13.5954941
40
1.7246553
50
308.7345131
51
312.8247
0
ARC
8
DEFAULT_255_2_778
10
15.49121
20
7.5005448
40
6.5935341
50
132.3552455
51
132.9002943
0
ARC
8
DEFAULT_255_2_778
10
11.1493418
20
12.2684448
40
0.144963
50
123.4744733
51
133.8152726
0
ARC
8
DEFAULT_255_2_778
10
10.9032974
20
12.65254
40
0.311203
50
302.255536
51
302.9624404
0
ARC
8
DEFAULT_255_2_778
10
10.7103423
20
12.9503757
40
0.6660801
50
302.94915
51
303.293948
0
ARC
8
DEFAULT_255_2_778
10
11.9150119
20
11.1358395
40
1.5119517
50
122.107938
51
123.7062537
0
ARC
8
DEFAULT_255_2_778
10
11.5121724
20
11.7739569
40
0.7573227
50
117.0264636
51
121.9524654
0
ARC
8
DEFAULT_255_2_778
10
11.4499022
20
11.8988964
40
0.6177326
50
105.4518677
51
117.1472934
0
ARC
8
DEFAULT_255_2_778
10
11.420961
20
12.0026208
40
0.5100467
50
90.1697713
51
105.4226673
0
ARC
8
DEFAULT_255_2_778
10
11.41949
20
12.0341082
40
0.4785572
50
85.0256909
51
90.0048224
0
ARC
8
DEFAULT_255_2_778
10
11.460705
20
12.5509944
40
0.0401323
50
270.4001378
51
341.4802079
0
ARC
8
DEFAULT_255_2_778
10
11.4774173
20
12.5415206
40
0.0215912
50
351.2796234
51
0.0122485
0
ARC
8
DEFAULT_255_2_778
10
11.4748247
20
12.541324
40
0.0241846
50
0.476601
51
24.4945921
0
ARC
8
DEFAULT_255_2_778
10
11.4599166
20
12.5336299
40
0.0409493
50
25.6428924
51
52.605381
0
ARC
8
DEFAULT_255_2_778
10
9.9213717
20
10.8955078
40
2.2880889
50
46.899231
51
48.2621813
0
ARC
8
DEFAULT_255_2_778
10
10.6069931
20
11.6643199
40
1.2579683
50
48.252801
51
52.594578
0
ARC
8
DEFAULT_255_2_778
10
11.0017946
20
12.2121666
40
0.583275
50
50.7104972
51
74.855646
0
ARC
8
DEFAULT_255_2_778
10
11.0939841
20
12.4933959
40
0.2881461
50
77.9423996
51
82.1808784
0
ARC
8
DEFAULT_255_2_778
10
11.1313677
20
11.5547588
40
1.2241056
50
89.9149255
51
90.0283263
0
ARC
8
DEFAULT_255_2_778
10
11.1253842
20
11.4013425
40
1.3775327
50
89.7762995
51
95.0243616
0
ARC
8
DEFAULT_255_2_778
10
11.0761218
20
11.9524281
40
0.8242505
50
94.9681013
51
102.0397849
0
ARC
8
DEFAULT_255_2_778
10
11.0279802
20
12.1856314
40
0.5861371
50
102.1924121
51
109.365151
0
ARC
8
DEFAULT_255_2_778
10
11.1363256
20
11.8946532
40
0.8965974
50
109.7313876
51
112.9841112
0
ARC
8
DEFAULT_255_2_778
10
10.2420497
20
14.0284824
40
1.4170618
50
291.9954148
51
292.5827491
0
ARC
8
DEFAULT_255_2_778
10
11.3930126
20
11.0502623
40
1.7761135
50
110.4386847
51
116.367794
0
ARC
8
DEFAULT_255_2_778
10
11.0271984
20
11.7815472
40
0.9584454
50
116.1903292
51
124.9365366
0
ARC
8
DEFAULT_255_2_778
10
10.7334479
20
12.1960928
40
0.4503976
50
124.5020328
51
138.830045
0
ARC
8
DEFAULT_255_2_778
10
10.5255761
20
12.3736249
40
0.1770804
50
137.7940167
51
163.0342455
0
ARC
8
DEFAULT_255_2_778
10
10.4378464
20
12.4035215
40
0.0844982
50
165.0661407
51
174.8794992
0
ARC
8
DEFAULT_255_2_778
10
10.8573958
20
12.3624519
40
0.5060507
50
174.4876743
51
179.498376
0
ARC
8
DEFAULT_255_2_778
10
10.4593313
20
12.3586534
40
0.10828
50
175.6415291
51
208.5937847
0
ARC
8
DEFAULT_255_2_778
10
10.4283774
20
12.3465279
40
0.0754133
50
211.7618883
51
213.6289673
0
ARC
8
DEFAULT_255_2_778
10
10.5088589
20
12.4155633
40
0.1811189
50
217.7164756
51
230.7599206
0
ARC
8
DEFAULT_255_2_778
10
10.4912404
20
12.3965171
40
0.1552308
50
231.3495677
51
232.1761953
0
ARC
8
DEFAULT_255_2_778
10
10.5235734
20
12.4396313
40
0.2091164
50
232.4225905
51
236.5722465
0
ARC
8
DEFAULT_255_2_778
10
10.0879369
20
11.7567258
40
0.600942
50
53.0652422
51
57.7763734
0
ARC
8
DEFAULT_255_2_778
10
10.1756497
20
11.8822557
40
0.4479279
50
50.3143639
51
52.3846015
0
LINE
8
DEFAULT_255_2_778
10
10.4616852
20
12.2269631
11
10.4616852
21
12.2271631
0
ARC
8
DEFAULT_255_2_778
10
10.6846297
20
12.4716846
40
0.3208738
50
225.1008255
51
266.5424307
0
ARC
8
DEFAULT_255_2_778
10
10.6647004
20
12.4000926
40
0.2486984
50
270.133062
51
282.289753
0
ARC
8
DEFAULT_255_2_778
10
10.4902786
20
12.7623544
40
0.6465544
50
290.5880604
51
311.2478297
0
ARC
8
DEFAULT_255_2_778
10
10.1282698
20
13.2360492
40
1.2420361
50
309.3961272
51
309.6028917
0
ARC
8
DEFAULT_255_2_778
10
10.1013989
20
13.268405
40
1.2840948
50
309.6063677
51
309.8023151
0
ARC
8
DEFAULT_255_2_778
10
10.1108384
20
13.2571132
40
1.2693771
50
309.8012495
51
309.9954242
0
ARC
8
DEFAULT_255_2_778
10
10.0767726
20
13.297809
40
1.322449
50
309.9928832
51
310.1754299
0
ARC
8
DEFAULT_255_2_778
10
10.0835645
20
13.289897
40
1.3120221
50
310.1717087
51
310.3518888
0
ARC
8
DEFAULT_255_2_778
10
10.0461086
20
13.334073
40
1.3699397
50
310.3494375
51
310.5183919
0
ARC
8
DEFAULT_255_2_778
10
10.042233
20
13.338761
40
1.3760215
50
310.5142472
51
310.6789114
0
ARC
8
DEFAULT_255_2_778
10
9.9907557
20
13.3987417
40
1.4550633
50
310.6766485
51
310.8290639
0
ARC
8
DEFAULT_255_2_778
10
9.9797988
20
13.411446
40
1.4718398
50
310.8284606
51
310.9759198
0
ARC
8
DEFAULT_255_2_778
10
9.9230218
20
13.4767039
40
1.5583396
50
310.9786206
51
311.182726
0
ARC
8
DEFAULT_255_2_778
10
9.9402169
20
13.4569962
40
1.5321849
50
311.1840549
51
311.3848958
0
ARC
8
DEFAULT_255_2_778
10
9.8871846
20
13.5173102
40
1.612498
50
311.3818731
51
311.5664519
0
ARC
8
DEFAULT_255_2_778
10
9.8530695
20
13.5559488
40
1.6640419
50
311.5626024
51
311.7355492
0
ARC
8
DEFAULT_255_2_778
10
9.8107046
20
13.6034414
40
1.727684
50
311.735492
51
311.8965168
0
ARC
8
DEFAULT_255_2_778
10
9.7768994
20
13.6412267
40
1.7783842
50
311.8942735
51
312.0704971
0
ARC
8
DEFAULT_255_2_778
10
9.668117
20
13.7616298
40
1.940651
50
312.0727433
51
312.227863
0
ARC
8
DEFAULT_255_2_778
10
9.6259066
20
13.8081088
40
2.0034365
50
312.2283844
51
312.382907
0
ARC
8
DEFAULT_255_2_778
10
9.6071128
20
13.8286768
40
2.0312976
50
312.3834055
51
312.538927
0
ARC
8
DEFAULT_255_2_778
10
9.5427068
20
13.8991927
40
2.1267994
50
312.533008
51
312.6747097
0
ARC
8
DEFAULT_255_2_778
10
9.2597561
20
14.2059672
40
2.5441382
50
312.676663
51
312.7896323
0
ARC
8
DEFAULT_255_2_778
10
9.2617657
20
14.2036334
40
2.5410605
50
312.7921264
51
312.8999613
0
ARC
8
DEFAULT_255_2_778
10
9.1061862
20
14.3709765
40
2.7695526
50
312.9010965
51
312.9953986
0
ARC
8
DEFAULT_255_2_778
10
17.9660006
20
4.9601098
40
10.1556858
50
132.9795861
51
133.348012
0
ARC
8
DEFAULT_255_2_778
10
11.147373
20
12.283217
40
0.1496617
50
124.0674395
51
134.4933099
0
ARC
8
DEFAULT_255_2_778
10
12.0824911
20
10.8133207
40
1.8917446
50
121.6600492
51
122.5905492
0
ARC
8
DEFAULT_255_2_778
10
11.5247228
20
11.7136084
40
0.8326826
50
117.5011906
51
121.5074124
0
ARC
8
DEFAULT_255_2_778
10
11.4951088
20
11.7693435
40
0.769571
50
115.3838143
51
117.4616587
0
ARC
8
DEFAULT_255_2_778
10
11.4597987
20
11.8482206
40
0.6831749
50
104.8352556
51
115.5441536
0
ARC
8
DEFAULT_255_2_778
10
11.4260051
20
11.9774442
40
0.5496065
50
90.2465129
51
104.8789769
0
ARC
8
DEFAULT_255_2_778
10
11.4237735
20
12.0347119
40
0.4923337
50
85.0287315
51
90.0154854
0
ARC
8
DEFAULT_255_2_778
10
11.4663547
20
12.5577732
40
0.0325797
50
270.1451753
51
329.625489
0
ARC
8
DEFAULT_255_2_778
10
11.4795036
20
12.5468257
40
0.0159471
50
339.723715
51
0.2854263
0
ARC
8
DEFAULT_255_2_778
10
11.4615797
20
12.5436623
40
0.0340257
50
5.4688738
51
46.7462239
0
ARC
8
DEFAULT_255_2_778
10
11.4231264
20
12.5114551
40
0.0840427
50
42.6951981
51
51.2443141
0
ARC
8
DEFAULT_255_2_778
10
12.0848588
20
13.2320375
40
0.8944896
50
226.8801536
51
227.0804282
0
ARC
8
DEFAULT_255_2_778
10
12.2638211
20
13.4228611
40
1.156102
50
226.7147057
51
226.8704308
0
ARC
8
DEFAULT_255_2_778
10
6.9651563
20
7.8653181
40
6.5226035
50
46.3042193
51
46.8415687
0
ARC
8
DEFAULT_255_2_778
10
10.5818421
20
11.7185728
40
1.237913
50
46.9596052
51
50.5943515
0
ARC
8
DEFAULT_255_2_778
10
11.0398296
20
12.3116501
40
0.4894487
50
47.945965
51
78.2218414
0
ARC
8
DEFAULT_255_2_778
10
11.1379874
20
11.6562325
40
1.1345624
50
89.9116311
51
90.0294227
0
ARC
8
DEFAULT_255_2_778
10
11.1325312
20
11.4557477
40
1.3350564
50
89.7908428
51
94.8331508
0
ARC
8
DEFAULT_255_2_778
10
11.0873888
20
11.9782325
40
0.8106265
50
94.7652775
51
101.865622
0
ARC
8
DEFAULT_255_2_778
10
11.0509479
20
12.1629899
40
0.6223285
50
102.0798683
51
108.0509355
0
ARC
8
DEFAULT_255_2_778
10
11.4449736
20
11.0181217
40
1.8330494
50
108.6723615
51
110.5768625
0
ARC
8
DEFAULT_255_2_778
10
10.6398382
20
13.1808081
40
0.474679
50
287.6975845
51
289.8119846
0
ARC
8
DEFAULT_255_2_778
10
11.4043988
20
11.063723
40
1.7766593
50
110.4333005
51
116.3619303
0
ARC
8
DEFAULT_255_2_778
10
11.0383819
20
11.7955945
40
0.958376
50
116.1841619
51
124.9323453
0
ARC
8
DEFAULT_255_2_778
10
10.744473
20
12.2104152
40
0.4500123
50
124.4962603
51
138.8365065
0
ARC
8
DEFAULT_255_2_778
10
10.5365063
20
12.3879706
40
0.1766083
50
137.7931472
51
163.0943856
0
ARC
8
DEFAULT_255_2_778
10
10.4487963
20
12.4177601
40
0.0840794
50
165.1367704
51
174.9962828
0
ARC
8
DEFAULT_255_2_778
10
10.7040894
20
12.3934206
40
0.3405283
50
174.6631313
51
179.7376183
0
ARC
8
DEFAULT_255_2_778
10
10.5142853
20
12.3909752
40
0.1507738
50
178.4779407
51
201.1372916
0
ARC
8
DEFAULT_255_2_778
10
10.7458738
20
12.4764495
40
0.3976211
50
200.5914157
51
201.2948683
0
ARC
8
DEFAULT_255_2_778
10
2.7170556
20
9.3347377
40
8.2239959
50
21.3181382
51
21.3742874
0
ARC
8
DEFAULT_255_2_778
10
9.9528385
20
12.1594653
40
0.4563949
50
20.8885503
51
21.2041503
0
ARC
8
DEFAULT_255_2_778
10
10.5285159
20
12.4133026
40
0.1748856
50
211.3969144
51
229.6276979
0
ARC
8
DEFAULT_255_2_778
10
10.5728242
20
12.466875
40
0.2444023
50
229.8492938
51
231.8574886
0
ARC
8
DEFAULT_255_2_778
10
10.7742543
20
12.723449
40
0.5705991
50
231.862009
51
232.6646457
0
ARC
8
DEFAULT_255_2_778
10
10.2839026
20
12.0712057
40
0.2454533
50
44.8767361
51
53.9938202
0
LINE
8
DEFAULT_255_2_778
10
10.4578373
20
12.2443936
11
10.4581373
21
12.2443936
0
ARC
8
DEFAULT_255_2_778
10
11.1651211
20
12.7046817
40
0.0262285
50
208.7077973
51
264.3011245
0
ARC
8
DEFAULT_255_2_778
10
11.1544131
20
12.808021
40
0.1296914
50
273.5823588
51
279.0801306
0
ARC
8
DEFAULT_255_2_778
10
11.1367464
20
12.9249706
40
0.2479658
50
278.846505
51
281.5581023
0
ARC
8
DEFAULT_255_2_778
10
11.1329414
20
12.9486759
40
0.2719547
50
281.3428139
51
284.5834102
0
ARC
8
DEFAULT_255_2_778
10
11.039854
20
13.525535
40
0.8554472
50
280.8864622
51
282.1959547
0
ARC
8
DEFAULT_255_2_778
10
11.2032581
20
12.7705971
40
0.0830279
50
282.0363903
51
292.4888612
0
ARC
8
DEFAULT_255_2_778
10
11.1914609
20
12.6835936
40
0.0447546
50
13.2916087
51
29.7173809
0
ARC
8
DEFAULT_255_2_778
10
11.1957433
20
12.6882869
40
0.0387581
50
26.8287906
51
63.5336696
0
ARC
8
DEFAULT_255_2_778
10
11.1880408
20
12.6392724
40
0.0873571
50
73.3869923
51
88.5110454
0
ARC
8
DEFAULT_255_2_778
10
11.1905613
20
12.668908
40
0.0576925
50
90.2488993
51
97.1604369
0
ARC
8
DEFAULT_255_2_778
10
11.1581468
20
12.9376514
40
0.2129996
50
276.1637428
51
276.8008632
0
ARC
8
DEFAULT_255_2_778
10
11.1860395
20
12.6270401
40
0.0989705
50
92.9090677
51
112.693545
0
ARC
8
DEFAULT_255_2_778
10
11.1642409
20
12.684269
40
0.0378135
50
115.6768252
51
118.8421301
0
ARC
8
DEFAULT_255_2_778
10
11.1523077
20
12.7029685
40
0.0157424
50
113.6221408
51
154.349805
0
ARC
8
DEFAULT_255_2_778
10
11.1620362
20
12.7015718
40
0.0252897
50
161.0533891
51
179.0386674
0
ARC
8
DEFAULT_255_2_778
10
11.1533949
20
12.7019708
40
0.0166448
50
179.9129242
51
185.1280978
0
ARC
8
DEFAULT_255_2_778
10
11.1569746
20
12.709493
40
0.02208
50
204.0832615
51
219.5501559
0
LINE
8
DEFAULT_255_2_778
10
11.1399495
20
12.6954335
11
11.1400207
21
12.6953422
0
ARC
8
DEFAULT_255_2_778
10
11.122082
20
12.680804
40
0.0230902
50
29.8109519
51
39.0227559
0
ARC
8
DEFAULT_255_2_778
10
11.6755137
20
11.3799381
40
1.2665494
50
121.4744634
51
127.5724845
0
ARC
8
DEFAULT_255_2_778
10
11.3625482
20
11.9134652
40
0.6482179
50
103.9942878
51
122.5037825
0
ARC
8
DEFAULT_255_2_778
10
11.2821112
20
12.2059253
40
0.3450641
50
90.3477821
51
102.7778554
0
ARC
8
DEFAULT_255_2_778
10
11.2313128
20
12.3351752
40
0.2212354
50
77.2824474
51
77.5672471
0
ARC
8
DEFAULT_255_2_778
10
11.229565
20
12.3242583
40
0.2322734
50
77.7259869
51
90.1753058
0
ARC
8
DEFAULT_255_2_778
10
11.2407998
20
12.1836399
40
0.3730821
50
91.8348348
51
115.3071956
0
ARC
8
DEFAULT_255_2_778
10
11.3324812
20
11.9515267
40
0.6223247
50
113.8027249
51
114.1990215
0
ARC
8
DEFAULT_255_2_778
10
11.455252
20
11.688648
40
0.9124379
50
114.4644294
51
117.6059364
0
ARC
8
DEFAULT_255_2_778
10
9.7009578
20
15.0715612
40
2.8982972
50
297.092324
51
297.3484811
0
ARC
8
DEFAULT_255_2_778
10
11.2487684
20
12.1226332
40
0.433381
50
121.7189981
51
130.6568631
0
ARC
8
DEFAULT_255_2_778
10
11.1167873
20
12.2799102
40
0.2280895
50
131.2462273
51
144.7794153
0
ARC
8
DEFAULT_255_2_778
10
10.5614147
20
12.6850977
40
0.4594225
50
322.7377804
51
323.442971
0
ARC
8
DEFAULT_255_2_778
10
10.8506412
20
12.4617729
40
0.0940564
50
303.9851924
51
324.3352234
0
LINE
8
DEFAULT_255_2_778
10
11.1421167
20
12.692283
11
11.1421167
21
12.692083
0
LINE
8
DEFAULT_255_2_778
10
10.9032167
20
12.383783
11
10.9032167
21
12.383783
0
ARC
8
DEFAULT_255_2_778
10
10.2061634
20
12.0024828
40
0.1224665
50
286.929819
51
312.3886266
0
ARC
8
DEFAULT_255_2_778
10
9.426714
20
12.8168952
40
1.2497372
50
313.6106153
51
316.419281
0
ARC
8
DEFAULT_255_2_778
10
10.9253172
20
11.3607201
40
0.8399905
50
134.1505037
51
134.9349905
0
ARC
8
DEFAULT_255_2_778
10
11.3237962
20
6.8758915
40
5.1817368
50
100.905802
51
100.9419794
0
ARC
8
DEFAULT_255_2_778
10
11.1707223
20
7.671335
40
4.3716984
50
100.8672672
51
100.9082196
0
ARC
8
DEFAULT_255_2_778
10
11.5020283
20
5.9466648
40
6.1279021
50
100.8412687
51
100.8691824
0
ARC
8
DEFAULT_255_2_778
10
11.3312499
20
6.8381031
40
5.2202527
50
100.804126
51
100.8406012
0
ARC
8
DEFAULT_255_2_778
10
11.1232923
20
7.9315833
40
4.107174
50
100.7699446
51
100.8139451
0
ARC
8
DEFAULT_255_2_778
10
11.6408389
20
5.2135294
40
6.8740624
50
100.7462196
51
100.7742646
0
ARC
8
DEFAULT_255_2_778
10
12.2631662
20
1.9259737
40
10.220002
50
100.7192645
51
100.7373522
0
ARC
8
DEFAULT_255_2_778
10
12.9069661
20
-1.4920203
40
13.6980983
50
100.6932639
51
100.706002
0
ARC
8
DEFAULT_255_2_778
10
-186.6450546
20
1063.4125067
40
1069.7421122
50
280.6125231
51
280.61458
0
ARC
8
DEFAULT_255_2_778
10
10.253608
20
12.7832512
40
0.8216705
50
280.4766329
51
282.3096115
0
ARC
8
DEFAULT_255_2_778
10
10.3709581
20
12.2438306
40
0.2696332
50
282.3838138
51
286.5203707
0
ARC
8
DEFAULT_255_2_778
10
10.3019893
20
12.4422472
40
0.4795687
50
287.6794255
51
293.5426853
0
ARC
8
DEFAULT_255_2_778
10
9.2436696
20
15.0221805
40
3.2680385
50
292.4857828
51
292.5611174
0
ARC
8
DEFAULT_255_2_778
10
149.4056241
20
-321.1735038
40
360.9748935
50
112.6258249
51
112.6321795
0
ARC
8
DEFAULT_255_2_778
10
13.490239
20
4.9130858
40
7.6967392
50
112.1555565
51
112.5834833
0
ARC
8
DEFAULT_255_2_778
10
10.4277975
20
12.3878371
40
0.3814157
50
294.77394
51
315.3202519
0
ARC
8
DEFAULT_255_2_778
10
10.5153581
20
12.2878702
40
0.2490469
50
317.5094923
51
346.403548
0
ARC
8
DEFAULT_255_2_778
10
10.774152
20
12.4012475
40
0.1727354
50
264.4432294
51
269.8333844
0
ARC
8
DEFAULT_255_2_778
10
10.7738068
20
12.3638597
40
0.135347
50
269.9334602
51
277.4804118
0
ARC
8
DEFAULT_255_2_778
10
10.7250183
20
12.6113052
40
0.3873755
50
279.8711557
51
288.8318309
0
ARC
8
DEFAULT_255_2_778
10
11.3294646
20
10.6679299
40
1.6480063
50
104.2164001
51
106.9118346
0
ARC
8
DEFAULT_255_2_778
10
11.367751
20
10.5109635
40
1.8095689
50
102.9759834
51
104.1709724
0
ARC
8
DEFAULT_255_2_778
10
10.8933513
20
11.8562329
40
0.4235966
50
78.3156273
51
80.7521513
0
ARC
8
DEFAULT_255_2_778
10
11.3945802
20
14.1240379
40
1.8989866
50
257.3631783
51
258.3890226
0
ARC
8
DEFAULT_255_2_778
10
11.0408097
20
12.412733
40
0.1515134
50
259.1848544
51
269.9544242
0
ARC
8
DEFAULT_255_2_778
10
11.0372279
20
12.5018289
40
0.2406342
50
270.8241678
51
281.0333499
0
ARC
8
DEFAULT_255_2_778
10
10.9706923
20
12.8782785
40
0.6228956
50
280.4134312
51
283.8617534
0
ARC
8
DEFAULT_255_2_778
10
11.0887591
20
12.3205293
40
0.0563992
50
303.5459384
51
330.4866717
0
ARC
8
DEFAULT_255_2_778
10
11.1112079
20
12.3075634
40
0.0304768
50
330.9089718
51
358.7821866
0
ARC
8
DEFAULT_255_2_778
10
11.1147861
20
12.3043112
40
0.0270175
50
5.5318902
51
99.9330208
0
ARC
8
DEFAULT_255_2_778
10
11.0837665
20
12.6240416
40
0.2943006
50
270.3898313
51
275.1386055
0
ARC
8
DEFAULT_255_2_778
10
11.0852465
20
12.4814145
40
0.1516675
50
269.9344351
51
270.1973344
0
ARC
8
DEFAULT_255_2_778
10
11.0820915
20
12.4701192
40
0.1404039
50
253.0420884
51
271.2167349
0
ARC
8
DEFAULT_255_2_778
10
11.0978645
20
12.5121586
40
0.1852376
50
247.2763097
51
252.1680797
0
ARC
8
DEFAULT_255_2_778
10
9.6972578
20
9.1531811
40
3.4540522
50
67.3698896
51
67.5911477
0
ARC
8
DEFAULT_255_2_778
10
10.9390434
20
12.1671432
40
0.1943002
50
67.3117841
51
80.1937926
0
ARC
8
DEFAULT_255_2_778
10
10.9276531
20
12.1030939
40
0.2593539
50
80.124152
51
84.2081773
0
ARC
8
DEFAULT_255_2_778
10
11.1622424
20
10.0182832
40
2.3520926
50
95.0835934
51
95.1719015
0
ARC
8
DEFAULT_255_2_778
10
11.1358067
20
10.31174
40
2.0574475
50
95.175392
51
95.2701667
0
ARC
8
DEFAULT_255_2_778
10
11.1490397
20
10.1698105
40
2.1999924
50
95.2738264
51
95.3978396
0
ARC
8
DEFAULT_255_2_778
10
11.1434012
20
10.2312371
40
2.1383079
50
95.4022598
51
95.5186669
0
ARC
8
DEFAULT_255_2_778
10
11.1442725
20
10.2223022
40
2.1472851
50
95.5188802
51
95.6421348
0
ARC
8
DEFAULT_255_2_778
10
11.1516769
20
10.1482863
40
2.2216702
50
95.6444997
51
95.7670911
0
ARC
8
DEFAULT_255_2_778
10
11.1796414
20
9.8721385
40
2.4992303
50
95.7687933
51
95.8661395
0
ARC
8
DEFAULT_255_2_778
10
10.7814596
20
13.5932167
40
1.2431582
50
274.3878717
51
276.5936753
0
ARC
8
DEFAULT_255_2_778
10
10.8572417
20
12.6683804
40
0.3152712
50
269.9526879
51
273.5150363
0
ARC
8
DEFAULT_255_2_778
10
10.8613792
20
12.9669342
40
0.6138406
50
265.8336953
51
269.5895015
0
ARC
8
DEFAULT_255_2_778
10
10.947498
20
14.3105386
40
1.960186
50
265.4156136
51
266.176384
0
ARC
8
DEFAULT_255_2_778
10
10.6453085
20
12.6483739
40
0.3260266
50
296.5087961
51
303.4280049
0
ARC
8
DEFAULT_255_2_778
10
11.5081373
20
11.3224193
40
1.2559523
50
122.4647933
51
122.9556183
0
ARC
8
DEFAULT_255_2_778
10
10.9325354
20
12.2307132
40
0.1806431
50
103.0929669
51
123.0698036
0
ARC
8
DEFAULT_255_2_778
10
11.0314659
20
11.8352438
40
0.5882816
50
97.3089173
51
103.7525709
0
ARC
8
DEFAULT_255_2_778
10
11.1325023
20
11.152394
40
1.2785064
50
96.980402
51
97.9069335
0
ARC
8
DEFAULT_255_2_778
10
10.8665073
20
11.5229497
40
0.905258
50
81.2955855
51
82.981179
0
ARC
8
DEFAULT_255_2_778
10
10.8474095
20
11.4113655
40
1.0184491
50
79.0286052
51
81.1835766
0
ARC
8
DEFAULT_255_2_778
10
11.2446381
20
13.4380528
40
1.0468038
50
258.7959171
51
260.4723795
0
ARC
8
DEFAULT_255_2_778
10
11.119596
20
12.6998907
40
0.2981288
50
260.690389
51
270.2643972
0
ARC
8
DEFAULT_255_2_778
10
11.1190029
20
12.9202212
40
0.5184598
50
270.2175856
51
274.1428902
0
ARC
8
DEFAULT_255_2_778
10
11.0988211
20
13.2379964
40
0.8368673
50
273.9492455
51
274.9289902
0
ARC
8
DEFAULT_255_2_778
10
11.1673486
20
12.4581879
40
0.0540697
50
273.5808427
51
330.0075394
0
ARC
8
DEFAULT_255_2_778
10
11.1620701
20
12.4622246
40
0.0606653
50
329.197601
51
346.365103
0
ARC
8
DEFAULT_255_2_778
10
11.1413424
20
12.3919959
40
0.0973517
50
35.0641659
51
83.1246665
0
ARC
8
DEFAULT_255_2_778
10
10.9812758
20
11.7765969
40
0.7324643
50
76.4412582
51
79.5007012
0
ARC
8
DEFAULT_255_2_778
10
11.6718218
20
15.4013028
40
2.9574452
50
258.745333
51
259.1427235
0
ARC
8
DEFAULT_255_2_778
10
11.1323516
20
12.7569391
40
0.2589719
50
240.7786986
51
261.6215422
0
ARC
8
DEFAULT_255_2_778
10
10.8759088
20
12.0118528
40
0.5351066
50
75.9378784
51
76.0068861
0
ARC
8
DEFAULT_255_2_778
10
10.9655639
20
12.3884772
40
0.1480356
50
74.4294201
51
90.0180499
0
ARC
8
DEFAULT_255_2_778
10
10.9661365
20
12.3262534
40
0.2102603
50
90.1687464
51
94.9686679
0
ARC
8
DEFAULT_255_2_778
10
10.8772269
20
13.0231588
40
0.4925354
50
278.2527654
51
281.2575876
0
ARC
8
DEFAULT_255_2_778
10
10.9031257
20
12.8886704
40
0.3555798
50
281.3952545
51
282.1964239
0
ARC
8
DEFAULT_255_2_778
10
10.929033
20
12.7762241
40
0.2402034
50
281.8227149
51
290.4025561
0
ARC
8
DEFAULT_255_2_778
10
10.2913922
20
14.4808185
40
2.0601558
50
290.4969506
51
290.7851872
0
ARC
8
DEFAULT_255_2_778
10
11.082131
20
12.4008019
40
0.165098
50
97.045295
51
111.1842379
0
ARC
8
DEFAULT_255_2_778
10
11.1094119
20
12.216026
40
0.3518523
50
94.839879
51
97.7636755
0
ARC
8
DEFAULT_255_2_778
10
10.9090893
20
12.0171881
40
0.5753228
50
66.4145524
51
72.7469487
0
ARC
8
DEFAULT_255_2_778
10
11.9926212
20
14.3741071
40
2.018867
50
244.9960578
51
246.5548799
0
ARC
8
DEFAULT_255_2_778
10
11.2483833
20
12.6679949
40
0.1575488
50
248.0035831
51
269.19293
0
ARC
8
DEFAULT_255_2_778
10
11.2536861
20
12.7589575
40
0.2486095
50
268.2661883
51
270.0231311
0
ARC
8
DEFAULT_255_2_778
10
11.2524233
20
12.8654445
40
0.3550993
50
270.2199432
51
274.7183819
0
ARC
8
DEFAULT_255_2_778
10
11.2425924
20
13.0061023
40
0.4960923
50
274.5136515
51
275.0343164
0
ARC
8
DEFAULT_255_2_778
10
11.3014305
20
12.4653142
40
0.0490581
50
92.7243729
51
108.1782708
0
ARC
8
DEFAULT_255_2_778
10
11.2995491
20
12.5384637
40
0.024151
50
268.9314362
51
309.2646716
0
ARC
8
DEFAULT_255_2_778
10
11.275199
20
12.5580621
40
0.0551145
50
315.9839445
51
341.895161
0
ARC
8
DEFAULT_255_2_778
10
11.1562413
20
12.6091084
40
0.1844077
50
338.3035773
51
341.2143416
0
ARC
8
DEFAULT_255_2_778
10
11.3065057
20
12.5572816
40
0.0254672
50
342.7365947
51
359.305423
0
ARC
8
DEFAULT_255_2_778
10
11.2962896
20
12.5463528
40
0.0372284
50
16.5748025
51
93.0410619
0
ARC
8
DEFAULT_255_2_778
10
11.204753
20
12.1751832
40
0.418052
50
77.6293254
51
81.0312365
0
ARC
8
DEFAULT_255_2_778
10
11.3324449
20
12.8659758
40
0.2847989
50
237.4992163
51
257.3191184
0
ARC
8
DEFAULT_255_2_778
10
17.7403811
20
24.2675247
40
13.3632487
50
240.5825217
51
240.5956059
0
ARC
8
DEFAULT_255_2_778
10
11.0294943
20
12.4026759
40
0.2685784
50
56.7482234
51
81.1044353
0
ARC
8
DEFAULT_255_2_778
10
11.0715355
20
12.0494124
40
0.6186116
50
90.047225
51
99.4885052
0
ARC
8
DEFAULT_255_2_778
10
11.1697242
20
11.4774707
40
1.1989175
50
99.6108908
51
102.1245486
0
ARC
8
DEFAULT_255_2_778
10
14.7970531
20
-5.8673826
40
18.9189868
50
101.8318326
51
101.8657093
0
ARC
8
DEFAULT_255_2_778
10
10.7039124
20
13.5484571
40
0.9237027
50
276.2055137
51
282.6983494
0
ARC
8
DEFAULT_255_2_778
10
10.7363134
20
13.3076833
40
0.6808654
50
275.0144339
51
275.6850522
0
ARC
8
DEFAULT_255_2_778
10
10.6779843
20
12.8989762
40
0.2941855
50
293.6137103
51
296.0186223
0
ARC
8
DEFAULT_255_2_778
10
10.6852101
20
12.882521
40
0.2762292
50
296.1689654
51
306.9450093
0
ARC
8
DEFAULT_255_2_778
10
4.8647087
20
20.7440908
40
10.0579657
50
306.5270842
51
306.6232004
0
ARC
8
DEFAULT_255_2_778
10
10.9749897
20
12.5313125
40
0.1785605
50
104.2539649
51
128.1098784
0
ARC
8
DEFAULT_255_2_778
10
11.0285336
20
12.31386
40
0.4025055
50
94.1810516
51
104.0196904
0
ARC
8
DEFAULT_255_2_778
10
11.1433752
20
11.0697996
40
1.6517999
50
94.99602
51
95.0077918
0
ARC
8
DEFAULT_255_2_778
10
10.9621385
20
13.1201387
40
0.4065377
50
275.2766558
51
286.4602899
0
ARC
8
DEFAULT_255_2_778
10
10.7096759
20
14.0361272
40
1.3566331
50
285.7241225
51
286.2061142
0
ARC
8
DEFAULT_255_2_778
10
12.6090837
20
7.5128815
40
5.4375178
50
106.0855432
51
106.2412746
0
ARC
8
DEFAULT_255_2_778
10
11.2026359
20
12.4229764
40
0.3300943
50
91.1789456
51
107.6594939
0
ARC
8
DEFAULT_255_2_778
10
11.1994762
20
12.4389572
40
0.3140647
50
89.9941458
51
90.6626123
0
ARC
8
DEFAULT_255_2_778
10
11.1994591
20
12.4216703
40
0.3313517
50
88.6050249
51
89.991492
0
ARC
8
DEFAULT_255_2_778
10
11.2029294
20
12.8034245
40
0.0507094
50
275.2003847
51
288.2839255
0
ARC
8
DEFAULT_255_2_778
10
11.2025926
20
12.8132408
40
0.0601992
50
285.6562625
51
351.2077643
0
ARC
8
DEFAULT_255_2_778
10
11.2317031
20
12.8040419
40
0.0303813
50
359.9948863
51
3.3073465
0
ARC
8
DEFAULT_255_2_778
10
11.2323096
20
12.8040785
40
0.0297738
50
3.3044891
51
23.4434208
0
ARC
8
DEFAULT_255_2_778
10
11.2059477
20
12.7232981
40
0.1070553
50
59.9070904
51
77.1575696
0
ARC
8
DEFAULT_255_2_778
10
11.2080375
20
12.7223039
40
0.1075838
50
78.3604772
51
90.6863954
0
ARC
8
DEFAULT_255_2_778
10
11.2151209
20
12.394245
40
0.4357153
50
91.100992
51
95.6762297
0
ARC
8
DEFAULT_255_2_778
10
10.8179329
20
1.5934654
40
11.2399373
50
88.1947074
51
88.481297
0
ARC
8
DEFAULT_255_2_778
10
11.0610263
20
10.861625
40
1.9685923
50
88.4047945
51
89.837367
0
ARC
8
DEFAULT_255_2_778
10
11.0627884
20
12.1581101
40
0.6721102
50
89.6738637
51
94.5154014
0
ARC
8
DEFAULT_255_2_778
10
11.0821762
20
12.0392616
40
0.7921787
50
95.236599
51
101.0472591
0
ARC
8
DEFAULT_255_2_778
10
11.7351315
20
8.5027667
40
4.3884132
50
100.5667538
51
101.4324391
0
ARC
8
DEFAULT_255_2_778
10
18.179794
20
-23.7530865
40
37.2817719
50
101.3145449
51
101.3566585
0
ARC
8
DEFAULT_255_2_778
10
10.1349422
20
13.9901071
40
1.3835762
50
296.8115203
51
300.5608399
0
ARC
8
DEFAULT_255_2_778
10
9.9624295
20
14.358479
40
1.7902009
50
293.1399013
51
296.4213736
0
LINE
8
DEFAULT_255_2_778
10
10.6659384
20
12.7123031
11
10.6639923
21
12.7114512
0
ARC
8
DEFAULT_255_2_778
10
11.2561609
20
11.3231034
40
1.5093619
50
113.0995855
51
117.4152164
0
ARC
8
DEFAULT_255_2_778
10
11.2105603
20
11.4313255
40
1.3923291
50
117.7999788
51
121.4849611
0
ARC
8
DEFAULT_255_2_778
10
11.4164836
20
11.0877881
40
1.7928428
50
121.3630662
51
121.8417136
0
ARC
8
DEFAULT_255_2_778
10
11.4769593
20
11.4325354
40
1.549539
50
130.4994444
51
135.9701818
0
ARC
8
DEFAULT_255_2_778
10
-3.0773233
20
25.2302872
40
18.5055925
50
316.0796794
51
316.5752358
0
ARC
8
DEFAULT_255_2_778
10
9.8665795
20
12.7480785
40
0.523803
50
291.7673163
51
317.4324567
0
ARC
8
DEFAULT_255_2_778
10
9.9723485
20
12.1365032
40
0.1532428
50
19.7599917
51
54.7345168
0
ARC
8
DEFAULT_255_2_778
10
9.5080947
20
11.9458013
40
0.6550198
50
11.8160344
51
21.7300316
0
ARC
8
DEFAULT_255_2_778
10
2.8231758
20
10.4118282
40
7.5135678
50
12.428013
51
12.8272289
0
ARC
8
DEFAULT_255_2_778
10
10.8202767
20
12.1612033
40
0.6727461
50
191.3466409
51
199.3163344
0
ARC
8
DEFAULT_255_2_778
10
10.2802112
20
11.9676826
40
0.0991492
50
197.0145824
51
229.2693673
0
ARC
8
DEFAULT_255_2_778
10
10.2373211
20
11.9225785
40
0.0371114
50
234.0159687
51
270.168616
0
ARC
8
DEFAULT_255_2_778
10
10.237405
20
11.9273981
40
0.041931
50
270.0345564
51
274.9534849
0
LINE
8
DEFAULT_255_2_778
10
10.2410256
20
11.8856238
11
10.2418256
21
11.8853238
0
ARC
8
DEFAULT_255_2_778
10
11.1429423
20
12.8284854
40
0.0024972
50
15.8657291
51
75.5742226
0
ARC
8
DEFAULT_255_2_778
10
11.1658864
20
12.814423
40
0.0277468
50
143.5606949
51
181.0922111
0
ARC
8
DEFAULT_255_2_778
10
11.3231459
20
12.7856768
40
0.187141
50
171.3277949
51
171.4541877
0
ARC
8
DEFAULT_255_2_778
10
11.4438959
20
12.7688609
40
0.3090518
50
171.6978401
51
174.9308635
0
ARC
8
DEFAULT_255_2_778
10
11.1027283
20
12.7989893
40
0.0334439
50
354.988932
51
355.1607587
0
ARC
8
DEFAULT_255_2_778
10
11.1766375
20
12.8705343
40
0.0848117
50
241.4042453
51
273.0545484
0
ARC
8
DEFAULT_255_2_778
10
11.1758137
20
13.0541181
40
0.2683283
50
271.1409949
51
283.7396296
0
ARC
8
DEFAULT_255_2_778
10
11.2402958
20
12.8009193
40
0.0074891
50
264.2412551
51
270.0189685
0
ARC
8
DEFAULT_255_2_778
10
11.2402986
20
12.8010745
40
0.0076444
50
269.9977252
51
276.2750715
0
ARC
8
DEFAULT_255_2_778
10
11.2361925
20
12.8089419
40
0.0162363
50
287.7193534
51
9.2110088
0
ARC
8
DEFAULT_255_2_778
10
11.2113966
20
12.8110096
40
0.0408263
50
0.7456933
51
18.8022884
0
ARC
8
DEFAULT_255_2_778
10
11.1898263
20
12.6448578
40
0.1891517
50
71.4363085
51
90.6090185
0
ARC
8
DEFAULT_255_2_778
10
11.1873407
20
12.6338655
40
0.200134
50
89.864003
51
101.4201996
0
ARC
8
DEFAULT_255_2_778
10
11.1838269
20
12.6540826
40
0.1796223
50
101.5984609
51
102.4690343
0
ARC
8
DEFAULT_255_2_778
10
11.2901213
20
12.6435384
40
0.0999858
50
235.4691418
51
275.5998143
0
ARC
8
DEFAULT_255_2_778
10
11.2995299
20
12.8440991
40
0.3000694
50
270.0664399
51
273.0975262
0
ARC
8
DEFAULT_255_2_778
10
11.3167308
20
12.5483818
40
0.0040361
50
255.8538559
51
270.1225423
0
ARC
8
DEFAULT_255_2_778
10
11.3164767
20
12.5505576
40
0.0062176
50
272.4213427
51
305.9865687
0
ARC
8
DEFAULT_255_2_778
10
11.2996856
20
12.5676247
40
0.0301047
50
312.7741749
51
3.2591111
0
ARC
8
DEFAULT_255_2_778
10
11.2903503
20
12.5693384
40
0.0393912
50
359.9968663
51
7.0426619
0
ARC
8
DEFAULT_255_2_778
10
11.2578527
20
12.4496202
40
0.1436577
50
60.1091644
51
65.7712026
0
ARC
8
DEFAULT_255_2_778
10
11.2431134
20
12.4212311
40
0.175604
50
65.1869509
51
87.5221089
0
ARC
8
DEFAULT_255_2_778
10
11.2483387
20
12.4749087
40
0.1217851
50
88.8864519
51
89.9950043
0
ARC
8
DEFAULT_255_2_778
10
11.2483082
20
12.482287
40
0.1144069
50
89.9794115
51
92.6872146
0
LINE
8
DEFAULT_255_2_778
10
11.1450444
20
12.8294681
11
11.1453444
21
12.8291681
0
LINE
8
DEFAULT_255_2_778
10
11.2429444
20
12.5965681
11
11.2334444
21
12.5611681
0
LINE
8
DEFAULT_255_2_778
10
11.2429444
20
12.5965681
11
11.2429444
21
12.5965681
0
ARC
8
DEFAULT_255_2_778
10
11.1471668
20
12.4905236
40
0.0607975
50
231.151106
51
274.6748821
0
ARC
8
DEFAULT_255_2_778
10
11.1487164
20
12.6320804
40
0.2021807
50
270.9651229
51
282.8642752
0
ARC
8
DEFAULT_255_2_778
10
11.7709752
20
11.8654457
40
0.8109096
50
134.7838594
51
135.3855184
0
ARC
8
DEFAULT_255_2_778
10
11.1860305
20
12.4550345
40
0.0196181
50
314.3434096
51
4.5218846
0
ARC
8
DEFAULT_255_2_778
10
11.1371393
20
12.4557904
40
0.0684528
50
0.6619051
51
8.5557702
0
ARC
8
DEFAULT_255_2_778
10
10.9547015
20
12.0075518
40
0.5222218
50
61.3818072
51
63.6995576
0
ARC
8
DEFAULT_255_2_778
10
11.1268969
20
12.3635529
40
0.1268215
50
62.1786793
51
87.544808
0
ARC
8
DEFAULT_255_2_778
10
11.1321536
20
12.4161561
40
0.074102
50
89.8637918
51
100.8775296
0
ARC
8
DEFAULT_255_2_778
10
11.1316042
20
12.4198543
40
0.0703669
50
101.006453
51
102.0363318
0
LINE
8
DEFAULT_255_2_778
10
11.1169304
20
12.4886743
11
11.1090304
21
12.4431743
0
LINE
8
DEFAULT_255_2_778
10
11.1169304
20
12.4886743
11
11.1169304
21
12.4886743
0
ARC
8
DEFAULT_255_2_778
10
11.0784879
20
12.3400932
40
0.0386344
50
241.593189
51
272.2385972
0
ARC
8
DEFAULT_255_2_778
10
11.0738681
20
12.4334768
40
0.1321308
50
272.6586184
51
291.227222
0
ARC
8
DEFAULT_255_2_778
10
11.1190955
20
12.3195385
40
0.0095905
50
285.8099159
51
11.4018448
0
ARC
8
DEFAULT_255_2_778
10
11.1012722
20
12.3209876
40
0.0272281
50
0.9402413
51
22.0527577
0
ARC
8
DEFAULT_255_2_778
10
11.0865692
20
12.2255303
40
0.1129756
50
69.2971815
51
90.0528454
0
ARC
8
DEFAULT_255_2_778
10
11.0864442
20
12.2260189
40
0.112487
50
89.9894113
51
90.5403193
0
ARC
8
DEFAULT_255_2_778
10
11.0864747
20
12.2235845
40
0.1149214
50
90.5440737
51
103.1098166
0
LINE
8
DEFAULT_255_2_778
10
11.0601084
20
12.3352107
11
11.0601084
21
12.3061107
0
LINE
8
DEFAULT_255_2_778
10
11.0604084
20
12.3355107
11
11.0601084
21
12.3352107
0
ARC
8
DEFAULT_255_2_778
10
2.6915439
20
11.4486764
40
0.1692213
50
32.038724
51
33.3525776
0
ARC
8
DEFAULT_255_2_778
10
2.666273
20
11.4328411
40
0.1990436
50
30.9182044
51
32.0437265
0
ARC
8
DEFAULT_255_2_778
10
2.6368702
20
11.4152279
40
0.2333182
50
29.9536692
51
30.9188935
0
ARC
8
DEFAULT_255_2_778
10
2.604101
20
11.3963472
40
0.2711376
50
29.1199559
51
29.9530652
0
ARC
8
DEFAULT_255_2_778
10
2.5689803
20
11.3767784
40
0.3113421
50
28.3945025
51
29.1207341
0
ARC
8
DEFAULT_255_2_778
10
2.5285614
20
11.3548933
40
0.3573057
50
27.7673199
51
28.3995361
0
ARC
8
DEFAULT_255_2_778
10
2.4710876
20
11.3246298
40
0.4222605
50
27.2341452
51
27.7676652
0
ARC
8
DEFAULT_255_2_778
10
2.4274061
20
11.3021281
40
0.4713971
50
26.7604277
51
27.236268
0
ARC
8
DEFAULT_255_2_778
10
2.3636708
20
11.2698818
40
0.5428254
50
26.3596437
51
26.7704622
0
ARC
8
DEFAULT_255_2_778
10
2.2799364
20
11.2283719
40
0.636284
50
26.0130897
51
26.361039
0
ARC
8
DEFAULT_255_2_778
10
2.181036
20
11.1800928
40
0.7463393
50
25.698721
51
26.0140609
0
ARC
8
DEFAULT_255_2_778
10
2.0577133
20
11.1207951
40
0.8831776
50
25.4321005
51
25.6957968
0
ARC
8
DEFAULT_255_2_778
10
1.9028157
20
11.0472265
40
1.0546582
50
25.209514
51
25.4277524
0
ARC
8
DEFAULT_255_2_778
10
8.0019417
20
13.834283
40
5.651168
50
204.4370104
51
205.3624904
0
ARC
8
DEFAULT_255_2_778
10
3.6973688
20
11.8006753
40
0.8904263
50
205.7637717
51
210.421392
0
ARC
8
DEFAULT_255_2_778
10
3.325016
20
11.5690565
40
0.4521942
50
209.0037094
51
237.6536514
0
ARC
8
DEFAULT_255_2_778
10
3.2789733
20
11.5168305
40
0.3835939
50
239.2902417
51
262.2643788
0
ARC
8
DEFAULT_255_2_778
10
3.2967482
20
11.624184
40
0.4923731
50
261.8962946
51
270.1450871
0
ARC
8
DEFAULT_255_2_778
10
2.7939296
20
10.8087669
40
0.5986989
50
27.2471119
51
32.655007
0
ARC
8
DEFAULT_255_2_778
10
1.9096258
20
10.3456961
40
1.5969025
50
24.5108952
51
27.4921168
0
ARC
8
DEFAULT_255_2_778
10
0.5611528
20
9.7265657
40
3.080713
50
22.5055467
51
24.5834262
0
ARC
8
DEFAULT_255_2_778
10
-0.91401
20
9.1115035
40
4.6789616
50
21.0954481
51
22.5492418
0
ARC
8
DEFAULT_255_2_778
10
-2.2907402
20
8.5796567
40
6.15485
50
19.6808282
51
21.1018446
0
ARC
8
DEFAULT_255_2_778
10
-3.5565535
20
8.126724
40
7.4992574
50
18.0379678
51
19.6821501
0
ARC
8
DEFAULT_255_2_778
10
-4.1724603
20
7.9234011
40
8.1478521
50
17.5117745
51
18.0563643
0
ARC
8
DEFAULT_255_2_778
10
-4.4937868
20
7.8228226
40
8.4845511
50
15.6956677
51
17.5065711
0
ARC
8
DEFAULT_255_2_778
10
-4.3812754
20
7.8522603
40
8.3682715
50
13.1692895
51
15.7100284
0
ARC
8
DEFAULT_255_2_778
10
-3.0018109
20
8.1598332
40
6.9550271
50
7.536421
51
13.291195
0
ARC
8
DEFAULT_255_2_778
10
-1.4705426
20
8.3776284
40
5.4084422
50
5.2979053
51
7.3766866
0
ARC
8
DEFAULT_255_2_778
10
2.2130497
20
8.6066163
40
1.7230934
50
5.6582879
51
9.0284477
0
ARC
8
DEFAULT_255_2_778
10
-1.4884805
20
8.2326424
40
5.4434652
50
4.4129443
51
5.7340533
0
ARC
8
DEFAULT_255_2_778
10
18.5226229
20
9.7437938
40
14.6246251
50
184.2833895
51
185.2387581
0
ARC
8
DEFAULT_255_2_778
10
7.5075656
20
8.7267358
40
3.5627225
50
185.1251185
51
190.7269736
0
ARC
8
DEFAULT_255_2_778
10
6.9157924
20
8.6345429
40
2.9641951
50
191.1051432
51
191.1346272
0
ARC
8
DEFAULT_255_2_778
10
4.4983433
20
8.1075266
40
0.4930443
50
185.2849888
51
204.5003773
0
ARC
8
DEFAULT_255_2_778
10
4.467861
20
8.1164756
40
0.4694782
50
207.0377363
51
257.7370423
0
ARC
8
DEFAULT_255_2_778
10
4.664562
20
8.7932475
40
1.1735884
50
255.3701357
51
270.6668503
0
ARC
8
DEFAULT_255_2_778
10
4.6848489
20
9.3357716
40
1.7160457
50
269.7787007
51
269.9999991
0
ARC
8
DEFAULT_255_2_778
10
4.6746223
20
9.8129953
40
2.1932932
50
270.26715
51
276.7052086
0
ARC
8
DEFAULT_255_2_778
10
4.5843492
20
10.6570373
40
3.0421152
50
276.5376676
51
279.1155379
0
ARC
8
DEFAULT_255_2_778
10
4.4996187
20
11.2000146
40
3.5916593
50
279.0778704
51
279.9816464
0
ARC
8
DEFAULT_255_2_778
10
4.4183561
20
11.6619578
40
4.0606956
50
279.9811206
51
280.6942382
0
ARC
8
DEFAULT_255_2_778
10
4.2878561
20
12.3534627
40
4.7644066
50
280.6931838
51
281.1560259
0
ARC
8
DEFAULT_255_2_778
10
4.0021216
20
13.8012025
40
6.2400742
50
281.1580877
51
281.4775386
0
ARC
8
DEFAULT_255_2_778
10
5.7648604
20
8.4539008
40
0.9280707
50
235.8438572
51
245.7721492
0
ARC
8
DEFAULT_255_2_778
10
5.7116207
20
8.3349096
40
0.7977124
50
245.7520639
51
260.6442776
0
ARC
8
DEFAULT_255_2_778
10
5.7059458
20
8.3101854
40
0.7723963
50
260.7614965
51
270.0225835
0
ARC
8
DEFAULT_255_2_778
10
5.7050853
20
8.3584112
40
0.8206228
50
270.08134
51
280.4594756
0
ARC
8
DEFAULT_255_2_778
10
5.654928
20
8.5771926
40
1.0449187
50
280.9862175
51
299.7597037
0
ARC
8
DEFAULT_255_2_778
10
5.3970668
20
9.0418507
40
1.5763028
50
299.5130358
51
311.1665987
0
ARC
8
DEFAULT_255_2_778
10
4.934974
20
9.5762371
40
2.2827646
50
311.0687798
51
319.8420344
0
ARC
8
DEFAULT_255_2_778
10
4.2778969
20
10.1345323
40
3.1449929
50
319.7884587
51
327.0381238
0
ARC
8
DEFAULT_255_2_778
10
3.5087164
20
10.6375224
40
4.0640295
50
326.9883741
51
333.0436539
0
ARC
8
DEFAULT_255_2_778
10
3.0674885
20
10.8711579
40
4.5632361
50
332.9402202
51
333.7433119
0
ARC
8
DEFAULT_255_2_778
10
1.8522832
20
7.9017302
40
5.3920812
50
10.1549487
51
15.6911573
0
ARC
8
DEFAULT_255_2_778
10
-1.8871112
20
6.8822555
40
9.2678882
50
15.5066578
51
17.2448207
0
ARC
8
DEFAULT_255_2_778
10
-5.5385793
20
5.7657857
40
13.0862044
50
17.1738212
51
17.344605
0
ARC
8
DEFAULT_255_2_778
10
-4.5684612
20
6.0693572
40
12.0696983
50
17.3419559
51
17.3599684
0
ARC
8
DEFAULT_255_2_778
10
-7.3243387
20
5.2073815
40
14.957234
50
17.3616142
51
17.376094
0
ARC
8
DEFAULT_255_2_778
10
-7.2069164
20
5.2449937
40
14.8339379
50
17.3728942
51
17.3874387
0
ARC
8
DEFAULT_255_2_778
10
-7.0855977
20
5.2822705
40
14.7070231
50
17.3900892
51
17.4047032
0
ARC
8
DEFAULT_255_2_778
10
-61.6569779
20
-11.8317
40
71.8990114
50
17.4103431
51
17.413321
0
ARC
8
DEFAULT_255_2_778
10
-4.091586
20
6.2222819
40
11.5689144
50
17.4162394
51
17.4346758
0
ARC
8
DEFAULT_255_2_778
10
-6.7333359
20
5.3926385
40
14.3378763
50
17.4347255
51
17.4495445
0
ARC
8
DEFAULT_255_2_778
10
-6.619264
20
5.4292844
40
14.2180652
50
17.4465091
51
17.4613959
0
ARC
8
DEFAULT_255_2_778
10
-6.5043396
20
5.4651614
40
14.0976712
50
17.4624559
51
17.4774122
0
ARC
8
DEFAULT_255_2_778
10
-3.7260348
20
6.3411381
40
11.1845439
50
17.4716239
51
17.4904035
0
ARC
8
DEFAULT_255_2_778
10
-6.2779841
20
5.5369273
40
13.860212
50
17.490617
51
17.5057131
0
ARC
8
DEFAULT_255_2_778
10
-6.1694122
20
5.5723796
40
13.7460045
50
17.5009121
51
17.5160752
0
ARC
8
DEFAULT_255_2_778
10
-55.5042275
20
-10.0031492
40
65.4811095
50
17.5203326
51
17.5235035
0
ARC
8
DEFAULT_255_2_778
10
-4.7559082
20
6.0202849
40
12.2632333
50
17.5250171
51
17.5446927
0
ARC
8
DEFAULT_255_2_778
10
-17.5390517
20
1.9781984
40
25.6702172
50
17.5459942
51
17.5553515
0
ARC
8
DEFAULT_255_2_778
10
-17.2785041
20
2.0587856
40
25.3974972
50
17.559309
51
17.5687242
0
ARC
8
DEFAULT_255_2_778
10
-4.4180152
20
6.1307075
40
11.9077706
50
17.5684502
51
17.5884412
0
ARC
8
DEFAULT_255_2_778
10
-29.5895209
20
-1.8501947
40
38.3141996
50
17.5907491
51
17.5969342
0
ARC
8
DEFAULT_255_2_778
10
-29.1913342
20
-1.7279558
40
37.8976905
50
17.6027707
51
17.6089956
0
ARC
8
DEFAULT_255_2_778
10
-28.7961434
20
-1.6065793
40
37.4842986
50
17.6149014
51
17.6211666
0
ARC
8
DEFAULT_255_2_778
10
-3.9848446
20
6.2739611
40
11.4515601
50
17.6219139
51
17.6423292
0
ARC
8
DEFAULT_255_2_778
10
-3.879169
20
6.309249
40
11.34016
50
17.6342418
51
17.6547646
0
ARC
8
DEFAULT_255_2_778
10
-15.5341329
20
2.6005454
40
23.570968
50
17.6530655
51
17.6628945
0
ARC
8
DEFAULT_255_2_778
10
-27.241669
20
-1.129831
40
35.8584457
50
17.6665142
51
17.672946
0
ARC
8
DEFAULT_255_2_778
10
-26.8740328
20
-1.0156431
40
35.4734948
50
17.6774837
51
17.6839558
0
ARC
8
DEFAULT_255_2_778
10
-26.5091253
20
-0.9022543
40
35.0913868
50
17.6885533
51
17.6950662
0
ARC
8
DEFAULT_255_2_778
10
-14.6168387
20
2.8910908
40
22.6087609
50
17.6970927
51
17.7071557
0
ARC
8
DEFAULT_255_2_778
10
-5.3084055
20
5.8632324
40
12.8373456
50
17.7064727
51
17.7241151
0
ARC
8
DEFAULT_255_2_778
10
-17.2911289
20
2.0357365
40
25.4165103
50
17.7193123
51
17.7288158
0
ARC
8
DEFAULT_255_2_778
10
-10.8359957
20
4.0982225
40
18.6398893
50
17.7322925
51
17.7451881
0
ARC
8
DEFAULT_255_2_778
10
-10.6482927
20
4.1597014
40
18.4423793
50
17.74101
51
17.7539802
0
ARC
8
DEFAULT_255_2_778
10
-10.4619704
20
4.2207514
40
18.2463147
50
17.7498129
51
17.7628585
0
ARC
8
DEFAULT_255_2_778
10
-10.2676977
20
4.2826164
40
18.0424297
50
17.7639782
51
17.777107
0
ARC
8
DEFAULT_255_2_778
10
-15.9861684
20
2.4505794
40
24.0472
50
17.7738329
51
17.7836352
0
ARC
8
DEFAULT_255_2_778
10
-9.906701
20
4.4016259
40
17.6623347
50
17.7803662
51
17.7936468
0
ARC
8
DEFAULT_255_2_778
10
-10.854478
20
4.0987769
40
18.6573207
50
17.7897491
51
17.8026768
0
ARC
8
DEFAULT_255_2_778
10
-10.653785
20
4.1634317
40
18.4464702
50
17.8020588
51
17.8150682
0
ARC
8
DEFAULT_255_2_778
10
-10.4639669
20
4.2263733
40
18.2464975
50
17.8092609
51
17.8223463
0
ARC
8
DEFAULT_255_2_778
10
-81.5401825
20
-18.6267381
40
92.9063469
50
17.8237863
51
17.8263845
0
ARC
8
DEFAULT_255_2_778
10
-80.2149214
20
-18.2112164
40
91.517509
50
17.8327298
51
17.8353538
0
ARC
8
DEFAULT_255_2_778
10
-80.9541431
20
-18.4600786
40
92.2974269
50
17.8418664
51
17.8444856
0
ARC
8
DEFAULT_255_2_778
10
-80.4439272
20
-18.3017316
40
91.7632338
50
17.8479937
51
17.8506247
0
ARC
8
DEFAULT_255_2_778
10
-10.5963718
20
4.191858
40
18.38311
50
17.850931
51
17.8639953
0
ARC
8
DEFAULT_255_2_778
10
-77.8897305
20
-17.4972154
40
89.0853873
50
17.8643626
51
17.8670443
0
ARC
8
DEFAULT_255_2_778
10
-16.1053176
20
2.4188266
40
24.1703474
50
17.8682673
51
17.8780996
0
ARC
8
DEFAULT_255_2_778
10
-75.4717602
20
-16.7329838
40
86.5495614
50
17.8793773
51
17.8821087
0
ARC
8
DEFAULT_255_2_778
10
-9.8251087
20
4.4480826
40
17.5704311
50
17.8808335
51
17.8942174
0
ARC
8
DEFAULT_255_2_778
10
-73.2623892
20
-16.0299722
40
84.2310589
50
17.8912667
51
17.8940439
0
ARC
8
DEFAULT_255_2_778
10
-9.4576873
20
4.5714519
40
17.1828772
50
17.8928022
51
17.9063443
0
ARC
8
DEFAULT_255_2_778
10
-71.0953947
20
-15.3401103
40
81.9569251
50
17.9034091
51
17.9062334
0
ARC
8
DEFAULT_255_2_778
10
-9.1005148
20
4.6920508
40
16.8059267
50
17.9032747
51
17.9169752
0
ARC
8
DEFAULT_255_2_778
10
337.7863997
20
116.8339482
40
347.7572868
50
197.9142741
51
197.9149327
0
ARC
8
DEFAULT_255_2_778
10
-68.0070105
20
-14.3542827
40
78.7150382
50
17.9204243
51
17.9233186
0
ARC
8
DEFAULT_255_2_778
10
-67.1839654
20
-14.0852746
40
77.8491507
50
17.9213567
51
17.9242678
0
ARC
8
DEFAULT_255_2_778
10
53.854684
20
25.1489792
40
49.3895668
50
197.7544664
51
198.0161162
0
ARC
8
DEFAULT_255_2_778
10
14.4701074
20
12.5375741
40
8.0350941
50
196.5655665
51
197.7482329
0
ARC
8
DEFAULT_255_2_778
10
9.9400705
20
11.1938531
40
3.3099709
50
194.0238589
51
196.6282455
0
ARC
8
DEFAULT_255_2_778
10
8.1630316
20
10.7524887
40
1.4789448
50
189.4258057
51
194.1173444
0
ARC
8
DEFAULT_255_2_778
10
7.3361018
20
10.6177962
40
0.6411263
50
181.0805573
51
189.6539219
0
ARC
8
DEFAULT_255_2_778
10
7.0995869
20
10.6084636
40
0.4045069
50
180.0050285
51
180.3906448
0
ARC
8
DEFAULT_255_2_778
10
6.9752914
20
10.6114702
40
0.2802278
50
169.2710401
51
180.6219965
0
ARC
8
DEFAULT_255_2_778
10
6.8312852
20
10.6403387
40
0.1333738
50
146.7776012
51
169.9391455
0
ARC
8
DEFAULT_255_2_778
10
6.7950518
20
10.6609603
40
0.091801
50
98.0356727
51
145.1540619
0
ARC
8
DEFAULT_255_2_778
10
6.8091513
20
10.5962389
40
0.1579344
50
89.6763102
51
99.8185847
0
ARC
8
DEFAULT_255_2_778
10
6.808838
20
10.5158533
40
0.2383204
50
81.8153202
51
89.7101699
0
ARC
8
DEFAULT_255_2_778
10
6.7919943
20
10.3953228
40
0.3600215
50
76.2263244
51
81.8928363
0
ARC
8
DEFAULT_255_2_778
10
6.7526113
20
10.2328778
40
0.527172
50
72.0142426
51
76.2725759
0
ARC
8
DEFAULT_255_2_778
10
6.6849916
20
10.023275
40
0.7474119
50
68.7718458
51
72.0453623
0
ARC
8
DEFAULT_255_2_778
10
6.6196449
20
9.8514775
40
0.931214
50
67.9063182
51
68.8513526
0
ARC
8
DEFAULT_255_2_778
10
6.0408297
20
11.9001893
40
1.5064747
50
308.0766267
51
311.848643
0
ARC
8
DEFAULT_255_2_778
10
5.6506082
20
12.3369403
40
2.092157
50
311.8293318
51
315.1117567
0
ARC
8
DEFAULT_255_2_778
10
5.2334785
20
12.7541391
40
2.6821154
50
315.0861306
51
317.8392018
0
ARC
8
DEFAULT_255_2_778
10
4.7885169
20
13.1546824
40
3.2807999
50
317.8698664
51
322.3635842
0
ARC
8
DEFAULT_255_2_778
10
4.7702911
20
13.1764244
40
3.3085153
50
322.2581551
51
328.1181848
0
ARC
8
DEFAULT_255_2_778
10
5.4916753
20
12.7300419
40
2.4601951
50
328.0722652
51
333.5788437
0
ARC
8
DEFAULT_255_2_778
10
6.2730701
20
12.3429503
40
1.5881766
50
333.5415017
51
339.8759147
0
ARC
8
DEFAULT_255_2_778
10
6.8820762
20
12.1213036
40
0.940093
50
339.7896047
51
348.1703626
0
ARC
8
DEFAULT_255_2_778
10
7.2866576
20
12.0374154
40
0.5269076
50
348.0797131
51
359.4106605
0
ARC
8
DEFAULT_255_2_778
10
7.493276
20
12.033995
40
0.3202676
50
359.6423345
51
10.7133799
0
ARC
8
DEFAULT_255_2_778
10
7.5992367
20
12.055094
40
0.2122343
50
10.434363
51
30.1779624
0
ARC
8
DEFAULT_255_2_778
10
7.628945
20
12.0702601
40
0.1789378
50
30.761801
51
33.3043648
0
ARC
8
DEFAULT_255_2_778
10
5.992538
20
10.2261076
40
2.6386699
50
47.4028087
51
53.4721251
0
ARC
8
DEFAULT_255_2_778
10
4.4917018
20
8.1650614
40
5.1882193
50
53.7011691
51
60.0766284
0
ARC
8
DEFAULT_255_2_778
10
2.3046944
20
4.4589287
40
9.4913842
50
59.7947618
51
61.9952456
0
ARC
8
DEFAULT_255_2_778
10
-0.1634838
20
-0.1547867
40
14.7237991
50
61.9453209
51
62.7831191
0
ARC
8
DEFAULT_255_2_778
10
-7.3650357
20
-14.1636794
40
30.4753521
50
62.7885685
51
63.1376108
0
ARC
8
DEFAULT_255_2_778
10
31.9739817
20
63.4211166
40
56.5129208
50
243.0939974
51
243.0996057
0
ARC
8
DEFAULT_255_2_778
10
7.4497305
20
15.0966141
40
2.3216262
50
243.0377451
51
243.1262528
0
ARC
8
DEFAULT_255_2_778
10
7.3245559
20
14.8510783
40
2.0460244
50
242.9424476
51
243.0445223
0
ARC
8
DEFAULT_255_2_778
10
7.5674785
20
15.327536
40
2.5808358
50
242.8691286
51
242.9513038
0
ARC
8
DEFAULT_255_2_778
10
7.8193617
20
15.8189146
40
3.1330116
50
242.7988514
51
242.8675348
0
ARC
8
DEFAULT_255_2_778
10
7.6790358
20
15.5459254
40
2.8260677
50
242.7220441
51
242.7992418
0
ARC
8
DEFAULT_255_2_778
10
7.9514949
20
16.0749863
40
3.4211638
50
242.6626755
51
242.7272802
0
ARC
8
DEFAULT_255_2_778
10
8.1672471
20
16.4920297
40
3.8907106
50
242.6031259
51
242.6606377
0
ARC
8
DEFAULT_255_2_778
10
8.6494474
20
17.4216835
40
4.9379801
50
242.5533864
51
242.5992319
0
ARC
8
DEFAULT_255_2_778
10
8.7308089
20
17.577005
40
5.1133201
50
242.5017609
51
242.5465251
0
ARC
8
DEFAULT_255_2_778
10
8.5661346
20
17.2600054
40
4.7560997
50
242.4495729
51
242.4982036
0
ARC
8
DEFAULT_255_2_778
10
8.6276536
20
17.3783577
40
4.8894858
50
242.4041245
51
242.4518971
0
ARC
8
DEFAULT_255_2_778
10
8.681741
20
17.4831411
40
5.0074038
50
242.3639614
51
242.4110458
0
ARC
8
DEFAULT_255_2_778
10
9.0259514
20
18.1416882
40
5.7504817
50
242.3278709
51
242.3692336
0
ARC
8
DEFAULT_255_2_778
10
9.4685025
20
18.985575
40
6.7033701
50
242.2919089
51
242.327688
0
ARC
8
DEFAULT_255_2_778
10
9.5199305
20
19.0842871
40
6.8146751
50
242.2595243
51
242.2949961
0
ARC
8
DEFAULT_255_2_778
10
9.5633557
20
19.1682399
40
6.9091919
50
242.2296124
51
242.2648586
0
ARC
8
DEFAULT_255_2_778
10
9.6022795
20
19.2434844
40
6.9939055
50
242.1996118
51
242.2346744
0
ARC
8
DEFAULT_255_2_778
10
13.6979285
20
27.0114427
40
15.7754497
50
242.1839587
51
242.1996056
0
ARC
8
DEFAULT_255_2_778
10
10.9546544
20
21.8108846
40
9.8957084
50
242.1561461
51
242.1812441
0
ARC
8
DEFAULT_255_2_778
10
12.0989381
20
23.9763783
40
12.3449425
50
242.1341487
51
242.1543839
0
ARC
8
DEFAULT_255_2_778
10
11.9940739
20
23.7783279
40
12.1208433
50
242.1142298
51
242.1347882
0
ARC
8
DEFAULT_255_2_778
10
10.818123
20
21.557457
40
9.6078514
50
242.0924091
51
242.1182692
0
ARC
8
DEFAULT_255_2_778
10
11.8399929
20
23.4900546
40
11.793978
50
242.0786094
51
242.0997747
0
ARC
8
DEFAULT_255_2_778
10
15.6498851
20
30.6798207
40
19.9308086
50
242.0670702
51
242.0794486
0
ARC
8
DEFAULT_255_2_778
10
11.5690662
20
22.9837641
40
11.2197598
50
242.0463547
51
242.0684318
0
ARC
8
DEFAULT_255_2_778
10
20.6238927
20
40.0495584
40
30.5389528
50
242.0407234
51
242.0488646
0
ARC
8
DEFAULT_255_2_778
10
38.7213837
20
74.1262535
40
69.1231502
50
242.0300513
51
242.0336606
0
ARC
8
DEFAULT_255_2_778
10
17.7823001
20
34.693084
40
24.4754172
50
242.0172994
51
242.0271935
0
ARC
8
DEFAULT_255_2_778
10
17.9738583
20
35.0530385
40
24.8831692
50
242.0069167
51
242.0166764
0
ARC
8
DEFAULT_255_2_778
10
14.0547339
20
27.6831935
40
16.5360652
50
241.9972383
51
242.0119632
0
ARC
8
DEFAULT_255_2_778
10
17.5592511
20
34.2780487
40
24.0042479
50
241.9922068
51
242.0023748
0
ARC
8
DEFAULT_255_2_778
10
26.5887555
20
51.2586108
40
43.2362898
50
241.9891038
51
241.9947613
0
ARC
8
DEFAULT_255_2_778
10
-918.2788516
20
-1723.7387272
40
1967.5820392
50
61.9723483
51
61.9746273
0
ARC
8
DEFAULT_255_2_778
10
-7.4130345
20
-12.4707204
40
28.9962849
50
61.9679829
51
62.2443662
0
ARC
8
DEFAULT_255_2_778
10
-2.5162303
20
-3.1708482
40
18.4859896
50
62.2518736
51
62.6943484
0
ARC
8
DEFAULT_255_2_778
10
-0.8067955
20
0.1429438
40
14.7572655
50
62.6896746
51
63.4991671
0
ARC
8
DEFAULT_255_2_778
10
0.4009101
20
2.5691264
40
12.0471159
50
63.4907038
51
64.8013815
0
ARC
8
DEFAULT_255_2_778
10
1.0050954
20
3.843117
40
10.6371261
50
64.8244263
51
64.9272544
0
ARC
8
DEFAULT_255_2_778
10
1.3904419
20
4.6763359
40
9.7191242
50
64.9033407
51
66.3903639
0
ARC
8
DEFAULT_255_2_778
10
2.3585686
20
6.9157067
40
7.2794677
50
66.3133467
51
69.7024649
0
ARC
8
DEFAULT_255_2_778
10
3.2078717
20
9.2175392
40
4.8259513
50
69.6795489
51
73.9940178
0
ARC
8
DEFAULT_255_2_778
10
3.6509438
20
10.7540453
40
3.2268402
50
74.0334854
51
78.400334
0
ARC
8
DEFAULT_255_2_778
10
3.8566448
20
11.7624942
40
2.1976271
50
78.3671921
51
83.962719
0
ARC
8
DEFAULT_255_2_778
10
3.9292638
20
12.4396476
40
1.5165919
50
84.0003576
51
89.827729
0
ARC
8
DEFAULT_255_2_778
10
3.9334488
20
12.7441085
40
1.2121241
50
89.9822774
51
92.0556558
0
ARC
8
DEFAULT_255_2_778
10
3.9309555
20
12.8223835
40
1.1338103
50
92.0716269
51
92.383889
0
ARC
8
DEFAULT_255_2_778
10
3.867188
20
12.9262327
40
1.0291137
50
89.0753646
51
102.5082055
0
ARC
8
DEFAULT_255_2_778
10
3.7771146
20
13.3607645
40
0.5854202
50
103.1125918
51
145.6717086
0
ARC
8
DEFAULT_255_2_778
10
4.369443
20
12.9141674
40
1.3268839
50
144.1699409
51
154.2457197
0
ARC
8
DEFAULT_255_2_778
10
5.2091131
20
12.4829661
40
2.2706303
50
153.6521915
51
155.5628966
0
ARC
8
DEFAULT_255_2_778
10
5.2402157
20
12.5058581
40
2.2897246
50
156.4064066
51
158.2389604
0
ARC
8
DEFAULT_255_2_778
10
5.9261258
20
12.231203
40
3.0285802
50
158.2239992
51
159.9238863
0
ARC
8
DEFAULT_255_2_778
10
6.4744709
20
12.0300681
40
3.6126496
50
159.9130376
51
161.4721796
0
ARC
8
DEFAULT_255_2_778
10
6.8701484
20
11.8971056
40
4.0300698
50
161.4673677
51
163.0251205
0
ARC
8
DEFAULT_255_2_778
10
7.1985765
20
11.7973552
40
4.3733116
50
163.0314201
51
165.6274545
0
ARC
8
DEFAULT_255_2_778
10
7.3684384
20
11.7531728
40
4.5488245
50
165.6194499
51
169.0496052
0
ARC
8
DEFAULT_255_2_778
10
7.2771567
20
11.7695988
40
4.4560848
50
169.0340106
51
173.3703814
0
ARC
8
DEFAULT_255_2_778
10
6.9563428
20
11.8051419
40
4.133313
50
173.3463621
51
179.050805
0
ARC
8
DEFAULT_255_2_778
10
6.7155272
20
11.8124613
40
3.8924107
50
179.0998088
51
179.9985134
0
ARC
8
DEFAULT_255_2_778
10
6.5769934
20
11.8116389
40
3.7538768
50
179.9859052
51
183.080167
0
ARC
8
DEFAULT_255_2_778
10
6.4401321
20
11.8051044
40
3.6168622
50
183.093299
51
184.180931
0
LINE
8
DEFAULT_255_2_778
10
2.832895
20
11.5414125
11
2.832895
21
11.5417125
0
ARC
8
DEFAULT_255_2_778
10
7.6069994
20
5.5750109
40
1.7950028
50
199.5828088
51
206.5551392
0
ARC
8
DEFAULT_255_2_778
10
6.9257586
20
5.2312928
40
1.0319718
50
206.3939818
51
216.90802
0
ARC
8
DEFAULT_255_2_778
10
6.5492374
20
4.9434028
40
0.558033
50
216.4886986
51
235.3383829
0
ARC
8
DEFAULT_255_2_778
10
6.4291775
20
4.7713341
40
0.3482219
50
235.485125
51
269.8990006
0
ARC
8
DEFAULT_255_2_778
10
6.4251229
20
4.8380387
40
0.4149403
50
270.4751103
51
287.9616439
0
ARC
8
DEFAULT_255_2_778
10
6.36701
20
5.02366
40
0.6094391
50
287.7772635
51
298.4208057
0
ARC
8
DEFAULT_255_2_778
10
6.2863228
20
5.1818208
40
0.786952
50
298.1067667
51
300.617682
0
LINE
8
DEFAULT_255_2_778
10
6.687123
20
4.5042818
11
10.157423
21
6.6143818
0
LINE
8
DEFAULT_255_2_778
10
10.157423
20
6.6143818
11
10.157423
21
7.5522818
0
LINE
8
DEFAULT_255_2_778
10
10.157423
20
7.5522818
11
6.687123
21
5.4422818
0
LINE
8
DEFAULT_255_2_778
10
6.687123
20
5.4422818
11
4.759123
21
10.3658818
0
LINE
8
DEFAULT_255_2_778
10
4.759123
20
10.3658818
11
3.987823
21
9.8970818
0
LINE
8
DEFAULT_255_2_778
10
3.987823
20
9.8970818
11
5.915823
21
4.9733818
0
LINE
8
DEFAULT_255_2_778
10
0.9035834
20
12.7100573
11
4.7592834
21
10.3655573
0
LINE
8
DEFAULT_255_2_778
10
4.7592834
20
10.3655573
11
3.9880834
21
9.8967573
0
LINE
8
DEFAULT_255_2_778
10
3.9880834
20
9.8967573
11
0.1322834
21
12.2412573
0
LINE
8
DEFAULT_255_2_778
10
0.1322834
20
12.2412573
11
0.9035834
21
12.7100573
0
ARC
8
DEFAULT_255_2_778
10
2.6286258
20
7.213927
40
0.4616497
50
218.4702692
51
246.6639115
0
ARC
8
DEFAULT_255_2_778
10
3.0204977
20
7.5436165
40
0.9736667
50
206.0315239
51
219.3139847
0
ARC
8
DEFAULT_255_2_778
10
3.7615977
20
7.9201321
40
1.8048713
50
199.5004077
51
206.4466223
0
ARC
8
DEFAULT_255_2_778
10
7.5368427
20
5.5431197
40
1.7180881
50
199.3751135
51
207.8905218
0
ARC
8
DEFAULT_255_2_778
10
6.7918439
20
5.1428259
40
0.8723914
50
207.5425212
51
222.1100979
0
ARC
8
DEFAULT_255_2_778
10
6.4735591
20
4.851629
40
0.4410128
50
221.7725037
51
247.0442533
0
LINE
8
DEFAULT_255_2_778
10
6.3015553
20
4.4455416
11
2.4457553
21
6.7900416
0
LINE
8
DEFAULT_255_2_778
10
2.0602553
20
7.3176416
11
0.1322553
21
12.2412416
0
LINE
8
DEFAULT_255_2_778
10
0.1322553
20
12.2412416
11
3.9880553
21
9.8967416
0
LINE
8
DEFAULT_255_2_778
10
3.9880553
20
9.8967416
11
5.9160553
21
4.9731416
0
ARC
8
DEFAULT_255_2_778
10
6.2912211
20
7.4519976
40
0.7208248
50
270.8213701
51
300.4899626
0
ARC
8
DEFAULT_255_2_778
10
6.1758818
20
7.6881451
40
0.9830516
50
299.2992413
51
301.3312682
0
ARC
8
DEFAULT_255_2_778
10
9.4535702
20
9.2699526
40
0.6317649
50
300.2203277
51
314.7353589
0
ARC
8
DEFAULT_255_2_778
10
9.758569
20
8.9739933
40
0.2070261
50
312.4225408
51
353.3343469
0
ARC
8
DEFAULT_255_2_778
10
9.8218669
20
8.9585465
40
0.1425872
50
356.5487124
51
0.0001532
0
ARC
8
DEFAULT_255_2_778
10
9.7671412
20
9.3211893
40
0.1976218
50
312.9181658
51
356.7968352
0
ARC
8
DEFAULT_255_2_778
10
9.4671836
20
9.6043311
40
0.6098229
50
300.5008364
51
315.4426794
0
ARC
8
DEFAULT_255_2_778
10
9.251353
20
9.9319688
40
1.001861
50
301.2809488
51
301.6259111
0
ARC
8
DEFAULT_255_2_778
10
6.2749246
20
7.8513119
40
0.770712
50
277.3700785
51
302.3262013
0
ARC
8
DEFAULT_255_2_778
10
6.3014626
20
7.7197317
40
0.6368847
50
270.0082407
51
276.5208029
0
LINE
8
DEFAULT_255_2_778
10
6.6870542
20
6.8484468
11
9.7715542
21
8.7240468
0
LINE
8
DEFAULT_255_2_778
10
9.9644542
20
8.9585468
11
9.9644542
21
9.3101468
0
LINE
8
DEFAULT_255_2_778
10
9.7715542
20
9.0757468
11
6.6870542
21
7.2000468
0
LINE
8
DEFAULT_255_2_778
10
6.3015542
20
7.0828468
11
6.3015542
21
6.7312468
0
ARC
8
DEFAULT_255_2_778
10
6.2465537
20
7.912066
40
0.8367599
50
286.4676075
51
301.7658018
0
ARC
8
DEFAULT_255_2_778
10
6.300087
20
7.7406809
40
0.6572356
50
270.1222815
51
286.227501
0
ARC
8
DEFAULT_255_2_778
10
6.3064684
20
7.7711909
40
0.6877621
50
245.7749752
51
269.5852279
0
ARC
8
DEFAULT_255_2_778
10
6.3914666
20
7.979455
40
0.9125977
50
238.5830974
51
246.2735982
0
ARC
8
DEFAULT_255_2_778
10
6.2906392
20
7.828817
40
0.7315249
50
230.003818
51
239.1724212
0
ARC
8
DEFAULT_255_2_778
10
6.0433321
20
7.5385327
40
0.3502002
50
213.8237153
51
230.4754152
0
ARC
8
DEFAULT_255_2_778
10
5.8913381
20
7.4385977
40
0.1683103
50
181.2003354
51
214.3630914
0
ARC
8
DEFAULT_255_2_778
10
5.8991437
20
7.4298248
40
0.1761572
50
141.5020643
51
178.2931367
0
ARC
8
DEFAULT_255_2_778
10
6.0771357
20
7.2996147
40
0.3966129
50
127.8846919
51
142.7866146
0
ARC
8
DEFAULT_255_2_778
10
6.3135697
20
7.0072783
40
0.7725596
50
120.9919871
51
128.4104296
0
ARC
8
DEFAULT_255_2_778
10
9.4408959
20
8.8337005
40
0.8367937
50
106.4688744
51
121.7660084
0
ARC
8
DEFAULT_255_2_778
10
9.3873203
20
9.0052184
40
0.65713
50
90.122561
51
106.2288143
0
ARC
8
DEFAULT_255_2_778
10
9.3809417
20
8.9748567
40
0.6875081
50
65.7704439
51
89.5855557
0
ARC
8
DEFAULT_255_2_778
10
9.2959814
20
8.7667359
40
0.9121968
50
58.5764566
51
66.2688835
0
ARC
8
DEFAULT_255_2_778
10
9.3966619
20
8.9167649
40
0.7317212
50
50.0113001
51
59.1790218
0
ARC
8
DEFAULT_255_2_778
10
9.6440386
20
9.2072073
40
0.3502311
50
33.8309265
51
50.4831101
0
ARC
8
DEFAULT_255_2_778
10
9.7960714
20
9.3071938
40
0.1682804
50
1.2013014
51
34.3709726
0
ARC
8
DEFAULT_255_2_778
10
9.7882625
20
9.3159722
40
0.1761304
50
321.4937409
51
358.2917793
0
ARC
8
DEFAULT_255_2_778
10
9.6102246
20
9.4462505
40
0.3966634
50
307.8772366
51
322.7791746
0
ARC
8
DEFAULT_255_2_778
10
9.3737408
20
9.7387214
40
0.772746
50
300.9853167
51
308.4032703
0
LINE
8
DEFAULT_255_2_778
10
5.9157646
20
7.6695468
11
9.0003646
21
9.5451468
0
LINE
8
DEFAULT_255_2_778
10
9.7715646
20
9.0762468
11
6.6870646
21
7.2006468
0
ARC
8
DEFAULT_255_2_778
10
6.3203548
20
7.415234
40
0.68481
50
236.3839312
51
269.2458837
0
ARC
8
DEFAULT_255_2_778
10
6.43615
20
7.6274818
40
0.9259096
50
236.3763827
51
237.6881966
0
ARC
8
DEFAULT_255_2_778
10
6.2423261
20
7.4251059
40
0.6519348
50
226.6719972
51
240.7162225
0
ARC
8
DEFAULT_255_2_778
10
5.934325
20
7.1102892
40
0.2117354
50
190.4990833
51
228.8461371
0
ARC
8
DEFAULT_255_2_778
10
5.8625497
20
7.0890084
40
0.137508
50
180.0104644
51
187.2282531
0
ARC
8
DEFAULT_255_2_778
10
5.9147732
20
7.4483537
40
0.1900427
50
183.2791002
51
227.3783715
0
ARC
8
DEFAULT_255_2_778
10
6.2099097
20
7.7297494
40
0.5975516
50
224.8245551
51
239.8607546
0
ARC
8
DEFAULT_255_2_778
10
6.4371952
20
8.0807514
40
1.0154249
50
238.7141687
51
239.6056084
0
ARC
8
DEFAULT_255_2_778
10
6.3225218
20
7.8012504
40
0.7175783
50
236.2101371
51
267.8702898
0
ARC
8
DEFAULT_255_2_778
10
6.3113441
20
7.7338687
40
0.6498855
50
268.6343303
51
269.999787
0
LINE
8
DEFAULT_255_2_778
10
5.7250417
20
7.0889833
11
5.7250417
21
7.4374833
0
LINE
8
DEFAULT_255_2_778
10
6.3113417
20
7.0839833
11
6.3113417
21
6.7304833
0
LINE
8
DEFAULT_255_2_778
10
9.0463553
20
12.2610375
11
5.6337553
21
14.2486375
0
LINE
8
DEFAULT_255_2_778
10
5.6337553
20
14.2486375
11
7.0696553
21
15.0709375
0
LINE
8
DEFAULT_255_2_778
10
7.0696553
20
15.0709375
11
10.4822553
21
13.1005375
0
LINE
8
DEFAULT_255_2_778
10
10.4822553
20
13.1005375
11
9.0463553
21
12.2610375
0
LINE
8
DEFAULT_255_2_778
10
10.497325
20
13.0977062
11
9.043225
21
12.2476062
0
LINE
8
DEFAULT_255_2_778
10
9.043225
20
12.2476062
11
9.043225
21
12.1087062
0
LINE
8
DEFAULT_255_2_778
10
9.043225
20
12.1087062
11
10.497325
21
12.9588062
0
LINE
8
DEFAULT_255_2_778
10
10.497325
20
12.9588062
11
10.497325
21
13.0977062
0
LINE
8
DEFAULT_255_2_778
10
9.0434386
20
12.1089635
11
9.0434386
21
12.2478635
0
LINE
8
DEFAULT_255_2_778
10
9.0434386
20
12.2478635
11
5.5877386
21
14.2602635
0
LINE
8
DEFAULT_255_2_778
10
5.5877386
20
14.2602635
11
5.5877386
21
14.1213635
0
LINE
8
DEFAULT_255_2_778
10
5.5877386
20
14.1213635
11
9.0434386
21
12.1089635
0
LINE
8
DEFAULT_255_2_778
10
9.0434636
20
12.2475323
11
5.5877636
21
14.2600323
0
LINE
8
DEFAULT_255_2_778
10
5.5877636
20
14.2600323
11
7.0418636
21
15.0926323
0
LINE
8
DEFAULT_255_2_778
10
7.0418636
20
15.0926323
11
10.4976636
21
13.0974323
0
LINE
8
DEFAULT_255_2_778
10
10.4976636
20
13.0974323
11
9.0434636
21
12.2475323
0
LINE
8
DEFAULT_255_2_778
10
6.9220636
20
13.5662323
11
8.0854636
21
12.8897323
0
LINE
8
DEFAULT_255_2_778
10
8.0854636
20
12.8897323
11
8.2907636
21
13.0111323
0
LINE
8
DEFAULT_255_2_778
10
8.2907636
20
13.0111323
11
7.1273636
21
13.6877323
0
LINE
8
DEFAULT_255_2_778
10
7.1273636
20
13.6877323
11
6.9220636
21
13.5662323
0
LINE
8
DEFAULT_255_2_778
10
10.0356636
20
13.1498323
11
10.2409636
21
13.0283323
0
LINE
8
DEFAULT_255_2_778
10
10.2409636
20
13.0283323
11
10.3608636
21
13.0976323
0
LINE
8
DEFAULT_255_2_778
10
10.3608636
20
13.0976323
11
10.1555636
21
13.2191323
0
LINE
8
DEFAULT_255_2_778
10
10.1555636
20
13.2191323
11
10.0356636
21
13.1498323
0
LINE
8
DEFAULT_255_2_778
10
9.7962636
20
13.2887323
11
10.0015636
21
13.1672323
0
LINE
8
DEFAULT_255_2_778
10
10.0015636
20
13.1672323
11
10.1213636
21
13.2365323
0
LINE
8
DEFAULT_255_2_778
10
10.1213636
20
13.2365323
11
9.9160636
21
13.3580323
0
LINE
8
DEFAULT_255_2_778
10
9.9160636
20
13.3580323
11
9.7962636
21
13.2887323
0
LINE
8
DEFAULT_255_2_778
10
9.5567636
20
13.4276323
11
9.7620636
21
13.3061323
0
LINE
8
DEFAULT_255_2_778
10
9.7620636
20
13.3061323
11
9.8819636
21
13.3755323
0
LINE
8
DEFAULT_255_2_778
10
9.8819636
20
13.3755323
11
9.6766636
21
13.4969323
0
LINE
8
DEFAULT_255_2_778
10
9.6766636
20
13.4969323
11
9.5567636
21
13.4276323
0
LINE
8
DEFAULT_255_2_778
10
9.3173636
20
13.5665323
11
9.5226636
21
13.4450323
0
LINE
8
DEFAULT_255_2_778
10
9.5226636
20
13.4450323
11
9.6424636
21
13.5144323
0
LINE
8
DEFAULT_255_2_778
10
9.6424636
20
13.5144323
11
9.4371636
21
13.6358323
0
LINE
8
DEFAULT_255_2_778
10
9.4371636
20
13.6358323
11
9.3173636
21
13.5665323
0
LINE
8
DEFAULT_255_2_778
10
9.0778636
20
13.7054323
11
9.2831636
21
13.5839323
0
LINE
8
DEFAULT_255_2_778
10
9.2831636
20
13.5839323
11
9.4030636
21
13.6533323
0
LINE
8
DEFAULT_255_2_778
10
9.4030636
20
13.6533323
11
9.1977636
21
13.7747323
0
LINE
8
DEFAULT_255_2_778
10
9.1977636
20
13.7747323
11
9.0778636
21
13.7054323
0
LINE
8
DEFAULT_255_2_778
10
8.8384636
20
13.8443323
11
9.0437636
21
13.7229323
0
LINE
8
DEFAULT_255_2_778
10
9.0437636
20
13.7229323
11
9.1635636
21
13.7922323
0
LINE
8
DEFAULT_255_2_778
10
9.1635636
20
13.7922323
11
8.9582636
21
13.9136323
0
LINE
8
DEFAULT_255_2_778
10
8.9582636
20
13.9136323
11
8.8384636
21
13.8443323
0
LINE
8
DEFAULT_255_2_778
10
8.5989636
20
13.9832323
11
8.8042636
21
13.8618323
0
LINE
8
DEFAULT_255_2_778
10
8.8042636
20
13.8618323
11
8.9241636
21
13.9311323
0
LINE
8
DEFAULT_255_2_778
10
8.9241636
20
13.9311323
11
8.7188636
21
14.0525323
0
LINE
8
DEFAULT_255_2_778
10
8.7188636
20
14.0525323
11
8.5989636
21
13.9832323
0
LINE
8
DEFAULT_255_2_778
10
8.3595636
20
14.1221323
11
8.5648636
21
14.0007323
0
LINE
8
DEFAULT_255_2_778
10
8.5648636
20
14.0007323
11
8.6846636
21
14.0700323
0
LINE
8
DEFAULT_255_2_778
10
8.6846636
20
14.0700323
11
8.4793636
21
14.1914323
0
LINE
8
DEFAULT_255_2_778
10
8.4793636
20
14.1914323
11
8.3595636
21
14.1221323
0
LINE
8
DEFAULT_255_2_778
10
8.1200636
20
14.2610323
11
8.3253636
21
14.1396323
0
LINE
8
DEFAULT_255_2_778
10
8.3253636
20
14.1396323
11
8.4452636
21
14.2089323
0
LINE
8
DEFAULT_255_2_778
10
8.4452636
20
14.2089323
11
8.2399636
21
14.3303323
0
LINE
8
DEFAULT_255_2_778
10
8.2399636
20
14.3303323
11
8.1200636
21
14.2610323
0
LINE
8
DEFAULT_255_2_778
10
7.8806636
20
14.3999323
11
8.0859636
21
14.2785323
0
LINE
8
DEFAULT_255_2_778
10
8.0859636
20
14.2785323
11
8.2058636
21
14.3478323
0
LINE
8
DEFAULT_255_2_778
10
8.2058636
20
14.3478323
11
8.0004636
21
14.4692323
0
LINE
8
DEFAULT_255_2_778
10
8.0004636
20
14.4692323
11
7.8806636
21
14.3999323
0
LINE
8
DEFAULT_255_2_778
10
7.6411636
20
14.5388323
11
7.8464636
21
14.4174323
0
LINE
8
DEFAULT_255_2_778
10
7.8464636
20
14.4174323
11
7.9663636
21
14.4867323
0
LINE
8
DEFAULT_255_2_778
10
7.9663636
20
14.4867323
11
7.7610636
21
14.6081323
0
LINE
8
DEFAULT_255_2_778
10
7.7610636
20
14.6081323
11
7.6411636
21
14.5388323
0
LINE
8
DEFAULT_255_2_778
10
7.4017636
20
14.6777323
11
7.6070636
21
14.5563323
0
LINE
8
DEFAULT_255_2_778
10
7.6070636
20
14.5563323
11
7.7269636
21
14.6256323
0
LINE
8
DEFAULT_255_2_778
10
7.7269636
20
14.6256323
11
7.5215636
21
14.7471323
0
LINE
8
DEFAULT_255_2_778
10
7.5215636
20
14.7471323
11
7.4017636
21
14.6777323
0
LINE
8
DEFAULT_255_2_778
10
7.1622636
20
14.8166323
11
7.3676636
21
14.6952323
0
LINE
8
DEFAULT_255_2_778
10
7.3676636
20
14.6952323
11
7.4874636
21
14.7645323
0
LINE
8
DEFAULT_255_2_778
10
7.4874636
20
14.7645323
11
7.2821636
21
14.8860323
0
LINE
8
DEFAULT_255_2_778
10
7.2821636
20
14.8860323
11
7.1622636
21
14.8166323
0
LINE
8
DEFAULT_255_2_778
10
6.9228636
20
14.9555323
11
7.1281636
21
14.8341323
0
LINE
8
DEFAULT_255_2_778
10
7.1281636
20
14.8341323
11
7.2480636
21
14.9034323
0
LINE
8
DEFAULT_255_2_778
10
7.2480636
20
14.9034323
11
7.0426636
21
15.0249323
0
LINE
8
DEFAULT_255_2_778
10
7.0426636
20
15.0249323
11
6.9228636
21
14.9555323
0
LINE
8
DEFAULT_255_2_778
10
9.6430636
20
13.0992323
11
10.0023636
21
12.8910323
0
LINE
8
DEFAULT_255_2_778
10
10.0023636
20
12.8910323
11
10.2076636
21
13.0124323
0
LINE
8
DEFAULT_255_2_778
10
10.2076636
20
13.0124323
11
9.8483636
21
13.2207323
0
LINE
8
DEFAULT_255_2_778
10
9.8483636
20
13.2207323
11
9.6430636
21
13.0992323
0
LINE
8
DEFAULT_255_2_778
10
9.4035636
20
13.2381323
11
9.6088636
21
13.1167323
0
LINE
8
DEFAULT_255_2_778
10
9.6088636
20
13.1167323
11
9.8142636
21
13.2381323
0
LINE
8
DEFAULT_255_2_778
10
9.8142636
20
13.2381323
11
9.6088636
21
13.3596323
0
LINE
8
DEFAULT_255_2_778
10
9.6088636
20
13.3596323
11
9.4035636
21
13.2381323
0
LINE
8
DEFAULT_255_2_778
10
9.1641636
20
13.3770323
11
9.3694636
21
13.2556323
0
LINE
8
DEFAULT_255_2_778
10
9.3694636
20
13.2556323
11
9.5747636
21
13.3770323
0
LINE
8
DEFAULT_255_2_778
10
9.5747636
20
13.3770323
11
9.3694636
21
13.4985323
0
LINE
8
DEFAULT_255_2_778
10
9.3694636
20
13.4985323
11
9.1641636
21
13.3770323
0
LINE
8
DEFAULT_255_2_778
10
8.9246636
20
13.5159323
11
9.1299636
21
13.3945323
0
LINE
8
DEFAULT_255_2_778
10
9.1299636
20
13.3945323
11
9.3353636
21
13.5159323
0
LINE
8
DEFAULT_255_2_778
10
9.3353636
20
13.5159323
11
9.1299636
21
13.6374323
0
LINE
8
DEFAULT_255_2_778
10
9.1299636
20
13.6374323
11
8.9246636
21
13.5159323
0
LINE
8
DEFAULT_255_2_778
10
8.6852636
20
13.6549323
11
8.8905636
21
13.5334323
0
LINE
8
DEFAULT_255_2_778
10
8.8905636
20
13.5334323
11
9.0958636
21
13.6549323
0
LINE
8
DEFAULT_255_2_778
10
9.0958636
20
13.6549323
11
8.8905636
21
13.7763323
0
LINE
8
DEFAULT_255_2_778
10
8.8905636
20
13.7763323
11
8.6852636
21
13.6549323
0
LINE
8
DEFAULT_255_2_778
10
8.4457636
20
13.7938323
11
8.6510636
21
13.6723323
0
LINE
8
DEFAULT_255_2_778
10
8.6510636
20
13.6723323
11
8.8564636
21
13.7938323
0
LINE
8
DEFAULT_255_2_778
10
8.8564636
20
13.7938323
11
8.6510636
21
13.9152323
0
LINE
8
DEFAULT_255_2_778
10
8.6510636
20
13.9152323
11
8.4457636
21
13.7938323
0
LINE
8
DEFAULT_255_2_778
10
8.2063636
20
13.9327323
11
8.4116636
21
13.8112323
0
LINE
8
DEFAULT_255_2_778
10
8.4116636
20
13.8112323
11
8.6169636
21
13.9327323
0
LINE
8
DEFAULT_255_2_778
10
8.6169636
20
13.9327323
11
8.4116636
21
14.0541323
0
LINE
8
DEFAULT_255_2_778
10
8.4116636
20
14.0541323
11
8.2063636
21
13.9327323
0
LINE
8
DEFAULT_255_2_778
10
7.9668636
20
14.0716323
11
8.1721636
21
13.9501323
0
LINE
8
DEFAULT_255_2_778
10
8.1721636
20
13.9501323
11
8.3775636
21
14.0716323
0
LINE
8
DEFAULT_255_2_778
10
8.3775636
20
14.0716323
11
8.1721636
21
14.1930323
0
LINE
8
DEFAULT_255_2_778
10
8.1721636
20
14.1930323
11
7.9668636
21
14.0716323
0
LINE
8
DEFAULT_255_2_778
10
7.7274636
20
14.2105323
11
7.9327636
21
14.0890323
0
LINE
8
DEFAULT_255_2_778
10
7.9327636
20
14.0890323
11
8.1380636
21
14.2105323
0
LINE
8
DEFAULT_255_2_778
10
8.1380636
20
14.2105323
11
7.9327636
21
14.3319323
0
LINE
8
DEFAULT_255_2_778
10
7.9327636
20
14.3319323
11
7.7274636
21
14.2105323
0
LINE
8
DEFAULT_255_2_778
10
7.4879636
20
14.3494323
11
7.6933636
21
14.2279323
0
LINE
8
DEFAULT_255_2_778
10
7.6933636
20
14.2279323
11
7.8986636
21
14.3494323
0
LINE
8
DEFAULT_255_2_778
10
7.8986636
20
14.3494323
11
7.6933636
21
14.4708323
0
LINE
8
DEFAULT_255_2_778
10
7.6933636
20
14.4708323
11
7.4879636
21
14.3494323
0
LINE
8
DEFAULT_255_2_778
10
7.2485636
20
14.4883323
11
7.4538636
21
14.3668323
0
LINE
8
DEFAULT_255_2_778
10
7.4538636
20
14.3668323
11
7.6591636
21
14.4883323
0
LINE
8
DEFAULT_255_2_778
10
7.6591636
20
14.4883323
11
7.4538636
21
14.6097323
0
LINE
8
DEFAULT_255_2_778
10
7.4538636
20
14.6097323
11
7.2485636
21
14.4883323
0
LINE
8
DEFAULT_255_2_778
10
7.0090636
20
14.6272323
11
7.2144636
21
14.5058323
0
LINE
8
DEFAULT_255_2_778
10
7.2144636
20
14.5058323
11
7.4197636
21
14.6272323
0
LINE
8
DEFAULT_255_2_778
10
7.4197636
20
14.6272323
11
7.2144636
21
14.7486323
0
LINE
8
DEFAULT_255_2_778
10
7.2144636
20
14.7486323
11
7.0090636
21
14.6272323
0
LINE
8
DEFAULT_255_2_778
10
6.6839636
20
14.8180323
11
6.9746636
21
14.6444323
0
LINE
8
DEFAULT_255_2_778
10
6.9746636
20
14.6444323
11
7.1800636
21
14.7658323
0
LINE
8
DEFAULT_255_2_778
10
7.1800636
20
14.7658323
11
6.8892636
21
14.9394323
0
LINE
8
DEFAULT_255_2_778
10
6.8892636
20
14.9394323
11
6.6839636
21
14.8180323
0
LINE
8
DEFAULT_255_2_778
10
9.5236636
20
12.8921323
11
9.7631636
21
12.7532323
0
LINE
8
DEFAULT_255_2_778
10
9.7631636
20
12.7532323
11
9.9684636
21
12.8746323
0
LINE
8
DEFAULT_255_2_778
10
9.9684636
20
12.8746323
11
9.7290636
21
13.0135323
0
LINE
8
DEFAULT_255_2_778
10
9.7290636
20
13.0135323
11
9.5236636
21
12.8921323
0
LINE
8
DEFAULT_255_2_778
10
9.2842636
20
13.0310323
11
9.4895636
21
12.9095323
0
LINE
8
DEFAULT_255_2_778
10
9.4895636
20
12.9095323
11
9.6948636
21
13.0310323
0
LINE
8
DEFAULT_255_2_778
10
9.6948636
20
13.0310323
11
9.4895636
21
13.1524323
0
LINE
8
DEFAULT_255_2_778
10
9.4895636
20
13.1524323
11
9.2842636
21
13.0310323
0
LINE
8
DEFAULT_255_2_778
10
9.0447636
20
13.1699323
11
9.2501636
21
13.0484323
0
LINE
8
DEFAULT_255_2_778
10
9.2501636
20
13.0484323
11
9.4554636
21
13.1699323
0
LINE
8
DEFAULT_255_2_778
10
9.4554636
20
13.1699323
11
9.2501636
21
13.2913323
0
LINE
8
DEFAULT_255_2_778
10
9.2501636
20
13.2913323
11
9.0447636
21
13.1699323
0
LINE
8
DEFAULT_255_2_778
10
8.8053636
20
13.3088323
11
9.0106636
21
13.1873323
0
LINE
8
DEFAULT_255_2_778
10
9.0106636
20
13.1873323
11
9.2159636
21
13.3088323
0
LINE
8
DEFAULT_255_2_778
10
9.2159636
20
13.3088323
11
9.0106636
21
13.4302323
0
LINE
8
DEFAULT_255_2_778
10
9.0106636
20
13.4302323
11
8.8053636
21
13.3088323
0
LINE
8
DEFAULT_255_2_778
10
8.5658636
20
13.4477323
11
8.7712636
21
13.3262323
0
LINE
8
DEFAULT_255_2_778
10
8.7712636
20
13.3262323
11
8.9765636
21
13.4477323
0
LINE
8
DEFAULT_255_2_778
10
8.9765636
20
13.4477323
11
8.7712636
21
13.5691323
0
LINE
8
DEFAULT_255_2_778
10
8.7712636
20
13.5691323
11
8.5658636
21
13.4477323
0
LINE
8
DEFAULT_255_2_778
10
8.3264636
20
13.5866323
11
8.5317636
21
13.4651323
0
LINE
8
DEFAULT_255_2_778
10
8.5317636
20
13.4651323
11
8.7370636
21
13.5866323
0
LINE
8
DEFAULT_255_2_778
10
8.7370636
20
13.5866323
11
8.5317636
21
13.7080323
0
LINE
8
DEFAULT_255_2_778
10
8.5317636
20
13.7080323
11
8.3264636
21
13.5866323
0
LINE
8
DEFAULT_255_2_778
10
8.0870636
20
13.7255323
11
8.2923636
21
13.6041323
0
LINE
8
DEFAULT_255_2_778
10
8.2923636
20
13.6041323
11
8.4976636
21
13.7255323
0
LINE
8
DEFAULT_255_2_778
10
8.4976636
20
13.7255323
11
8.2923636
21
13.8469323
0
LINE
8
DEFAULT_255_2_778
10
8.2923636
20
13.8469323
11
8.0870636
21
13.7255323
0
LINE
8
DEFAULT_255_2_778
10
7.8475636
20
13.8644323
11
8.0528636
21
13.7430323
0
LINE
8
DEFAULT_255_2_778
10
8.0528636
20
13.7430323
11
8.2581636
21
13.8644323
0
LINE
8
DEFAULT_255_2_778
10
8.2581636
20
13.8644323
11
8.0528636
21
13.9858323
0
LINE
8
DEFAULT_255_2_778
10
8.0528636
20
13.9858323
11
7.8475636
21
13.8644323
0
LINE
8
DEFAULT_255_2_778
10
7.6081636
20
14.0033323
11
7.8134636
21
13.8819323
0
LINE
8
DEFAULT_255_2_778
10
7.8134636
20
13.8819323
11
8.0187636
21
14.0033323
0
LINE
8
DEFAULT_255_2_778
10
8.0187636
20
14.0033323
11
7.8134636
21
14.1248323
0
LINE
8
DEFAULT_255_2_778
10
7.8134636
20
14.1248323
11
7.6081636
21
14.0033323
0
LINE
8
DEFAULT_255_2_778
10
7.3686636
20
14.1422323
11
7.5739636
21
14.0208323
0
LINE
8
DEFAULT_255_2_778
10
7.5739636
20
14.0208323
11
7.7792636
21
14.1422323
0
LINE
8
DEFAULT_255_2_778
10
7.7792636
20
14.1422323
11
7.5739636
21
14.2637323
0
LINE
8
DEFAULT_255_2_778
10
7.5739636
20
14.2637323
11
7.3686636
21
14.1422323
0
LINE
8
DEFAULT_255_2_778
10
7.1292636
20
14.2811323
11
7.3345636
21
14.1597323
0
LINE
8
DEFAULT_255_2_778
10
7.3345636
20
14.1597323
11
7.5398636
21
14.2811323
0
LINE
8
DEFAULT_255_2_778
10
7.5398636
20
14.2811323
11
7.3345636
21
14.4026323
0
LINE
8
DEFAULT_255_2_778
10
7.3345636
20
14.4026323
11
7.1292636
21
14.2811323
0
LINE
8
DEFAULT_255_2_778
10
6.8897636
20
14.4200323
11
7.0950636
21
14.2986323
0
LINE
8
DEFAULT_255_2_778
10
7.0950636
20
14.2986323
11
7.3003636
21
14.4200323
0
LINE
8
DEFAULT_255_2_778
10
7.3003636
20
14.4200323
11
7.0950636
21
14.5415323
0
LINE
8
DEFAULT_255_2_778
10
7.0950636
20
14.5415323
11
6.8897636
21
14.4200323
0
LINE
8
DEFAULT_255_2_778
10
6.6503636
20
14.5589323
11
6.8556636
21
14.4375323
0
LINE
8
DEFAULT_255_2_778
10
6.8556636
20
14.4375323
11
7.0609636
21
14.5589323
0
LINE
8
DEFAULT_255_2_778
10
7.0609636
20
14.5589323
11
6.8556636
21
14.6804323
0
LINE
8
DEFAULT_255_2_778
10
6.8556636
20
14.6804323
11
6.6503636
21
14.5589323
0
LINE
8
DEFAULT_255_2_778
10
6.4449636
20
14.6804323
11
6.6161636
21
14.5764323
0
LINE
8
DEFAULT_255_2_778
10
6.6161636
20
14.5764323
11
6.8215636
21
14.6978323
0
LINE
8
DEFAULT_255_2_778
10
6.8215636
20
14.6978323
11
6.6503636
21
14.8018323
0
LINE
8
DEFAULT_255_2_778
10
6.6503636
20
14.8018323
11
6.4449636
21
14.6804323
0
LINE
8
DEFAULT_255_2_778
10
8.9254636
20
12.9627323
11
9.1307636
21
12.8413323
0
LINE
8
DEFAULT_255_2_778
10
9.1307636
20
12.8413323
11
9.3361636
21
12.9627323
0
LINE
8
DEFAULT_255_2_778
10
9.3361636
20
12.9627323
11
9.1307636
21
13.0841323
0
LINE
8
DEFAULT_255_2_778
10
9.1307636
20
13.0841323
11
8.9254636
21
12.9627323
0
LINE
8
DEFAULT_255_2_778
10
9.1649636
20
12.8238323
11
9.5242636
21
12.6156323
0
LINE
8
DEFAULT_255_2_778
10
9.5242636
20
12.6156323
11
9.7295636
21
12.7370323
0
LINE
8
DEFAULT_255_2_778
10
9.7295636
20
12.7370323
11
9.3702636
21
12.9452323
0
LINE
8
DEFAULT_255_2_778
10
9.3702636
20
12.9452323
11
9.1649636
21
12.8238323
0
LINE
8
DEFAULT_255_2_778
10
8.6860636
20
13.1013323
11
8.8913636
21
12.9799323
0
LINE
8
DEFAULT_255_2_778
10
8.8913636
20
12.9799323
11
9.0966636
21
13.1013323
0
LINE
8
DEFAULT_255_2_778
10
9.0966636
20
13.1013323
11
8.8913636
21
13.2228323
0
LINE
8
DEFAULT_255_2_778
10
8.8913636
20
13.2228323
11
8.6860636
21
13.1013323
0
LINE
8
DEFAULT_255_2_778
10
8.4465636
20
13.2403323
11
8.6518636
21
13.1188323
0
LINE
8
DEFAULT_255_2_778
10
8.6518636
20
13.1188323
11
8.8572636
21
13.2403323
0
LINE
8
DEFAULT_255_2_778
10
8.8572636
20
13.2403323
11
8.6518636
21
13.3617323
0
LINE
8
DEFAULT_255_2_778
10
8.6518636
20
13.3617323
11
8.4465636
21
13.2403323
0
LINE
8
DEFAULT_255_2_778
10
7.9676636
20
13.5178323
11
8.1729636
21
13.3964323
0
LINE
8
DEFAULT_255_2_778
10
8.1729636
20
13.3964323
11
8.3783636
21
13.5178323
0
LINE
8
DEFAULT_255_2_778
10
8.3783636
20
13.5178323
11
8.1729636
21
13.6392323
0
LINE
8
DEFAULT_255_2_778
10
8.1729636
20
13.6392323
11
7.9676636
21
13.5178323
0
LINE
8
DEFAULT_255_2_778
10
8.2071636
20
13.3789323
11
8.4124636
21
13.2575323
0
LINE
8
DEFAULT_255_2_778
10
8.4124636
20
13.2575323
11
8.6177636
21
13.3789323
0
LINE
8
DEFAULT_255_2_778
10
8.6177636
20
13.3789323
11
8.4124636
21
13.5003323
0
LINE
8
DEFAULT_255_2_778
10
8.4124636
20
13.5003323
11
8.2071636
21
13.3789323
0
LINE
8
DEFAULT_255_2_778
10
7.4885636
20
13.7953323
11
7.6938636
21
13.6739323
0
LINE
8
DEFAULT_255_2_778
10
7.6938636
20
13.6739323
11
7.8991636
21
13.7953323
0
LINE
8
DEFAULT_255_2_778
10
7.8991636
20
13.7953323
11
7.6938636
21
13.9168323
0
LINE
8
DEFAULT_255_2_778
10
7.6938636
20
13.9168323
11
7.4885636
21
13.7953323
0
LINE
8
DEFAULT_255_2_778
10
7.7279636
20
13.6564323
11
7.9332636
21
13.5350323
0
LINE
8
DEFAULT_255_2_778
10
7.9332636
20
13.5350323
11
8.1385636
21
13.6564323
0
LINE
8
DEFAULT_255_2_778
10
8.1385636
20
13.6564323
11
7.9332636
21
13.7779323
0
LINE
8
DEFAULT_255_2_778
10
7.9332636
20
13.7779323
11
7.7279636
21
13.6564323
0
LINE
8
DEFAULT_255_2_778
10
7.0093636
20
14.0729323
11
7.2146636
21
13.9515323
0
LINE
8
DEFAULT_255_2_778
10
7.2146636
20
13.9515323
11
7.4199636
21
14.0729323
0
LINE
8
DEFAULT_255_2_778
10
7.4199636
20
14.0729323
11
7.2146636
21
14.1943323
0
LINE
8
DEFAULT_255_2_778
10
7.2146636
20
14.1943323
11
7.0093636
21
14.0729323
0
LINE
8
DEFAULT_255_2_778
10
7.2488636
20
13.9340323
11
7.4541636
21
13.8125323
0
LINE
8
DEFAULT_255_2_778
10
7.4541636
20
13.8125323
11
7.6594636
21
13.9340323
0
LINE
8
DEFAULT_255_2_778
10
7.6594636
20
13.9340323
11
7.4541636
21
14.0554323
0
LINE
8
DEFAULT_255_2_778
10
7.4541636
20
14.0554323
11
7.2488636
21
13.9340323
0
LINE
8
DEFAULT_255_2_778
10
6.5301636
20
14.3504323
11
6.7355636
21
14.2290323
0
LINE
8
DEFAULT_255_2_778
10
6.7355636
20
14.2290323
11
6.9408636
21
14.3504323
0
LINE
8
DEFAULT_255_2_778
10
6.9408636
20
14.3504323
11
6.7355636
21
14.4719323
0
LINE
8
DEFAULT_255_2_778
10
6.7355636
20
14.4719323
11
6.5301636
21
14.3504323
0
LINE
8
DEFAULT_255_2_778
10
6.7696636
20
14.2115323
11
6.9749636
21
14.0901323
0
LINE
8
DEFAULT_255_2_778
10
6.9749636
20
14.0901323
11
7.1802636
21
14.2115323
0
LINE
8
DEFAULT_255_2_778
10
7.1802636
20
14.2115323
11
6.9749636
21
14.3330323
0
LINE
8
DEFAULT_255_2_778
10
6.9749636
20
14.3330323
11
6.7696636
21
14.2115323
0
LINE
8
DEFAULT_255_2_778
10
6.2050636
20
14.5412323
11
6.4957636
21
14.3676323
0
LINE
8
DEFAULT_255_2_778
10
6.4957636
20
14.3676323
11
6.7011636
21
14.4891323
0
LINE
8
DEFAULT_255_2_778
10
6.7011636
20
14.4891323
11
6.4103636
21
14.6627323
0
LINE
8
DEFAULT_255_2_778
10
6.4103636
20
14.6627323
11
6.2050636
21
14.5412323
0
LINE
8
DEFAULT_255_2_778
10
8.8394636
20
12.7368323
11
9.2842636
21
12.4764323
0
LINE
8
DEFAULT_255_2_778
10
9.2842636
20
12.4764323
11
9.4895636
21
12.5978323
0
LINE
8
DEFAULT_255_2_778
10
9.4895636
20
12.5978323
11
9.0447636
21
12.8582323
0
LINE
8
DEFAULT_255_2_778
10
9.0447636
20
12.8582323
11
8.8394636
21
12.7368323
0
LINE
8
DEFAULT_255_2_778
10
8.6000636
20
12.8757323
11
8.8053636
21
12.7542323
0
LINE
8
DEFAULT_255_2_778
10
8.8053636
20
12.7542323
11
9.0106636
21
12.8757323
0
LINE
8
DEFAULT_255_2_778
10
9.0106636
20
12.8757323
11
8.8053636
21
12.9971323
0
LINE
8
DEFAULT_255_2_778
10
8.8053636
20
12.9971323
11
8.6000636
21
12.8757323
0
LINE
8
DEFAULT_255_2_778
10
8.3605636
20
13.0146323
11
8.5658636
21
12.8931323
0
LINE
8
DEFAULT_255_2_778
10
8.5658636
20
12.8931323
11
8.7712636
21
13.0146323
0
LINE
8
DEFAULT_255_2_778
10
8.7712636
20
13.0146323
11
8.5658636
21
13.1360323
0
LINE
8
DEFAULT_255_2_778
10
8.5658636
20
13.1360323
11
8.3605636
21
13.0146323
0
LINE
8
DEFAULT_255_2_778
10
8.1211636
20
13.1535323
11
8.3264636
21
13.0320323
0
LINE
8
DEFAULT_255_2_778
10
8.3264636
20
13.0320323
11
8.5317636
21
13.1535323
0
LINE
8
DEFAULT_255_2_778
10
8.5317636
20
13.1535323
11
8.3264636
21
13.2749323
0
LINE
8
DEFAULT_255_2_778
10
8.3264636
20
13.2749323
11
8.1211636
21
13.1535323
0
LINE
8
DEFAULT_255_2_778
10
7.8816636
20
13.2924323
11
8.0870636
21
13.1709323
0
LINE
8
DEFAULT_255_2_778
10
8.0870636
20
13.1709323
11
8.2923636
21
13.2924323
0
LINE
8
DEFAULT_255_2_778
10
8.2923636
20
13.2924323
11
8.0870636
21
13.4138323
0
LINE
8
DEFAULT_255_2_778
10
8.0870636
20
13.4138323
11
7.8816636
21
13.2924323
0
LINE
8
DEFAULT_255_2_778
10
7.6422636
20
13.4313323
11
7.8475636
21
13.3098323
0
LINE
8
DEFAULT_255_2_778
10
7.8475636
20
13.3098323
11
8.0528636
21
13.4313323
0
LINE
8
DEFAULT_255_2_778
10
8.0528636
20
13.4313323
11
7.8475636
21
13.5527323
0
LINE
8
DEFAULT_255_2_778
10
7.8475636
20
13.5527323
11
7.6422636
21
13.4313323
0
LINE
8
DEFAULT_255_2_778
10
7.4027636
20
13.5702323
11
7.6081636
21
13.4487323
0
LINE
8
DEFAULT_255_2_778
10
7.6081636
20
13.4487323
11
7.8134636
21
13.5702323
0
LINE
8
DEFAULT_255_2_778
10
7.8134636
20
13.5702323
11
7.6081636
21
13.6916323
0
LINE
8
DEFAULT_255_2_778
10
7.6081636
20
13.6916323
11
7.4027636
21
13.5702323
0
LINE
8
DEFAULT_255_2_778
10
7.1633636
20
13.7091323
11
7.3686636
21
13.5877323
0
LINE
8
DEFAULT_255_2_778
10
7.3686636
20
13.5877323
11
7.5739636
21
13.7091323
0
LINE
8
DEFAULT_255_2_778
10
7.5739636
20
13.7091323
11
7.3686636
21
13.8305323
0
LINE
8
DEFAULT_255_2_778
10
7.3686636
20
13.8305323
11
7.1633636
21
13.7091323
0
LINE
8
DEFAULT_255_2_778
10
6.9238636
20
13.8480323
11
7.1292636
21
13.7266323
0
LINE
8
DEFAULT_255_2_778
10
7.1292636
20
13.7266323
11
7.3345636
21
13.8480323
0
LINE
8
DEFAULT_255_2_778
10
7.3345636
20
13.8480323
11
7.1292636
21
13.9694323
0
LINE
8
DEFAULT_255_2_778
10
7.1292636
20
13.9694323
11
6.9238636
21
13.8480323
0
LINE
8
DEFAULT_255_2_778
10
6.6844636
20
13.9869323
11
6.8897636
21
13.8655323
0
LINE
8
DEFAULT_255_2_778
10
6.8897636
20
13.8655323
11
7.0950636
21
13.9869323
0
LINE
8
DEFAULT_255_2_778
10
7.0950636
20
13.9869323
11
6.8897636
21
14.1084323
0
LINE
8
DEFAULT_255_2_778
10
6.8897636
20
14.1084323
11
6.6844636
21
13.9869323
0
LINE
8
DEFAULT_255_2_778
10
6.4449636
20
14.1258323
11
6.6503636
21
14.0044323
0
LINE
8
DEFAULT_255_2_778
10
6.6503636
20
14.0044323
11
6.8556636
21
14.1258323
0
LINE
8
DEFAULT_255_2_778
10
6.8556636
20
14.1258323
11
6.6503636
21
14.2473323
0
LINE
8
DEFAULT_255_2_778
10
6.6503636
20
14.2473323
11
6.4449636
21
14.1258323
0
LINE
8
DEFAULT_255_2_778
10
5.9661636
20
14.4034323
11
6.4108636
21
14.1430323
0
LINE
8
DEFAULT_255_2_778
10
6.4108636
20
14.1430323
11
6.6161636
21
14.2645323
0
LINE
8
DEFAULT_255_2_778
10
6.6161636
20
14.2645323
11
6.1714636
21
14.5248323
0
LINE
8
DEFAULT_255_2_778
10
6.1714636
20
14.5248323
11
5.9661636
21
14.4034323
0
LINE
8
DEFAULT_255_2_778
10
5.7266636
20
14.2645323
11
5.9319636
21
14.1430323
0
LINE
8
DEFAULT_255_2_778
10
5.9319636
20
14.1430323
11
6.1372636
21
14.2645323
0
LINE
8
DEFAULT_255_2_778
10
6.1372636
20
14.2645323
11
5.9319636
21
14.3859323
0
LINE
8
DEFAULT_255_2_778
10
5.9319636
20
14.3859323
11
5.7266636
21
14.2645323
0
LINE
8
DEFAULT_255_2_778
10
5.9661636
20
14.1255323
11
6.1714636
21
14.0041323
0
LINE
8
DEFAULT_255_2_778
10
6.1714636
20
14.0041323
11
6.3767636
21
14.1255323
0
LINE
8
DEFAULT_255_2_778
10
6.3767636
20
14.1255323
11
6.1714636
21
14.2470323
0
LINE
8
DEFAULT_255_2_778
10
6.1714636
20
14.2470323
11
5.9661636
21
14.1255323
0
LINE
8
DEFAULT_255_2_778
10
6.2055636
20
13.9866323
11
6.4108636
21
13.8652323
0
LINE
8
DEFAULT_255_2_778
10
6.4108636
20
13.8652323
11
6.6161636
21
13.9866323
0
LINE
8
DEFAULT_255_2_778
10
6.6161636
20
13.9866323
11
6.4108636
21
14.1081323
0
LINE
8
DEFAULT_255_2_778
10
6.4108636
20
14.1081323
11
6.2055636
21
13.9866323
0
LINE
8
DEFAULT_255_2_778
10
6.4449636
20
13.8477323
11
6.6503636
21
13.7263323
0
LINE
8
DEFAULT_255_2_778
10
6.6503636
20
13.7263323
11
6.8556636
21
13.8477323
0
LINE
8
DEFAULT_255_2_778
10
6.8556636
20
13.8477323
11
6.6503636
21
13.9692323
0
LINE
8
DEFAULT_255_2_778
10
6.6503636
20
13.9692323
11
6.4449636
21
13.8477323
0
LINE
8
DEFAULT_255_2_778
10
6.6844636
20
13.7088323
11
6.8897636
21
13.5874323
0
LINE
8
DEFAULT_255_2_778
10
6.8897636
20
13.5874323
11
7.0950636
21
13.7088323
0
LINE
8
DEFAULT_255_2_778
10
7.0950636
20
13.7088323
11
6.8897636
21
13.8303323
0
LINE
8
DEFAULT_255_2_778
10
6.8897636
20
13.8303323
11
6.6844636
21
13.7088323
0
LINE
8
DEFAULT_255_2_778
10
8.1213636
20
12.8762323
11
8.3267636
21
12.7547323
0
LINE
8
DEFAULT_255_2_778
10
8.3267636
20
12.7547323
11
8.5320636
21
12.8762323
0
LINE
8
DEFAULT_255_2_778
10
8.5320636
20
12.8762323
11
8.3267636
21
12.9976323
0
LINE
8
DEFAULT_255_2_778
10
8.3267636
20
12.9976323
11
8.1213636
21
12.8762323
0
LINE
8
DEFAULT_255_2_778
10
8.7201636
20
12.6680323
11
8.9254636
21
12.5465323
0
LINE
8
DEFAULT_255_2_778
10
8.9254636
20
12.5465323
11
9.0109636
21
12.5986323
0
LINE
8
DEFAULT_255_2_778
10
9.0109636
20
12.5986323
11
8.8056636
21
12.7201323
0
LINE
8
DEFAULT_255_2_778
10
8.8056636
20
12.7201323
11
8.7201636
21
12.6680323
0
LINE
8
DEFAULT_255_2_778
10
8.6002636
20
12.5986323
11
8.8056636
21
12.4772323
0
LINE
8
DEFAULT_255_2_778
10
8.8056636
20
12.4772323
11
8.8910636
21
12.5293323
0
LINE
8
DEFAULT_255_2_778
10
8.8910636
20
12.5293323
11
8.6857636
21
12.6508323
0
LINE
8
DEFAULT_255_2_778
10
8.6857636
20
12.6508323
11
8.6002636
21
12.5986323
0
LINE
8
DEFAULT_255_2_778
10
8.8397636
20
12.4597323
11
9.0450636
21
12.3383323
0
LINE
8
DEFAULT_255_2_778
10
9.0450636
20
12.3383323
11
9.1305636
21
12.3904323
0
LINE
8
DEFAULT_255_2_778
10
9.1305636
20
12.3904323
11
8.9252636
21
12.5119323
0
LINE
8
DEFAULT_255_2_778
10
8.9252636
20
12.5119323
11
8.8397636
21
12.4597323
0
LINE
8
DEFAULT_255_2_778
10
8.3608636
20
12.7373323
11
8.5661636
21
12.6158323
0
LINE
8
DEFAULT_255_2_778
10
8.5661636
20
12.6158323
11
8.6516636
21
12.6680323
0
LINE
8
DEFAULT_255_2_778
10
8.6516636
20
12.6680323
11
8.4463636
21
12.7894323
0
LINE
8
DEFAULT_255_2_778
10
8.4463636
20
12.7894323
11
8.3608636
21
12.7373323
0
ENDSEC
0
EOF