0
SECTION
2
HEADER
9
$MEASUREMENT
70
1
0
ENDSEC
0
SECTION
2
TABLES
0
TABLE
2
LTYPE
0
LTYPE
72
65
70
64
2
CONTINUOUS
3
______
73
0
40
0
0
ENDTAB
0
TABLE
2
LAYER
0
LAYER
2
DEFAULT_255_2_778
70
0
62
255
6
CONTINUOUS
0
ENDTAB
0
ENDSEC
0
SECTION
2
ENTITIES
0
LINE
8
DEFAULT_255_2_778
10
110.7927584
20
11.6137301
11
110.7927584
21
14.8136301
0
LINE
8
DEFAULT_255_2_778
10
110.7927584
20
14.8136301
11
113.8812584
21
14.8162301
0
LINE
8
DEFAULT_255_2_778
10
113.8812584
20
14.8162301
11
113.8894584
21
10.6159301
0
ARC
8
DEFAULT_255_2_778
10
32.9747247
20
-52.9743959
40
58.4020567
50
95.058593
51
95.8082078
0
ARC
8
DEFAULT_255_2_778
10
33.7342804
20
-60.3835155
40
65.8500059
50
95.8133084
51
96.7864144
0
ARC
8
DEFAULT_255_2_778
10
34.854923
20
-69.8138567
40
75.3466986
50
96.785214
51
97.6673236
0
ARC
8
DEFAULT_255_2_778
10
35.6256888
20
-75.6385595
40
81.2221628
50
97.6579677
51
97.7778007
0
ARC
8
DEFAULT_255_2_778
10
31.8302654
20
-43.6156235
40
48.978594
50
99.7509603
51
105.5701181
0
ARC
8
DEFAULT_255_2_778
10
62.8571901
20
-66.2744574
40
82.637412
50
120.0524732
51
122.3132393
0
ARC
8
DEFAULT_255_2_778
10
60.9730365
20
-63.0183093
40
78.8754264
50
117.68743
51
120.0523239
0
ARC
8
DEFAULT_255_2_778
10
59.4497692
20
-60.1169756
40
75.5985254
50
115.2610251
51
117.686863
0
ARC
8
DEFAULT_255_2_778
10
58.1550326
20
-57.3653654
40
72.5575239
50
112.2568934
51
115.2636348
0
ARC
8
DEFAULT_255_2_778
10
57.1007767
20
-54.7881711
40
69.7730335
50
108.8741042
51
112.2572461
0
ARC
8
DEFAULT_255_2_778
10
56.3605052
20
-52.6201553
40
67.4821181
50
104.7884266
51
108.8748367
0
ARC
8
DEFAULT_255_2_778
10
55.9278577
20
-50.9599617
40
65.7664852
50
92.7200822
51
104.793174
0
ARC
8
DEFAULT_255_2_778
10
56.0210051
20
-52.550142
40
67.3592965
50
89.9954337
51
92.735034
0
ARC
8
DEFAULT_255_2_778
10
56.0263141
20
-53.3359649
40
68.1451192
50
89.6647399
51
89.9999501
0
LINE
8
DEFAULT_255_2_778
10
27.8251557
20
5.5888876
11
27.8251557
21
5.2001876
0
LINE
8
DEFAULT_255_2_778
10
24.6337557
20
4.8363876
11
24.6337557
21
3.8193876
0
LINE
8
DEFAULT_255_2_778
10
24.6337557
20
3.8193876
11
23.5341557
21
3.8193876
0
LINE
8
DEFAULT_255_2_778
10
23.5341557
20
3.8193876
11
23.5349557
21
4.6553876
0
LINE
8
DEFAULT_255_2_778
10
9.8583844
20
16.3127166
11
5.0958844
21
16.9742166
0
LINE
8
DEFAULT_255_2_778
10
5.0958844
20
16.9742166
11
4.5537844
21
12.9917166
0
LINE
8
DEFAULT_255_2_778
10
4.5537844
20
12.9917166
11
9.8350844
21
12.2964166
0
LINE
8
DEFAULT_255_2_778
10
9.8351657
20
75.2650609
11
2.9350657
21
74.0484609
0
LINE
8
DEFAULT_255_2_778
10
2.9350657
20
74.0484609
11
2.9350657
21
37.1137609
0
LINE
8
DEFAULT_255_2_778
10
2.9350657
20
37.1137609
11
5.9351657
21
37.0875609
0
ARC
8
DEFAULT_255_2_778
10
6.3351824
20
139.3162834
40
3.4997022
50
359.9555421
51
17.0766317
0
ARC
8
DEFAULT_255_2_778
10
6.3285626
20
139.3072134
40
3.5086999
50
17.1864672
51
72.2960628
0
ARC
8
DEFAULT_255_2_778
10
6.3382204
20
139.3167859
40
3.4966495
50
72.3991218
51
89.4857288
0
ARC
8
DEFAULT_255_2_778
10
6.3344466
20
139.2416346
40
3.5718332
50
89.4360153
51
89.9913859
0
ARC
8
DEFAULT_255_2_778
10
5.8349041
20
141.8134512
40
1.0000166
50
90.0011732
51
135.0082595
0
ARC
8
DEFAULT_255_2_778
10
5.8345304
20
141.8134591
40
0.9997468
50
134.9934394
51
180.0109632
0
ARC
8
DEFAULT_255_2_778
10
2.6281923
20
144.5165593
40
2.2932106
50
157.7998888
51
180.0722441
0
ARC
8
DEFAULT_255_2_778
10
2.6371816
20
144.5106526
40
2.3037661
50
100.5193928
51
157.7483484
0
ARC
8
DEFAULT_255_2_778
10
2.6339535
20
144.5007277
40
2.3129402
50
89.9744827
51
100.3958844
0
ARC
8
DEFAULT_255_2_778
10
-1481.8750922
20
-43.0647361
40
1613.5717917
50
6.3456962
51
6.5004214
0
ARC
8
DEFAULT_255_2_778
10
-1445.4208182
20
-39.0104814
40
1576.892764
50
6.1934821
51
6.3456878
0
ARC
8
DEFAULT_255_2_778
10
-1410.7898416
20
-35.2520204
40
1542.0584338
50
6.043813
51
6.1934704
0
ARC
8
DEFAULT_255_2_778
10
-1377.502742
20
-31.7272964
40
1508.5852402
50
5.8966775
51
6.043799
0
ARC
8
DEFAULT_255_2_778
10
-1345.8869723
20
-28.4617446
40
1476.8012707
50
5.7521076
51
5.8966685
0
ARC
8
DEFAULT_255_2_778
10
-1315.670079
20
-25.417842
40
1446.4314505
50
5.6101066
51
5.7521037
0
ARC
8
DEFAULT_255_2_778
10
-1286.8988454
20
-22.5913315
40
1417.5217107
50
5.4706715
51
5.6100928
0
ARC
8
DEFAULT_255_2_778
10
-1259.3371547
20
-19.9514449
40
1389.8338833
50
5.3338093
51
5.4706618
0
ARC
8
DEFAULT_255_2_778
10
-1226.5662775
20
-16.8978491
40
1356.9210466
50
5.1319931
51
5.3340603
0
ARC
8
DEFAULT_255_2_778
10
-1189.3736017
20
-13.5566604
40
1319.5785953
50
4.9357437
51
5.1319543
0
ARC
8
DEFAULT_255_2_778
10
-1154.5758297
20
-10.550689
40
1284.6512307
50
4.7453167
51
4.9357045
0
ARC
8
DEFAULT_255_2_778
10
-1119.3483988
20
-7.62877
40
1249.3028292
50
4.5297395
51
4.7454244
0
ARC
8
DEFAULT_255_2_778
10
-1082.836755
20
-4.7367395
40
1212.676828
50
4.3069376
51
4.5297662
0
ARC
8
DEFAULT_255_2_778
10
-1046.7662816
20
-2.0205489
40
1176.5042315
50
4.0786344
51
4.3069548
0
ARC
8
DEFAULT_255_2_778
10
-1012.4690886
20
0.4262065
40
1142.1198737
50
3.8602501
51
4.0785765
0
ARC
8
DEFAULT_255_2_778
10
-980.9761504
20
2.5522383
40
1110.5552546
50
3.6516565
51
3.8601982
0
ARC
8
DEFAULT_255_2_778
10
-952.037402
20
4.4000304
40
1081.5575737
50
3.4526213
51
3.6516076
0
ARC
8
DEFAULT_255_2_778
10
-925.4166619
20
6.0069425
40
1054.8883788
50
3.2628982
51
3.4525773
0
ARC
8
DEFAULT_255_2_778
10
-900.8276684
20
7.4095042
40
1030.2594165
50
3.0822078
51
3.2628569
0
ARC
8
DEFAULT_255_2_778
10
-878.2201512
20
8.62747
40
1007.6191146
50
2.9102882
51
3.0821722
0
ARC
8
DEFAULT_255_2_778
10
-852.298209
20
9.9398657
40
981.6639719
50
2.6646492
51
2.9106041
0
ARC
8
DEFAULT_255_2_778
10
-823.9930787
20
11.2588894
40
953.3281249
50
2.4372552
51
2.6645477
0
ARC
8
DEFAULT_255_2_778
10
-795.9114063
20
12.4515257
40
925.2211381
50
2.1747498
51
2.4374177
0
ARC
8
DEFAULT_255_2_778
10
-767.5821189
20
13.5282911
40
896.8713949
50
1.9221575
51
2.174688
0
ARC
8
DEFAULT_255_2_778
10
-742.3533524
20
14.3771715
40
871.6283511
50
1.6968022
51
1.9220137
0
ARC
8
DEFAULT_255_2_778
10
-720.6699125
20
15.0209853
40
849.9353556
50
1.4963
51
1.6967028
0
ARC
8
DEFAULT_255_2_778
10
-697.846924
20
15.6127904
40
827.104696
50
1.2287638
51
1.496602
0
ARC
8
DEFAULT_255_2_778
10
-671.3269588
20
16.179722
40
800.5786718
50
0.9323646
51
1.2288998
0
ARC
8
DEFAULT_255_2_778
10
-647.774715
20
16.567892
40
777.02323
50
0.7051331
51
0.9320052
0
ARC
8
DEFAULT_255_2_778
10
-624.9295803
20
16.8442923
40
754.1764237
50
0.4017422
51
0.7054952
0
ARC
8
DEFAULT_255_2_778
10
-600.0416077
20
17.0194073
40
729.287835
50
0.1021631
51
0.4016947
0
ARC
8
DEFAULT_255_2_778
10
-584.0608428
20
17.0570976
40
713.3070283
50
0.0000938
51
0.1014245
0
ARC
8
DEFAULT_255_2_778
10
-575.8397637
20
17.0567958
40
705.0859492
50
359.8894606
51
0.0001194
0
ARC
8
DEFAULT_255_2_778
10
-567.4016967
20
17.0405809
40
696.6478665
50
359.7768034
51
359.8894553
0
ARC
8
DEFAULT_255_2_778
10
-559.190062
20
17.0087747
40
688.4361702
50
359.67653
51
359.7767882
0
ARC
8
DEFAULT_255_2_778
10
-552.4093564
20
16.9704967
40
681.6553567
50
359.5882305
51
359.6765297
0
ARC
8
DEFAULT_255_2_778
10
-546.3481806
20
16.9271074
40
675.5940255
50
359.5104919
51
359.5882159
0
ARC
8
DEFAULT_255_2_778
10
-540.1060925
20
16.8734886
40
669.3517071
50
359.4078825
51
359.5105165
0
ARC
8
DEFAULT_255_2_778
10
-532.3206353
20
16.7930081
40
661.565834
50
359.2958161
51
359.4078842
0
ARC
8
DEFAULT_255_2_778
10
-525.3489366
20
16.7077011
40
654.5936134
50
359.2111309
51
359.2957827
0
ARC
8
DEFAULT_255_2_778
10
-518.7537288
20
16.6163703
40
647.9977732
50
359.0993272
51
359.2111769
0
ARC
8
DEFAULT_255_2_778
10
-511.2717098
20
16.4988465
40
640.5148312
50
358.9906234
51
359.0993182
0
ARC
8
DEFAULT_255_2_778
10
-507.3271004
20
16.4307921
40
636.5696349
50
358.9541294
51
358.9904934
0
ARC
8
DEFAULT_255_2_778
10
121.549776
20
11.0331413
40
4.739755
50
257.1696251
51
264.3432333
0
ARC
8
DEFAULT_255_2_778
10
121.3004447
20
9.9525165
40
3.6307449
50
247.5151933
51
257.2191216
0
ARC
8
DEFAULT_255_2_778
10
120.9930437
20
9.2209524
40
2.8372347
50
232.2184153
51
247.6011078
0
ARC
8
DEFAULT_255_2_778
10
120.8816429
20
9.049269
40
2.6333502
50
206.7573879
51
231.8455614
0
ARC
8
DEFAULT_255_2_778
10
121.5018311
20
9.3757584
40
3.3341419
50
196.3739748
51
206.9689651
0
ARC
8
DEFAULT_255_2_778
10
122.4428594
20
9.6555789
40
4.3158884
50
188.5337464
51
196.4163286
0
ARC
8
DEFAULT_255_2_778
10
123.3867708
20
9.8101774
40
5.2723061
50
185.5391022
51
188.673045
0
ARC
8
DEFAULT_255_2_778
10
126.4947152
20
9.8880876
40
8.3762125
50
183.0687771
51
184.0173121
0
ARC
8
DEFAULT_255_2_778
10
126.0179652
20
9.8627381
40
7.8987892
50
181.9606223
51
183.0702967
0
ARC
8
DEFAULT_255_2_778
10
125.5804621
20
9.8475659
40
7.4610232
50
180.9986078
51
181.9591241
0
ARC
8
DEFAULT_255_2_778
10
125.2025336
20
9.8409921
40
7.0830374
50
180.004329
51
180.9987192
0
ARC
8
DEFAULT_255_2_778
10
124.1900637
20
9.8525438
40
6.0705795
50
174.657736
51
180.114079
0
ARC
8
DEFAULT_255_2_778
10
122.8092601
20
9.9841591
40
4.6835203
50
167.7495559
51
174.6881208
0
ARC
8
DEFAULT_255_2_778
10
121.7656724
20
10.2134033
40
3.6150544
50
158.6085142
51
167.7906109
0
ARC
8
DEFAULT_255_2_778
10
121.0484778
20
10.4979839
40
2.8434719
50
144.8469511
51
158.6767705
0
ARC
8
DEFAULT_255_2_778
10
120.8168972
20
10.6452834
40
2.5693506
50
117.2547846
51
144.5592648
0
ARC
8
DEFAULT_255_2_778
10
121.1406475
20
10.0449044
40
3.2513612
50
106.7779338
51
117.4814881
0
ARC
8
DEFAULT_255_2_778
10
121.4111222
20
9.1644617
40
4.172403
50
99.3951986
51
106.8439782
0
ARC
8
DEFAULT_255_2_778
10
121.5925228
20
8.1049463
40
5.2473217
50
94.4894755
51
99.4608054
0
ARC
8
DEFAULT_255_2_778
10
124.1841529
20
13.4569966
40
2.9533035
50
357.6551978
51
359.0928207
0
ARC
8
DEFAULT_255_2_778
10
124.3564608
20
13.4539784
40
2.7809693
50
359.0987906
51
359.9966107
0
ARC
8
DEFAULT_255_2_778
10
124.9178616
20
13.4658042
40
2.2196009
50
359.6904856
51
9.1948684
0
ARC
8
DEFAULT_255_2_778
10
125.6450032
20
13.587445
40
1.4823704
50
9.044677
51
23.6297045
0
ARC
8
DEFAULT_255_2_778
10
126.0005533
20
13.7407377
40
1.0951899
50
23.7381636
51
70.1976761
0
ARC
8
DEFAULT_255_2_778
10
125.7648919
20
13.1745217
40
1.7080222
50
69.1944361
51
81.2489153
0
ARC
8
DEFAULT_255_2_778
10
125.6332748
20
12.3505211
40
2.5424592
50
81.1425542
51
89.5181469
0
ARC
8
DEFAULT_255_2_778
10
125.6134835
20
11.7303573
40
3.162801
50
89.2541108
51
90.0025471
0
ARC
8
DEFAULT_255_2_778
10
125.6137012
20
11.5610558
40
3.3321026
50
90.0061608
51
91.1298276
0
ARC
8
DEFAULT_255_2_778
10
125.6179931
20
11.3428226
40
3.5503782
50
91.1296328
51
92.2067545
0
ARC
8
DEFAULT_255_2_778
10
117.0024857
20
17.125139
40
1.2433595
50
241.627715
51
258.2875468
0
ARC
8
DEFAULT_255_2_778
10
116.8579688
20
16.8417375
40
0.925357
50
194.7650973
51
241.1624206
0
ARC
8
DEFAULT_255_2_778
10
117.433121
20
17.0235343
40
1.5281285
50
182.7743904
51
195.8604498
0
ARC
8
DEFAULT_255_2_778
10
116.215516
20
16.1237424
40
0.8816481
50
110.4981091
51
161.8871638
0
ARC
8
DEFAULT_255_2_778
10
116.7300712
20
15.931367
40
1.4306953
50
160.971132
51
174.5958829
0
ARC
8
DEFAULT_255_2_778
10
117.3915244
20
15.8549893
40
2.0964467
50
174.220292
51
180.1372358
0
LINE
8
DEFAULT_255_2_778
10
2.9461836
20
74.0497678
11
9.8348836
21
75.2652678
0
LINE
8
DEFAULT_255_2_778
10
9.8348836
20
75.2652678
11
9.8348836
21
94.8137678
0
LINE
8
DEFAULT_255_2_778
10
9.8348836
20
94.8137678
11
3.3347836
21
95.5138678
0
LINE
8
DEFAULT_255_2_778
10
3.3347836
20
95.5138678
11
3.3347836
21
116.1137678
0
LINE
8
DEFAULT_255_2_778
10
3.3347836
20
116.1137678
11
9.8348836
21
116.8138678
0
LINE
8
DEFAULT_255_2_778
10
9.8348836
20
116.8138678
11
9.8348836
21
139.3135678
0
LINE
8
DEFAULT_255_2_778
10
6.3349836
20
142.8134678
11
5.8348836
21
142.8134678
0
LINE
8
DEFAULT_255_2_778
10
4.8347836
20
141.8132678
11
4.8347836
21
139.9133678
0
LINE
8
DEFAULT_255_2_778
10
4.8347836
20
139.9133678
11
0.3349836
21
139.9133678
0
LINE
8
DEFAULT_255_2_778
10
0.3349836
20
139.9133678
11
0.3349836
21
144.5136678
0
LINE
8
DEFAULT_255_2_778
10
2.6349836
20
146.8136678
11
120.3806836
21
146.8136678
0
LINE
8
DEFAULT_255_2_778
10
120.3806836
20
146.8136678
11
120.5288836
21
145.7270678
0
LINE
8
DEFAULT_255_2_778
10
120.5288836
20
145.7270678
11
120.6113836
21
145.7270678
0
LINE
8
DEFAULT_255_2_778
10
120.6113836
20
145.7270678
11
120.8595836
21
143.8831678
0
LINE
8
DEFAULT_255_2_778
10
120.8595836
20
143.8831678
11
120.7603836
21
143.8831678
0
LINE
8
DEFAULT_255_2_778
10
120.7603836
20
143.8831678
11
120.7769836
21
143.8169678
0
LINE
8
DEFAULT_255_2_778
10
120.7769836
20
143.8169678
11
121.0582836
21
143.8500678
0
LINE
8
DEFAULT_255_2_778
10
121.0582836
20
143.8500678
11
121.3146836
21
141.8574678
0
LINE
8
DEFAULT_255_2_778
10
121.3146836
20
141.8574678
11
121.0336836
21
141.8162678
0
LINE
8
DEFAULT_255_2_778
10
121.0336836
20
141.8162678
11
121.1164836
21
141.2208678
0
LINE
8
DEFAULT_255_2_778
10
121.1164836
20
141.2208678
11
121.2074836
21
141.2208678
0
LINE
8
DEFAULT_255_2_778
10
121.2074836
20
141.2208678
11
121.4141836
21
139.6085678
0
LINE
8
DEFAULT_255_2_778
10
121.4141836
20
139.6085678
11
121.3230836
21
139.6085678
0
LINE
8
DEFAULT_255_2_778
10
129.1364836
20
4.8115678
11
127.1349836
21
4.8115678
0
LINE
8
DEFAULT_255_2_778
10
127.1349836
20
4.8115678
11
127.1349836
21
6.3246678
0
LINE
8
DEFAULT_255_2_778
10
127.1349836
20
6.3246678
11
121.0825836
21
6.3164678
0
LINE
8
DEFAULT_255_2_778
10
121.1817836
20
13.3361678
11
127.1349836
21
13.3361678
0
LINE
8
DEFAULT_255_2_778
10
125.4812836
20
14.8905678
11
116.7500836
21
15.9076678
0
LINE
8
DEFAULT_255_2_778
10
120.8288823
20
144.111549
11
120.8283823
21
144.116049
0
LINE
8
DEFAULT_255_2_778
10
120.8283823
20
144.116049
11
120.7402823
21
144.116049
0
LINE
8
DEFAULT_255_2_778
10
120.8304385
20
144.1003302
11
120.8291385
21
144.1096302
0
LINE
8
DEFAULT_255_2_778
10
26.3597417
20
7.8137854
11
27.8279417
21
7.8137854
0
LINE
8
DEFAULT_255_2_778
10
27.8279417
20
7.8137854
11
27.8279417
21
6.4318854
0
LINE
8
DEFAULT_255_2_778
10
27.8279417
20
6.4318854
11
27.8279417
21
5.5859854
0
LINE
8
DEFAULT_255_2_778
10
27.8279417
20
5.5859854
11
27.8279417
21
5.1996854
0
LINE
8
DEFAULT_255_2_778
10
27.8279417
20
5.1996854
11
27.8641417
21
3.8137854
0
LINE
8
DEFAULT_255_2_778
10
27.8641417
20
3.8137854
11
28.8867417
21
3.8137854
0
LINE
8
DEFAULT_255_2_778
10
28.8867417
20
3.8137854
11
29.1201417
21
5.5859854
0
LINE
8
DEFAULT_255_2_778
10
29.1201417
20
5.5859854
11
29.1553417
21
5.8537854
0
LINE
8
DEFAULT_255_2_778
10
29.1553417
20
5.8537854
11
29.7654417
21
5.8537854
0
LINE
8
DEFAULT_255_2_778
10
18.1351313
20
3.2135302
11
18.1351313
21
2.2136302
0
LINE
8
DEFAULT_255_2_778
10
18.1351313
20
2.2136302
11
17.0350313
21
2.2136302
0
LINE
8
DEFAULT_255_2_778
10
17.0350313
20
2.2136302
11
17.0350313
21
2.4856302
0
LINE
8
DEFAULT_255_2_778
10
113.8851771
20
14.8135979
11
113.8851771
21
11.6136979
0
LINE
8
DEFAULT_255_2_778
10
113.8851771
20
11.6136979
11
109.2851771
21
11.6136979
0
LINE
8
DEFAULT_255_2_778
10
109.2851771
20
11.6136979
11
109.2851771
21
10.6135979
0
LINE
8
DEFAULT_255_2_778
10
109.2851771
20
10.6135979
11
113.8851771
21
10.6135979
0
LINE
8
DEFAULT_255_2_778
10
113.8851771
20
10.6135979
11
113.8851771
21
11.6136979
0
LINE
8
DEFAULT_255_2_778
10
3.0485063
20
16.1148197
11
5.0758063
21
16.9575197
0
LINE
8
DEFAULT_255_2_778
10
5.0758063
20
16.9575197
11
4.5538063
21
12.9917197
0
LINE
8
DEFAULT_255_2_778
10
4.5538063
20
12.9917197
11
2.8136063
21
14.3302197
0
LINE
8
DEFAULT_255_2_778
10
2.8136063
20
14.3302197
11
3.0485063
21
16.1148197
0
ARC
8
DEFAULT_255_2_778
10
89.9353629
20
133.1936433
40
22.9997728
50
0.0001649
51
21.267839
0
ARC
8
DEFAULT_255_2_778
10
115.9344399
20
143.3135015
40
4.8993946
50
186.8502975
51
201.2683838
0
ARC
8
DEFAULT_255_2_778
10
115.9359422
20
143.313604
40
4.9008986
50
180.8205602
51
186.8493932
0
ARC
8
DEFAULT_255_2_778
10
115.9396475
20
143.3136591
40
4.9046041
50
180.0001953
51
180.8205839
0
ARC
8
DEFAULT_255_2_778
10
115.9340469
20
143.3139393
40
4.8990036
50
156.9686209
51
180.003472
0
ARC
8
DEFAULT_255_2_778
10
115.9381738
20
143.3119641
40
4.9035742
50
153.3918249
51
156.9662465
0
ARC
8
DEFAULT_255_2_778
10
112.0009487
20
145.2841776
40
0.5000109
50
100.440955
51
153.3811083
0
ARC
8
DEFAULT_255_2_778
10
112.0013101
20
145.2837414
40
0.5005055
50
95.4983348
51
100.4725906
0
ARC
8
DEFAULT_255_2_778
10
112.0012013
20
145.2848262
40
0.4994153
50
89.9998932
51
95.4978401
0
ARC
8
DEFAULT_255_2_778
10
112.0011996
20
145.2845446
40
0.4996969
50
47.508438
51
89.9996928
0
ARC
8
DEFAULT_255_2_778
10
115.9331264
20
143.3147416
40
2.9977917
50
151.0893454
51
168.2156808
0
ARC
8
DEFAULT_255_2_778
10
115.9366418
20
143.3142308
40
3.0013373
50
168.2198416
51
179.7459195
0
ARC
8
DEFAULT_255_2_778
10
115.9322475
20
143.3141756
40
2.9969434
50
179.7444907
51
180.0008539
0
ARC
8
DEFAULT_255_2_778
10
115.9342917
20
143.3137143
40
2.9989877
50
179.9920404
51
204.8224834
0
ARC
8
DEFAULT_255_2_778
10
115.9395721
20
143.3165491
40
3.0049704
50
204.8292748
51
210.6661518
0
ARC
8
DEFAULT_255_2_778
10
115.9340775
20
143.3123274
40
2.9980911
50
210.6503112
51
241.2634369
0
ARC
8
DEFAULT_255_2_778
10
115.9352241
20
143.3123463
40
2.9986592
50
241.2443998
51
270.0094668
0
ARC
8
DEFAULT_255_2_778
10
115.935718
20
143.3264052
40
3.0127181
50
270.0000305
51
270.2209442
0
ARC
8
DEFAULT_255_2_778
10
115.951531
20
139.2905457
40
1.0231724
50
90.0028113
51
90.2349315
0
ARC
8
DEFAULT_255_2_778
10
115.9514373
20
139.3136093
40
1.0001087
50
10.2900464
51
89.9975104
0
ARC
8
DEFAULT_255_2_778
10
115.9391558
20
139.3115253
40
1.0125649
50
9.6355832
51
10.2819328
0
ARC
8
DEFAULT_255_2_778
10
113.0906394
20
138.8286193
40
3.9017245
50
4.1327961
51
9.6253857
0
ARC
8
DEFAULT_255_2_778
10
113.0934403
20
138.8288657
40
3.8989131
50
0.0000588
51
4.1321519
0
ARC
8
DEFAULT_255_2_778
10
113.0923895
20
138.8288347
40
3.899964
50
325.6502997
51
0.0005137
0
ARC
8
DEFAULT_255_2_778
10
116.9701109
20
136.1777506
40
0.7973727
50
145.5939351
51
174.6015134
0
ARC
8
DEFAULT_255_2_778
10
116.9736498
20
136.1773142
40
0.800937
50
174.5942509
51
178.6651406
0
ARC
8
DEFAULT_255_2_778
10
116.9736767
20
136.1772948
40
0.8009642
50
178.6638036
51
180.0004737
0
ARC
8
DEFAULT_255_2_778
10
116.9717661
20
136.176724
40
0.7990537
50
179.959545
51
223.0607892
0
ARC
8
DEFAULT_255_2_778
10
116.9791981
20
136.1834454
40
0.8090731
50
223.0492079
51
224.8534531
0
ARC
8
DEFAULT_255_2_778
10
116.9723112
20
136.1758896
40
0.798862
50
224.8176518
51
262.7565327
0
ARC
8
DEFAULT_255_2_778
10
116.9731894
20
136.1794073
40
0.8024624
50
262.7260051
51
269.9991106
0
ARC
8
DEFAULT_255_2_778
10
116.9731747
20
136.1790347
40
0.80209
50
270.0001598
51
271.3828452
0
ARC
8
DEFAULT_255_2_778
10
116.9736457
20
136.1734761
40
0.7965216
50
271.3586248
51
302.2736575
0
ARC
8
DEFAULT_255_2_778
10
116.9680849
20
136.1829905
40
0.8075354
50
302.2467877
51
304.0755715
0
ARC
8
DEFAULT_255_2_778
10
115.1811098
20
138.8291257
40
4.000545
50
304.0405977
51
352.8950506
0
ARC
8
DEFAULT_255_2_778
10
94.3340721
20
141.4257012
40
25.0086669
50
352.8993453
51
359.9709228
0
ARC
8
DEFAULT_255_2_778
10
115.3280925
20
141.4133703
40
4.0146431
50
359.9948503
51
12.0459339
0
ARC
8
DEFAULT_255_2_778
10
118.2787823
20
142.0434177
40
0.9974375
50
12.0242476
51
35.0199967
0
ARC
8
DEFAULT_255_2_778
10
118.5664992
20
143.3497829
40
0.7001134
50
314.9978582
51
359.9865538
0
ARC
8
DEFAULT_255_2_778
10
118.5679586
20
143.3496105
40
0.6986541
50
0.0006624
51
6.2503274
0
ARC
8
DEFAULT_255_2_778
10
118.5665857
20
143.3494627
40
0.700035
50
6.2501224
51
9.4923386
0
ARC
8
DEFAULT_255_2_778
10
115.9340782
20
143.3134016
40
3.3264095
50
2.6105526
51
29.9861408
0
ARC
8
DEFAULT_255_2_778
10
118.2355365
20
145.5744739
40
0.1000142
50
0.9943426
51
44.4476543
0
ARC
8
DEFAULT_255_2_778
10
118.6267501
20
146.2389534
40
0.6498015
50
179.987283
51
227.3904836
0
ARC
8
DEFAULT_255_2_778
10
118.6258588
20
146.2391021
40
0.6489103
50
176.4808868
51
180.0003931
0
ARC
8
DEFAULT_255_2_778
10
118.6257583
20
146.2390351
40
0.648814
50
156.5712078
51
176.4744371
0
ARC
8
DEFAULT_255_2_778
10
118.4957023
20
146.3135958
40
0.5001137
50
90.0191002
51
158.4850546
0
ARC
8
DEFAULT_255_2_778
10
119.5085351
20
145.8135434
40
1.0001661
50
9.8892637
51
89.9942426
0
ARC
8
DEFAULT_255_2_778
10
119.4964471
20
145.8120407
40
1.0123327
50
7.5361265
51
9.8555478
0
ARC
8
DEFAULT_255_2_778
10
-870.8526616
20
14.8150101
40
999.9875972
50
0.0000502
51
7.534978
0
LINE
8
DEFAULT_255_2_778
10
129.1349356
20
14.8158854
11
129.1349356
21
14.8136095
0
ARC
8
DEFAULT_255_2_778
10
125.9382626
20
13.6310226
40
1.1967735
50
359.9467091
51
40.3161828
0
ARC
8
DEFAULT_255_2_778
10
125.9364297
20
13.6322787
40
1.1973604
50
40.2136047
51
82.6889576
0
ARC
8
DEFAULT_255_2_778
10
125.9330189
20
13.6114868
40
1.2184178
50
82.6542934
51
83.3917033
0
ARC
8
DEFAULT_255_2_778
10
116.9104161
20
16.8905438
40
1.0001007
50
183.0641431
51
263.380864
0
ARC
8
DEFAULT_255_2_778
10
116.9218721
20
16.8904677
40
1.0115365
50
180.0089599
51
183.0251492
0
ARC
8
DEFAULT_255_2_778
10
125.1258211
20
19.8936463
40
1.9931118
50
273.6191846
51
298.9923261
0
ARC
8
DEFAULT_255_2_778
10
125.1212776
20
19.9014862
40
2.0021715
50
298.9973097
51
351.0556261
0
ARC
8
DEFAULT_255_2_778
10
125.1118305
20
19.8997076
40
2.0112297
50
351.1475215
51
0.0169286
0
ARC
8
DEFAULT_255_2_778
10
125.0695802
20
19.900258
40
2.05348
50
0.0012237
51
0.2804553
0
ARC
8
DEFAULT_255_2_778
10
127.61585
20
22.3134384
40
1.0002419
50
180.4255469
51
239.9077921
0
ARC
8
DEFAULT_255_2_778
10
127.6148695
20
22.3133824
40
0.9992611
50
180.0001059
51
180.4227518
0
ARC
8
DEFAULT_255_2_778
10
127.6160772
20
22.3132377
40
1.0004687
50
120.9440417
51
179.9918202
0
ARC
8
DEFAULT_255_2_778
10
-870.8940183
20
14.9442204
40
998.0295638
50
0.4723135
51
6.804546
0
LINE
8
DEFAULT_255_2_778
10
120.1050356
20
133.1937095
11
112.9351356
21
133.1937095
0
LINE
8
DEFAULT_255_2_778
10
112.3387356
20
145.6530095
11
113.3089356
21
144.7640095
0
LINE
8
DEFAULT_255_2_778
10
119.0956356
20
142.6158095
11
118.9832356
21
142.7764095
0
LINE
8
DEFAULT_255_2_778
10
118.9832356
20
142.7764095
11
119.0615356
21
142.8547095
0
LINE
8
DEFAULT_255_2_778
10
118.8152356
20
144.9759095
11
118.3447356
21
145.0505095
0
LINE
8
DEFAULT_255_2_778
10
118.3447356
20
145.0505095
11
118.3355356
21
145.5762095
0
LINE
8
DEFAULT_255_2_778
10
118.3069356
20
145.6445095
11
118.1868356
21
145.7607095
0
LINE
8
DEFAULT_255_2_778
10
118.4955356
20
146.8137095
11
119.5086356
21
146.8137095
0
LINE
8
DEFAULT_255_2_778
10
129.1349356
20
14.8136095
11
129.1349356
21
4.8137095
0
LINE
8
DEFAULT_255_2_778
10
129.1349356
20
4.8137095
11
127.1350356
21
4.8137095
0
LINE
8
DEFAULT_255_2_778
10
127.1350356
20
4.8137095
11
127.1350356
21
13.6299095
0
LINE
8
DEFAULT_255_2_778
10
126.0732356
20
14.8218095
11
116.7951356
21
15.8971095
0
LINE
8
DEFAULT_255_2_778
10
115.9103356
20
16.8903095
11
115.9103356
21
17.5195095
0
LINE
8
DEFAULT_255_2_778
10
115.9103356
20
17.5195095
11
116.7546356
21
17.5195095
0
LINE
8
DEFAULT_255_2_778
10
116.7546356
20
17.5195095
11
118.0174356
21
18.7824095
0
LINE
8
DEFAULT_255_2_778
10
118.0174356
20
18.7824095
11
119.2803356
21
17.5195095
0
LINE
8
DEFAULT_255_2_778
10
119.2803356
20
17.5195095
11
125.2516356
21
17.9045095
0
LINE
8
DEFAULT_255_2_778
10
127.1230356
20
19.9103095
11
127.1143356
21
21.4480095
0
LINE
8
DEFAULT_255_2_778
10
7.4851459
20
74.8507091
11
7.4851459
21
95.0667091
0
LINE
8
DEFAULT_255_2_778
10
7.4851459
20
95.0667091
11
9.8420459
21
94.8114091
0
LINE
8
DEFAULT_255_2_778
10
9.8420459
20
94.8114091
11
9.8338459
21
75.2735091
0
LINE
8
DEFAULT_255_2_778
10
9.8338459
20
75.2735091
11
7.4856459
21
74.8517091
0
LINE
8
DEFAULT_255_2_778
10
120.8511563
20
143.8124875
11
121.1003563
21
143.8492875
0
LINE
8
DEFAULT_255_2_778
10
121.1003563
20
143.8492875
11
121.3226563
21
141.8505875
0
LINE
8
DEFAULT_255_2_778
10
121.3226563
20
141.8505875
11
121.0752563
21
141.8140875
0
ARC
8
DEFAULT_255_2_778
10
9.3331008
20
138.3712622
40
0.7483899
50
184.0376256
51
195.0310535
0
ARC
8
DEFAULT_255_2_778
10
9.3331322
20
138.3712479
40
0.7484204
50
179.9998161
51
184.0363636
0
ARC
8
DEFAULT_255_2_778
10
9.3342255
20
138.3713069
40
0.7495135
50
139.520519
51
180.0043306
0
ARC
8
DEFAULT_255_2_778
10
9.334956
20
138.3711164
40
1.0002387
50
139.548695
51
180.0017889
0
ARC
8
DEFAULT_255_2_778
10
9.3338193
20
138.3710817
40
0.9991019
50
179.9998043
51
184.0794806
0
ARC
8
DEFAULT_255_2_778
10
9.3344988
20
138.3711755
40
0.9997863
50
184.0820715
51
195.0082453
0
LINE
8
DEFAULT_255_2_778
10
9.8349167
20
133.6074728
11
8.6103167
21
138.1771728
0
LINE
8
DEFAULT_255_2_778
10
8.7641167
20
138.8578728
11
8.8024167
21
138.8994728
0
LINE
8
DEFAULT_255_2_778
10
8.8024167
20
138.8994728
11
8.8228167
21
138.9190728
0
LINE
8
DEFAULT_255_2_778
10
8.8228167
20
138.9190728
11
8.8437167
21
138.9380728
0
LINE
8
DEFAULT_255_2_778
10
8.8437167
20
138.9380728
11
8.8876167
21
138.9735728
0
LINE
8
DEFAULT_255_2_778
10
8.8876167
20
138.9735728
11
8.9106167
21
138.9899728
0
LINE
8
DEFAULT_255_2_778
10
8.9106167
20
138.9899728
11
8.9342167
21
139.0055728
0
LINE
8
DEFAULT_255_2_778
10
8.9342167
20
139.0055728
11
8.9832167
21
139.0338728
0
LINE
8
DEFAULT_255_2_778
10
8.9832167
20
139.0338728
11
9.0339167
21
139.0584728
0
LINE
8
DEFAULT_255_2_778
10
9.0339167
20
139.0584728
11
9.0866167
21
139.0790728
0
LINE
8
DEFAULT_255_2_778
10
9.0866167
20
139.0790728
11
9.1133167
21
139.0878728
0
LINE
8
DEFAULT_255_2_778
10
9.1133167
20
139.0878728
11
9.1268167
21
139.0917728
0
LINE
8
DEFAULT_255_2_778
10
9.1268167
20
139.0917728
11
9.1337167
21
139.0936728
0
LINE
8
DEFAULT_255_2_778
10
9.1337167
20
139.0936728
11
9.1406167
21
139.0954728
0
LINE
8
DEFAULT_255_2_778
10
9.1406167
20
139.0954728
11
9.0757167
21
139.3370728
0
LINE
8
DEFAULT_255_2_778
10
9.0757167
20
139.3370728
11
9.0395167
21
139.3267728
0
LINE
8
DEFAULT_255_2_778
10
9.0395167
20
139.3267728
11
9.0038167
21
139.3148728
0
LINE
8
DEFAULT_255_2_778
10
9.0038167
20
139.3148728
11
8.9337167
21
139.2873728
0
LINE
8
DEFAULT_255_2_778
10
8.9337167
20
139.2873728
11
8.8659167
21
139.2545728
0
LINE
8
DEFAULT_255_2_778
10
8.8659167
20
139.2545728
11
8.8008167
21
139.2166728
0
LINE
8
DEFAULT_255_2_778
10
8.8008167
20
139.2166728
11
8.7387167
21
139.1740728
0
LINE
8
DEFAULT_255_2_778
10
8.7387167
20
139.1740728
11
8.6799167
21
139.1269728
0
LINE
8
DEFAULT_255_2_778
10
8.6799167
20
139.1269728
11
8.6249167
21
139.0756728
0
LINE
8
DEFAULT_255_2_778
10
8.6249167
20
139.0756728
11
8.5738167
21
139.0200728
0
LINE
8
DEFAULT_255_2_778
10
8.3688167
20
138.1122728
11
9.8346167
21
132.6415728
0
ARC
8
DEFAULT_255_2_778
10
9.2501943
20
25.9312555
40
0.9169472
50
179.6358795
51
222.7687887
0
ARC
8
DEFAULT_255_2_778
10
9.4805646
20
25.9334816
40
1.1473047
50
169.9683774
51
179.8201578
0
ARC
8
DEFAULT_255_2_778
10
9.7028496
20
25.8977497
40
1.3724202
50
166.1444313
51
170.1159418
0
ARC
8
DEFAULT_255_2_778
10
9.3339555
20
25.9559829
40
0.7489163
50
164.9688208
51
175.9677087
0
ARC
8
DEFAULT_255_2_778
10
9.3337384
20
25.9560173
40
0.7486974
50
175.9691681
51
180.0006447
0
ARC
8
DEFAULT_255_2_778
10
9.3347068
20
25.955936
40
0.7496658
50
179.9944275
51
220.4655067
0
LINE
8
DEFAULT_255_2_778
10
8.3703635
20
26.2264103
11
9.8256635
21
31.6255103
0
LINE
8
DEFAULT_255_2_778
10
9.8256635
20
31.6255103
11
9.8351635
21
30.7198103
0
LINE
8
DEFAULT_255_2_778
10
9.8351635
20
30.7198103
11
8.6106635
21
26.1502103
0
LINE
8
DEFAULT_255_2_778
10
8.7643635
20
25.4694103
11
8.8027635
21
25.4279103
0
LINE
8
DEFAULT_255_2_778
10
8.8027635
20
25.4279103
11
8.8230635
21
25.4083103
0
LINE
8
DEFAULT_255_2_778
10
8.8230635
20
25.4083103
11
8.8440635
21
25.3893103
0
LINE
8
DEFAULT_255_2_778
10
8.8440635
20
25.3893103
11
8.8879635
21
25.3538103
0
LINE
8
DEFAULT_255_2_778
10
8.8879635
20
25.3538103
11
8.9109635
21
25.3374103
0
LINE
8
DEFAULT_255_2_778
10
8.9109635
20
25.3374103
11
8.9344635
21
25.3218103
0
LINE
8
DEFAULT_255_2_778
10
8.9344635
20
25.3218103
11
8.9834635
21
25.2935103
0
LINE
8
DEFAULT_255_2_778
10
8.9834635
20
25.2935103
11
9.0342635
21
25.2689103
0
LINE
8
DEFAULT_255_2_778
10
9.0342635
20
25.2689103
11
9.0868635
21
25.2482103
0
LINE
8
DEFAULT_255_2_778
10
9.0868635
20
25.2482103
11
9.1136635
21
25.2395103
0
LINE
8
DEFAULT_255_2_778
10
9.1136635
20
25.2395103
11
9.1271635
21
25.2355103
0
LINE
8
DEFAULT_255_2_778
10
9.1271635
20
25.2355103
11
9.1339635
21
25.2337103
0
LINE
8
DEFAULT_255_2_778
10
9.1339635
20
25.2337103
11
9.1408635
21
25.2318103
0
LINE
8
DEFAULT_255_2_778
10
9.1408635
20
25.2318103
11
9.0760635
21
24.9903103
0
LINE
8
DEFAULT_255_2_778
10
9.0760635
20
24.9903103
11
9.0397635
21
25.0009103
0
LINE
8
DEFAULT_255_2_778
10
9.0397635
20
25.0009103
11
9.0040635
21
25.0125103
0
LINE
8
DEFAULT_255_2_778
10
9.0040635
20
25.0125103
11
8.9339635
21
25.0400103
0
LINE
8
DEFAULT_255_2_778
10
8.9339635
20
25.0400103
11
8.8662635
21
25.0728103
0
LINE
8
DEFAULT_255_2_778
10
8.8662635
20
25.0728103
11
8.8011635
21
25.1107103
0
LINE
8
DEFAULT_255_2_778
10
8.8011635
20
25.1107103
11
8.7389635
21
25.1533103
0
LINE
8
DEFAULT_255_2_778
10
8.7389635
20
25.1533103
11
8.6802635
21
25.2004103
0
LINE
8
DEFAULT_255_2_778
10
8.6802635
20
25.2004103
11
8.6251635
21
25.2517103
0
LINE
8
DEFAULT_255_2_778
10
8.6251635
20
25.2517103
11
8.5741635
21
25.3070103
0
LINE
8
DEFAULT_255_2_778
10
119.5086115
20
146.8137448
11
120.3846115
21
146.8137448
0
LINE
8
DEFAULT_255_2_778
10
120.3846115
20
146.8137448
11
120.4852115
21
146.0292448
0
ARC
8
DEFAULT_255_2_778
10
9.6395203
20
128.2087858
40
2.3064561
50
113.7684481
51
130.2936468
0
ARC
8
DEFAULT_255_2_778
10
9.6374908
20
128.2122739
40
2.3024834
50
130.3112587
51
163.4040051
0
ARC
8
DEFAULT_255_2_778
10
9.6428487
20
128.2108041
40
2.3080378
50
163.4070277
51
179.8136112
0
ARC
8
DEFAULT_255_2_778
10
5.8351638
20
136.3159741
40
17.0019617
50
250.4114252
51
270.0001996
0
LINE
8
DEFAULT_255_2_778
10
9.8349231
20
130.6138123
11
9.3795231
21
130.6138123
0
LINE
8
DEFAULT_255_2_778
10
9.3795231
20
130.6138123
11
8.7099231
21
130.3196123
0
LINE
8
DEFAULT_255_2_778
10
7.3348231
20
128.2183123
11
7.3348231
21
127.8140123
0
LINE
8
DEFAULT_255_2_778
10
7.3348231
20
127.8140123
11
0.1350231
21
124.8139123
0
LINE
8
DEFAULT_255_2_778
10
0.1350231
20
124.8139123
11
0.1350231
21
120.2980123
0
LINE
8
DEFAULT_255_2_778
10
5.8352231
20
119.3140123
11
9.8352231
21
119.3140123
0
LINE
8
DEFAULT_255_2_778
10
9.8351
20
94.8135518
11
9.8351
21
116.8136518
0
LINE
8
DEFAULT_255_2_778
10
121.3185982
20
139.6004
11
121.4061982
21
139.6004
0
LINE
8
DEFAULT_255_2_778
10
24.6486834
20
6.9707854
11
27.8278834
21
6.5521854
0
LINE
8
DEFAULT_255_2_778
10
121.2731677
20
140.6611
11
121.2728677
21
140.6611
0
LINE
8
DEFAULT_255_2_778
10
126.1319466
20
14.8138594
11
125.6324466
21
14.8138594
0
LINE
8
DEFAULT_255_2_778
10
125.6324466
20
14.8138594
11
125.6324466
21
14.8749594
0
LINE
8
DEFAULT_255_2_778
10
121.6644292
20
136.8198208
11
121.6887292
21
136.6304208
0
LINE
8
DEFAULT_255_2_778
10
121.6887292
20
136.6304208
11
121.6877292
21
136.6304208
0
LINE
8
DEFAULT_255_2_778
10
121.2014469
20
141.2225
11
121.1133469
21
141.2225
0
LINE
8
DEFAULT_255_2_778
10
9.8351376
20
16.3310534
11
5.0758376
21
16.9575534
0
LINE
8
DEFAULT_255_2_778
10
118.5233323
20
136.6304
11
116.3138323
21
136.6304
0
ARC
8
DEFAULT_255_2_778
10
96.7873425
20
133.0527172
40
15.8570481
50
0.1730248
51
13.0394083
0
LINE
8
DEFAULT_255_2_778
10
112.6771184
20
136.6304031
11
112.2355184
21
136.6304031
0
LINE
8
DEFAULT_255_2_778
10
112.8851
20
134.7105989
11
112.8851
21
132.8137989
0
LINE
8
DEFAULT_255_2_778
10
120.8328469
20
144.0806
11
120.7447469
21
144.0806
0
LINE
8
DEFAULT_255_2_778
10
120.7408469
20
144.1115
11
120.8289469
21
144.1115
0
LINE
8
DEFAULT_255_2_778
10
120.6180469
20
145.7181229
11
120.6180469
21
145.7186229
0
LINE
8
DEFAULT_255_2_778
10
120.6180469
20
145.7186229
11
120.6180469
21
145.7196229
0
LINE
8
DEFAULT_255_2_778
10
120.6180469
20
145.7196229
11
120.6180469
21
145.7207229
0
LINE
8
DEFAULT_255_2_778
10
120.6180469
20
145.7207229
11
120.5299469
21
145.7207229
0
LINE
8
DEFAULT_255_2_778
10
120.7389365
20
144.1246927
11
120.8270365
21
144.1246927
0
LINE
8
DEFAULT_255_2_778
10
120.8270365
20
144.1246927
11
120.6180365
21
145.7182927
0
LINE
8
DEFAULT_255_2_778
10
120.6180365
20
145.7182927
11
120.5299365
21
145.7182927
0
LINE
8
DEFAULT_255_2_778
10
120.766217
20
143.9162104
11
120.854317
21
143.9162104
0
LINE
8
DEFAULT_255_2_778
10
120.854317
20
143.9162104
11
120.856417
21
143.9006104
0
LINE
8
DEFAULT_255_2_778
10
120.856417
20
143.9006104
11
120.857517
21
143.8927104
0
LINE
8
DEFAULT_255_2_778
10
120.857517
20
143.8927104
11
120.858617
21
143.8850104
0
LINE
8
DEFAULT_255_2_778
10
120.858617
20
143.8850104
11
120.770517
21
143.8850104
0
LINE
8
DEFAULT_255_2_778
10
120.7255
20
144.9016
11
120.7255
21
144.9016
0
ARC
8
DEFAULT_255_2_778
10
31.8376834
20
-43.6544783
40
49.0182425
50
94.6921393
51
98.4496822
0
ARC
8
DEFAULT_255_2_778
10
30.794935
20
8.6471511
40
3.0003124
50
183.1977248
51
237.5684867
0
ARC
8
DEFAULT_255_2_778
10
30.7944215
20
8.6457778
40
2.9988779
50
237.5626956
51
259.9474813
0
ARC
8
DEFAULT_255_2_778
10
30.7952356
20
8.6495276
40
3.0027123
50
259.9446754
51
269.9996909
0
ARC
8
DEFAULT_255_2_778
10
30.795222
20
8.648004
40
3.0011886
50
269.9999513
51
271.5823183
0
ARC
8
DEFAULT_255_2_778
10
30.7954369
20
8.644897
40
2.9980771
50
271.5798521
51
289.367132
0
ARC
8
DEFAULT_255_2_778
10
30.7927672
20
8.6528232
40
3.00644
50
289.3650391
51
291.9382416
0
ARC
8
DEFAULT_255_2_778
10
57.3437544
20
-57.2463197
40
68.0403893
50
107.303932
51
111.9449562
0
ARC
8
DEFAULT_255_2_778
10
57.3385967
20
-57.2320268
40
68.0252092
50
102.5249792
51
107.3033651
0
ARC
8
DEFAULT_255_2_778
10
57.3393902
20
-57.2393779
40
68.0325575
50
97.7467212
51
102.524289
0
ARC
8
DEFAULT_255_2_778
10
57.3370283
20
-57.2315309
40
68.0244637
50
93.1586698
51
97.745641
0
ARC
8
DEFAULT_255_2_778
10
53.4263234
20
13.6803776
40
2.9951992
50
273.1094618
51
292.51509
0
ARC
8
DEFAULT_255_2_778
10
53.4198459
20
13.687736
40
3.0044789
50
292.575467
51
349.5644613
0
ARC
8
DEFAULT_255_2_778
10
53.4093462
20
13.6840823
40
3.0141482
50
349.6689165
51
0.0153181
0
LINE
8
DEFAULT_255_2_778
10
56.4234941
20
13.6848881
11
56.4234941
21
14.8077881
0
ARC
8
DEFAULT_255_2_778
10
124.1283145
20
18.4207625
40
1.0001309
50
327.7269918
51
359.9997295
0
ARC
8
DEFAULT_255_2_778
10
124.1322071
20
18.4208117
40
0.9962384
50
359.9968986
51
0.2085863
0
LINE
8
DEFAULT_255_2_778
10
125.1284386
20
18.4244385
11
125.1239386
21
19.4856385
0
ARC
8
DEFAULT_255_2_778
10
84.1456949
20
128.5372882
40
29.2324467
50
16.0725998
51
33.4997297
0
ARC
8
DEFAULT_255_2_778
10
107.3367925
20
145.4138376
40
1.3986665
50
327.9509306
51
0.0114419
0
ARC
8
DEFAULT_255_2_778
10
107.3348858
20
145.4141168
40
1.4005732
50
0.000003
51
0.4373357
0
ARC
8
DEFAULT_255_2_778
10
107.3369956
20
145.4143501
40
1.3984618
50
0.428439
51
29.0189225
0
ARC
8
DEFAULT_255_2_778
10
107.3357723
20
145.414079
40
1.399663
50
29.0043322
51
90.0020325
0
LINE
8
DEFAULT_255_2_778
10
107.3357226
20
146.8137419
11
107.3348938
21
146.8137417
0
LINE
8
DEFAULT_255_2_778
10
125.6276705
20
17.9656687
11
125.6215705
21
19.5229687
0
LINE
8
DEFAULT_255_2_778
10
118.6391281
20
132.7077198
11
118.5812281
21
133.1937198
0
ARC
8
DEFAULT_255_2_778
10
112.9434188
20
133.1069826
40
0.2990357
50
186.7028441
51
269.1585009
0
LINE
8
DEFAULT_255_2_778
10
112.6464271
20
133.0720792
11
112.6443271
21
133.1011792
0
LINE
8
DEFAULT_255_2_778
10
120.8331844
20
144.0805208
11
120.8545844
21
143.9165208
0
LINE
8
DEFAULT_255_2_778
10
121.2792809
20
140.6089094
11
121.2797809
21
140.6055094
0
LINE
8
DEFAULT_255_2_778
10
121.2797809
20
140.6055094
11
121.2818809
21
140.5896094
0
LINE
8
DEFAULT_255_2_778
10
121.2818809
20
140.5896094
11
121.2842809
21
140.5700094
0
LINE
8
DEFAULT_255_2_778
10
121.2842809
20
140.5700094
11
121.2871809
21
140.5470094
0
LINE
8
DEFAULT_255_2_778
10
121.2871809
20
140.5470094
11
121.3048809
21
140.4081094
0
LINE
8
DEFAULT_255_2_778
10
120.8281708
20
144.1160656
11
120.8278708
21
144.1181656
0
LINE
8
DEFAULT_255_2_778
10
120.8278708
20
144.1181656
11
120.8275708
21
144.1205656
0
LINE
8
DEFAULT_255_2_778
10
120.8275708
20
144.1205656
11
120.8270708
21
144.1247656
0
LINE
8
DEFAULT_255_2_778
10
121.2007094
20
141.2272948
11
121.2007094
21
141.2272948
0
LINE
8
DEFAULT_255_2_778
10
121.2007094
20
141.2272948
11
121.2010094
21
141.2251948
0
LINE
8
DEFAULT_255_2_778
10
121.2010094
20
141.2251948
11
121.2015094
21
141.2201948
0
LINE
8
DEFAULT_255_2_778
10
121.2015094
20
141.2201948
11
121.2026094
21
141.2111948
0
LINE
8
DEFAULT_255_2_778
10
121.2026094
20
141.2111948
11
121.2041094
21
141.1978948
0
LINE
8
DEFAULT_255_2_778
10
121.2041094
20
141.1978948
11
121.2065094
21
141.1801948
0
LINE
8
DEFAULT_255_2_778
10
121.2065094
20
141.1801948
11
121.2094094
21
141.1581948
0
LINE
8
DEFAULT_255_2_778
10
121.2094094
20
141.1581948
11
121.2126094
21
141.1325948
0
LINE
8
DEFAULT_255_2_778
10
121.2126094
20
141.1325948
11
121.2163094
21
141.1028948
0
LINE
8
DEFAULT_255_2_778
10
121.2163094
20
141.1028948
11
121.2205094
21
141.0700948
0
LINE
8
DEFAULT_255_2_778
10
121.2205094
20
141.0700948
11
121.2295094
21
140.9991948
0
LINE
8
DEFAULT_255_2_778
10
121.2295094
20
140.9991948
11
121.2343094
21
140.9613948
0
LINE
8
DEFAULT_255_2_778
10
121.2343094
20
140.9613948
11
121.2393094
21
140.9229948
0
LINE
8
DEFAULT_255_2_778
10
121.2393094
20
140.9229948
11
121.2491094
21
140.8451948
0
LINE
8
DEFAULT_255_2_778
10
121.2491094
20
140.8451948
11
121.2793094
21
140.6078948
0
LINE
8
DEFAULT_255_2_778
10
28.7713479
20
6.4316
11
27.8278479
21
6.4316
0
LINE
8
DEFAULT_255_2_778
10
24.6348313
20
6.4316
11
23.6109313
21
6.4316
0
LINE
8
DEFAULT_255_2_778
10
27.8278875
20
5.5857
11
29.1200875
21
5.5857
0
LINE
8
DEFAULT_255_2_778
10
23.5349636
20
5.5857
11
24.6348636
21
5.5857
0
LINE
8
DEFAULT_255_2_778
10
23.5349636
20
6.3910645
11
23.5349636
21
3.8135645
0
LINE
8
DEFAULT_255_2_778
10
23.5349636
20
3.8135645
11
24.6348636
21
3.8135645
0
LINE
8
DEFAULT_255_2_778
10
24.6348636
20
3.8135645
11
24.6348636
21
6.9636645
0
ARC
8
DEFAULT_255_2_778
10
115.9463861
20
143.3101503
40
3.0116284
50
155.5196688
51
164.5986594
0
ARC
8
DEFAULT_255_2_778
10
115.9215142
20
143.3174296
40
2.9857164
50
164.606575
51
175.398363
0
ARC
8
DEFAULT_255_2_778
10
115.9264063
20
143.3170611
40
2.9906223
50
175.398844
51
180.0008862
0
ARC
8
DEFAULT_255_2_778
10
115.9402584
20
143.3170715
40
3.0044744
50
180.0010801
51
222.9236964
0
ARC
8
DEFAULT_255_2_778
10
115.9372096
20
143.3190793
40
3.0036113
50
222.9913508
51
236.0225662
0
ARC
8
DEFAULT_255_2_778
10
115.9402799
20
143.3190476
40
3.005302
50
235.973687
51
247.8263882
0
ARC
8
DEFAULT_255_2_778
10
115.9333069
20
143.3047004
40
2.9893844
50
247.8463699
51
265.1700595
0
ARC
8
DEFAULT_255_2_778
10
115.9351709
20
143.3199399
40
3.0047267
50
265.1591091
51
268.4104797
0
ARC
8
DEFAULT_255_2_778
10
115.935277
20
143.322915
40
3.0077037
50
268.4100321
51
270.000041
0
ARC
8
DEFAULT_255_2_778
10
115.9362816
20
143.3188201
40
3.0036088
50
269.9808761
51
300.8379208
0
ARC
8
DEFAULT_255_2_778
10
115.9365551
20
143.3132734
40
2.9987073
50
300.8877612
51
315.9917597
0
ARC
8
DEFAULT_255_2_778
10
115.9075075
20
143.3434302
40
3.0405518
50
315.9633275
51
316.4547538
0
ARC
8
DEFAULT_255_2_778
10
115.9339207
20
143.31396
40
3.0011056
50
316.5151625
51
330.754809
0
ARC
8
DEFAULT_255_2_778
10
115.9355341
20
143.3107322
40
2.9981216
50
330.7935672
51
355.5028491
0
ARC
8
DEFAULT_255_2_778
10
115.9214127
20
143.3130473
40
3.0123813
50
355.4800121
51
359.999829
0
ARC
8
DEFAULT_255_2_778
10
115.9227319
20
143.3130509
40
3.0110621
50
359.9997607
51
0.8079919
0
ARC
8
DEFAULT_255_2_778
10
115.9372851
20
143.3142363
40
2.9964936
50
0.7892521
51
22.3115918
0
ARC
8
DEFAULT_255_2_778
10
115.9369008
20
143.3124388
40
2.997532
50
22.3405881
51
35.635771
0
ARC
8
DEFAULT_255_2_778
10
115.9043906
20
143.2904733
40
3.0367522
50
35.6152194
51
37.0017707
0
ARC
8
DEFAULT_255_2_778
10
115.9337422
20
143.3147449
40
2.9987045
50
36.9689314
51
53.0911891
0
ARC
8
DEFAULT_255_2_778
10
115.9320057
20
143.3072247
40
3.0057621
50
53.1508087
51
90.0043021
0
ARC
8
DEFAULT_255_2_778
10
115.9317545
20
143.3162098
40
2.9967769
50
89.9995122
51
93.5391802
0
ARC
8
DEFAULT_255_2_778
10
115.9309503
20
143.3262029
40
2.9867532
50
93.5356169
51
106.8821096
0
ARC
8
DEFAULT_255_2_778
10
115.9373026
20
143.3072116
40
3.0067708
50
106.8928444
51
116.8094609
0
ARC
8
DEFAULT_255_2_778
10
115.9507531
20
143.2787975
40
3.0381973
50
116.7941711
51
117.4591305
0
ARC
8
DEFAULT_255_2_778
10
114.5037516
20
146.0636836
40
0.1001788
50
269.9523928
51
297.3603397
0
ARC
8
DEFAULT_255_2_778
10
114.5036452
20
146.0605692
40
0.0970643
50
269.5202555
51
270.013703
0
ARC
8
DEFAULT_255_2_778
10
114.5036219
20
146.0636977
40
0.1001925
50
252.5592612
51
269.548538
0
ARC
8
DEFAULT_255_2_778
10
114.1462834
20
145.9669788
40
0.0999142
50
72.581681
51
87.7565575
0
ARC
8
DEFAULT_255_2_778
10
114.1462527
20
145.9664706
40
0.1004231
50
87.7503564
51
89.996422
0
ARC
8
DEFAULT_255_2_778
10
114.1462216
20
145.966793
40
0.1001006
50
89.9786136
51
123.9680239
0
ARC
8
DEFAULT_255_2_778
10
114.1465221
20
145.9664277
40
0.1005715
50
123.9937528
51
175.2754104
0
ARC
8
DEFAULT_255_2_778
10
113.5163332
20
145.6094486
40
0.499962
50
277.4538761
51
355.5562566
0
ARC
8
DEFAULT_255_2_778
10
113.1924065
20
144.9620427
40
0.099894
50
97.3700654
51
148.9869579
0
ARC
8
DEFAULT_255_2_778
10
113.1933024
20
144.961967
40
0.1007017
50
149.2126827
51
179.9912727
0
ARC
8
DEFAULT_255_2_778
10
113.1936557
20
144.9619912
40
0.1010549
50
180.0050253
51
181.3439403
0
ARC
8
DEFAULT_255_2_778
10
113.1928701
20
144.9619695
40
0.100269
50
181.34209
51
200.4043374
0
ARC
8
DEFAULT_255_2_778
10
113.1131251
20
144.599642
40
0.1015863
50
0.0641595
51
20.3153232
0
ARC
8
DEFAULT_255_2_778
10
113.1143925
20
144.5996837
40
0.100319
50
335.5184224
51
0.0086008
0
LINE
8
DEFAULT_255_2_778
10
114.4735923
20
145.9681114
11
114.1761923
21
146.0623114
0
LINE
8
DEFAULT_255_2_778
10
114.0462923
20
145.9747114
11
114.0147923
21
145.5707114
0
LINE
8
DEFAULT_255_2_778
10
113.5811923
20
145.1137114
11
113.1795923
21
145.0611114
0
LINE
8
DEFAULT_255_2_778
10
113.0988923
20
144.9270114
11
113.2083923
21
144.6349114
0
ARC
8
DEFAULT_255_2_778
10
121.1323114
20
9.3104377
40
2.9968985
50
251.3289179
51
270.052679
0
ARC
8
DEFAULT_255_2_778
10
121.1398519
20
9.3179112
40
3.0063965
50
193.6225466
51
251.2383698
0
ARC
8
DEFAULT_255_2_778
10
121.1427248
20
9.3118089
40
3.0077586
50
179.9651082
51
193.4966822
0
ARC
8
DEFAULT_255_2_778
10
121.1316361
20
10.3164863
40
2.9966707
50
161.3305067
51
180.0563226
0
ARC
8
DEFAULT_255_2_778
10
121.1391856
20
10.3088564
40
3.0062693
50
103.620264
51
161.2388003
0
ARC
8
DEFAULT_255_2_778
10
121.1332367
20
10.3056324
40
3.0080087
50
89.9651412
51
103.495677
0
LINE
8
DEFAULT_255_2_778
10
127.1350668
20
6.3135405
11
121.1350668
21
6.3135405
0
LINE
8
DEFAULT_255_2_778
10
118.1349668
20
9.3136405
11
118.1349668
21
10.3135405
0
LINE
8
DEFAULT_255_2_778
10
121.1350668
20
13.3136405
11
127.1350668
21
13.3136405
0
LINE
8
DEFAULT_255_2_778
10
127.1349386
20
11.8137854
11
125.6350386
21
11.8137854
0
LINE
8
DEFAULT_255_2_778
10
125.6350386
20
11.8137854
11
125.6350386
21
7.8137854
0
LINE
8
DEFAULT_255_2_778
10
125.6350386
20
7.8137854
11
127.1349386
21
7.8137854
0
ARC
8
DEFAULT_255_2_778
10
57.3365297
20
-57.219484
40
72.0340731
50
121.7741967
51
127.6505295
0
ARC
8
DEFAULT_255_2_778
10
57.328513
20
-57.2077594
40
72.0198843
50
113.8311662
51
121.7736865
0
ARC
8
DEFAULT_255_2_778
10
57.3372072
20
-57.2263779
40
72.0404283
50
98.9774387
51
113.8315084
0
ARC
8
DEFAULT_255_2_778
10
57.3328817
20
-57.204966
40
72.0186037
50
92.5329034
51
98.9766978
0
ARC
8
DEFAULT_255_2_778
10
57.3347891
20
-57.2450194
40
72.0587024
50
89.9998534
51
92.5330111
0
ARC
8
DEFAULT_255_2_778
10
116.3223258
20
16.0416538
40
1.0094562
50
180.0042506
51
180.1572657
0
ARC
8
DEFAULT_255_2_778
10
116.329863
20
16.040718
40
1.0169937
50
174.03624
51
179.9514977
0
ARC
8
DEFAULT_255_2_778
10
116.3104444
20
16.0406875
40
0.9976856
50
113.678269
51
173.9186324
0
LINE
8
DEFAULT_255_2_778
10
9.8348734
20
94.8135831
11
12.8375734
21
94.4902831
0
LINE
8
DEFAULT_255_2_778
10
12.8375734
20
94.4902831
11
12.8375734
21
75.7929831
0
LINE
8
DEFAULT_255_2_778
10
12.8375734
20
75.7929831
11
5.9348734
21
70.0093831
0
LINE
8
DEFAULT_255_2_778
10
5.9348734
20
70.0093831
11
5.9348734
21
37.0875831
0
LINE
8
DEFAULT_255_2_778
10
5.9348734
20
37.0875831
11
9.8348734
21
37.0534831
0
LINE
8
DEFAULT_255_2_778
10
9.8348734
20
37.0534831
11
9.8348734
21
-0.1864169
0
LINE
8
DEFAULT_255_2_778
10
9.8348734
20
-0.1864169
11
13.3349734
21
-0.1864169
0
LINE
8
DEFAULT_255_2_778
10
57.3349734
20
14.8136831
11
115.3130734
21
14.8136831
0
LINE
8
DEFAULT_255_2_778
10
115.3130734
20
14.8136831
11
115.3128734
21
16.0388831
0
ARC
8
DEFAULT_255_2_778
10
-871.0732161
20
14.8005146
40
997.9084945
50
0.3292331
51
6.7693796
0
ARC
8
DEFAULT_255_2_778
10
125.8256901
20
20.5139712
40
0.993329
50
0.0002792
51
1.1937785
0
ARC
8
DEFAULT_255_2_778
10
125.8466761
20
20.5133392
40
0.9723434
50
313.2997263
51
0.0375269
0
ARC
8
DEFAULT_255_2_778
10
125.8460435
20
20.5105746
40
0.9707681
50
271.945713
51
313.4388051
0
ARC
8
DEFAULT_255_2_778
10
116.3265555
20
18.0237177
40
1.0819854
50
89.5261593
51
90.0011165
0
ARC
8
DEFAULT_255_2_778
10
116.3266806
20
18.0246421
40
1.081061
50
90.0077455
51
158.7382633
0
LINE
8
DEFAULT_255_2_778
10
112.9390035
20
132.8079661
11
119.8475035
21
132.6873661
0
LINE
8
DEFAULT_255_2_778
10
119.8475035
20
132.6873661
11
119.8785035
21
132.4272661
0
LINE
8
DEFAULT_255_2_778
10
125.8790035
20
19.5403661
11
122.1335035
21
19.2686661
0
LINE
8
DEFAULT_255_2_778
10
122.1335035
20
19.2686661
11
120.2375035
21
19.1553661
0
LINE
8
DEFAULT_255_2_778
10
120.2375035
20
19.1553661
11
119.1355035
21
18.0555661
0
LINE
8
DEFAULT_255_2_778
10
119.1355035
20
18.0555661
11
118.0899035
21
19.1032661
0
LINE
8
DEFAULT_255_2_778
10
118.0899035
20
19.1032661
11
116.3355035
21
19.1056661
0
LINE
8
DEFAULT_255_2_778
10
115.3192035
20
18.4166661
11
115.3192035
21
16.1460661
0
ARC
8
DEFAULT_255_2_778
10
121.8372961
20
9.8172551
40
2.0023845
50
156.5733489
51
180.0992821
0
ARC
8
DEFAULT_255_2_778
10
121.8301181
20
9.8182021
40
1.9954226
50
100.1929838
51
156.5163563
0
ARC
8
DEFAULT_255_2_778
10
121.8338941
20
9.7859817
40
2.0278038
50
89.9711642
51
100.1368845
0
ARC
8
DEFAULT_255_2_778
10
121.8383844
20
9.8114039
40
2.0023845
50
66.5733489
51
90.0992821
0
ARC
8
DEFAULT_255_2_778
10
121.8393314
20
9.8185819
40
1.9954226
50
10.1929838
51
66.5163563
0
ARC
8
DEFAULT_255_2_778
10
121.807111
20
9.8148059
40
2.0278038
50
359.9711642
51
10.1368845
0
ARC
8
DEFAULT_255_2_778
10
121.8325332
20
9.8103156
40
2.0023845
50
336.5733489
51
0.0992821
0
ARC
8
DEFAULT_255_2_778
10
121.8397112
20
9.8093686
40
1.9954226
50
280.1929838
51
336.5163563
0
ARC
8
DEFAULT_255_2_778
10
121.8359352
20
9.841589
40
2.0278038
50
269.9711642
51
280.1368845
0
ARC
8
DEFAULT_255_2_778
10
121.8314449
20
9.8161668
40
2.0023845
50
246.5733489
51
270.0992821
0
ARC
8
DEFAULT_255_2_778
10
121.8304979
20
9.8089888
40
1.9954226
50
190.1929838
51
246.5163563
0
ARC
8
DEFAULT_255_2_778
10
121.8627183
20
9.8127648
40
2.0278038
50
179.9711642
51
190.1368845
0
LINE
8
DEFAULT_255_2_778
10
119.8349146
20
9.8137854
11
119.8349146
21
9.8137854
0
ARC
8
DEFAULT_255_2_778
10
115.9278205
20
143.3165271
40
1.9786203
50
155.6923607
51
180.0790305
0
ARC
8
DEFAULT_255_2_778
10
115.9363381
20
143.3116274
40
1.9883999
50
99.697519
51
155.6647232
0
ARC
8
DEFAULT_255_2_778
10
115.9341223
20
143.3004101
40
1.9990879
50
89.9776488
51
99.5807646
0
ARC
8
DEFAULT_255_2_778
10
115.9376313
20
143.3208795
40
1.9786203
50
65.6923607
51
90.0790305
0
ARC
8
DEFAULT_255_2_778
10
115.9327317
20
143.3123619
40
1.9883999
50
9.697519
51
65.6647232
0
ARC
8
DEFAULT_255_2_778
10
115.9215144
20
143.3145777
40
1.9990879
50
359.9776488
51
9.5807646
0
ARC
8
DEFAULT_255_2_778
10
115.9419837
20
143.3110687
40
1.9786203
50
335.6923607
51
0.0790305
0
ARC
8
DEFAULT_255_2_778
10
115.9334662
20
143.3159683
40
1.9883999
50
279.697519
51
335.6647232
0
ARC
8
DEFAULT_255_2_778
10
115.935682
20
143.3271856
40
1.9990879
50
269.9776488
51
279.5807646
0
ARC
8
DEFAULT_255_2_778
10
115.9321729
20
143.3067163
40
1.9786203
50
245.6923607
51
270.0790305
0
ARC
8
DEFAULT_255_2_778
10
115.9370726
20
143.3152338
40
1.9883999
50
189.697519
51
245.6647232
0
ARC
8
DEFAULT_255_2_778
10
115.9482899
20
143.313018
40
1.9990879
50
179.9776488
51
189.5807646
0
LINE
8
DEFAULT_255_2_778
10
113.9492021
20
143.3137979
11
113.9492021
21
143.3137979
0
ENDSEC
0
EOF