0
SECTION
2
HEADER
9
$MEASUREMENT
70
1
0
ENDSEC
0
SECTION
2
TABLES
0
TABLE
2
LTYPE
0
LTYPE
72
65
70
64
2
CONTINUOUS
3
______
73
0
40
0
0
ENDTAB
0
TABLE
2
LAYER
0
LAYER
2
DEFAULT_255_2_778
70
0
62
255
6
CONTINUOUS
0
ENDTAB
0
ENDSEC
0
SECTION
2
ENTITIES
0
LINE
8
DEFAULT_255_2_778
10
12.3246422
20
4.8137093
11
12.3246422
21
-0.1857907
0
LINE
8
DEFAULT_255_2_778
10
12.3246422
20
-0.1857907
11
47.1247422
21
-0.1857907
0
LINE
8
DEFAULT_255_2_778
10
47.1247422
20
-0.1857907
11
47.1247422
21
7.8128093
0
LINE
8
DEFAULT_255_2_778
10
16.6347547
20
23.1147542
11
12.3246547
21
20.6636542
0
LINE
8
DEFAULT_255_2_778
10
12.3246547
20
20.6636542
11
12.3246547
21
4.8148542
0
LINE
8
DEFAULT_255_2_778
10
12.3246547
20
4.8148542
11
12.6254547
21
4.8148542
0
LINE
8
DEFAULT_255_2_778
10
12.6254547
20
4.8148542
11
12.6246547
21
-0.1852458
0
LINE
8
DEFAULT_255_2_778
10
12.6246547
20
-0.1852458
11
47.1279547
21
-0.1852458
0
LINE
8
DEFAULT_255_2_778
10
47.1279547
20
-0.1852458
11
47.1279547
21
146.8156542
0
LINE
8
DEFAULT_255_2_778
10
47.1279547
20
146.8156542
11
12.3270547
21
146.8156542
0
LINE
8
DEFAULT_255_2_778
10
12.3270547
20
146.8156542
11
12.3270547
21
20.6673542
0
ARC
8
DEFAULT_255_2_778
10
44.4887673
20
128.963795
40
2.1516289
50
353.0710711
51
0.3281501
0
ARC
8
DEFAULT_255_2_778
10
45.476446
20
128.8390428
40
1.1561235
50
341.6730029
51
353.3034735
0
ARC
8
DEFAULT_255_2_778
10
45.9420501
20
128.6882091
40
0.6667157
50
329.9172743
51
341.3961584
0
ARC
8
DEFAULT_255_2_778
10
46.1625092
20
128.5577492
40
0.4105658
50
266.5721668
51
330.2497232
0
ARC
8
DEFAULT_255_2_778
10
46.115311
20
128.5612426
40
0.4139448
50
211.392772
51
273.1366317
0
ARC
8
DEFAULT_255_2_778
10
46.3900266
20
128.723925
40
0.7332003
50
193.2023467
51
211.0621003
0
ARC
8
DEFAULT_255_2_778
10
47.0801914
20
128.8971536
40
1.4447297
50
183.6298386
51
193.6394993
0
ARC
8
DEFAULT_255_2_778
10
47.8952744
20
128.965393
40
2.262558
50
180.6476604
51
184.0476624
0
ARC
8
DEFAULT_255_2_778
10
47.7306534
20
129.2752071
40
2.0978285
50
172.9652815
51
180.3356416
0
ARC
8
DEFAULT_255_2_778
10
46.7635698
20
129.3992417
40
1.1228439
50
161.3602666
51
173.203142
0
ARC
8
DEFAULT_255_2_778
10
46.3116093
20
129.5482911
40
0.6469597
50
149.3796641
51
161.0748588
0
ARC
8
DEFAULT_255_2_778
10
46.1105881
20
129.6689351
40
0.4125214
50
86.571104
51
149.5785604
0
ARC
8
DEFAULT_255_2_778
10
46.1493689
20
129.6171751
40
0.4637575
50
59.8208107
51
91.743268
0
ARC
8
DEFAULT_255_2_778
10
46.170449
20
129.6778975
40
0.4008571
50
31.6297039
51
58.0620774
0
ARC
8
DEFAULT_255_2_778
10
45.8990313
20
129.5161499
40
0.7167969
50
13.3624774
51
31.2605679
0
ARC
8
DEFAULT_255_2_778
10
45.2114972
20
129.3413641
40
1.4261562
50
3.8260457
51
13.810729
0
ARC
8
DEFAULT_255_2_778
10
44.399482
20
129.2704771
40
2.2411528
50
0.8958683
51
4.2490351
0
LINE
8
DEFAULT_255_2_778
10
46.6403609
20
129.305518
11
46.6403609
21
128.976118
0
LINE
8
DEFAULT_255_2_778
10
45.6328609
20
128.939818
11
45.6328609
21
129.262918
0
LINE
8
DEFAULT_255_2_778
10
46.6403609
20
129.305518
11
46.6403609
21
129.305518
0
LINE
8
DEFAULT_255_2_778
10
20.6246609
20
5.141518
11
20.6246609
21
2.214518
0
LINE
8
DEFAULT_255_2_778
10
20.6246609
20
2.214518
11
38.8245609
21
2.214518
0
LINE
8
DEFAULT_255_2_778
10
38.8245609
20
2.214518
11
38.8245609
21
7.814418
0
LINE
8
DEFAULT_255_2_778
10
47.1248609
20
20.663618
11
47.1248609
21
7.814418
0
LINE
8
DEFAULT_255_2_778
10
47.1248609
20
7.814418
11
37.3249609
21
7.814418
0
LINE
8
DEFAULT_255_2_778
10
37.3249609
20
7.814418
11
36.4226609
21
7.599018
0
LINE
8
DEFAULT_255_2_778
10
36.4226609
20
7.599018
11
35.5196609
21
7.391618
0
LINE
8
DEFAULT_255_2_778
10
35.5196609
20
7.391618
11
34.6155609
21
7.192318
0
LINE
8
DEFAULT_255_2_778
10
34.6155609
20
7.192318
11
33.7104609
21
7.001018
0
LINE
8
DEFAULT_255_2_778
10
33.7104609
20
7.001018
11
32.8045609
21
6.817918
0
LINE
8
DEFAULT_255_2_778
10
32.8045609
20
6.817918
11
31.8975609
21
6.642818
0
LINE
8
DEFAULT_255_2_778
10
31.8975609
20
6.642818
11
30.9894609
21
6.475818
0
LINE
8
DEFAULT_255_2_778
10
30.9894609
20
6.475818
11
30.0806609
21
6.316818
0
LINE
8
DEFAULT_255_2_778
10
30.0806609
20
6.316818
11
29.1707609
21
6.165718
0
LINE
8
DEFAULT_255_2_778
10
29.1707609
20
6.165718
11
28.2597609
21
6.022618
0
LINE
8
DEFAULT_255_2_778
10
28.2597609
20
6.022618
11
27.3480609
21
5.887718
0
LINE
8
DEFAULT_255_2_778
10
27.3480609
20
5.887718
11
26.4352609
21
5.760718
0
LINE
8
DEFAULT_255_2_778
10
26.4352609
20
5.760718
11
25.5213609
21
5.641618
0
LINE
8
DEFAULT_255_2_778
10
25.5213609
20
5.641618
11
24.6066609
21
5.530518
0
LINE
8
DEFAULT_255_2_778
10
24.6066609
20
5.530518
11
23.6909609
21
5.427318
0
LINE
8
DEFAULT_255_2_778
10
23.6909609
20
5.427318
11
22.7741609
21
5.332018
0
LINE
8
DEFAULT_255_2_778
10
22.7741609
20
5.332018
11
21.8565609
21
5.245018
0
LINE
8
DEFAULT_255_2_778
10
21.8565609
20
5.245018
11
20.9379609
21
5.165918
0
LINE
8
DEFAULT_255_2_778
10
20.9379609
20
5.165918
11
20.0182609
21
5.094718
0
LINE
8
DEFAULT_255_2_778
10
20.0182609
20
5.094718
11
19.0977609
21
5.031518
0
LINE
8
DEFAULT_255_2_778
10
19.0977609
20
5.031518
11
18.1762609
21
4.976418
0
LINE
8
DEFAULT_255_2_778
10
18.1762609
20
4.976418
11
17.2536609
21
4.929318
0
LINE
8
DEFAULT_255_2_778
10
17.2536609
20
4.929318
11
16.3299609
21
4.890218
0
LINE
8
DEFAULT_255_2_778
10
16.3299609
20
4.890218
11
15.4055609
21
4.859218
0
LINE
8
DEFAULT_255_2_778
10
15.4055609
20
4.859218
11
14.4800609
21
4.836218
0
LINE
8
DEFAULT_255_2_778
10
14.4800609
20
4.836218
11
12.6273609
21
4.821418
0
LINE
8
DEFAULT_255_2_778
10
14.5247609
20
4.800518
11
14.5247609
21
-0.173882
0
LINE
8
DEFAULT_255_2_778
10
14.5247609
20
-0.173882
11
12.6247609
21
-0.173882
0
LINE
8
DEFAULT_255_2_778
10
12.6247609
20
-0.173882
11
12.6247609
21
4.777718
0
LINE
8
DEFAULT_255_2_778
10
47.1248163
20
21.0768951
11
46.6848163
21
21.0768951
0
LINE
8
DEFAULT_255_2_778
10
46.6848163
20
21.0768951
11
46.6848163
21
20.9110951
0
LINE
8
DEFAULT_255_2_778
10
44.9248163
20
7.8432951
11
44.9248163
21
-0.1736049
0
LINE
8
DEFAULT_255_2_778
10
44.9248163
20
-0.1736049
11
46.8247163
21
-0.1736049
0
LINE
8
DEFAULT_255_2_778
10
46.8247163
20
-0.1736049
11
46.8247163
21
7.8432951
0
LINE
8
DEFAULT_255_2_778
10
2.2234163
20
124.3011951
11
10.6406163
21
124.3011951
0
LINE
8
DEFAULT_255_2_778
10
10.6406163
20
124.3011951
11
10.6406163
21
126.7980951
0
LINE
8
DEFAULT_255_2_778
10
10.6406163
20
126.7980951
11
12.3273163
21
126.7980951
0
LINE
8
DEFAULT_255_2_778
10
12.3273163
20
126.7980951
11
12.3249163
21
35.4017951
0
LINE
8
DEFAULT_255_2_778
10
12.3249163
20
35.4017951
11
0.2324163
21
35.4017951
0
LINE
8
DEFAULT_255_2_778
10
0.2324163
20
35.4017951
11
0.2324163
21
126.8017951
0
LINE
8
DEFAULT_255_2_778
10
0.2324163
20
126.8017951
11
2.2239163
21
126.8017951
0
LINE
8
DEFAULT_255_2_778
10
2.2239163
20
126.8017951
11
2.2239163
21
118.8018951
0
LINE
8
DEFAULT_255_2_778
10
12.3273163
20
118.786225
11
12.3249163
21
126.801725
0
LINE
8
DEFAULT_255_2_778
10
12.3249163
20
126.801725
11
10.6411163
21
126.801725
0
LINE
8
DEFAULT_255_2_778
10
10.6411163
20
126.801725
11
10.6411163
21
118.801825
0
LINE
8
DEFAULT_255_2_778
10
10.6411163
20
118.801825
11
0.2324163
21
118.801825
0
LINE
8
DEFAULT_255_2_778
10
16.8247163
20
23.113725
11
16.8247163
21
132.400125
0
LINE
8
DEFAULT_255_2_778
10
16.8247163
20
132.400125
11
16.6030163
21
132.400125
0
LINE
8
DEFAULT_255_2_778
10
16.6030163
20
132.400125
11
12.3247163
21
134.870225
0
LINE
8
DEFAULT_255_2_778
10
12.3247163
20
134.870225
11
12.3247163
21
146.814325
0
LINE
8
DEFAULT_255_2_778
10
12.3247163
20
146.814325
11
47.1248163
21
146.814325
0
LINE
8
DEFAULT_255_2_778
10
47.1248163
20
146.814325
11
47.1248163
21
134.870225
0
LINE
8
DEFAULT_255_2_778
10
47.1248163
20
134.870225
11
42.8465163
21
132.400125
0
LINE
8
DEFAULT_255_2_778
10
42.8465163
20
132.400125
11
42.6247163
21
132.400125
0
LINE
8
DEFAULT_255_2_778
10
42.6247163
20
132.400125
11
42.6247163
21
23.113725
0
LINE
8
DEFAULT_255_2_778
10
3.4323163
20
70.026925
11
3.4323163
21
40.076925
0
LINE
8
DEFAULT_255_2_778
10
3.4323163
20
40.076925
11
7.7823163
21
40.076925
0
LINE
8
DEFAULT_255_2_778
10
7.7823163
20
40.076925
11
7.7823163
21
70.026925
0
LINE
8
DEFAULT_255_2_778
10
0.2324163
20
117.893825
11
3.5823163
21
117.893825
0
LINE
8
DEFAULT_255_2_778
10
3.5823163
20
117.893825
11
3.5823163
21
93.710025
0
LINE
8
DEFAULT_255_2_778
10
3.5823163
20
93.710025
11
0.2324163
21
93.710025
0
LINE
8
DEFAULT_255_2_778
10
16.7247163
20
132.400125
11
16.7247163
21
23.113725
0
LINE
8
DEFAULT_255_2_778
10
17.2247163
20
146.814325
11
17.2247163
21
135.414225
0
LINE
8
DEFAULT_255_2_778
10
33.2249163
20
132.314325
11
41.3748163
21
132.314325
0
LINE
8
DEFAULT_255_2_778
10
41.3748163
20
132.314325
11
41.3748163
21
129.334625
0
LINE
8
DEFAULT_255_2_778
10
41.3748163
20
129.334625
11
40.2250163
21
129.334625
0
LINE
8
DEFAULT_255_2_778
10
40.2250163
20
129.334625
11
40.2250163
21
20.364125
0
LINE
8
DEFAULT_255_2_778
10
40.2250163
20
20.364125
11
19.2250163
21
20.364125
0
LINE
8
DEFAULT_255_2_778
10
19.2250163
20
20.364125
11
19.2250163
21
129.334625
0
LINE
8
DEFAULT_255_2_778
10
19.2250163
20
129.334625
11
18.0751163
21
129.334625
0
LINE
8
DEFAULT_255_2_778
10
18.0751163
20
129.334625
11
18.0751163
21
132.314325
0
LINE
8
DEFAULT_255_2_778
10
18.0751163
20
132.314325
11
26.2251163
21
132.314325
0
LINE
8
DEFAULT_255_2_778
10
45.5254163
20
-0.185575
11
45.5254163
21
-0.173875
0
LINE
8
DEFAULT_255_2_778
10
42.2247163
20
135.414225
11
42.2247163
21
146.814325
0
LINE
8
DEFAULT_255_2_778
10
42.7247163
20
23.113725
11
42.7247163
21
132.400125
0
LINE
8
DEFAULT_255_2_778
10
22.6294163
20
5.329725
11
23.3604163
21
4.914325
0
LINE
8
DEFAULT_255_2_778
10
23.3604163
20
4.914325
11
24.1084163
21
4.566925
0
LINE
8
DEFAULT_255_2_778
10
24.1084163
20
4.566925
11
24.8704163
21
4.289125
0
LINE
8
DEFAULT_255_2_778
10
24.8704163
20
4.289125
11
25.6432163
21
4.081925
0
LINE
8
DEFAULT_255_2_778
10
25.6432163
20
4.081925
11
34.1882163
21
4.081925
0
LINE
8
DEFAULT_255_2_778
10
40.2247163
20
23.110225
11
19.2247163
21
23.110225
0
LINE
8
DEFAULT_255_2_778
10
16.6416163
20
23.113725
11
16.8247163
21
23.113725
0
LINE
8
DEFAULT_255_2_778
10
42.6247163
20
23.113725
11
42.7748163
21
23.113725
0
LINE
8
DEFAULT_255_2_778
10
16.8246422
20
23.5285826
11
16.7246422
21
23.5285826
0
LINE
8
DEFAULT_255_2_778
10
42.6247422
20
23.5285826
11
42.7247422
21
23.5285826
0
LINE
8
DEFAULT_255_2_778
10
16.6246422
20
24.5672826
11
14.6246422
21
24.5672826
0
LINE
8
DEFAULT_255_2_778
10
46.7993422
20
20.8850826
11
42.7747422
21
23.1136826
0
LINE
8
DEFAULT_255_2_778
10
42.6554422
20
23.3523826
11
46.8170422
21
21.0107826
0
LINE
8
DEFAULT_255_2_778
10
42.8247422
20
68.7802826
11
44.8247422
21
68.7802826
0
LINE
8
DEFAULT_255_2_778
10
11.8325422
20
94.3193826
11
9.8325422
21
94.3193826
0
LINE
8
DEFAULT_255_2_778
10
16.6246422
20
95.7878826
11
14.6246422
21
95.7878826
0
LINE
8
DEFAULT_255_2_778
10
41.1070422
20
136.2881826
11
40.8194422
21
136.4161826
0
LINE
8
DEFAULT_255_2_778
10
40.8194422
20
136.4161826
11
40.5202422
21
136.5140826
0
LINE
8
DEFAULT_255_2_778
10
40.5202422
20
136.5140826
11
40.2125422
21
136.5804826
0
LINE
8
DEFAULT_255_2_778
10
40.2125422
20
136.5804826
11
39.8995422
21
136.6143826
0
LINE
8
DEFAULT_255_2_778
10
39.8995422
20
136.6143826
11
39.7421422
21
136.6185826
0
LINE
8
DEFAULT_255_2_778
10
19.6549422
20
136.6180826
11
19.3406422
21
136.5955826
0
LINE
8
DEFAULT_255_2_778
10
19.3406422
20
136.5955826
11
19.0305422
21
136.5400826
0
LINE
8
DEFAULT_255_2_778
10
19.0305422
20
136.5400826
11
18.7278422
21
136.4524826
0
LINE
8
DEFAULT_255_2_778
10
18.7278422
20
136.4524826
11
18.4357422
21
136.3341826
0
LINE
8
DEFAULT_255_2_778
10
18.4357422
20
136.3341826
11
18.2947422
21
136.2637826
0
LINE
8
DEFAULT_255_2_778
10
41.3745422
20
132.2085826
11
33.2246422
21
132.2085826
0
LINE
8
DEFAULT_255_2_778
10
26.2248422
20
132.2085826
11
18.0748422
21
132.2085826
0
LINE
8
DEFAULT_255_2_778
10
42.2246422
20
146.3142826
11
42.1246422
21
146.3142826
0
LINE
8
DEFAULT_255_2_778
10
17.3247422
20
146.3142826
11
17.2247422
21
146.3142826
0
LINE
8
DEFAULT_255_2_778
10
6.1575563
20
60.1894948
11
6.8576563
21
60.1894948
0
LINE
8
DEFAULT_255_2_778
10
6.8576563
20
60.1894948
11
6.8576563
21
59.2144948
0
LINE
8
DEFAULT_255_2_778
10
6.8576563
20
59.2144948
11
6.1575563
21
59.2144948
0
LINE
8
DEFAULT_255_2_778
10
6.1575563
20
59.2144948
11
6.1575563
21
60.1894948
0
LINE
8
DEFAULT_255_2_778
10
6.1575563
20
61.6893948
11
6.8576563
21
61.6893948
0
LINE
8
DEFAULT_255_2_778
10
6.8576563
20
61.6893948
11
6.8576563
21
60.7143948
0
LINE
8
DEFAULT_255_2_778
10
6.8576563
20
60.7143948
11
6.1575563
21
60.7143948
0
LINE
8
DEFAULT_255_2_778
10
6.1575563
20
60.7143948
11
6.1575563
21
61.6893948
0
LINE
8
DEFAULT_255_2_778
10
6.1575563
20
63.1892948
11
6.8576563
21
63.1892948
0
LINE
8
DEFAULT_255_2_778
10
6.8576563
20
63.1892948
11
6.8576563
21
62.2142948
0
LINE
8
DEFAULT_255_2_778
10
6.8576563
20
62.2142948
11
6.1575563
21
62.2142948
0
LINE
8
DEFAULT_255_2_778
10
6.1575563
20
62.2142948
11
6.1575563
21
63.1892948
0
LINE
8
DEFAULT_255_2_778
10
6.1575563
20
64.6892948
11
6.8576563
21
64.6892948
0
LINE
8
DEFAULT_255_2_778
10
6.8576563
20
64.6892948
11
6.8576563
21
63.7142948
0
LINE
8
DEFAULT_255_2_778
10
6.8576563
20
63.7142948
11
6.1575563
21
63.7142948
0
LINE
8
DEFAULT_255_2_778
10
6.1575563
20
63.7142948
11
6.1575563
21
64.6892948
0
LINE
8
DEFAULT_255_2_778
10
6.1575563
20
66.1894948
11
6.8576563
21
66.1894948
0
LINE
8
DEFAULT_255_2_778
10
6.8576563
20
66.1894948
11
6.8576563
21
65.2144948
0
LINE
8
DEFAULT_255_2_778
10
6.8576563
20
65.2144948
11
6.1575563
21
65.2144948
0
LINE
8
DEFAULT_255_2_778
10
6.1575563
20
65.2144948
11
6.1575563
21
66.1894948
0
LINE
8
DEFAULT_255_2_778
10
6.1575563
20
67.6893948
11
6.8576563
21
67.6893948
0
LINE
8
DEFAULT_255_2_778
10
6.8576563
20
67.6893948
11
6.8576563
21
66.7143948
0
LINE
8
DEFAULT_255_2_778
10
6.8576563
20
66.7143948
11
6.1575563
21
66.7143948
0
LINE
8
DEFAULT_255_2_778
10
6.1575563
20
66.7143948
11
6.1575563
21
67.6893948
0
LINE
8
DEFAULT_255_2_778
10
6.1575563
20
69.1892948
11
6.8576563
21
69.1892948
0
LINE
8
DEFAULT_255_2_778
10
6.8576563
20
69.1892948
11
6.8576563
21
68.2142948
0
LINE
8
DEFAULT_255_2_778
10
6.8576563
20
68.2142948
11
6.1575563
21
68.2142948
0
LINE
8
DEFAULT_255_2_778
10
6.1575563
20
68.2142948
11
6.1575563
21
69.1892948
0
LINE
8
DEFAULT_255_2_778
10
4.3575563
20
60.1894948
11
5.0576563
21
60.1894948
0
LINE
8
DEFAULT_255_2_778
10
5.0576563
20
60.1894948
11
5.0576563
21
59.2144948
0
LINE
8
DEFAULT_255_2_778
10
5.0576563
20
59.2144948
11
4.3575563
21
59.2144948
0
LINE
8
DEFAULT_255_2_778
10
4.3575563
20
59.2144948
11
4.3575563
21
60.1894948
0
LINE
8
DEFAULT_255_2_778
10
4.3575563
20
61.6893948
11
5.0576563
21
61.6893948
0
LINE
8
DEFAULT_255_2_778
10
5.0576563
20
61.6893948
11
5.0576563
21
60.7143948
0
LINE
8
DEFAULT_255_2_778
10
5.0576563
20
60.7143948
11
4.3575563
21
60.7143948
0
LINE
8
DEFAULT_255_2_778
10
4.3575563
20
60.7143948
11
4.3575563
21
61.6893948
0
LINE
8
DEFAULT_255_2_778
10
4.3575563
20
63.1892948
11
5.0576563
21
63.1892948
0
LINE
8
DEFAULT_255_2_778
10
5.0576563
20
63.1892948
11
5.0576563
21
62.2142948
0
LINE
8
DEFAULT_255_2_778
10
5.0576563
20
62.2142948
11
4.3575563
21
62.2142948
0
LINE
8
DEFAULT_255_2_778
10
4.3575563
20
62.2142948
11
4.3575563
21
63.1892948
0
LINE
8
DEFAULT_255_2_778
10
4.3575563
20
64.6892948
11
5.0576563
21
64.6892948
0
LINE
8
DEFAULT_255_2_778
10
5.0576563
20
64.6892948
11
5.0576563
21
63.7142948
0
LINE
8
DEFAULT_255_2_778
10
5.0576563
20
63.7142948
11
4.3575563
21
63.7142948
0
LINE
8
DEFAULT_255_2_778
10
4.3575563
20
63.7142948
11
4.3575563
21
64.6892948
0
LINE
8
DEFAULT_255_2_778
10
4.3575563
20
66.1894948
11
5.0576563
21
66.1894948
0
LINE
8
DEFAULT_255_2_778
10
5.0576563
20
66.1894948
11
5.0576563
21
65.2144948
0
LINE
8
DEFAULT_255_2_778
10
5.0576563
20
65.2144948
11
4.3575563
21
65.2144948
0
LINE
8
DEFAULT_255_2_778
10
4.3575563
20
65.2144948
11
4.3575563
21
66.1894948
0
LINE
8
DEFAULT_255_2_778
10
4.3575563
20
67.6893948
11
5.0576563
21
67.6893948
0
LINE
8
DEFAULT_255_2_778
10
5.0576563
20
67.6893948
11
5.0576563
21
66.7143948
0
LINE
8
DEFAULT_255_2_778
10
5.0576563
20
66.7143948
11
4.3575563
21
66.7143948
0
LINE
8
DEFAULT_255_2_778
10
4.3575563
20
66.7143948
11
4.3575563
21
67.6893948
0
LINE
8
DEFAULT_255_2_778
10
4.3575563
20
69.1892948
11
5.0576563
21
69.1892948
0
LINE
8
DEFAULT_255_2_778
10
5.0576563
20
69.1892948
11
5.0576563
21
68.2142948
0
LINE
8
DEFAULT_255_2_778
10
5.0576563
20
68.2142948
11
4.3575563
21
68.2142948
0
LINE
8
DEFAULT_255_2_778
10
4.3575563
20
68.2142948
11
4.3575563
21
69.1892948
0
LINE
8
DEFAULT_255_2_778
10
6.1575563
20
49.6894948
11
6.8576563
21
49.6894948
0
LINE
8
DEFAULT_255_2_778
10
6.8576563
20
49.6894948
11
6.8576563
21
48.7144948
0
LINE
8
DEFAULT_255_2_778
10
6.8576563
20
48.7144948
11
6.1575563
21
48.7144948
0
LINE
8
DEFAULT_255_2_778
10
6.1575563
20
48.7144948
11
6.1575563
21
49.6894948
0
LINE
8
DEFAULT_255_2_778
10
6.1575563
20
51.1893948
11
6.8576563
21
51.1893948
0
LINE
8
DEFAULT_255_2_778
10
6.8576563
20
51.1893948
11
6.8576563
21
50.2143948
0
LINE
8
DEFAULT_255_2_778
10
6.8576563
20
50.2143948
11
6.1575563
21
50.2143948
0
LINE
8
DEFAULT_255_2_778
10
6.1575563
20
50.2143948
11
6.1575563
21
51.1893948
0
LINE
8
DEFAULT_255_2_778
10
6.1575563
20
52.6893948
11
6.8576563
21
52.6893948
0
LINE
8
DEFAULT_255_2_778
10
6.8576563
20
52.6893948
11
6.8576563
21
51.7143948
0
LINE
8
DEFAULT_255_2_778
10
6.8576563
20
51.7143948
11
6.1575563
21
51.7143948
0
LINE
8
DEFAULT_255_2_778
10
6.1575563
20
51.7143948
11
6.1575563
21
52.6893948
0
LINE
8
DEFAULT_255_2_778
10
6.1575563
20
54.1892948
11
6.8576563
21
54.1892948
0
LINE
8
DEFAULT_255_2_778
10
6.8576563
20
54.1892948
11
6.8576563
21
53.2142948
0
LINE
8
DEFAULT_255_2_778
10
6.8576563
20
53.2142948
11
6.1575563
21
53.2142948
0
LINE
8
DEFAULT_255_2_778
10
6.1575563
20
53.2142948
11
6.1575563
21
54.1892948
0
LINE
8
DEFAULT_255_2_778
10
6.1575563
20
55.6894948
11
6.8576563
21
55.6894948
0
LINE
8
DEFAULT_255_2_778
10
6.8576563
20
55.6894948
11
6.8576563
21
54.7144948
0
LINE
8
DEFAULT_255_2_778
10
6.8576563
20
54.7144948
11
6.1575563
21
54.7144948
0
LINE
8
DEFAULT_255_2_778
10
6.1575563
20
54.7144948
11
6.1575563
21
55.6894948
0
LINE
8
DEFAULT_255_2_778
10
6.1575563
20
57.1893948
11
6.8576563
21
57.1893948
0
LINE
8
DEFAULT_255_2_778
10
6.8576563
20
57.1893948
11
6.8576563
21
56.2143948
0
LINE
8
DEFAULT_255_2_778
10
6.8576563
20
56.2143948
11
6.1575563
21
56.2143948
0
LINE
8
DEFAULT_255_2_778
10
6.1575563
20
56.2143948
11
6.1575563
21
57.1893948
0
LINE
8
DEFAULT_255_2_778
10
6.1575563
20
58.6892948
11
6.8576563
21
58.6892948
0
LINE
8
DEFAULT_255_2_778
10
6.8576563
20
58.6892948
11
6.8576563
21
57.7142948
0
LINE
8
DEFAULT_255_2_778
10
6.8576563
20
57.7142948
11
6.1575563
21
57.7142948
0
LINE
8
DEFAULT_255_2_778
10
6.1575563
20
57.7142948
11
6.1575563
21
58.6892948
0
LINE
8
DEFAULT_255_2_778
10
4.3575563
20
49.6894948
11
5.0576563
21
49.6894948
0
LINE
8
DEFAULT_255_2_778
10
5.0576563
20
49.6894948
11
5.0576563
21
48.7144948
0
LINE
8
DEFAULT_255_2_778
10
5.0576563
20
48.7144948
11
4.3575563
21
48.7144948
0
LINE
8
DEFAULT_255_2_778
10
4.3575563
20
48.7144948
11
4.3575563
21
49.6894948
0
LINE
8
DEFAULT_255_2_778
10
4.3575563
20
51.1893948
11
5.0576563
21
51.1893948
0
LINE
8
DEFAULT_255_2_778
10
5.0576563
20
51.1893948
11
5.0576563
21
50.2143948
0
LINE
8
DEFAULT_255_2_778
10
5.0576563
20
50.2143948
11
4.3575563
21
50.2143948
0
LINE
8
DEFAULT_255_2_778
10
4.3575563
20
50.2143948
11
4.3575563
21
51.1893948
0
LINE
8
DEFAULT_255_2_778
10
4.3575563
20
52.6893948
11
5.0576563
21
52.6893948
0
LINE
8
DEFAULT_255_2_778
10
5.0576563
20
52.6893948
11
5.0576563
21
51.7143948
0
LINE
8
DEFAULT_255_2_778
10
5.0576563
20
51.7143948
11
4.3575563
21
51.7143948
0
LINE
8
DEFAULT_255_2_778
10
4.3575563
20
51.7143948
11
4.3575563
21
52.6893948
0
LINE
8
DEFAULT_255_2_778
10
4.3575563
20
54.1892948
11
5.0576563
21
54.1892948
0
LINE
8
DEFAULT_255_2_778
10
5.0576563
20
54.1892948
11
5.0576563
21
53.2142948
0
LINE
8
DEFAULT_255_2_778
10
5.0576563
20
53.2142948
11
4.3575563
21
53.2142948
0
LINE
8
DEFAULT_255_2_778
10
4.3575563
20
53.2142948
11
4.3575563
21
54.1892948
0
LINE
8
DEFAULT_255_2_778
10
4.3575563
20
55.6894948
11
5.0576563
21
55.6894948
0
LINE
8
DEFAULT_255_2_778
10
5.0576563
20
55.6894948
11
5.0576563
21
54.7144948
0
LINE
8
DEFAULT_255_2_778
10
5.0576563
20
54.7144948
11
4.3575563
21
54.7144948
0
LINE
8
DEFAULT_255_2_778
10
4.3575563
20
54.7144948
11
4.3575563
21
55.6894948
0
LINE
8
DEFAULT_255_2_778
10
4.3575563
20
57.1893948
11
5.0576563
21
57.1893948
0
LINE
8
DEFAULT_255_2_778
10
5.0576563
20
57.1893948
11
5.0576563
21
56.2143948
0
LINE
8
DEFAULT_255_2_778
10
5.0576563
20
56.2143948
11
4.3575563
21
56.2143948
0
LINE
8
DEFAULT_255_2_778
10
4.3575563
20
56.2143948
11
4.3575563
21
57.1893948
0
LINE
8
DEFAULT_255_2_778
10
4.3575563
20
58.6892948
11
5.0576563
21
58.6892948
0
LINE
8
DEFAULT_255_2_778
10
5.0576563
20
58.6892948
11
5.0576563
21
57.7142948
0
LINE
8
DEFAULT_255_2_778
10
5.0576563
20
57.7142948
11
4.3575563
21
57.7142948
0
LINE
8
DEFAULT_255_2_778
10
4.3575563
20
57.7142948
11
4.3575563
21
58.6892948
0
LINE
8
DEFAULT_255_2_778
10
6.1575563
20
42.1893948
11
6.8576563
21
42.1893948
0
LINE
8
DEFAULT_255_2_778
10
6.8576563
20
42.1893948
11
6.8576563
21
41.2143948
0
LINE
8
DEFAULT_255_2_778
10
6.8576563
20
41.2143948
11
6.1575563
21
41.2143948
0
LINE
8
DEFAULT_255_2_778
10
6.1575563
20
41.2143948
11
6.1575563
21
42.1893948
0
LINE
8
DEFAULT_255_2_778
10
6.1575563
20
43.6892948
11
6.8576563
21
43.6892948
0
LINE
8
DEFAULT_255_2_778
10
6.8576563
20
43.6892948
11
6.8576563
21
42.7142948
0
LINE
8
DEFAULT_255_2_778
10
6.8576563
20
42.7142948
11
6.1575563
21
42.7142948
0
LINE
8
DEFAULT_255_2_778
10
6.1575563
20
42.7142948
11
6.1575563
21
43.6892948
0
LINE
8
DEFAULT_255_2_778
10
6.1575563
20
45.1894948
11
6.8576563
21
45.1894948
0
LINE
8
DEFAULT_255_2_778
10
6.8576563
20
45.1894948
11
6.8576563
21
44.2144948
0
LINE
8
DEFAULT_255_2_778
10
6.8576563
20
44.2144948
11
6.1575563
21
44.2144948
0
LINE
8
DEFAULT_255_2_778
10
6.1575563
20
44.2144948
11
6.1575563
21
45.1894948
0
LINE
8
DEFAULT_255_2_778
10
6.1575563
20
46.6893948
11
6.8576563
21
46.6893948
0
LINE
8
DEFAULT_255_2_778
10
6.8576563
20
46.6893948
11
6.8576563
21
45.7143948
0
LINE
8
DEFAULT_255_2_778
10
6.8576563
20
45.7143948
11
6.1575563
21
45.7143948
0
LINE
8
DEFAULT_255_2_778
10
6.1575563
20
45.7143948
11
6.1575563
21
46.6893948
0
LINE
8
DEFAULT_255_2_778
10
6.1575563
20
48.1892948
11
6.8576563
21
48.1892948
0
LINE
8
DEFAULT_255_2_778
10
6.8576563
20
48.1892948
11
6.8576563
21
47.2142948
0
LINE
8
DEFAULT_255_2_778
10
6.8576563
20
47.2142948
11
6.1575563
21
47.2142948
0
LINE
8
DEFAULT_255_2_778
10
6.1575563
20
47.2142948
11
6.1575563
21
48.1892948
0
LINE
8
DEFAULT_255_2_778
10
4.3575563
20
42.1893948
11
5.0576563
21
42.1893948
0
LINE
8
DEFAULT_255_2_778
10
5.0576563
20
42.1893948
11
5.0576563
21
41.2143948
0
LINE
8
DEFAULT_255_2_778
10
5.0576563
20
41.2143948
11
4.3575563
21
41.2143948
0
LINE
8
DEFAULT_255_2_778
10
4.3575563
20
41.2143948
11
4.3575563
21
42.1893948
0
LINE
8
DEFAULT_255_2_778
10
4.3575563
20
43.6892948
11
5.0576563
21
43.6892948
0
LINE
8
DEFAULT_255_2_778
10
5.0576563
20
43.6892948
11
5.0576563
21
42.7142948
0
LINE
8
DEFAULT_255_2_778
10
5.0576563
20
42.7142948
11
4.3575563
21
42.7142948
0
LINE
8
DEFAULT_255_2_778
10
4.3575563
20
42.7142948
11
4.3575563
21
43.6892948
0
LINE
8
DEFAULT_255_2_778
10
4.3575563
20
45.1894948
11
5.0576563
21
45.1894948
0
LINE
8
DEFAULT_255_2_778
10
5.0576563
20
45.1894948
11
5.0576563
21
44.2144948
0
LINE
8
DEFAULT_255_2_778
10
5.0576563
20
44.2144948
11
4.3575563
21
44.2144948
0
LINE
8
DEFAULT_255_2_778
10
4.3575563
20
44.2144948
11
4.3575563
21
45.1894948
0
LINE
8
DEFAULT_255_2_778
10
4.3575563
20
46.6893948
11
5.0576563
21
46.6893948
0
LINE
8
DEFAULT_255_2_778
10
5.0576563
20
46.6893948
11
5.0576563
21
45.7143948
0
LINE
8
DEFAULT_255_2_778
10
5.0576563
20
45.7143948
11
4.3575563
21
45.7143948
0
LINE
8
DEFAULT_255_2_778
10
4.3575563
20
45.7143948
11
4.3575563
21
46.6893948
0
LINE
8
DEFAULT_255_2_778
10
4.3575563
20
48.1892948
11
5.0576563
21
48.1892948
0
LINE
8
DEFAULT_255_2_778
10
5.0576563
20
48.1892948
11
5.0576563
21
47.2142948
0
LINE
8
DEFAULT_255_2_778
10
5.0576563
20
47.2142948
11
4.3575563
21
47.2142948
0
LINE
8
DEFAULT_255_2_778
10
4.3575563
20
47.2142948
11
4.3575563
21
48.1892948
0
LINE
8
DEFAULT_255_2_778
10
6.3824574
20
106.3994797
11
7.5823574
21
106.3994797
0
LINE
8
DEFAULT_255_2_778
10
7.5823574
20
106.3994797
11
7.5823574
21
96.4542797
0
LINE
8
DEFAULT_255_2_778
10
7.5823574
20
96.4542797
11
6.3824574
21
96.4542797
0
LINE
8
DEFAULT_255_2_778
10
6.3824574
20
96.4542797
11
6.3824574
21
106.3994797
0
LINE
8
DEFAULT_255_2_778
10
11.8323574
20
93.7100797
11
9.8323574
21
93.7100797
0
LINE
8
DEFAULT_255_2_778
10
9.8323574
20
93.7100797
11
9.8323574
21
96.4519797
0
LINE
8
DEFAULT_255_2_778
10
9.8323574
20
96.4519797
11
10.2824574
21
96.4519797
0
LINE
8
DEFAULT_255_2_778
10
10.2824574
20
96.4519797
11
10.2824574
21
115.1518797
0
LINE
8
DEFAULT_255_2_778
10
10.2824574
20
115.1518797
11
9.8323574
21
115.1518797
0
LINE
8
DEFAULT_255_2_778
10
9.8323574
20
115.1518797
11
9.8323574
21
117.8937797
0
LINE
8
DEFAULT_255_2_778
10
9.8323574
20
117.8937797
11
12.3247574
21
117.8937797
0
LINE
8
DEFAULT_255_2_778
10
6.3824574
20
115.1518797
11
7.5823574
21
115.1518797
0
LINE
8
DEFAULT_255_2_778
10
7.5823574
20
115.1518797
11
7.5823574
21
107.3043797
0
LINE
8
DEFAULT_255_2_778
10
7.5823574
20
107.3043797
11
6.3824574
21
107.3043797
0
LINE
8
DEFAULT_255_2_778
10
6.3824574
20
107.3043797
11
6.3824574
21
115.1518797
0
LINE
8
DEFAULT_255_2_778
10
13.5248574
20
134.0619797
11
13.5248574
21
134.1775797
0
LINE
8
DEFAULT_255_2_778
10
12.3247574
20
134.8683797
11
12.3247574
21
20.6651797
0
LINE
8
DEFAULT_255_2_778
10
14.6247574
20
114.6951797
11
16.6247574
21
114.6951797
0
LINE
8
DEFAULT_255_2_778
10
16.6247574
20
114.6951797
11
16.6247574
21
111.9631797
0
LINE
8
DEFAULT_255_2_778
10
16.6247574
20
111.9631797
11
14.6247574
21
111.9631797
0
LINE
8
DEFAULT_255_2_778
10
14.6247574
20
111.9631797
11
14.6247574
21
114.6951797
0
ARC
8
DEFAULT_255_2_778
10
12.431699
20
114.8532544
40
1.0276293
50
95.967058
51
143.8278035
0
ARC
8
DEFAULT_255_2_778
10
12.4293856
20
114.8528262
40
1.0260158
50
143.7322547
51
180.0508405
0
ARC
8
DEFAULT_255_2_778
10
12.431112
20
109.3514688
40
1.0277421
50
179.9695046
51
227.6636364
0
ARC
8
DEFAULT_255_2_778
10
12.4310623
20
109.3489601
40
1.0258555
50
227.5713254
51
264.0583405
0
LINE
8
DEFAULT_255_2_778
10
11.4033701
20
114.8519158
11
11.4033701
21
109.3520158
0
LINE
8
DEFAULT_255_2_778
10
14.2661701
20
-0.1738842
11
14.2661701
21
-0.1854842
0
LINE
8
DEFAULT_255_2_778
10
14.5595701
20
-0.1098842
11
16.7246701
21
-0.1098842
0
LINE
8
DEFAULT_255_2_778
10
16.7246701
20
-0.1098842
11
16.7246701
21
4.4860158
0
LINE
8
DEFAULT_255_2_778
10
16.7246701
20
4.4860158
11
14.5595701
21
4.4860158
0
LINE
8
DEFAULT_255_2_778
10
31.2246701
20
136.6313158
11
31.2246701
21
136.2635158
0
LINE
8
DEFAULT_255_2_778
10
28.2247701
20
136.6313158
11
28.2247701
21
136.2635158
0
LINE
8
DEFAULT_255_2_778
10
12.7572701
20
21.0639158
11
14.0851701
21
21.8503158
0
LINE
8
DEFAULT_255_2_778
10
14.0851701
20
21.8503158
11
16.7249701
21
23.3989158
0
LINE
8
DEFAULT_255_2_778
10
14.6247536
20
27.2682016
11
16.6247536
21
27.2682016
0
LINE
8
DEFAULT_255_2_778
10
16.6247536
20
27.2682016
11
16.6247536
21
24.5644016
0
LINE
8
DEFAULT_255_2_778
10
16.6247536
20
24.5644016
11
14.6247536
21
24.5644016
0
LINE
8
DEFAULT_255_2_778
10
14.6247536
20
24.5644016
11
14.6247536
21
27.2682016
0
LINE
8
DEFAULT_255_2_778
10
44.8248536
20
130.9007016
11
42.8248536
21
130.9007016
0
LINE
8
DEFAULT_255_2_778
10
42.8248536
20
130.9007016
11
42.8248536
21
128.1631016
0
LINE
8
DEFAULT_255_2_778
10
42.8248536
20
128.1631016
11
44.8248536
21
128.1631016
0
LINE
8
DEFAULT_255_2_778
10
44.8248536
20
128.1631016
11
44.8248536
21
130.9007016
0
LINE
8
DEFAULT_255_2_778
10
42.7248536
20
132.2144016
11
46.6747536
21
134.4948016
0
LINE
8
DEFAULT_255_2_778
10
46.6747536
20
134.4948016
11
47.1248536
21
134.4948016
0
LINE
8
DEFAULT_255_2_778
10
45.9249609
20
134.0619555
11
45.9249609
21
134.1775555
0
LINE
8
DEFAULT_255_2_778
10
47.1248609
20
134.8683555
11
47.1248609
21
20.6651555
0
LINE
8
DEFAULT_255_2_778
10
44.8248609
20
66.0801555
11
42.8248609
21
66.0801555
0
LINE
8
DEFAULT_255_2_778
10
42.8248609
20
66.0801555
11
42.8248609
21
63.3639555
0
LINE
8
DEFAULT_255_2_778
10
42.8248609
20
63.3639555
11
44.8248609
21
63.3639555
0
LINE
8
DEFAULT_255_2_778
10
44.8248609
20
63.3639555
11
44.8248609
21
66.0801555
0
LINE
8
DEFAULT_255_2_778
10
44.8248609
20
71.4815555
11
42.8248609
21
71.4815555
0
LINE
8
DEFAULT_255_2_778
10
42.8248609
20
71.4815555
11
42.8248609
21
68.7640555
0
LINE
8
DEFAULT_255_2_778
10
42.8248609
20
68.7640555
11
44.8248609
21
68.7640555
0
LINE
8
DEFAULT_255_2_778
10
44.8248609
20
68.7640555
11
44.8248609
21
71.4815555
0
LINE
8
DEFAULT_255_2_778
10
14.4916609
20
3.6093555
11
12.6247609
21
3.6093555
0
LINE
8
DEFAULT_255_2_778
10
14.4916609
20
3.0230555
11
12.6247609
21
3.0230555
0
LINE
8
DEFAULT_255_2_778
10
20.6246609
20
3.8144555
11
38.8245609
21
3.8144555
0
LINE
8
DEFAULT_255_2_778
10
30.4745566
20
3.8144582
11
30.4745566
21
3.4101582
0
LINE
8
DEFAULT_255_2_778
10
30.4745566
20
3.4101582
11
28.9746566
21
3.4101582
0
LINE
8
DEFAULT_255_2_778
10
28.9746566
20
3.4101582
11
28.9746566
21
3.8144582
0
LINE
8
DEFAULT_255_2_778
10
16.7246566
20
4.4788582
11
14.5246566
21
4.4788582
0
LINE
8
DEFAULT_255_2_778
10
16.7246566
20
4.4142582
11
14.5246566
21
4.4142582
0
LINE
8
DEFAULT_255_2_778
10
16.7246566
20
4.2772582
11
14.5246566
21
4.2772582
0
LINE
8
DEFAULT_255_2_778
10
16.7246566
20
3.4527582
11
14.5246566
21
3.4527582
0
LINE
8
DEFAULT_255_2_778
10
16.7246566
20
0.7876582
11
14.5246566
21
0.7876582
0
LINE
8
DEFAULT_255_2_778
10
16.7246566
20
0.4209582
11
14.5246566
21
0.4209582
0
LINE
8
DEFAULT_255_2_778
10
14.5246566
20
4.5150582
11
16.7246566
21
4.5150582
0
LINE
8
DEFAULT_255_2_778
10
16.7246566
20
4.5150582
11
16.7246566
21
4.9064582
0
LINE
8
DEFAULT_255_2_778
10
34.1636566
20
4.0811582
11
34.9065566
21
4.2809582
0
LINE
8
DEFAULT_255_2_778
10
34.9065566
20
4.2809582
11
35.8693566
21
4.5598582
0
LINE
8
DEFAULT_255_2_778
10
35.8693566
20
4.5598582
11
36.8057566
21
4.9167582
0
LINE
8
DEFAULT_255_2_778
10
36.8057566
20
4.9167582
11
37.7090566
21
5.3490582
0
LINE
8
DEFAULT_255_2_778
10
37.7090566
20
5.3490582
11
38.5734566
21
5.8538582
0
LINE
8
DEFAULT_255_2_778
10
37.8246566
20
7.8144582
11
37.8246566
21
5.8541582
0
LINE
8
DEFAULT_255_2_778
10
37.8246566
20
5.8541582
11
38.8247566
21
5.8541582
0
LINE
8
DEFAULT_255_2_778
10
38.9747566
20
5.8647582
11
40.6247566
21
5.8647582
0
LINE
8
DEFAULT_255_2_778
10
38.9748387
20
7.8149343
11
38.9748387
21
5.6474343
0
LINE
8
DEFAULT_255_2_778
10
38.9748387
20
5.6474343
11
40.6247387
21
5.6474343
0
LINE
8
DEFAULT_255_2_778
10
40.6247387
20
5.6474343
11
40.6247387
21
7.8149343
0
LINE
8
DEFAULT_255_2_778
10
44.9247387
20
6.6129343
11
46.8247387
21
6.6129343
0
LINE
8
DEFAULT_255_2_778
10
44.9247387
20
5.7967343
11
46.8247387
21
5.7967343
0
LINE
8
DEFAULT_255_2_778
10
44.9247387
20
3.6093343
11
46.8247387
21
3.6093343
0
LINE
8
DEFAULT_255_2_778
10
44.9247387
20
3.0230343
11
46.8247387
21
3.0230343
0
LINE
8
DEFAULT_255_2_778
10
44.9247387
20
4.5153343
11
42.7247387
21
4.5153343
0
LINE
8
DEFAULT_255_2_778
10
42.7247387
20
4.5153343
11
42.7247387
21
7.8144343
0
LINE
8
DEFAULT_255_2_778
10
42.7247948
20
6.7158832
11
44.9247948
21
6.7158832
0
LINE
8
DEFAULT_255_2_778
10
42.7247948
20
4.4787832
11
44.9247948
21
4.4787832
0
LINE
8
DEFAULT_255_2_778
10
42.7247948
20
4.4142832
11
44.9247948
21
4.4142832
0
LINE
8
DEFAULT_255_2_778
10
42.7247948
20
4.2771832
11
44.9247948
21
4.2771832
0
LINE
8
DEFAULT_255_2_778
10
42.7247948
20
3.4527832
11
44.9247948
21
3.4527832
0
LINE
8
DEFAULT_255_2_778
10
42.7247948
20
0.7875832
11
44.9247948
21
0.7875832
0
LINE
8
DEFAULT_255_2_778
10
42.7247948
20
0.4208832
11
44.9247948
21
0.4208832
0
LINE
8
DEFAULT_255_2_778
10
44.9247948
20
-0.1100889
11
42.7247948
21
-0.1100889
0
LINE
8
DEFAULT_255_2_778
10
42.7247948
20
-0.1100889
11
42.7247948
21
4.4857111
0
LINE
8
DEFAULT_255_2_778
10
42.7247948
20
4.4857111
11
44.9247948
21
4.4857111
0
LINE
8
DEFAULT_255_2_778
10
42.8247948
20
24.5673111
11
44.8247948
21
24.5673111
0
LINE
8
DEFAULT_255_2_778
10
44.824765
20
27.268253
11
42.824765
21
27.268253
0
LINE
8
DEFAULT_255_2_778
10
42.824765
20
27.268253
11
42.824765
21
24.564453
0
LINE
8
DEFAULT_255_2_778
10
42.824765
20
24.564453
11
44.824765
21
24.564453
0
LINE
8
DEFAULT_255_2_778
10
44.824765
20
24.564453
11
44.824765
21
27.268253
0
LINE
8
DEFAULT_255_2_778
10
16.624665
20
30.469153
11
14.624665
21
30.469153
0
LINE
8
DEFAULT_255_2_778
10
14.624665
20
33.1700145
11
16.624665
21
33.1700145
0
LINE
8
DEFAULT_255_2_778
10
16.624665
20
33.1700145
11
16.624665
21
30.4644145
0
LINE
8
DEFAULT_255_2_778
10
16.624665
20
30.4644145
11
14.624665
21
30.4644145
0
LINE
8
DEFAULT_255_2_778
10
14.624665
20
30.4644145
11
14.624665
21
33.1700145
0
LINE
8
DEFAULT_255_2_778
10
42.824765
20
30.4691145
11
44.824765
21
30.4691145
0
LINE
8
DEFAULT_255_2_778
10
44.824765
20
33.1699468
11
42.824765
21
33.1699468
0
LINE
8
DEFAULT_255_2_778
10
42.824765
20
33.1699468
11
42.824765
21
30.4643468
0
LINE
8
DEFAULT_255_2_778
10
42.824765
20
30.4643468
11
44.824765
21
30.4643468
0
LINE
8
DEFAULT_255_2_778
10
44.824765
20
30.4643468
11
44.824765
21
33.1699468
0
LINE
8
DEFAULT_255_2_778
10
16.624665
20
36.3706468
11
14.624665
21
36.3706468
0
LINE
8
DEFAULT_255_2_778
10
14.624665
20
39.0717406
11
16.624665
21
39.0717406
0
LINE
8
DEFAULT_255_2_778
10
16.624665
20
39.0717406
11
16.624665
21
36.3642406
0
LINE
8
DEFAULT_255_2_778
10
16.624665
20
36.3642406
11
14.624665
21
36.3642406
0
LINE
8
DEFAULT_255_2_778
10
14.624665
20
36.3642406
11
14.624665
21
39.0717406
0
LINE
8
DEFAULT_255_2_778
10
42.824765
20
36.3706406
11
44.824765
21
36.3706406
0
LINE
8
DEFAULT_255_2_778
10
44.8247277
20
39.0717406
11
42.8248277
21
39.0717406
0
LINE
8
DEFAULT_255_2_778
10
42.8248277
20
39.0717406
11
42.8248277
21
36.3642406
0
LINE
8
DEFAULT_255_2_778
10
42.8248277
20
36.3642406
11
44.8247277
21
36.3642406
0
LINE
8
DEFAULT_255_2_778
10
44.8247277
20
36.3642406
11
44.8247277
21
39.0717406
0
LINE
8
DEFAULT_255_2_778
10
9.1830277
20
36.8018406
11
0.2324277
21
36.8018406
0
LINE
8
DEFAULT_255_2_778
10
12.3249277
20
36.7426406
11
0.2324277
21
36.7426406
0
LINE
8
DEFAULT_255_2_778
10
9.1830277
20
38.2018406
11
11.8323277
21
38.2018406
0
LINE
8
DEFAULT_255_2_778
10
11.8323647
20
36.7958739
11
9.1830647
21
36.7958739
0
LINE
8
DEFAULT_255_2_778
10
9.1830647
20
36.7958739
11
9.1830647
21
39.7874739
0
LINE
8
DEFAULT_255_2_778
10
9.1830647
20
39.7874739
11
11.8323647
21
39.7874739
0
LINE
8
DEFAULT_255_2_778
10
16.6247647
20
41.7723739
11
14.6247647
21
41.7723739
0
LINE
8
DEFAULT_255_2_778
10
14.624665
20
44.4735343
11
16.624665
21
44.4735343
0
LINE
8
DEFAULT_255_2_778
10
16.624665
20
44.4735343
11
16.624665
21
41.7644343
0
LINE
8
DEFAULT_255_2_778
10
16.624665
20
41.7644343
11
14.624665
21
41.7644343
0
LINE
8
DEFAULT_255_2_778
10
14.624665
20
41.7644343
11
14.624665
21
44.4735343
0
LINE
8
DEFAULT_255_2_778
10
42.824765
20
41.7724343
11
44.824765
21
41.7724343
0
LINE
8
DEFAULT_255_2_778
10
44.824765
20
44.473503
11
42.824765
21
44.473503
0
LINE
8
DEFAULT_255_2_778
10
42.824765
20
44.473503
11
42.824765
21
41.764403
0
LINE
8
DEFAULT_255_2_778
10
42.824765
20
41.764403
11
44.824765
21
41.764403
0
LINE
8
DEFAULT_255_2_778
10
44.824765
20
41.764403
11
44.824765
21
44.473503
0
LINE
8
DEFAULT_255_2_778
10
16.624665
20
47.173803
11
14.624665
21
47.173803
0
LINE
8
DEFAULT_255_2_778
10
14.624665
20
49.8749604
11
16.624665
21
49.8749604
0
LINE
8
DEFAULT_255_2_778
10
16.624665
20
49.8749604
11
16.624665
21
47.1640604
0
LINE
8
DEFAULT_255_2_778
10
16.624665
20
47.1640604
11
14.624665
21
47.1640604
0
LINE
8
DEFAULT_255_2_778
10
14.624665
20
47.1640604
11
14.624665
21
49.8749604
0
LINE
8
DEFAULT_255_2_778
10
42.824765
20
47.1738604
11
44.824765
21
47.1738604
0
LINE
8
DEFAULT_255_2_778
10
44.824765
20
49.8749614
11
42.824765
21
49.8749614
0
LINE
8
DEFAULT_255_2_778
10
42.824765
20
49.8749614
11
42.824765
21
47.1640614
0
LINE
8
DEFAULT_255_2_778
10
42.824765
20
47.1640614
11
44.824765
21
47.1640614
0
LINE
8
DEFAULT_255_2_778
10
44.824765
20
47.1640614
11
44.824765
21
49.8749614
0
LINE
8
DEFAULT_255_2_778
10
16.624665
20
52.5755614
11
14.624665
21
52.5755614
0
LINE
8
DEFAULT_255_2_778
10
14.624665
20
55.2767541
11
16.624665
21
55.2767541
0
LINE
8
DEFAULT_255_2_778
10
16.624665
20
55.2767541
11
16.624665
21
52.5642541
0
LINE
8
DEFAULT_255_2_778
10
16.624665
20
52.5642541
11
14.624665
21
52.5642541
0
LINE
8
DEFAULT_255_2_778
10
14.624665
20
52.5642541
11
14.624665
21
55.2767541
0
LINE
8
DEFAULT_255_2_778
10
42.824765
20
52.5756541
11
44.824765
21
52.5756541
0
LINE
8
DEFAULT_255_2_778
10
44.824765
20
55.2767228
11
42.824765
21
55.2767228
0
LINE
8
DEFAULT_255_2_778
10
42.824765
20
55.2767228
11
42.824765
21
52.5642228
0
LINE
8
DEFAULT_255_2_778
10
42.824765
20
52.5642228
11
44.824765
21
52.5642228
0
LINE
8
DEFAULT_255_2_778
10
44.824765
20
52.5642228
11
44.824765
21
55.2767228
0
LINE
8
DEFAULT_255_2_778
10
16.624665
20
57.9770228
11
14.624665
21
57.9770228
0
LINE
8
DEFAULT_255_2_778
10
14.6247073
20
60.6784166
11
16.6247073
21
60.6784166
0
LINE
8
DEFAULT_255_2_778
10
16.6247073
20
60.6784166
11
16.6247073
21
57.9641166
0
LINE
8
DEFAULT_255_2_778
10
16.6247073
20
57.9641166
11
14.6247073
21
57.9641166
0
LINE
8
DEFAULT_255_2_778
10
14.6247073
20
57.9641166
11
14.6247073
21
60.6784166
0
LINE
8
DEFAULT_255_2_778
10
16.6247073
20
63.3785166
11
14.6247073
21
63.3785166
0
LINE
8
DEFAULT_255_2_778
10
14.624665
20
66.0801645
11
16.624665
21
66.0801645
0
LINE
8
DEFAULT_255_2_778
10
16.624665
20
66.0801645
11
16.624665
21
63.3639645
0
LINE
8
DEFAULT_255_2_778
10
16.624665
20
63.3639645
11
14.624665
21
63.3639645
0
LINE
8
DEFAULT_255_2_778
10
14.624665
20
63.3639645
11
14.624665
21
66.0801645
0
LINE
8
DEFAULT_255_2_778
10
42.824765
20
63.3784645
11
44.824765
21
63.3784645
0
LINE
8
DEFAULT_255_2_778
10
42.824765
20
57.9770645
11
44.824765
21
57.9770645
0
LINE
8
DEFAULT_255_2_778
10
44.824765
20
60.6784832
11
42.824765
21
60.6784832
0
LINE
8
DEFAULT_255_2_778
10
42.824765
20
60.6784832
11
42.824765
21
57.9640832
0
LINE
8
DEFAULT_255_2_778
10
42.824765
20
57.9640832
11
44.824765
21
57.9640832
0
LINE
8
DEFAULT_255_2_778
10
44.824765
20
57.9640832
11
44.824765
21
60.6784832
0
LINE
8
DEFAULT_255_2_778
10
16.624665
20
68.7802832
11
14.624665
21
68.7802832
0
LINE
8
DEFAULT_255_2_778
10
14.6246918
20
71.4816041
11
16.6246918
21
71.4816041
0
LINE
8
DEFAULT_255_2_778
10
16.6246918
20
71.4816041
11
16.6246918
21
68.7641041
0
LINE
8
DEFAULT_255_2_778
10
16.6246918
20
68.7641041
11
14.6246918
21
68.7641041
0
LINE
8
DEFAULT_255_2_778
10
14.6246918
20
68.7641041
11
14.6246918
21
71.4816041
0
LINE
8
DEFAULT_255_2_778
10
4.6972918
20
73.9306041
11
6.5673918
21
73.9306041
0
LINE
8
DEFAULT_255_2_778
10
4.6972918
20
73.2538041
11
6.5673918
21
73.2538041
0
LINE
8
DEFAULT_255_2_778
10
4.6972918
20
73.1019041
11
6.5673918
21
73.1019041
0
LINE
8
DEFAULT_255_2_778
10
16.6246918
20
74.1817041
11
14.6246918
21
74.1817041
0
LINE
8
DEFAULT_255_2_778
10
14.624665
20
76.8833937
11
16.624665
21
76.8833937
0
LINE
8
DEFAULT_255_2_778
10
16.624665
20
76.8833937
11
16.624665
21
74.1639937
0
LINE
8
DEFAULT_255_2_778
10
16.624665
20
74.1639937
11
14.624665
21
74.1639937
0
LINE
8
DEFAULT_255_2_778
10
14.624665
20
74.1639937
11
14.624665
21
76.8833937
0
LINE
8
DEFAULT_255_2_778
10
42.824765
20
74.1816937
11
44.824765
21
74.1816937
0
LINE
8
DEFAULT_255_2_778
10
44.8248193
20
76.883377
11
42.8248193
21
76.883377
0
LINE
8
DEFAULT_255_2_778
10
42.8248193
20
76.883377
11
42.8248193
21
74.163977
0
LINE
8
DEFAULT_255_2_778
10
42.8248193
20
74.163977
11
44.8248193
21
74.163977
0
LINE
8
DEFAULT_255_2_778
10
44.8248193
20
74.163977
11
44.8248193
21
76.883377
0
LINE
8
DEFAULT_255_2_778
10
11.8323193
20
72.216077
11
9.1830193
21
72.216077
0
LINE
8
DEFAULT_255_2_778
10
9.1830193
20
72.216077
11
9.1830193
21
75.101677
0
LINE
8
DEFAULT_255_2_778
10
11.8325193
20
78.766677
11
6.5676193
21
78.766677
0
LINE
8
DEFAULT_255_2_778
10
6.5676193
20
78.766677
11
6.5676193
21
73.101977
0
LINE
8
DEFAULT_255_2_778
10
6.5676366
20
75.5239582
11
11.8325366
21
75.5239582
0
LINE
8
DEFAULT_255_2_778
10
6.5676366
20
75.1019582
11
11.8325366
21
75.1019582
0
LINE
8
DEFAULT_255_2_778
10
1.7048366
20
75.1019582
11
4.6972366
21
75.1019582
0
LINE
8
DEFAULT_255_2_778
10
0.2324366
20
78.7666582
11
4.6972366
21
78.7666582
0
LINE
8
DEFAULT_255_2_778
10
4.6972366
20
78.7666582
11
4.6972366
21
73.1019582
0
LINE
8
DEFAULT_255_2_778
10
8.5324366
20
71.2268582
11
2.6824366
21
71.2268582
0
LINE
8
DEFAULT_255_2_778
10
2.6824366
20
71.2268582
11
2.6824366
21
70.0269582
0
LINE
8
DEFAULT_255_2_778
10
2.6824366
20
70.0269582
11
8.5324366
21
70.0269582
0
LINE
8
DEFAULT_255_2_778
10
8.5324366
20
70.0269582
11
8.5324366
21
71.2268582
0
LINE
8
DEFAULT_255_2_778
10
0.23247
20
74.1544926
11
1.70487
21
74.1544926
0
LINE
8
DEFAULT_255_2_778
10
1.70487
20
74.1544926
11
1.70487
21
75.5239926
0
LINE
8
DEFAULT_255_2_778
10
1.70487
20
75.5239926
11
4.69727
21
75.5239926
0
LINE
8
DEFAULT_255_2_778
10
16.62477
20
79.5834926
11
14.62477
21
79.5834926
0
LINE
8
DEFAULT_255_2_778
10
14.624665
20
82.2851198
11
16.624665
21
82.2851198
0
LINE
8
DEFAULT_255_2_778
10
16.624665
20
82.2851198
11
16.624665
21
79.5639198
0
LINE
8
DEFAULT_255_2_778
10
16.624665
20
79.5639198
11
14.624665
21
79.5639198
0
LINE
8
DEFAULT_255_2_778
10
14.624665
20
79.5639198
11
14.624665
21
82.2851198
0
LINE
8
DEFAULT_255_2_778
10
42.824765
20
79.5834198
11
44.824765
21
79.5834198
0
LINE
8
DEFAULT_255_2_778
10
44.8248073
20
82.2851239
11
42.8248073
21
82.2851239
0
LINE
8
DEFAULT_255_2_778
10
42.8248073
20
82.2851239
11
42.8248073
21
79.5639239
0
LINE
8
DEFAULT_255_2_778
10
42.8248073
20
79.5639239
11
44.8248073
21
79.5639239
0
LINE
8
DEFAULT_255_2_778
10
44.8248073
20
79.5639239
11
44.8248073
21
82.2851239
0
LINE
8
DEFAULT_255_2_778
10
42.8248073
20
84.9849239
11
44.8248073
21
84.9849239
0
LINE
8
DEFAULT_255_2_778
10
44.824765
20
87.6868853
11
42.824765
21
87.6868853
0
LINE
8
DEFAULT_255_2_778
10
42.824765
20
87.6868853
11
42.824765
21
84.9639853
0
LINE
8
DEFAULT_255_2_778
10
42.824765
20
84.9639853
11
44.824765
21
84.9639853
0
LINE
8
DEFAULT_255_2_778
10
44.824765
20
84.9639853
11
44.824765
21
87.6868853
0
LINE
8
DEFAULT_255_2_778
10
16.624665
20
90.3863853
11
14.624665
21
90.3863853
0
LINE
8
DEFAULT_255_2_778
10
16.624665
20
84.9848853
11
14.624665
21
84.9848853
0
LINE
8
DEFAULT_255_2_778
10
14.624665
20
87.6868853
11
16.624665
21
87.6868853
0
LINE
8
DEFAULT_255_2_778
10
16.624665
20
87.6868853
11
16.624665
21
84.9639853
0
LINE
8
DEFAULT_255_2_778
10
16.624665
20
84.9639853
11
14.624665
21
84.9639853
0
LINE
8
DEFAULT_255_2_778
10
14.624665
20
84.9639853
11
14.624665
21
87.6868853
0
LINE
8
DEFAULT_255_2_778
10
42.824765
20
90.3863853
11
44.824765
21
90.3863853
0
LINE
8
DEFAULT_255_2_778
10
44.8247984
20
93.0886061
11
42.8247984
21
93.0886061
0
LINE
8
DEFAULT_255_2_778
10
42.8247984
20
93.0886061
11
42.8247984
21
90.3639061
0
LINE
8
DEFAULT_255_2_778
10
42.8247984
20
90.3639061
11
44.8247984
21
90.3639061
0
LINE
8
DEFAULT_255_2_778
10
44.8247984
20
90.3639061
11
44.8247984
21
93.0886061
0
LINE
8
DEFAULT_255_2_778
10
12.3249984
20
94.6734061
11
11.8325984
21
94.6734061
0
LINE
8
DEFAULT_255_2_778
10
12.3249984
20
94.2022061
11
11.8325984
21
94.2022061
0
LINE
8
DEFAULT_255_2_778
10
12.3249984
20
94.8020061
11
9.8325984
21
94.8020061
0
LINE
8
DEFAULT_255_2_778
10
14.6246984
20
93.0886061
11
16.6246984
21
93.0886061
0
LINE
8
DEFAULT_255_2_778
10
16.6246984
20
93.0886061
11
16.6246984
21
90.3639061
0
LINE
8
DEFAULT_255_2_778
10
16.6246984
20
90.3639061
11
14.6246984
21
90.3639061
0
LINE
8
DEFAULT_255_2_778
10
14.6246984
20
90.3639061
11
14.6246984
21
93.0886061
0
LINE
8
DEFAULT_255_2_778
10
14.6246984
20
98.4903061
11
16.6246984
21
98.4903061
0
LINE
8
DEFAULT_255_2_778
10
16.6246984
20
98.4903061
11
16.6246984
21
95.7638061
0
LINE
8
DEFAULT_255_2_778
10
16.6246984
20
95.7638061
11
14.6246984
21
95.7638061
0
LINE
8
DEFAULT_255_2_778
10
14.6246984
20
95.7638061
11
14.6246984
21
98.4903061
0
LINE
8
DEFAULT_255_2_778
10
11.8325277
20
94.8020679
11
11.8325277
21
36.7757679
0
LINE
8
DEFAULT_255_2_778
10
11.8325277
20
36.7757679
11
12.3249277
21
36.7757679
0
LINE
8
DEFAULT_255_2_778
10
3.5823277
20
94.8017679
11
0.2324277
21
94.8017679
0
LINE
8
DEFAULT_255_2_778
10
3.5823277
20
94.3194679
11
0.2324277
21
94.3194679
0
LINE
8
DEFAULT_255_2_778
10
42.8248277
20
95.7878679
11
44.8247277
21
95.7878679
0
LINE
8
DEFAULT_255_2_778
10
44.824765
20
98.4903728
11
42.824765
21
98.4903728
0
LINE
8
DEFAULT_255_2_778
10
42.824765
20
98.4903728
11
42.824765
21
95.7638728
0
LINE
8
DEFAULT_255_2_778
10
42.824765
20
95.7638728
11
44.824765
21
95.7638728
0
LINE
8
DEFAULT_255_2_778
10
44.824765
20
95.7638728
11
44.824765
21
98.4903728
0
LINE
8
DEFAULT_255_2_778
10
16.624665
20
101.1893728
11
14.624665
21
101.1893728
0
LINE
8
DEFAULT_255_2_778
10
14.624665
20
103.8917916
11
16.624665
21
103.8917916
0
LINE
8
DEFAULT_255_2_778
10
16.624665
20
103.8917916
11
16.624665
21
101.1633916
0
LINE
8
DEFAULT_255_2_778
10
16.624665
20
101.1633916
11
14.624665
21
101.1633916
0
LINE
8
DEFAULT_255_2_778
10
14.624665
20
101.1633916
11
14.624665
21
103.8917916
0
LINE
8
DEFAULT_255_2_778
10
42.824765
20
101.1892916
11
44.824765
21
101.1892916
0
LINE
8
DEFAULT_255_2_778
10
44.8248073
20
103.8917312
11
42.8248073
21
103.8917312
0
LINE
8
DEFAULT_255_2_778
10
42.8248073
20
103.8917312
11
42.8248073
21
101.1633312
0
LINE
8
DEFAULT_255_2_778
10
42.8248073
20
101.1633312
11
44.8248073
21
101.1633312
0
LINE
8
DEFAULT_255_2_778
10
44.8248073
20
101.1633312
11
44.8248073
21
103.8917312
0
LINE
8
DEFAULT_255_2_778
10
42.8248073
20
106.5910312
11
44.8248073
21
106.5910312
0
LINE
8
DEFAULT_255_2_778
10
44.8247536
20
109.2934663
11
42.8247536
21
109.2934663
0
LINE
8
DEFAULT_255_2_778
10
42.8247536
20
109.2934663
11
42.8247536
21
106.5632663
0
LINE
8
DEFAULT_255_2_778
10
42.8247536
20
106.5632663
11
44.8247536
21
106.5632663
0
LINE
8
DEFAULT_255_2_778
10
44.8247536
20
106.5632663
11
44.8247536
21
109.2934663
0
LINE
8
DEFAULT_255_2_778
10
12.3246536
20
134.4947663
11
12.7747536
21
134.4947663
0
LINE
8
DEFAULT_255_2_778
10
12.7747536
20
134.4947663
11
16.7246536
21
132.2143663
0
LINE
8
DEFAULT_255_2_778
10
14.6246536
20
130.9006663
11
16.6246536
21
130.9006663
0
LINE
8
DEFAULT_255_2_778
10
16.6246536
20
130.9006663
11
16.6246536
21
128.1630663
0
LINE
8
DEFAULT_255_2_778
10
16.6246536
20
128.1630663
11
14.6246536
21
128.1630663
0
LINE
8
DEFAULT_255_2_778
10
14.6246536
20
128.1630663
11
14.6246536
21
130.9006663
0
LINE
8
DEFAULT_255_2_778
10
16.6246536
20
111.9924663
11
14.6246536
21
111.9924663
0
LINE
8
DEFAULT_255_2_778
10
16.6246536
20
106.5909663
11
14.6246536
21
106.5909663
0
LINE
8
DEFAULT_255_2_778
10
14.624665
20
109.2935249
11
16.624665
21
109.2935249
0
LINE
8
DEFAULT_255_2_778
10
16.624665
20
109.2935249
11
16.624665
21
106.5633249
0
LINE
8
DEFAULT_255_2_778
10
16.624665
20
106.5633249
11
14.624665
21
106.5633249
0
LINE
8
DEFAULT_255_2_778
10
14.624665
20
106.5633249
11
14.624665
21
109.2935249
0
LINE
8
DEFAULT_255_2_778
10
42.824765
20
111.9925249
11
44.824765
21
111.9925249
0
LINE
8
DEFAULT_255_2_778
10
44.8247277
20
114.6953187
11
42.8248277
21
114.6953187
0
LINE
8
DEFAULT_255_2_778
10
42.8248277
20
114.6953187
11
42.8248277
21
111.9632187
0
LINE
8
DEFAULT_255_2_778
10
42.8248277
20
111.9632187
11
44.8247277
21
111.9632187
0
LINE
8
DEFAULT_255_2_778
10
44.8247277
20
111.9632187
11
44.8247277
21
114.6953187
0
LINE
8
DEFAULT_255_2_778
10
12.3247277
20
117.2845187
11
9.8323277
21
117.2845187
0
LINE
8
DEFAULT_255_2_778
10
12.3247277
20
116.8019187
11
9.8323277
21
116.8019187
0
LINE
8
DEFAULT_255_2_778
10
3.5823277
20
117.2845187
11
0.2324277
21
117.2845187
0
LINE
8
DEFAULT_255_2_778
10
3.5823277
20
116.8019187
11
0.2324277
21
116.8019187
0
LINE
8
DEFAULT_255_2_778
10
16.6247277
20
117.3940187
11
14.6247277
21
117.3940187
0
LINE
8
DEFAULT_255_2_778
10
14.624665
20
120.0969698
11
16.624665
21
120.0969698
0
LINE
8
DEFAULT_255_2_778
10
16.624665
20
120.0969698
11
16.624665
21
117.3630698
0
LINE
8
DEFAULT_255_2_778
10
16.624665
20
117.3630698
11
14.624665
21
117.3630698
0
LINE
8
DEFAULT_255_2_778
10
14.624665
20
117.3630698
11
14.624665
21
120.0969698
0
LINE
8
DEFAULT_255_2_778
10
42.824765
20
117.3939698
11
44.824765
21
117.3939698
0
LINE
8
DEFAULT_255_2_778
10
44.8247871
20
120.0969467
11
42.8247871
21
120.0969467
0
LINE
8
DEFAULT_255_2_778
10
42.8247871
20
120.0969467
11
42.8247871
21
117.3630467
0
LINE
8
DEFAULT_255_2_778
10
42.8247871
20
117.3630467
11
44.8247871
21
117.3630467
0
LINE
8
DEFAULT_255_2_778
10
44.8247871
20
117.3630467
11
44.8247871
21
120.0969467
0
LINE
8
DEFAULT_255_2_778
10
10.6411871
20
124.3062467
11
2.2239871
21
124.3062467
0
LINE
8
DEFAULT_255_2_778
10
16.6246871
20
128.1969467
11
14.6247871
21
128.1969467
0
LINE
8
DEFAULT_255_2_778
10
16.6246871
20
122.7954467
11
14.6247871
21
122.7954467
0
LINE
8
DEFAULT_255_2_778
10
14.624665
20
125.4987062
11
16.624665
21
125.4987062
0
LINE
8
DEFAULT_255_2_778
10
16.624665
20
125.4987062
11
16.624665
21
122.7629062
0
LINE
8
DEFAULT_255_2_778
10
16.624665
20
122.7629062
11
14.624665
21
122.7629062
0
LINE
8
DEFAULT_255_2_778
10
14.624665
20
122.7629062
11
14.624665
21
125.4987062
0
LINE
8
DEFAULT_255_2_778
10
42.824765
20
128.1969062
11
44.824765
21
128.1969062
0
LINE
8
DEFAULT_255_2_778
10
42.824765
20
122.7954062
11
44.824765
21
122.7954062
0
LINE
8
DEFAULT_255_2_778
10
44.8247952
20
125.4987144
11
42.8247952
21
125.4987144
0
LINE
8
DEFAULT_255_2_778
10
42.8247952
20
125.4987144
11
42.8247952
21
122.7629144
0
LINE
8
DEFAULT_255_2_778
10
42.8247952
20
122.7629144
11
44.8247952
21
122.7629144
0
LINE
8
DEFAULT_255_2_778
10
44.8247952
20
122.7629144
11
44.8247952
21
125.4987144
0
LINE
8
DEFAULT_255_2_778
10
42.2246952
20
136.2635144
11
17.2247952
21
136.2635144
0
LINE
8
DEFAULT_255_2_778
10
42.2246952
20
135.9997144
11
17.2247952
21
135.9997144
0
LINE
8
DEFAULT_255_2_778
10
33.2248952
20
133.7923144
11
26.2248952
21
133.7923144
0
LINE
8
DEFAULT_255_2_778
10
33.2248253
20
133.7981237
11
33.2248253
21
131.6651237
0
LINE
8
DEFAULT_255_2_778
10
33.2248253
20
131.6651237
11
26.2248253
21
131.6651237
0
LINE
8
DEFAULT_255_2_778
10
26.2248253
20
131.6651237
11
26.2248253
21
133.7981237
0
LINE
8
DEFAULT_255_2_778
10
17.2250253
20
135.3978237
11
17.2271253
21
135.3483237
0
LINE
8
DEFAULT_255_2_778
10
17.2271253
20
135.3483237
11
17.2300253
21
135.3155237
0
LINE
8
DEFAULT_255_2_778
10
17.2300253
20
135.3155237
11
17.2363253
21
135.2668237
0
LINE
8
DEFAULT_255_2_778
10
17.2363253
20
135.2668237
11
17.2485253
21
135.2025237
0
LINE
8
DEFAULT_255_2_778
10
17.2485253
20
135.2025237
11
17.2744253
21
135.1073237
0
LINE
8
DEFAULT_255_2_778
10
17.2744253
20
135.1073237
11
17.3234253
21
134.9845237
0
LINE
8
DEFAULT_255_2_778
10
17.3234253
20
134.9845237
11
17.4149253
21
134.8289237
0
LINE
8
DEFAULT_255_2_778
10
17.4149253
20
134.8289237
11
17.5581253
21
134.6694237
0
LINE
8
DEFAULT_255_2_778
10
17.5581253
20
134.6694237
11
17.7914253
21
134.5144237
0
LINE
8
DEFAULT_255_2_778
10
17.7914253
20
134.5144237
11
18.0917253
21
134.4236237
0
LINE
8
DEFAULT_255_2_778
10
18.0917253
20
134.4236237
11
18.2246253
21
134.4143237
0
LINE
8
DEFAULT_255_2_778
10
18.2246253
20
134.4143237
11
41.3777253
21
134.4262237
0
LINE
8
DEFAULT_255_2_778
10
41.3777253
20
134.4262237
11
41.6756253
21
134.5223237
0
LINE
8
DEFAULT_255_2_778
10
41.6756253
20
134.5223237
11
41.8934253
21
134.6702237
0
LINE
8
DEFAULT_255_2_778
10
41.8934253
20
134.6702237
11
42.0360253
21
134.8297237
0
LINE
8
DEFAULT_255_2_778
10
42.0360253
20
134.8297237
11
42.1273253
21
134.9850237
0
LINE
8
DEFAULT_255_2_778
10
42.1273253
20
134.9850237
11
42.1760253
21
135.1075237
0
LINE
8
DEFAULT_255_2_778
10
42.1760253
20
135.1075237
11
42.2016253
21
135.2025237
0
LINE
8
DEFAULT_255_2_778
10
42.2016253
20
135.2025237
11
42.2135253
21
135.2668237
0
LINE
8
DEFAULT_255_2_778
10
42.2135253
20
135.2668237
11
42.2196253
21
135.3155237
0
LINE
8
DEFAULT_255_2_778
10
42.2196253
20
135.3155237
11
42.2223253
21
135.3483237
0
LINE
8
DEFAULT_255_2_778
10
42.2223253
20
135.3483237
11
42.2244253
21
135.3978237
0
LINE
8
DEFAULT_255_2_778
10
17.2247253
20
140.3143237
11
17.3247253
21
140.3143237
0
LINE
8
DEFAULT_255_2_778
10
17.3247253
20
140.0643237
11
17.2247253
21
140.0643237
0
LINE
8
DEFAULT_255_2_778
10
17.3247253
20
138.8093237
11
17.2247253
21
138.8093237
0
LINE
8
DEFAULT_255_2_778
10
42.1246253
20
140.3143237
11
42.2246253
21
140.3143237
0
LINE
8
DEFAULT_255_2_778
10
42.1246253
20
140.0643237
11
42.2246253
21
140.0643237
0
LINE
8
DEFAULT_255_2_778
10
42.1246253
20
138.8093237
11
42.2246253
21
138.8093237
0
LINE
8
DEFAULT_255_2_778
10
42.1246253
20
146.8143237
11
42.1246253
21
136.6313237
0
LINE
8
DEFAULT_255_2_778
10
42.1246253
20
136.6313237
11
17.3247253
21
136.6313237
0
LINE
8
DEFAULT_255_2_778
10
17.3247253
20
136.6313237
11
17.3247253
21
146.8143237
0
ARC
8
DEFAULT_255_2_778
10
33.7245434
20
133.8142105
40
2.9003403
50
57.6187631
51
76.2437344
0
ARC
8
DEFAULT_255_2_778
10
33.7250995
20
133.8142105
40
2.9003403
50
103.7562656
51
122.3812369
0
ARC
8
DEFAULT_255_2_778
10
25.7254171
20
133.8162616
40
2.8981403
50
57.6116329
51
76.2508687
0
ARC
8
DEFAULT_255_2_778
10
25.7249005
20
133.8142079
40
2.900343
50
103.7562734
51
122.3812274
0
ARC
8
DEFAULT_255_2_778
10
12.4317038
20
96.8503949
40
1.0276005
50
216.2551175
51
264.0353861
0
ARC
8
DEFAULT_255_2_778
10
12.4294603
20
96.8508119
40
1.0260394
50
179.9471921
51
216.3479808
0
ARC
8
DEFAULT_255_2_778
10
12.4311634
20
104.3522046
40
1.0277421
50
132.3363636
51
180.0304954
0
ARC
8
DEFAULT_255_2_778
10
12.4311136
20
104.3547133
40
1.0258555
50
95.9416595
51
132.4286746
0
LINE
8
DEFAULT_255_2_778
10
4.6972215
20
75.9475576
11
0.2324215
21
75.9475576
0
LINE
8
DEFAULT_255_2_778
10
11.4034215
20
96.8517576
11
11.4034215
21
104.3516576
0
LINE
8
DEFAULT_255_2_778
10
11.8325215
20
75.9475576
11
6.5676215
21
75.9475576
0
LINE
8
DEFAULT_255_2_778
10
9.1830215
20
74.5635576
11
11.8323215
21
74.5635576
0
LINE
8
DEFAULT_255_2_778
10
12.3249215
20
76.1356576
11
11.8325215
21
76.1356576
0
LINE
8
DEFAULT_255_2_778
10
12.3249215
20
70.3458576
11
11.8325215
21
70.3458576
0
LINE
8
DEFAULT_255_2_778
10
12.7647215
20
20.9113576
11
12.7647215
21
21.0769576
0
LINE
8
DEFAULT_255_2_778
10
12.7647215
20
21.0769576
11
12.3247215
21
21.0769576
0
LINE
8
DEFAULT_255_2_778
10
42.7247215
20
7.6144576
11
44.9248215
21
7.6144576
0
LINE
8
DEFAULT_255_2_778
10
13.8982167
20
119.5355646
11
13.8982167
21
117.5792646
0
LINE
8
DEFAULT_255_2_778
10
13.8982167
20
117.5792646
11
13.7034167
21
117.5792646
0
LINE
8
DEFAULT_255_2_778
10
13.7034167
20
117.5792646
11
13.7034167
21
119.2278646
0
LINE
8
DEFAULT_255_2_778
10
13.7034167
20
119.2278646
11
13.3690167
21
119.0447646
0
LINE
8
DEFAULT_255_2_778
10
13.3690167
20
119.0447646
11
13.3690167
21
119.2693646
0
LINE
8
DEFAULT_255_2_778
10
13.3690167
20
119.2693646
11
13.8675167
21
119.5355646
0
LINE
8
DEFAULT_255_2_778
10
13.8675167
20
119.5355646
11
13.8982167
21
119.5355646
0
LINE
8
DEFAULT_255_2_778
10
13.8982167
20
119.5355646
11
13.8982167
21
119.5355646
0
ARC
8
DEFAULT_255_2_778
10
11.7065482
20
109.243965
40
2.3935729
50
324.1687234
51
328.8562835
0
ARC
8
DEFAULT_255_2_778
10
12.8775384
20
108.5394574
40
1.026996
50
328.7083561
51
335.9832736
0
ARC
8
DEFAULT_255_2_778
10
13.2880544
20
108.3493304
40
0.5746752
50
336.6398926
51
0.2528657
0
ARC
8
DEFAULT_255_2_778
10
13.4047777
20
108.3649592
40
0.4581334
50
358.3623763
51
24.96037
0
ARC
8
DEFAULT_255_2_778
10
13.5326594
20
108.41518
40
0.3211139
50
26.4655477
51
35.8546889
0
ARC
8
DEFAULT_255_2_778
10
13.6128636
20
108.4831375
40
0.2164549
50
33.7096579
51
90.8840495
0
ARC
8
DEFAULT_255_2_778
10
13.596127
20
108.437987
40
0.2619225
50
87.0681112
51
142.5740373
0
ARC
8
DEFAULT_255_2_778
10
13.7075862
20
108.3691554
40
0.3924859
50
144.4832357
51
173.4645158
0
ARC
8
DEFAULT_255_2_778
10
14.0702501
20
108.3063376
40
0.7602365
50
171.8717057
51
180.2992795
0
ARC
8
DEFAULT_255_2_778
10
13.8304066
20
108.3157394
40
0.749102
50
159.1820546
51
181.0228823
0
ARC
8
DEFAULT_255_2_778
10
13.6406275
20
108.3800368
40
0.5489106
50
139.4531884
51
158.4150706
0
ARC
8
DEFAULT_255_2_778
10
13.5866292
20
108.4221993
40
0.4804799
50
88.1407985
51
139.087766
0
ARC
8
DEFAULT_255_2_778
10
13.6098304
20
108.1887229
40
0.7137439
50
90.0005138
51
90.6111229
0
ARC
8
DEFAULT_255_2_778
10
13.6240056
20
108.4055268
40
0.4971422
50
60.5029786
51
91.6346604
0
ARC
8
DEFAULT_255_2_778
10
13.6566843
20
108.4831292
40
0.4136236
50
42.0501932
51
59.1499341
0
ARC
8
DEFAULT_255_2_778
10
13.5795433
20
108.4233916
40
0.5109688
50
3.6966024
51
41.2306021
0
ARC
8
DEFAULT_255_2_778
10
13.3057327
20
108.3824417
40
0.7871922
50
359.9144758
51
5.3862821
0
ARC
8
DEFAULT_255_2_778
10
13.3394321
20
108.3941676
40
0.7536024
50
339.4176921
51
359.0190999
0
ARC
8
DEFAULT_255_2_778
10
12.7478545
20
108.604919
40
1.3815499
50
329.1215719
51
339.8602825
0
ARC
8
DEFAULT_255_2_778
10
11.9757573
20
109.0543509
40
2.2748896
50
323.4019276
51
329.3866747
0
LINE
8
DEFAULT_255_2_778
10
14.162824
20
107.1315666
11
14.162824
21
106.9297666
0
LINE
8
DEFAULT_255_2_778
10
14.162824
20
106.9297666
11
13.111024
21
106.9297666
0
LINE
8
DEFAULT_255_2_778
10
13.111024
20
106.9297666
11
13.111024
21
107.1075666
0
LINE
8
DEFAULT_255_2_778
10
13.111024
20
107.1075666
11
13.647124
21
107.8427666
0
LINE
8
DEFAULT_255_2_778
10
13.310024
20
108.3023666
11
13.081424
21
108.3023666
0
LINE
8
DEFAULT_255_2_778
10
13.802124
20
107.6980666
11
13.383624
21
107.1313666
0
LINE
8
DEFAULT_255_2_778
10
13.383624
20
107.1313666
11
14.162524
21
107.1313666
0
LINE
8
DEFAULT_255_2_778
10
14.162524
20
107.1313666
11
14.162824
21
107.1315666
0
ARC
8
DEFAULT_255_2_778
10
13.5692479
20
97.6354865
40
0.2650933
50
266.6861313
51
319.5324789
0
ARC
8
DEFAULT_255_2_778
10
13.4890186
20
97.681611
40
0.3564699
50
322.2626937
51
357.575607
0
ARC
8
DEFAULT_255_2_778
10
13.2374756
20
97.7153157
40
0.6096488
50
355.410322
51
0.0771358
0
ARC
8
DEFAULT_255_2_778
10
13.2220199
20
97.7284273
40
0.6252249
50
358.873592
51
15.0449032
0
ARC
8
DEFAULT_255_2_778
10
13.6058178
20
97.8454619
40
0.2246033
50
11.6249889
51
93.5438194
0
ARC
8
DEFAULT_255_2_778
10
13.5914018
20
97.8593417
40
0.2102947
50
89.8548282
51
90.0484493
0
ARC
8
DEFAULT_255_2_778
10
13.5828612
20
97.8448461
40
0.2249459
50
87.8694257
51
144.8547487
0
ARC
8
DEFAULT_255_2_778
10
13.7194344
20
97.7531437
40
0.3894267
50
145.3894161
51
178.6475941
0
ARC
8
DEFAULT_255_2_778
10
13.9647561
20
97.725083
40
0.6357323
50
176.6407298
51
180.0402499
0
ARC
8
DEFAULT_255_2_778
10
13.7236582
20
97.739017
40
0.6220005
50
152.3170779
51
181.3247895
0
ARC
8
DEFAULT_255_2_778
10
13.635373
20
97.7745902
40
0.5273805
50
138.6748029
51
151.2833777
0
ARC
8
DEFAULT_255_2_778
10
13.5796309
20
97.831828
40
0.4477664
50
88.4779992
51
139.4650903
0
ARC
8
DEFAULT_255_2_778
10
13.6072641
20
97.8165969
40
0.4631071
50
53.4982362
51
91.9477471
0
ARC
8
DEFAULT_255_2_778
10
13.6158651
20
97.8435037
40
0.4364568
50
41.2075319
51
52.3046468
0
ARC
8
DEFAULT_255_2_778
10
13.5451318
20
97.7949703
40
0.5217423
50
8.9056054
51
40.0999401
0
ARC
8
DEFAULT_255_2_778
10
13.1646243
20
97.7163983
40
0.9100187
50
359.6309297
51
10.0842939
0
ARC
8
DEFAULT_255_2_778
10
13.5521117
20
97.7077766
40
0.5225196
50
330.5076616
51
0.3026269
0
ARC
8
DEFAULT_255_2_778
10
13.6285297
20
97.6503797
40
0.4279248
50
298.1966802
51
332.1598978
0
ARC
8
DEFAULT_255_2_778
10
13.6856505
20
96.8981617
40
0.4021534
50
6.8064152
51
68.8542545
0
ARC
8
DEFAULT_255_2_778
10
13.2942685
20
96.8077128
40
0.8026721
50
359.6305001
51
9.9077865
0
ARC
8
DEFAULT_255_2_778
10
13.3448809
20
96.7892872
40
0.7521597
50
340.3292633
51
1.0093117
0
ARC
8
DEFAULT_255_2_778
10
13.5639932
20
96.7174461
40
0.5216873
50
318.817563
51
339.6584501
0
ARC
8
DEFAULT_255_2_778
10
13.6060835
20
96.6783262
40
0.4642539
50
268.0670117
51
319.0307729
0
ARC
8
DEFAULT_255_2_778
10
13.5728179
20
96.6792913
40
0.465288
50
222.4183439
51
272.1685313
0
ARC
8
DEFAULT_255_2_778
10
13.632395
20
96.7204894
40
0.5371489
50
185.1342569
51
221.3758401
0
ARC
8
DEFAULT_255_2_778
10
13.9305955
20
96.7698718
40
0.8388739
50
179.8658145
51
186.6710963
0
ARC
8
DEFAULT_255_2_778
10
13.7886266
20
96.75907
40
0.4684766
50
178.4384381
51
203.0721858
0
ARC
8
DEFAULT_255_2_778
10
13.6374873
20
96.7029704
40
0.3075361
50
204.4915749
51
217.1995099
0
ARC
8
DEFAULT_255_2_778
10
13.5812143
20
96.6579872
40
0.2355232
50
216.7595546
51
272.1923206
0
ARC
8
DEFAULT_255_2_778
10
13.5997459
20
96.6714096
40
0.2489553
50
267.8080383
51
321.1477673
0
ARC
8
DEFAULT_255_2_778
10
13.5223688
20
96.7215288
40
0.3407871
50
322.7466359
51
352.6804651
0
ARC
8
DEFAULT_255_2_778
10
13.1461393
20
96.7916189
40
0.7232027
50
350.9700322
51
0.4054361
0
ARC
8
DEFAULT_255_2_778
10
13.3348486
20
96.809052
40
0.5346172
50
358.680004
51
18.3714341
0
ARC
8
DEFAULT_255_2_778
10
13.5841857
20
96.8888196
40
0.2728624
50
18.9768028
51
91.9646318
0
ARC
8
DEFAULT_255_2_778
10
13.5452675
20
96.6257988
40
0.5365379
50
86.8413518
51
90.0366864
0
LINE
8
DEFAULT_255_2_778
10
13.407924
20
97.1623364
11
13.407924
21
97.3708364
0
LINE
8
DEFAULT_255_2_778
10
13.407924
20
97.3708364
11
13.553924
21
97.3708364
0
LINE
8
DEFAULT_255_2_778
10
13.329024
20
97.7246364
11
13.101824
21
97.7246364
0
LINE
8
DEFAULT_255_2_778
10
13.091724
20
96.7718364
11
13.320324
21
96.7718364
0
LINE
8
DEFAULT_255_2_778
10
13.544924
20
97.1623364
11
13.407924
21
97.1623364
0
LINE
8
DEFAULT_255_2_778
10
13.407924
20
97.1623364
11
13.407924
21
97.1623364
0
ARC
8
DEFAULT_255_2_778
10
13.7098478
20
64.2718787
40
0.409241
50
90.2661393
51
128.0794564
0
ARC
8
DEFAULT_255_2_778
10
13.7190949
20
64.2846092
40
0.3966628
50
32.6850486
51
91.6104862
0
ARC
8
DEFAULT_255_2_778
10
13.4716412
20
64.1136572
40
0.6973257
50
9.5946968
51
33.5274204
0
ARC
8
DEFAULT_255_2_778
10
12.983889
20
64.0167757
40
1.1944877
50
359.594178
51
10.2772325
0
ARC
8
DEFAULT_255_2_778
10
13.1197772
20
63.9954917
40
1.0586473
50
346.0978961
51
0.69405
0
ARC
8
DEFAULT_255_2_778
10
13.5423442
20
63.8897119
40
0.6230443
50
323.3401738
51
346.204003
0
ARC
8
DEFAULT_255_2_778
10
13.6856074
20
63.7841796
40
0.4451108
50
267.7389819
51
323.2269393
0
ARC
8
DEFAULT_255_2_778
10
13.6534491
20
63.7819206
40
0.442746
50
221.7133821
51
271.8894369
0
ARC
8
DEFAULT_255_2_778
10
13.7680929
20
63.8727702
40
0.5888382
50
191.288482
51
220.8895102
0
ARC
8
DEFAULT_255_2_778
10
14.1220403
20
63.9632314
40
0.9538437
50
184.0228402
51
192.455464
0
ARC
8
DEFAULT_255_2_778
10
14.0104759
20
63.9537408
40
0.6281594
50
185.2452262
51
202.2829238
0
ARC
8
DEFAULT_255_2_778
10
13.7317744
20
63.8439492
40
0.3286651
50
202.9951585
51
219.2467825
0
ARC
8
DEFAULT_255_2_778
10
13.6609862
20
63.7838426
40
0.2358242
50
218.8183727
51
271.6427905
0
ARC
8
DEFAULT_255_2_778
10
13.6705543
20
63.780207
40
0.2321086
50
269.3069653
51
332.1332036
0
ARC
8
DEFAULT_255_2_778
10
13.4156602
20
63.9348569
40
0.530022
50
330.2330681
51
353.7119442
0
ARC
8
DEFAULT_255_2_778
10
12.9888113
20
64.0010774
40
0.9617449
50
352.5757411
51
0.2524701
0
ARC
8
DEFAULT_255_2_778
10
13.271503
20
64.0181938
40
0.679166
50
358.9134817
51
18.6621101
0
ARC
8
DEFAULT_255_2_778
10
13.4969012
20
64.087051
40
0.4436388
50
19.551663
51
32.791008
0
ARC
8
DEFAULT_255_2_778
10
13.654779
20
64.203634
40
0.2480952
50
29.9023526
51
90.6078848
0
ARC
8
DEFAULT_255_2_778
10
13.6394165
20
64.1956334
40
0.2563982
50
87.1540553
51
131.3138163
0
LINE
8
DEFAULT_255_2_778
10
13.4095469
20
64.3234153
11
13.2272469
21
64.3758153
0
LINE
8
DEFAULT_255_2_778
10
13.2272469
20
64.3758153
11
13.3087469
21
65.3788153
0
LINE
8
DEFAULT_255_2_778
10
13.3087469
20
65.3788153
11
14.1265469
21
65.3788153
0
LINE
8
DEFAULT_255_2_778
10
14.1265469
20
65.3788153
11
14.1265469
21
65.1425153
0
LINE
8
DEFAULT_255_2_778
10
14.1265469
20
65.1425153
11
13.5013469
21
65.1425153
0
LINE
8
DEFAULT_255_2_778
10
13.5013469
20
65.1425153
11
13.4574469
21
64.5940153
0
LINE
8
DEFAULT_255_2_778
10
13.1705469
20
63.8963153
11
13.3849469
21
63.8963153
0
LINE
8
DEFAULT_255_2_778
10
13.4701469
20
64.3882153
11
13.4092469
21
64.3234153
0
LINE
8
DEFAULT_255_2_778
10
13.4092469
20
64.3234153
11
13.4095469
21
64.3234153
0
LINE
8
DEFAULT_255_2_778
10
14.1831469
20
43.7232153
11
14.1831469
21
43.5795153
0
LINE
8
DEFAULT_255_2_778
10
14.1831469
20
43.5795153
11
13.5359469
21
41.7100153
0
LINE
8
DEFAULT_255_2_778
10
13.5359469
20
41.7100153
11
13.2970469
21
41.7100153
0
LINE
8
DEFAULT_255_2_778
10
13.2970469
20
41.7100153
11
13.9429469
21
43.5131153
0
LINE
8
DEFAULT_255_2_778
10
13.9429469
20
43.5131153
11
13.1044469
21
43.5131153
0
LINE
8
DEFAULT_255_2_778
10
13.1044469
20
43.5131153
11
13.1044469
21
43.7232153
0
LINE
8
DEFAULT_255_2_778
10
13.1044469
20
43.7232153
11
14.1831469
21
43.7232153
0
LINE
8
DEFAULT_255_2_778
10
14.1831469
20
43.7232153
11
14.1831469
21
43.7232153
0
LINE
8
DEFAULT_255_2_778
10
46.3988167
20
119.5355646
11
46.3988167
21
117.5792646
0
LINE
8
DEFAULT_255_2_778
10
46.3988167
20
117.5792646
11
46.2040167
21
117.5792646
0
LINE
8
DEFAULT_255_2_778
10
46.2040167
20
117.5792646
11
46.2040167
21
119.2278646
0
LINE
8
DEFAULT_255_2_778
10
46.2040167
20
119.2278646
11
45.8696167
21
119.0447646
0
LINE
8
DEFAULT_255_2_778
10
45.8696167
20
119.0447646
11
45.8696167
21
119.2693646
0
LINE
8
DEFAULT_255_2_778
10
45.8696167
20
119.2693646
11
46.3681167
21
119.5355646
0
LINE
8
DEFAULT_255_2_778
10
46.3681167
20
119.5355646
11
46.3988167
21
119.5355646
0
LINE
8
DEFAULT_255_2_778
10
46.3988167
20
119.5355646
11
46.3988167
21
119.5355646
0
ARC
8
DEFAULT_255_2_778
10
44.2071482
20
109.243965
40
2.3935729
50
324.1687234
51
328.8562835
0
ARC
8
DEFAULT_255_2_778
10
45.3781384
20
108.5394574
40
1.026996
50
328.7083561
51
335.9832736
0
ARC
8
DEFAULT_255_2_778
10
45.7886544
20
108.3493304
40
0.5746752
50
336.6398926
51
0.2528657
0
ARC
8
DEFAULT_255_2_778
10
45.9053777
20
108.3649592
40
0.4581334
50
358.3623763
51
24.96037
0
ARC
8
DEFAULT_255_2_778
10
46.0332594
20
108.41518
40
0.3211139
50
26.4655477
51
35.8546889
0
ARC
8
DEFAULT_255_2_778
10
46.1134636
20
108.4831375
40
0.2164549
50
33.7096579
51
90.8840495
0
ARC
8
DEFAULT_255_2_778
10
46.096727
20
108.437987
40
0.2619225
50
87.0681112
51
142.5740373
0
ARC
8
DEFAULT_255_2_778
10
46.2081862
20
108.3691554
40
0.3924859
50
144.4832357
51
173.4645158
0
ARC
8
DEFAULT_255_2_778
10
46.5708501
20
108.3063376
40
0.7602365
50
171.8717057
51
180.2992795
0
ARC
8
DEFAULT_255_2_778
10
46.3310066
20
108.3157394
40
0.749102
50
159.1820546
51
181.0228823
0
ARC
8
DEFAULT_255_2_778
10
46.1412275
20
108.3800368
40
0.5489106
50
139.4531884
51
158.4150706
0
ARC
8
DEFAULT_255_2_778
10
46.0871783
20
108.4223066
40
0.4803712
50
88.1458644
51
139.0934573
0
ARC
8
DEFAULT_255_2_778
10
46.1103304
20
108.1893149
40
0.7131519
50
90.0005139
51
90.6113807
0
ARC
8
DEFAULT_255_2_778
10
46.1245267
20
108.4052713
40
0.4973982
50
60.510634
51
91.636244
0
ARC
8
DEFAULT_255_2_778
10
46.1573602
20
108.483193
40
0.4135244
50
42.0506799
51
59.1557167
0
ARC
8
DEFAULT_255_2_778
10
46.0801433
20
108.4233916
40
0.5109688
50
3.6966024
51
41.2306021
0
ARC
8
DEFAULT_255_2_778
10
45.8063327
20
108.3824417
40
0.7871922
50
359.9144758
51
5.3862821
0
ARC
8
DEFAULT_255_2_778
10
45.8400321
20
108.3941676
40
0.7536024
50
339.4176921
51
359.0190999
0
ARC
8
DEFAULT_255_2_778
10
45.2484545
20
108.604919
40
1.3815499
50
329.1215719
51
339.8602825
0
ARC
8
DEFAULT_255_2_778
10
44.4763573
20
109.0543509
40
2.2748896
50
323.4019276
51
329.3866747
0
LINE
8
DEFAULT_255_2_778
10
46.663424
20
107.1315666
11
46.663424
21
106.9297666
0
LINE
8
DEFAULT_255_2_778
10
46.663424
20
106.9297666
11
45.611624
21
106.9297666
0
LINE
8
DEFAULT_255_2_778
10
45.611624
20
106.9297666
11
45.611624
21
107.1075666
0
LINE
8
DEFAULT_255_2_778
10
45.611624
20
107.1075666
11
46.147724
21
107.8427666
0
LINE
8
DEFAULT_255_2_778
10
45.810624
20
108.3023666
11
45.582024
21
108.3023666
0
LINE
8
DEFAULT_255_2_778
10
46.302724
20
107.6980666
11
45.884224
21
107.1313666
0
LINE
8
DEFAULT_255_2_778
10
45.884224
20
107.1313666
11
46.663124
21
107.1313666
0
LINE
8
DEFAULT_255_2_778
10
46.663124
20
107.1313666
11
46.663424
21
107.1315666
0
ARC
8
DEFAULT_255_2_778
10
46.0698479
20
97.6354865
40
0.2650933
50
266.6861313
51
319.5324789
0
ARC
8
DEFAULT_255_2_778
10
45.9896186
20
97.681611
40
0.3564699
50
322.2626937
51
357.575607
0
ARC
8
DEFAULT_255_2_778
10
45.7380756
20
97.7153157
40
0.6096488
50
355.410322
51
0.0771358
0
ARC
8
DEFAULT_255_2_778
10
45.7226199
20
97.7284273
40
0.6252249
50
358.873592
51
15.0449032
0
ARC
8
DEFAULT_255_2_778
10
46.1064178
20
97.8454619
40
0.2246033
50
11.6249889
51
93.5438194
0
ARC
8
DEFAULT_255_2_778
10
46.0920018
20
97.8593417
40
0.2102947
50
89.8548282
51
90.0484493
0
ARC
8
DEFAULT_255_2_778
10
46.0834612
20
97.8448461
40
0.2249459
50
87.8694257
51
144.8547487
0
ARC
8
DEFAULT_255_2_778
10
46.2200344
20
97.7531437
40
0.3894267
50
145.3894161
51
178.6475941
0
ARC
8
DEFAULT_255_2_778
10
46.4653561
20
97.725083
40
0.6357323
50
176.6407298
51
180.0402499
0
ARC
8
DEFAULT_255_2_778
10
46.2242582
20
97.739017
40
0.6220005
50
152.3170779
51
181.3247895
0
ARC
8
DEFAULT_255_2_778
10
46.135973
20
97.7745902
40
0.5273805
50
138.6748029
51
151.2833777
0
ARC
8
DEFAULT_255_2_778
10
46.0802309
20
97.831828
40
0.4477664
50
88.4779992
51
139.4650903
0
ARC
8
DEFAULT_255_2_778
10
46.1078641
20
97.8165969
40
0.4631071
50
53.4982362
51
91.9477471
0
ARC
8
DEFAULT_255_2_778
10
46.1164651
20
97.8435037
40
0.4364568
50
41.2075319
51
52.3046468
0
ARC
8
DEFAULT_255_2_778
10
46.0457318
20
97.7949703
40
0.5217423
50
8.9056054
51
40.0999401
0
ARC
8
DEFAULT_255_2_778
10
45.6652243
20
97.7163983
40
0.9100187
50
359.6309297
51
10.0842939
0
ARC
8
DEFAULT_255_2_778
10
46.0527117
20
97.7077766
40
0.5225196
50
330.5076616
51
0.3026269
0
ARC
8
DEFAULT_255_2_778
10
46.1285568
20
97.650949
40
0.4286973
50
298.2282069
51
332.128371
0
ARC
8
DEFAULT_255_2_778
10
46.1862505
20
96.8981617
40
0.4021534
50
6.8064152
51
68.8542545
0
ARC
8
DEFAULT_255_2_778
10
45.7948685
20
96.8077128
40
0.8026721
50
359.6305001
51
9.9077865
0
ARC
8
DEFAULT_255_2_778
10
45.8454809
20
96.7892872
40
0.7521597
50
340.3292633
51
1.0093117
0
ARC
8
DEFAULT_255_2_778
10
46.0645932
20
96.7174461
40
0.5216873
50
318.817563
51
339.6584501
0
ARC
8
DEFAULT_255_2_778
10
46.1066835
20
96.6783262
40
0.4642539
50
268.0670117
51
319.0307729
0
ARC
8
DEFAULT_255_2_778
10
46.0734179
20
96.6792913
40
0.465288
50
222.4183439
51
272.1685313
0
ARC
8
DEFAULT_255_2_778
10
46.132995
20
96.7204894
40
0.5371489
50
185.1342569
51
221.3758401
0
ARC
8
DEFAULT_255_2_778
10
46.4311955
20
96.7698718
40
0.8388739
50
179.8658145
51
186.6710963
0
ARC
8
DEFAULT_255_2_778
10
46.2892266
20
96.75907
40
0.4684766
50
178.4384381
51
203.0721858
0
ARC
8
DEFAULT_255_2_778
10
46.1380873
20
96.7029704
40
0.3075361
50
204.4915749
51
217.1995099
0
ARC
8
DEFAULT_255_2_778
10
46.0818143
20
96.6579872
40
0.2355232
50
216.7595546
51
272.1923206
0
ARC
8
DEFAULT_255_2_778
10
46.1003459
20
96.6714096
40
0.2489553
50
267.8080383
51
321.1477673
0
ARC
8
DEFAULT_255_2_778
10
46.0229688
20
96.7215288
40
0.3407871
50
322.7466359
51
352.6804651
0
ARC
8
DEFAULT_255_2_778
10
45.6467393
20
96.7916189
40
0.7232027
50
350.9700322
51
0.4054361
0
ARC
8
DEFAULT_255_2_778
10
45.8354486
20
96.809052
40
0.5346172
50
358.680004
51
18.3714341
0
ARC
8
DEFAULT_255_2_778
10
46.0847857
20
96.8888196
40
0.2728624
50
18.9768028
51
91.9646318
0
ARC
8
DEFAULT_255_2_778
10
46.0458675
20
96.6257988
40
0.5365379
50
86.8413518
51
90.0366864
0
LINE
8
DEFAULT_255_2_778
10
45.908524
20
97.1623364
11
45.908524
21
97.3708364
0
LINE
8
DEFAULT_255_2_778
10
45.908524
20
97.3708364
11
46.054524
21
97.3708364
0
LINE
8
DEFAULT_255_2_778
10
45.829624
20
97.7246364
11
45.602424
21
97.7246364
0
LINE
8
DEFAULT_255_2_778
10
45.592324
20
96.7718364
11
45.820924
21
96.7718364
0
LINE
8
DEFAULT_255_2_778
10
46.045524
20
97.1623364
11
45.908524
21
97.1623364
0
LINE
8
DEFAULT_255_2_778
10
45.908524
20
97.1623364
11
45.908524
21
97.1623364
0
ARC
8
DEFAULT_255_2_778
10
45.9558315
20
64.272065
40
0.409241
50
90.2661393
51
128.0794564
0
ARC
8
DEFAULT_255_2_778
10
45.9651289
20
64.2847075
40
0.3967522
50
32.691865
51
91.6173869
0
ARC
8
DEFAULT_255_2_778
10
45.7177249
20
64.1138436
40
0.6973257
50
9.5946968
51
33.5274204
0
ARC
8
DEFAULT_255_2_778
10
45.2299727
20
64.0169621
40
1.1944877
50
359.594178
51
10.2772325
0
ARC
8
DEFAULT_255_2_778
10
45.3612806
20
63.9960392
40
1.063223
50
346.3519308
51
0.6716024
0
ARC
8
DEFAULT_255_2_778
10
45.7873073
20
63.8907866
40
0.6243933
50
323.3306951
51
346.5131042
0
ARC
8
DEFAULT_255_2_778
10
45.931673
20
63.7841941
40
0.4449423
50
267.7275679
51
323.2383533
0
ARC
8
DEFAULT_255_2_778
10
45.8994806
20
63.781995
40
0.4426325
50
221.7070592
51
271.8837342
0
ARC
8
DEFAULT_255_2_778
10
46.013843
20
63.8729165
40
0.5885598
50
191.2232791
51
220.9078119
0
ARC
8
DEFAULT_255_2_778
10
46.3675998
20
63.9630496
40
0.9532949
50
184.0029759
51
192.3987755
0
ARC
8
DEFAULT_255_2_778
10
46.2564596
20
63.9539272
40
0.6281594
50
185.2452262
51
202.2829238
0
ARC
8
DEFAULT_255_2_778
10
45.9777581
20
63.8441356
40
0.3286651
50
202.9951585
51
219.2467825
0
ARC
8
DEFAULT_255_2_778
10
45.9070548
20
63.7842128
40
0.2360055
50
218.840238
51
271.6209252
0
ARC
8
DEFAULT_255_2_778
10
45.9165381
20
63.7803933
40
0.2321086
50
269.3069653
51
332.1332036
0
ARC
8
DEFAULT_255_2_778
10
45.6622238
20
63.9350835
40
0.5295387
50
330.1981432
51
353.7018053
0
ARC
8
DEFAULT_255_2_778
10
45.2362091
20
64.0012615
40
0.9604309
50
352.5656657
51
0.2529534
0
ARC
8
DEFAULT_255_2_778
10
45.5175867
20
64.0183801
40
0.679166
50
358.9134817
51
18.6621101
0
ARC
8
DEFAULT_255_2_778
10
45.7429849
20
64.0872374
40
0.4436388
50
19.551663
51
32.791008
0
ARC
8
DEFAULT_255_2_778
10
45.9008159
20
64.2037406
40
0.2481756
50
29.9129333
51
90.6199708
0
ARC
8
DEFAULT_255_2_778
10
45.8855053
20
64.1947177
40
0.2574937
50
87.1895811
51
131.2196256
0
ARC
8
DEFAULT_255_2_778
10
18.4175458
20
145.2661371
40
0.6184602
50
74.4991809
51
85.5129208
0
ARC
8
DEFAULT_255_2_778
10
18.4138105
20
145.3755399
40
0.5245945
50
31.7645078
51
44.7560873
0
ARC
8
DEFAULT_255_2_778
10
18.2631883
20
144.8671824
40
0.6898113
50
329.1063724
51
338.8954719
0
ARC
8
DEFAULT_255_2_778
10
18.4362977
20
144.9078922
40
0.4970881
50
283.6292385
51
293.8926667
0
ARC
8
DEFAULT_255_2_778
10
18.5214193
20
144.6904759
40
0.2640251
50
296.1136171
51
316.3408228
0
ARC
8
DEFAULT_255_2_778
10
29.157861
20
145.5137087
40
0.3580142
50
118.6459212
51
137.7551756
0
ARC
8
DEFAULT_255_2_778
10
29.3689375
20
145.5741629
40
0.2983214
50
39.6203389
51
51.0609346
0
ARC
8
DEFAULT_255_2_778
10
29.3551413
20
145.5619748
40
0.3167213
50
28.9332825
51
39.7271613
0
ARC
8
DEFAULT_255_2_778
10
29.2455548
20
145.509799
40
0.4384616
50
12.3129716
51
20.1307623
0
ARC
8
DEFAULT_255_2_778
10
29.2619291
20
145.5092556
40
0.3109923
50
12.6009756
51
27.7590561
0
ARC
8
DEFAULT_255_2_778
10
29.7587459
20
145.3503983
40
0.8737846
50
170.347897
51
175.7796859
0
ARC
8
DEFAULT_255_2_778
10
29.3713395
20
144.7423533
40
0.4753783
50
198.4252669
51
208.3383785
0
ARC
8
DEFAULT_255_2_778
10
29.2322653
20
144.6887273
40
0.4654868
50
331.65193
51
340.677106
0
ARC
8
DEFAULT_255_2_778
10
29.3484146
20
144.6123235
40
0.3258632
50
307.9319184
51
320.8529223
0
ARC
8
DEFAULT_255_2_778
10
29.1676623
20
144.6427291
40
0.3655638
50
239.9185684
51
251.527009
0
ARC
8
DEFAULT_255_2_778
10
29.1454159
20
144.6061119
40
0.3239719
50
214.0314638
51
226.9668606
0
ARC
8
DEFAULT_255_2_778
10
29.3552924
20
144.7261583
40
0.5669611
50
197.4860347
51
204.8271277
0
ARC
8
DEFAULT_255_2_778
10
29.7285728
20
144.8326506
40
0.9555444
50
183.8012757
51
192.458929
0
ARC
8
DEFAULT_255_2_778
10
29.8687435
20
145.3299496
40
1.0977697
50
171.5004536
51
179.0316665
0
ARC
8
DEFAULT_255_2_778
10
29.3359004
20
145.4310554
40
0.5545211
50
158.7647765
51
166.2240014
0
ARC
8
DEFAULT_255_2_778
10
29.2410965
20
145.4696472
40
0.4521793
50
149.8147688
51
158.9717753
0
ARC
8
DEFAULT_255_2_778
10
30.8201248
20
145.301012
40
0.5980789
50
71.3248825
51
84.8769153
0
ARC
8
DEFAULT_255_2_778
10
30.8411784
20
145.3580003
40
0.5373523
50
59.5216185
51
71.5058645
0
ARC
8
DEFAULT_255_2_778
10
30.9510654
20
145.4867631
40
0.3630571
50
20.044641
51
28.8602627
0
ARC
8
DEFAULT_255_2_778
10
30.8971089
20
145.4676651
40
0.4202914
50
12.3141922
51
19.96931
0
ARC
8
DEFAULT_255_2_778
10
30.8614853
20
145.4663659
40
0.4554165
50
359.9966751
51
11.518017
0
ARC
8
DEFAULT_255_2_778
10
30.8593047
20
145.4663534
40
0.4575971
50
359.1581025
51
359.9982523
0
ARC
8
DEFAULT_255_2_778
10
30.8600391
20
145.4663451
40
0.4568627
50
357.397648
51
359.1577992
0
ARC
8
DEFAULT_255_2_778
10
30.8573632
20
145.4630987
40
0.4594007
50
350.781367
51
357.8172678
0
ARC
8
DEFAULT_255_2_778
10
30.9476879
20
145.4440639
40
0.3672188
50
342.7718038
51
351.4552276
0
ARC
8
DEFAULT_255_2_778
10
30.9295004
20
145.4570015
40
0.3894158
50
325.1901527
51
333.4435434
0
ARC
8
DEFAULT_255_2_778
10
31.0243612
20
144.8580169
40
0.3301541
50
45.8731849
51
63.7023922
0
ARC
8
DEFAULT_255_2_778
10
30.8711429
20
144.8090109
40
0.4893521
50
12.7490432
51
18.6750497
0
ARC
8
DEFAULT_255_2_778
10
30.9793554
20
144.7105101
40
0.3723846
50
329.4448191
51
345.1069907
0
ARC
8
DEFAULT_255_2_778
10
30.8736571
20
144.893039
40
0.5864774
50
279.695079
51
288.6939426
0
ARC
8
DEFAULT_255_2_778
10
30.8104423
20
145.2175296
40
0.9170113
50
279.5404059
51
280.1740728
0
ARC
8
DEFAULT_255_2_778
10
30.9262899
20
144.7399312
40
0.3172764
50
335.2104818
51
348.1727379
0
ARC
8
DEFAULT_255_2_778
10
30.7643442
20
144.7962859
40
0.4829526
50
2.5177775
51
10.9956609
0
ARC
8
DEFAULT_255_2_778
10
31.0301537
20
144.8726853
40
0.2055538
50
44.7121423
51
66.6480943
0
ARC
8
DEFAULT_255_2_778
10
30.9533715
20
145.5149795
40
0.314137
50
272.327781
51
284.5387075
0
ARC
8
DEFAULT_255_2_778
10
30.8711125
20
145.4579222
40
0.3318067
50
344.2939972
51
350.0520971
0
ARC
8
DEFAULT_255_2_778
10
30.8102626
20
145.4654746
40
0.3930585
50
350.5000649
51
357.7092959
0
ARC
8
DEFAULT_255_2_778
10
30.7179614
20
145.4704824
40
0.485488
50
357.5541607
51
359.4947992
0
ARC
8
DEFAULT_255_2_778
10
30.8749445
20
145.4662526
40
0.3285525
50
5.7731462
51
11.5616282
0
ARC
8
DEFAULT_255_2_778
10
30.9172594
20
145.4712647
40
0.2862058
50
25.571491
51
38.8255184
0
ARC
8
DEFAULT_255_2_778
10
30.8487305
20
145.3803618
40
0.4000812
50
52.4374947
51
72.0650028
0
ARC
8
DEFAULT_255_2_778
10
23.5841691
20
145.5252074
40
0.3642899
50
89.0040746
51
153.649479
0
ARC
8
DEFAULT_255_2_778
10
23.5893346
20
145.3726871
40
0.5167565
50
82.7408446
51
89.8706796
0
ARC
8
DEFAULT_255_2_778
10
23.6296091
20
145.4756852
40
0.41038
50
59.270566
51
86.5044168
0
ARC
8
DEFAULT_255_2_778
10
23.6658614
20
145.5657971
40
0.3147484
50
8.3386691
51
56.5601802
0
ARC
8
DEFAULT_255_2_778
10
23.3672101
20
145.4959981
40
0.6208991
50
359.5628989
51
10.7154805
0
ARC
8
DEFAULT_255_2_778
10
23.1024959
20
145.4923793
40
0.8855959
50
356.0402349
51
359.9276746
0
ARC
8
DEFAULT_255_2_778
10
22.9770211
20
145.4999061
40
1.0112914
50
355.5989153
51
356.1057272
0
ARC
8
DEFAULT_255_2_778
10
23.9102212
20
145.3933699
40
0.080489
50
3.1647516
51
21.0664593
0
ARC
8
DEFAULT_255_2_778
10
23.8755803
20
145.3900127
40
0.1152713
50
359.943958
51
3.880328
0
ARC
8
DEFAULT_255_2_778
10
23.7194555
20
145.4041895
40
0.2717719
50
336.3340093
51
356.9860547
0
ARC
8
DEFAULT_255_2_778
10
23.0781852
20
145.659676
40
0.9619504
50
329.4286933
51
337.7283868
0
ARC
8
DEFAULT_255_2_778
10
21.8786849
20
146.3516289
40
2.3466943
50
325.5015017
51
329.7780564
0
ARC
8
DEFAULT_255_2_778
10
19.9544391
20
147.6652721
40
4.6765772
50
322.8066188
51
325.5901546
0
ARC
8
DEFAULT_255_2_778
10
17.1370736
20
149.7935319
40
8.2074417
50
321.0352058
51
322.8606947
0
ARC
8
DEFAULT_255_2_778
10
13.3482349
20
152.8516582
40
13.0764686
50
319.7182078
51
321.0561986
0
LINE
8
DEFAULT_255_2_778
10
23.3239306
20
144.3971017
11
24.0515306
21
144.3971017
0
LINE
8
DEFAULT_255_2_778
10
24.0515306
20
144.3971017
11
24.0515306
21
144.2978017
0
LINE
8
DEFAULT_255_2_778
10
24.0515306
20
144.2978017
11
23.2247306
21
144.2978017
0
LINE
8
DEFAULT_255_2_778
10
23.2247306
20
144.2978017
11
23.2247306
21
144.4963017
0
ARC
8
DEFAULT_255_2_778
10
12.1378492
20
153.8927067
40
14.5331127
50
319.7179028
51
321.293969
0
ARC
8
DEFAULT_255_2_778
10
15.6192674
20
151.1073562
40
10.0745893
50
321.2744721
51
323.3706669
0
ARC
8
DEFAULT_255_2_778
10
17.9031551
20
149.4031943
40
7.2249795
50
323.4100122
51
324.9795259
0
ARC
8
DEFAULT_255_2_778
10
22.5467953
20
145.6536532
40
1.3335894
50
342.6965985
51
347.9856406
0
ARC
8
DEFAULT_255_2_778
10
23.0578789
20
145.5461219
40
0.8113182
50
347.9002172
51
355.3042306
0
ARC
8
DEFAULT_255_2_778
10
23.3171687
20
145.5223978
40
0.5509618
50
355.5556541
51
359.9086149
0
ARC
8
DEFAULT_255_2_778
10
23.5498066
20
145.5296108
40
0.318426
50
358.5438633
51
20.8393029
0
ARC
8
DEFAULT_255_2_778
10
23.6768244
20
145.5747379
40
0.1836882
50
21.778645
51
76.1709746
0
ARC
8
DEFAULT_255_2_778
10
23.6044003
20
145.357555
40
0.4122984
50
73.6113952
51
87.0149492
0
ARC
8
DEFAULT_255_2_778
10
23.6111599
20
145.438149
40
0.3314713
50
87.456314
51
89.9896646
0
ARC
8
DEFAULT_255_2_778
10
23.6118636
20
145.479776
40
0.2898452
50
90.1272934
51
146.7200582
0
ARC
8
DEFAULT_255_2_778
10
23.7503768
20
145.3586481
40
0.4727836
50
143.6578132
51
146.3244415
0
LINE
8
DEFAULT_255_2_778
10
45.6555306
20
64.3233017
11
45.4732306
21
64.3760017
0
LINE
8
DEFAULT_255_2_778
10
45.4732306
20
64.3760017
11
45.5547306
21
65.3790017
0
LINE
8
DEFAULT_255_2_778
10
45.5547306
20
65.3790017
11
46.3725306
21
65.3790017
0
LINE
8
DEFAULT_255_2_778
10
46.3725306
20
65.3790017
11
46.3725306
21
65.1427017
0
LINE
8
DEFAULT_255_2_778
10
46.3725306
20
65.1427017
11
45.7473306
21
65.1427017
0
LINE
8
DEFAULT_255_2_778
10
45.7473306
20
65.1427017
11
45.7034306
21
64.5942017
0
LINE
8
DEFAULT_255_2_778
10
45.4166306
20
63.8965017
11
45.6309306
21
63.8965017
0
LINE
8
DEFAULT_255_2_778
10
45.7158306
20
64.3884017
11
45.6550306
21
64.3236017
0
LINE
8
DEFAULT_255_2_778
10
45.6550306
20
64.3236017
11
45.6555306
21
64.3233017
0
LINE
8
DEFAULT_255_2_778
10
46.4291306
20
43.7231017
11
46.4291306
21
43.5794017
0
LINE
8
DEFAULT_255_2_778
10
46.4291306
20
43.5794017
11
45.7820306
21
41.7099017
0
LINE
8
DEFAULT_255_2_778
10
45.7820306
20
41.7099017
11
45.5430306
21
41.7099017
0
LINE
8
DEFAULT_255_2_778
10
45.5430306
20
41.7099017
11
46.1889306
21
43.5130017
0
LINE
8
DEFAULT_255_2_778
10
46.1889306
20
43.5130017
11
45.3504306
21
43.5130017
0
LINE
8
DEFAULT_255_2_778
10
45.3504306
20
43.5130017
11
45.3504306
21
43.7231017
0
LINE
8
DEFAULT_255_2_778
10
45.3504306
20
43.7231017
11
46.4291306
21
43.7231017
0
LINE
8
DEFAULT_255_2_778
10
46.4291306
20
43.7231017
11
46.4291306
21
43.7231017
0
LINE
8
DEFAULT_255_2_778
10
19.3149306
20
145.8787017
11
19.4258306
21
145.8787017
0
LINE
8
DEFAULT_255_2_778
10
19.4258306
20
145.8787017
11
19.4258306
21
144.2830017
0
LINE
8
DEFAULT_255_2_778
10
19.4258306
20
144.2830017
11
19.3149306
21
144.2830017
0
LINE
8
DEFAULT_255_2_778
10
19.3149306
20
144.2830017
11
19.3149306
21
145.8787017
0
LINE
8
DEFAULT_255_2_778
10
18.3095306
20
145.8896017
11
18.4659306
21
145.8827017
0
LINE
8
DEFAULT_255_2_778
10
18.5828306
20
145.8621017
11
18.6392306
21
145.8428017
0
LINE
8
DEFAULT_255_2_778
10
18.6392306
20
145.8428017
11
18.6926306
21
145.8171017
0
LINE
8
DEFAULT_255_2_778
10
18.6926306
20
145.8171017
11
18.7418306
21
145.7845017
0
LINE
8
DEFAULT_255_2_778
10
18.7418306
20
145.7845017
11
18.7863306
21
145.7449017
0
LINE
8
DEFAULT_255_2_778
10
18.8598306
20
145.6517017
11
18.8749306
21
145.6258017
0
LINE
8
DEFAULT_255_2_778
10
18.8749306
20
145.6258017
11
18.8887306
21
145.5996017
0
LINE
8
DEFAULT_255_2_778
10
18.8887306
20
145.5996017
11
18.9125306
21
145.5456017
0
LINE
8
DEFAULT_255_2_778
10
18.9125306
20
145.5456017
11
18.9313306
21
145.4895017
0
LINE
8
DEFAULT_255_2_778
10
18.9313306
20
145.4895017
11
18.9389306
21
145.4610017
0
LINE
8
DEFAULT_255_2_778
10
18.9389306
20
145.4610017
11
18.9461306
21
145.4321017
0
LINE
8
DEFAULT_255_2_778
10
18.9461306
20
145.4321017
11
18.9580306
21
145.3742017
0
LINE
8
DEFAULT_255_2_778
10
18.9580306
20
145.3742017
11
18.9627306
21
145.3451017
0
LINE
8
DEFAULT_255_2_778
10
18.9627306
20
145.3451017
11
18.9667306
21
145.3160017
0
LINE
8
DEFAULT_255_2_778
10
18.9667306
20
145.3160017
11
18.9768306
21
145.1993017
0
LINE
8
DEFAULT_255_2_778
10
18.9768306
20
145.1993017
11
18.9789306
21
145.1408017
0
LINE
8
DEFAULT_255_2_778
10
18.9789306
20
145.1408017
11
18.9799306
21
145.0823017
0
LINE
8
DEFAULT_255_2_778
10
18.9799306
20
145.0823017
11
18.9797306
21
145.0239017
0
LINE
8
DEFAULT_255_2_778
10
18.9797306
20
145.0239017
11
18.9770306
21
144.9651017
0
LINE
8
DEFAULT_255_2_778
10
18.9770306
20
144.9651017
11
18.9646306
21
144.8477017
0
LINE
8
DEFAULT_255_2_778
10
18.9646306
20
144.8477017
11
18.9421306
21
144.7318017
0
LINE
8
DEFAULT_255_2_778
10
18.9421306
20
144.7318017
11
18.9260306
21
144.6746017
0
LINE
8
DEFAULT_255_2_778
10
18.9260306
20
144.6746017
11
18.9067306
21
144.6188017
0
LINE
8
DEFAULT_255_2_778
10
18.8551306
20
144.5130017
11
18.8392306
21
144.4878017
0
LINE
8
DEFAULT_255_2_778
10
18.8392306
20
144.4878017
11
18.8220306
21
144.4635017
0
LINE
8
DEFAULT_255_2_778
10
18.8220306
20
144.4635017
11
18.7831306
21
144.4190017
0
LINE
8
DEFAULT_255_2_778
10
18.7831306
20
144.4190017
11
18.7611306
21
144.3992017
0
LINE
8
DEFAULT_255_2_778
10
18.7611306
20
144.3992017
11
18.7373306
21
144.3812017
0
LINE
8
DEFAULT_255_2_778
10
18.7373306
20
144.3812017
11
18.6852306
21
144.3516017
0
LINE
8
DEFAULT_255_2_778
10
18.6852306
20
144.3516017
11
18.6230306
21
144.3270017
0
LINE
8
DEFAULT_255_2_778
10
18.6230306
20
144.3270017
11
18.5913306
21
144.3177017
0
LINE
8
DEFAULT_255_2_778
10
18.5913306
20
144.3177017
11
18.5590306
21
144.3100017
0
LINE
8
DEFAULT_255_2_778
10
18.5590306
20
144.3100017
11
18.4939306
21
144.2973017
0
LINE
8
DEFAULT_255_2_778
10
18.4939306
20
144.2973017
11
18.4278306
21
144.2886017
0
LINE
8
DEFAULT_255_2_778
10
18.4278306
20
144.2886017
11
18.3611306
21
144.2833017
0
LINE
8
DEFAULT_255_2_778
10
18.3611306
20
144.2833017
11
18.2941306
21
144.2809017
0
LINE
8
DEFAULT_255_2_778
10
18.2941306
20
144.2809017
11
18.2608306
21
144.2809017
0
LINE
8
DEFAULT_255_2_778
10
18.2608306
20
144.2809017
11
18.2275306
21
144.2814017
0
LINE
8
DEFAULT_255_2_778
10
18.2275306
20
144.2814017
11
18.1608306
21
144.2854017
0
LINE
8
DEFAULT_255_2_778
10
18.1608306
20
144.2854017
11
18.1359306
21
144.2875017
0
LINE
8
DEFAULT_255_2_778
10
18.1359306
20
144.2875017
11
18.1110306
21
144.2899017
0
LINE
8
DEFAULT_255_2_778
10
18.1110306
20
144.2899017
11
18.0666306
21
144.2941017
0
LINE
8
DEFAULT_255_2_778
10
18.0666306
20
144.2941017
11
18.0666306
21
145.8872017
0
LINE
8
DEFAULT_255_2_778
10
18.0666306
20
145.8872017
11
18.3095306
21
145.8896017
0
LINE
8
DEFAULT_255_2_778
10
18.1785306
20
144.3981017
11
18.2023306
21
144.3963017
0
LINE
8
DEFAULT_255_2_778
10
18.2023306
20
144.3963017
11
18.2264306
21
144.3957017
0
LINE
8
DEFAULT_255_2_778
10
18.2264306
20
144.3957017
11
18.2743306
21
144.3957017
0
LINE
8
DEFAULT_255_2_778
10
18.2743306
20
144.3957017
11
18.3222306
21
144.3963017
0
LINE
8
DEFAULT_255_2_778
10
18.3222306
20
144.3963017
11
18.3701306
21
144.3981017
0
LINE
8
DEFAULT_255_2_778
10
18.3701306
20
144.3981017
11
18.4624306
21
144.4069017
0
LINE
8
DEFAULT_255_2_778
10
18.4624306
20
144.4069017
11
18.5534306
21
144.4248017
0
LINE
8
DEFAULT_255_2_778
10
18.7124306
20
144.5082017
11
18.7281306
21
144.5257017
0
LINE
8
DEFAULT_255_2_778
10
18.7281306
20
144.5257017
11
18.7423306
21
144.5439017
0
LINE
8
DEFAULT_255_2_778
10
18.7423306
20
144.5439017
11
18.7675306
21
144.5828017
0
LINE
8
DEFAULT_255_2_778
10
18.7675306
20
144.5828017
11
18.7889306
21
144.6241017
0
LINE
8
DEFAULT_255_2_778
10
18.7889306
20
144.6241017
11
18.8069306
21
144.6669017
0
LINE
8
DEFAULT_255_2_778
10
18.8069306
20
144.6669017
11
18.8217306
21
144.7106017
0
LINE
8
DEFAULT_255_2_778
10
18.8217306
20
144.7106017
11
18.8342306
21
144.7550017
0
LINE
8
DEFAULT_255_2_778
10
18.8342306
20
144.7550017
11
18.8524306
21
144.8455017
0
LINE
8
DEFAULT_255_2_778
10
18.8524306
20
144.8455017
11
18.8588306
21
144.8913017
0
LINE
8
DEFAULT_255_2_778
10
18.8588306
20
144.8913017
11
18.8635306
21
144.9371017
0
LINE
8
DEFAULT_255_2_778
10
18.8635306
20
144.9371017
11
18.8683306
21
145.0286017
0
LINE
8
DEFAULT_255_2_778
10
18.8683306
20
145.0286017
11
18.8683306
21
145.0744017
0
LINE
8
DEFAULT_255_2_778
10
18.8683306
20
145.0744017
11
18.8675306
21
145.1202017
0
LINE
8
DEFAULT_255_2_778
10
18.8675306
20
145.1202017
11
18.8635306
21
145.2115017
0
LINE
8
DEFAULT_255_2_778
10
18.8635306
20
145.2115017
11
18.8603306
21
145.2572017
0
LINE
8
DEFAULT_255_2_778
10
18.8603306
20
145.2572017
11
18.8561306
21
145.3030017
0
LINE
8
DEFAULT_255_2_778
10
18.8561306
20
145.3030017
11
18.8408306
21
145.3940017
0
LINE
8
DEFAULT_255_2_778
10
18.8408306
20
145.3940017
11
18.8297306
21
145.4390017
0
LINE
8
DEFAULT_255_2_778
10
18.8297306
20
145.4390017
11
18.8159306
21
145.4832017
0
LINE
8
DEFAULT_255_2_778
10
18.8159306
20
145.4832017
11
18.7990306
21
145.5266017
0
LINE
8
DEFAULT_255_2_778
10
18.7990306
20
145.5266017
11
18.7786306
21
145.5684017
0
LINE
8
DEFAULT_255_2_778
10
18.7786306
20
145.5684017
11
18.7548306
21
145.6081017
0
LINE
8
DEFAULT_255_2_778
10
18.7548306
20
145.6081017
11
18.7416306
21
145.6271017
0
LINE
8
DEFAULT_255_2_778
10
18.7416306
20
145.6271017
11
18.7273306
21
145.6454017
0
LINE
8
DEFAULT_255_2_778
10
18.7273306
20
145.6454017
11
18.7117306
21
145.6628017
0
LINE
8
DEFAULT_255_2_778
10
18.7117306
20
145.6628017
11
18.6947306
21
145.6792017
0
LINE
8
DEFAULT_255_2_778
10
18.6947306
20
145.6792017
11
18.6577306
21
145.7075017
0
LINE
8
DEFAULT_255_2_778
10
18.6577306
20
145.7075017
11
18.6169306
21
145.7303017
0
LINE
8
DEFAULT_255_2_778
10
18.6169306
20
145.7303017
11
18.5730306
21
145.7478017
0
LINE
8
DEFAULT_255_2_778
10
18.5730306
20
145.7478017
11
18.5254306
21
145.7610017
0
LINE
8
DEFAULT_255_2_778
10
18.5254306
20
145.7610017
11
18.4764306
21
145.7684017
0
LINE
8
DEFAULT_255_2_778
10
18.4764306
20
145.7684017
11
18.4516306
21
145.7705017
0
LINE
8
DEFAULT_255_2_778
10
18.4516306
20
145.7705017
11
18.4267306
21
145.7721017
0
LINE
8
DEFAULT_255_2_778
10
18.4267306
20
145.7721017
11
18.3770306
21
145.7740017
0
LINE
8
DEFAULT_255_2_778
10
18.3770306
20
145.7740017
11
18.3272306
21
145.7742017
0
LINE
8
DEFAULT_255_2_778
10
18.3272306
20
145.7742017
11
18.2775306
21
145.7742017
0
LINE
8
DEFAULT_255_2_778
10
18.2775306
20
145.7742017
11
18.1780306
21
145.7742017
0
LINE
8
DEFAULT_255_2_778
10
18.1780306
20
145.7742017
11
18.1785306
21
144.3981017
0
LINE
8
DEFAULT_255_2_778
10
28.9862306
20
145.8279017
11
29.0132306
21
145.8414017
0
LINE
8
DEFAULT_255_2_778
10
29.0132306
20
145.8414017
11
29.0407306
21
145.8528017
0
LINE
8
DEFAULT_255_2_778
10
29.0407306
20
145.8528017
11
29.0976306
21
145.8705017
0
LINE
8
DEFAULT_255_2_778
10
29.0976306
20
145.8705017
11
29.1270306
21
145.8769017
0
LINE
8
DEFAULT_255_2_778
10
29.1270306
20
145.8769017
11
29.1566306
21
145.8819017
0
LINE
8
DEFAULT_255_2_778
10
29.1566306
20
145.8819017
11
29.2159306
21
145.8880017
0
LINE
8
DEFAULT_255_2_778
10
29.2159306
20
145.8880017
11
29.2751306
21
145.8896017
0
LINE
8
DEFAULT_255_2_778
10
29.2751306
20
145.8896017
11
29.3344306
21
145.8869017
0
LINE
8
DEFAULT_255_2_778
10
29.3344306
20
145.8869017
11
29.3937306
21
145.8785017
0
LINE
8
DEFAULT_255_2_778
10
29.3937306
20
145.8785017
11
29.4516306
21
145.8631017
0
LINE
8
DEFAULT_255_2_778
10
29.4516306
20
145.8631017
11
29.5067306
21
145.8393017
0
LINE
8
DEFAULT_255_2_778
10
29.5067306
20
145.8393017
11
29.5564306
21
145.8062017
0
LINE
8
DEFAULT_255_2_778
10
29.6323306
20
145.7152017
11
29.6458306
21
145.6885017
0
LINE
8
DEFAULT_255_2_778
10
29.6458306
20
145.6885017
11
29.6572306
21
145.6607017
0
LINE
8
DEFAULT_255_2_778
10
29.6739306
20
145.6033017
11
29.5654306
21
145.5771017
0
LINE
8
DEFAULT_255_2_778
10
29.5371306
20
145.6541017
11
29.5265306
21
145.6718017
0
LINE
8
DEFAULT_255_2_778
10
29.5265306
20
145.6718017
11
29.5143306
21
145.6888017
0
LINE
8
DEFAULT_255_2_778
10
29.5143306
20
145.6888017
11
29.4852306
21
145.7184017
0
LINE
8
DEFAULT_255_2_778
10
29.4852306
20
145.7184017
11
29.4683306
21
145.7308017
0
LINE
8
DEFAULT_255_2_778
10
29.4683306
20
145.7308017
11
29.4503306
21
145.7414017
0
LINE
8
DEFAULT_255_2_778
10
29.4503306
20
145.7414017
11
29.4117306
21
145.7576017
0
LINE
8
DEFAULT_255_2_778
10
29.4117306
20
145.7576017
11
29.3712306
21
145.7679017
0
LINE
8
DEFAULT_255_2_778
10
29.3712306
20
145.7679017
11
29.3302306
21
145.7740017
0
LINE
8
DEFAULT_255_2_778
10
29.3302306
20
145.7740017
11
29.2466306
21
145.7766017
0
LINE
8
DEFAULT_255_2_778
10
29.2466306
20
145.7766017
11
29.1635306
21
145.7703017
0
LINE
8
DEFAULT_255_2_778
10
29.1635306
20
145.7703017
11
29.1222306
21
145.7634017
0
LINE
8
DEFAULT_255_2_778
10
29.1222306
20
145.7634017
11
29.1018306
21
145.7589017
0
LINE
8
DEFAULT_255_2_778
10
29.1018306
20
145.7589017
11
29.0820306
21
145.7528017
0
LINE
8
DEFAULT_255_2_778
10
29.0820306
20
145.7528017
11
29.0439306
21
145.7359017
0
LINE
8
DEFAULT_255_2_778
10
29.0439306
20
145.7359017
11
29.0092306
21
145.7131017
0
LINE
8
DEFAULT_255_2_778
10
29.0092306
20
145.7131017
11
28.9788306
21
145.6851017
0
LINE
8
DEFAULT_255_2_778
10
28.9788306
20
145.6851017
11
28.9656306
21
145.6689017
0
LINE
8
DEFAULT_255_2_778
10
28.9656306
20
145.6689017
11
28.9537306
21
145.6517017
0
LINE
8
DEFAULT_255_2_778
10
28.9537306
20
145.6517017
11
28.9336306
21
145.6152017
0
LINE
8
DEFAULT_255_2_778
10
28.9336306
20
145.6152017
11
28.9180306
21
145.5766017
0
LINE
8
DEFAULT_255_2_778
10
28.9180306
20
145.5766017
11
28.9060306
21
145.5372017
0
LINE
8
DEFAULT_255_2_778
10
28.9060306
20
145.5372017
11
28.8973306
21
145.4969017
0
LINE
8
DEFAULT_255_2_778
10
28.8873306
20
145.4147017
11
28.8838306
21
145.3321017
0
LINE
8
DEFAULT_255_2_778
10
28.8838306
20
145.3321017
11
28.8838306
21
145.2908017
0
LINE
8
DEFAULT_255_2_778
10
28.8838306
20
145.2908017
11
28.8838306
21
145.2496017
0
LINE
8
DEFAULT_255_2_778
10
28.8838306
20
145.2496017
11
28.8838306
21
145.0845017
0
LINE
8
DEFAULT_255_2_778
10
28.8838306
20
145.0845017
11
28.8838306
21
144.9194017
0
LINE
8
DEFAULT_255_2_778
10
28.8838306
20
144.9194017
11
28.8838306
21
144.8781017
0
LINE
8
DEFAULT_255_2_778
10
28.8838306
20
144.8781017
11
28.8846306
21
144.8368017
0
LINE
8
DEFAULT_255_2_778
10
28.8846306
20
144.8368017
11
28.8894306
21
144.7543017
0
LINE
8
DEFAULT_255_2_778
10
28.8894306
20
144.7543017
11
28.9002306
21
144.6722017
0
LINE
8
DEFAULT_255_2_778
10
28.9002306
20
144.6722017
11
28.9087306
21
144.6318017
0
LINE
8
DEFAULT_255_2_778
10
28.9087306
20
144.6318017
11
28.9203306
21
144.5921017
0
LINE
8
DEFAULT_255_2_778
10
28.9529306
20
144.5167017
11
28.9751306
21
144.4817017
0
LINE
8
DEFAULT_255_2_778
10
28.9751306
20
144.4817017
11
29.0026306
21
144.4505017
0
LINE
8
DEFAULT_255_2_778
10
29.0026306
20
144.4505017
11
29.0182306
21
144.4370017
0
LINE
8
DEFAULT_255_2_778
10
29.0182306
20
144.4370017
11
29.0352306
21
144.4246017
0
LINE
8
DEFAULT_255_2_778
10
29.0352306
20
144.4246017
11
29.0717306
21
144.4047017
0
LINE
8
DEFAULT_255_2_778
10
29.0717306
20
144.4047017
11
29.0913306
21
144.3976017
0
LINE
8
DEFAULT_255_2_778
10
29.0913306
20
144.3976017
11
29.1116306
21
144.3923017
0
LINE
8
DEFAULT_255_2_778
10
29.1116306
20
144.3923017
11
29.1323306
21
144.3891017
0
LINE
8
DEFAULT_255_2_778
10
29.1323306
20
144.3891017
11
29.1529306
21
144.3870017
0
LINE
8
DEFAULT_255_2_778
10
29.1529306
20
144.3870017
11
29.2357306
21
144.3820017
0
LINE
8
DEFAULT_255_2_778
10
29.2357306
20
144.3820017
11
29.2773306
21
144.3817017
0
LINE
8
DEFAULT_255_2_778
10
29.2773306
20
144.3817017
11
29.3191306
21
144.3841017
0
LINE
8
DEFAULT_255_2_778
10
29.3191306
20
144.3841017
11
29.3397306
21
144.3862017
0
LINE
8
DEFAULT_255_2_778
10
29.3397306
20
144.3862017
11
29.3603306
21
144.3889017
0
LINE
8
DEFAULT_255_2_778
10
29.3603306
20
144.3889017
11
29.4008306
21
144.3989017
0
LINE
8
DEFAULT_255_2_778
10
29.4008306
20
144.3989017
11
29.4204306
21
144.4063017
0
LINE
8
DEFAULT_255_2_778
10
29.4204306
20
144.4063017
11
29.4392306
21
144.4153017
0
LINE
8
DEFAULT_255_2_778
10
29.4392306
20
144.4153017
11
29.4738306
21
144.4378017
0
LINE
8
DEFAULT_255_2_778
10
29.4738306
20
144.4378017
11
29.5051306
21
144.4656017
0
LINE
8
DEFAULT_255_2_778
10
29.5051306
20
144.4656017
11
29.5191306
21
144.4809017
0
LINE
8
DEFAULT_255_2_778
10
29.5191306
20
144.4809017
11
29.5313306
21
144.4976017
0
LINE
8
DEFAULT_255_2_778
10
29.5313306
20
144.4976017
11
29.5516306
21
144.5339017
0
LINE
8
DEFAULT_255_2_778
10
29.5516306
20
144.5339017
11
29.5672306
21
144.5725017
0
LINE
8
DEFAULT_255_2_778
10
29.5672306
20
144.5725017
11
29.6715306
21
144.5347017
0
LINE
8
DEFAULT_255_2_778
10
29.6419306
20
144.4677017
11
29.6231306
21
144.4362017
0
LINE
8
DEFAULT_255_2_778
10
29.6231306
20
144.4362017
11
29.6011306
21
144.4066017
0
LINE
8
DEFAULT_255_2_778
10
29.5487306
20
144.3553017
11
29.5186306
21
144.3341017
0
LINE
8
DEFAULT_255_2_778
10
29.5186306
20
144.3341017
11
29.4863306
21
144.3161017
0
LINE
8
DEFAULT_255_2_778
10
29.4863306
20
144.3161017
11
29.4172306
21
144.2902017
0
LINE
8
DEFAULT_255_2_778
10
29.4172306
20
144.2902017
11
29.3447306
21
144.2759017
0
LINE
8
DEFAULT_255_2_778
10
29.3447306
20
144.2759017
11
29.2712306
21
144.2711017
0
LINE
8
DEFAULT_255_2_778
10
29.2712306
20
144.2711017
11
29.2341306
21
144.2714017
0
LINE
8
DEFAULT_255_2_778
10
29.2341306
20
144.2714017
11
29.1971306
21
144.2724017
0
LINE
8
DEFAULT_255_2_778
10
29.1971306
20
144.2724017
11
29.1603306
21
144.2743017
0
LINE
8
DEFAULT_255_2_778
10
29.1603306
20
144.2743017
11
29.1238306
21
144.2785017
0
LINE
8
DEFAULT_255_2_778
10
29.1238306
20
144.2785017
11
29.0518306
21
144.2960017
0
LINE
8
DEFAULT_255_2_778
10
28.9844306
20
144.3264017
11
28.9531306
21
144.3463017
0
LINE
8
DEFAULT_255_2_778
10
28.9531306
20
144.3463017
11
28.9383306
21
144.3574017
0
LINE
8
DEFAULT_255_2_778
10
28.9383306
20
144.3574017
11
28.9243306
21
144.3693017
0
LINE
8
DEFAULT_255_2_778
10
28.8769306
20
144.4248017
11
28.8574306
21
144.4558017
0
LINE
8
DEFAULT_255_2_778
10
28.8574306
20
144.4558017
11
28.8407306
21
144.4881017
0
LINE
8
DEFAULT_255_2_778
10
28.8145306
20
144.5558017
11
28.8042306
21
144.5910017
0
LINE
8
DEFAULT_255_2_778
10
28.8042306
20
144.5910017
11
28.7955306
21
144.6265017
0
LINE
8
DEFAULT_255_2_778
10
28.7751306
20
144.7693017
11
28.7714306
21
144.8413017
0
LINE
8
DEFAULT_255_2_778
10
28.7714306
20
144.8413017
11
28.7708306
21
144.8776017
0
LINE
8
DEFAULT_255_2_778
10
28.7708306
20
144.8776017
11
28.7708306
21
144.9138017
0
LINE
8
DEFAULT_255_2_778
10
28.7708306
20
144.9138017
11
28.7708306
21
145.2035017
0
LINE
8
DEFAULT_255_2_778
10
28.7708306
20
145.2035017
11
28.7708306
21
145.2760017
0
LINE
8
DEFAULT_255_2_778
10
28.7708306
20
145.2760017
11
28.7708306
21
145.3123017
0
LINE
8
DEFAULT_255_2_778
10
28.7708306
20
145.3123017
11
28.7711306
21
145.3485017
0
LINE
8
DEFAULT_255_2_778
10
28.7830306
20
145.4922017
11
28.7973306
21
145.5631017
0
LINE
8
DEFAULT_255_2_778
10
28.8502306
20
145.6970017
11
28.8701306
21
145.7274017
0
LINE
8
DEFAULT_255_2_778
10
28.8701306
20
145.7274017
11
28.8928306
21
145.7557017
0
LINE
8
DEFAULT_255_2_778
10
28.4406306
20
144.2762017
11
28.4047306
21
144.3841017
0
LINE
8
DEFAULT_255_2_778
10
28.4047306
20
144.3841017
11
28.3861306
21
144.4378017
0
LINE
8
DEFAULT_255_2_778
10
28.3861306
20
144.4378017
11
28.3679306
21
144.4918017
0
LINE
8
DEFAULT_255_2_778
10
28.3679306
20
144.4918017
11
28.3327306
21
144.6000017
0
LINE
8
DEFAULT_255_2_778
10
28.3327306
20
144.6000017
11
28.2986306
21
144.7087017
0
LINE
8
DEFAULT_255_2_778
10
28.2986306
20
144.7087017
11
27.6128306
21
144.7087017
0
LINE
8
DEFAULT_255_2_778
10
27.6128306
20
144.7087017
11
27.4665306
21
144.2762017
0
LINE
8
DEFAULT_255_2_778
10
27.4665306
20
144.2762017
11
27.3598306
21
144.3116017
0
LINE
8
DEFAULT_255_2_778
10
27.3598306
20
144.3116017
11
27.8900306
21
145.8896017
0
LINE
8
DEFAULT_255_2_778
10
27.8900306
20
145.8896017
11
28.0321306
21
145.8896017
0
LINE
8
DEFAULT_255_2_778
10
28.0321306
20
145.8896017
11
28.5494306
21
144.3116017
0
LINE
8
DEFAULT_255_2_778
10
28.5494306
20
144.3116017
11
28.4406306
21
144.2762017
0
LINE
8
DEFAULT_255_2_778
10
28.2610306
20
144.8220017
11
28.1864306
21
145.0535017
0
LINE
8
DEFAULT_255_2_778
10
28.1864306
20
145.0535017
11
28.1483306
21
145.1691017
0
LINE
8
DEFAULT_255_2_778
10
28.1483306
20
145.1691017
11
28.1102306
21
145.2847017
0
LINE
8
DEFAULT_255_2_778
10
28.1102306
20
145.2847017
11
28.0353306
21
145.5160017
0
LINE
8
DEFAULT_255_2_778
10
28.0353306
20
145.5160017
11
27.9983306
21
145.6319017
0
LINE
8
DEFAULT_255_2_778
10
27.9983306
20
145.6319017
11
27.9797306
21
145.6898017
0
LINE
8
DEFAULT_255_2_778
10
27.9797306
20
145.6898017
11
27.9612306
21
145.7478017
0
LINE
8
DEFAULT_255_2_778
10
27.9612306
20
145.7478017
11
27.9535306
21
145.7245017
0
LINE
8
DEFAULT_255_2_778
10
27.9535306
20
145.7245017
11
27.9374306
21
145.6758017
0
LINE
8
DEFAULT_255_2_778
10
27.9374306
20
145.6758017
11
27.9213306
21
145.6271017
0
LINE
8
DEFAULT_255_2_778
10
27.9213306
20
145.6271017
11
27.8538306
21
145.4260017
0
LINE
8
DEFAULT_255_2_778
10
27.8538306
20
145.4260017
11
27.7853306
21
145.2252017
0
LINE
8
DEFAULT_255_2_778
10
27.7853306
20
145.2252017
11
27.7178306
21
145.0239017
0
LINE
8
DEFAULT_255_2_778
10
27.7178306
20
145.0239017
11
27.6506306
21
144.8225017
0
LINE
8
DEFAULT_255_2_778
10
27.6506306
20
144.8225017
11
28.2610306
21
144.8220017
0
LINE
8
DEFAULT_255_2_778
10
30.4488306
20
145.8999017
11
30.7322306
21
145.8999017
0
LINE
8
DEFAULT_255_2_778
10
30.7322306
20
145.8999017
11
30.8031306
21
145.8999017
0
LINE
8
DEFAULT_255_2_778
10
30.8031306
20
145.8999017
11
30.8735306
21
145.8967017
0
LINE
8
DEFAULT_255_2_778
10
31.1137306
20
145.8211017
11
31.1603306
21
145.7896017
0
LINE
8
DEFAULT_255_2_778
10
31.1603306
20
145.7896017
11
31.1823306
21
145.7716017
0
LINE
8
DEFAULT_255_2_778
10
31.1823306
20
145.7716017
11
31.2026306
21
145.7523017
0
LINE
8
DEFAULT_255_2_778
10
31.2026306
20
145.7523017
11
31.2389306
21
145.7097017
0
LINE
8
DEFAULT_255_2_778
10
31.2389306
20
145.7097017
11
31.2690306
21
145.6620017
0
LINE
8
DEFAULT_255_2_778
10
31.2984306
20
145.3353017
11
31.2892306
21
145.3088017
0
LINE
8
DEFAULT_255_2_778
10
31.2892306
20
145.3088017
11
31.2778306
21
145.2829017
0
LINE
8
DEFAULT_255_2_778
10
31.2492306
20
145.2347017
11
31.2135306
21
145.1913017
0
LINE
8
DEFAULT_255_2_778
10
31.2135306
20
145.1913017
11
31.1706306
21
145.1540017
0
LINE
8
DEFAULT_255_2_778
10
31.2542306
20
145.0950017
11
31.2720306
21
145.0763017
0
LINE
8
DEFAULT_255_2_778
10
31.2720306
20
145.0763017
11
31.2878306
21
145.0561017
0
LINE
8
DEFAULT_255_2_778
10
31.2878306
20
145.0561017
11
31.3146306
21
145.0128017
0
LINE
8
DEFAULT_255_2_778
10
31.3146306
20
145.0128017
11
31.3254306
21
144.9895017
0
LINE
8
DEFAULT_255_2_778
10
31.3254306
20
144.9895017
11
31.3347306
21
144.9657017
0
LINE
8
DEFAULT_255_2_778
10
31.3484306
20
144.9170017
11
31.3569306
21
144.8667017
0
LINE
8
DEFAULT_255_2_778
10
31.3569306
20
144.8667017
11
31.3609306
21
144.8159017
0
LINE
8
DEFAULT_255_2_778
10
31.3609306
20
144.8159017
11
31.3611306
21
144.7654017
0
LINE
8
DEFAULT_255_2_778
10
31.3611306
20
144.7654017
11
31.3577306
21
144.7148017
0
LINE
8
DEFAULT_255_2_778
10
31.3577306
20
144.7148017
11
31.3503306
21
144.6646017
0
LINE
8
DEFAULT_255_2_778
10
31.3503306
20
144.6646017
11
31.3392306
21
144.6148017
0
LINE
8
DEFAULT_255_2_778
10
31.3000306
20
144.5212017
11
31.2862306
21
144.4995017
0
LINE
8
DEFAULT_255_2_778
10
31.2862306
20
144.4995017
11
31.2712306
21
144.4788017
0
LINE
8
DEFAULT_255_2_778
10
31.2712306
20
144.4788017
11
31.2370306
21
144.4410017
0
LINE
8
DEFAULT_255_2_778
10
31.2370306
20
144.4410017
11
31.2180306
21
144.4238017
0
LINE
8
DEFAULT_255_2_778
10
31.2180306
20
144.4238017
11
31.1976306
21
144.4079017
0
LINE
8
DEFAULT_255_2_778
10
31.1976306
20
144.4079017
11
31.1547306
21
144.3801017
0
LINE
8
DEFAULT_255_2_778
10
31.1547306
20
144.3801017
11
31.1092306
21
144.3569017
0
LINE
8
DEFAULT_255_2_778
10
31.1092306
20
144.3569017
11
31.0616306
21
144.3375017
0
LINE
8
DEFAULT_255_2_778
10
30.9624306
20
144.3132017
11
30.8608306
21
144.3029017
0
LINE
8
DEFAULT_255_2_778
10
30.8608306
20
144.3029017
11
30.8095306
21
144.3016017
0
LINE
8
DEFAULT_255_2_778
10
30.8095306
20
144.3016017
11
30.7838306
21
144.3016017
0
LINE
8
DEFAULT_255_2_778
10
30.7838306
20
144.3016017
11
30.7581306
21
144.3016017
0
LINE
8
DEFAULT_255_2_778
10
30.7581306
20
144.3016017
11
30.6552306
21
144.3016017
0
LINE
8
DEFAULT_255_2_778
10
30.6552306
20
144.3016017
11
30.4496306
21
144.3016017
0
LINE
8
DEFAULT_255_2_778
10
30.4496306
20
144.3016017
11
30.4488306
21
145.8999017
0
LINE
8
DEFAULT_255_2_778
10
30.5618306
20
144.4129017
11
30.7068306
21
144.4129017
0
LINE
8
DEFAULT_255_2_778
10
30.7068306
20
144.4129017
11
30.7793306
21
144.4129017
0
LINE
8
DEFAULT_255_2_778
10
30.7793306
20
144.4129017
11
30.8155306
21
144.4132017
0
LINE
8
DEFAULT_255_2_778
10
30.8155306
20
144.4132017
11
30.8518306
21
144.4145017
0
LINE
8
DEFAULT_255_2_778
10
30.8518306
20
144.4145017
11
30.9240306
21
144.4209017
0
LINE
8
DEFAULT_255_2_778
10
30.9240306
20
144.4209017
11
30.9420306
21
144.4233017
0
LINE
8
DEFAULT_255_2_778
10
30.9420306
20
144.4233017
11
30.9600306
21
144.4259017
0
LINE
8
DEFAULT_255_2_778
10
30.9600306
20
144.4259017
11
30.9955306
21
144.4336017
0
LINE
8
DEFAULT_255_2_778
10
30.9955306
20
144.4336017
11
31.0632306
21
144.4582017
0
LINE
8
DEFAULT_255_2_778
10
31.0632306
20
144.4582017
11
31.0952306
21
144.4749017
0
LINE
8
DEFAULT_255_2_778
10
31.0952306
20
144.4749017
11
31.1251306
21
144.4950017
0
LINE
8
DEFAULT_255_2_778
10
31.1251306
20
144.4950017
11
31.1521306
21
144.5188017
0
LINE
8
DEFAULT_255_2_778
10
31.1521306
20
144.5188017
11
31.1762306
21
144.5458017
0
LINE
8
DEFAULT_255_2_778
10
31.1762306
20
144.5458017
11
31.1968306
21
144.5751017
0
LINE
8
DEFAULT_255_2_778
10
31.1968306
20
144.5751017
11
31.2061306
21
144.5907017
0
LINE
8
DEFAULT_255_2_778
10
31.2061306
20
144.5907017
11
31.2143306
21
144.6069017
0
LINE
8
DEFAULT_255_2_778
10
31.2368306
20
144.6749017
11
31.2428306
21
144.7103017
0
LINE
8
DEFAULT_255_2_778
10
31.2428306
20
144.7103017
11
31.2463306
21
144.7461017
0
LINE
8
DEFAULT_255_2_778
10
31.2463306
20
144.7461017
11
31.2476306
21
144.7818017
0
LINE
8
DEFAULT_255_2_778
10
31.2476306
20
144.7818017
11
31.2468306
21
144.8175017
0
LINE
8
DEFAULT_255_2_778
10
31.2384306
20
144.8884017
11
31.2294306
21
144.9236017
0
LINE
8
DEFAULT_255_2_778
10
31.2294306
20
144.9236017
11
31.2167306
21
144.9572017
0
LINE
8
DEFAULT_255_2_778
10
31.2167306
20
144.9572017
11
31.2085306
21
144.9733017
0
LINE
8
DEFAULT_255_2_778
10
31.2085306
20
144.9733017
11
31.1989306
21
144.9889017
0
LINE
8
DEFAULT_255_2_778
10
31.1989306
20
144.9889017
11
31.1762306
21
145.0173017
0
LINE
8
DEFAULT_255_2_778
10
31.1116306
20
145.0614017
11
31.0931306
21
145.0688017
0
LINE
8
DEFAULT_255_2_778
10
31.0931306
20
145.0688017
11
31.0743306
21
145.0749017
0
LINE
8
DEFAULT_255_2_778
10
31.0743306
20
145.0749017
11
31.0359306
21
145.0837017
0
LINE
8
DEFAULT_255_2_778
10
31.0359306
20
145.0837017
11
30.9571306
21
145.0903017
0
LINE
8
DEFAULT_255_2_778
10
30.9571306
20
145.0903017
11
30.9373306
21
145.0903017
0
LINE
8
DEFAULT_255_2_778
10
30.9373306
20
145.0903017
11
30.9174306
21
145.0903017
0
LINE
8
DEFAULT_255_2_778
10
30.9174306
20
145.0903017
11
30.8777306
21
145.0903017
0
LINE
8
DEFAULT_255_2_778
10
30.8777306
20
145.0903017
11
30.5610306
21
145.0903017
0
LINE
8
DEFAULT_255_2_778
10
30.5610306
20
145.0903017
11
30.5618306
21
144.4129017
0
LINE
8
DEFAULT_255_2_778
10
30.5618306
20
145.2009017
11
30.8314306
21
145.2009017
0
LINE
8
DEFAULT_255_2_778
10
30.8314306
20
145.2009017
11
30.8989306
21
145.2009017
0
LINE
8
DEFAULT_255_2_778
10
30.8989306
20
145.2009017
11
30.9325306
21
145.2009017
0
LINE
8
DEFAULT_255_2_778
10
30.9325306
20
145.2009017
11
30.9661306
21
145.2011017
0
LINE
8
DEFAULT_255_2_778
10
31.0322306
20
145.2109017
11
31.0640306
21
145.2218017
0
LINE
8
DEFAULT_255_2_778
10
31.0640306
20
145.2218017
11
31.0934306
21
145.2371017
0
LINE
8
DEFAULT_255_2_778
10
31.0934306
20
145.2371017
11
31.1071306
21
145.2464017
0
LINE
8
DEFAULT_255_2_778
10
31.1071306
20
145.2464017
11
31.1203306
21
145.2570017
0
LINE
8
DEFAULT_255_2_778
10
31.1203306
20
145.2570017
11
31.1439306
21
145.2805017
0
LINE
8
DEFAULT_255_2_778
10
31.1439306
20
145.2805017
11
31.1635306
21
145.3075017
0
LINE
8
DEFAULT_255_2_778
10
31.1635306
20
145.3075017
11
31.1791306
21
145.3369017
0
LINE
8
DEFAULT_255_2_778
10
31.1791306
20
145.3369017
11
31.1905306
21
145.3681017
0
LINE
8
DEFAULT_255_2_778
10
31.2034306
20
145.4662017
11
31.2018306
21
145.4993017
0
LINE
8
DEFAULT_255_2_778
10
31.1968306
20
145.5321017
11
31.1881306
21
145.5639017
0
LINE
8
DEFAULT_255_2_778
10
31.1881306
20
145.5639017
11
31.1754306
21
145.5948017
0
LINE
8
DEFAULT_255_2_778
10
31.1402306
20
145.6507017
11
31.1177306
21
145.6753017
0
LINE
8
DEFAULT_255_2_778
10
31.1177306
20
145.6753017
11
31.0926306
21
145.6975017
0
LINE
8
DEFAULT_255_2_778
10
30.9719306
20
145.7610017
11
30.9388306
21
145.7705017
0
LINE
8
DEFAULT_255_2_778
10
30.9388306
20
145.7705017
11
30.9055306
21
145.7777017
0
LINE
8
DEFAULT_255_2_778
10
30.9055306
20
145.7777017
11
30.8378306
21
145.7853017
0
LINE
8
DEFAULT_255_2_778
10
30.8378306
20
145.7853017
11
30.8034306
21
145.7861017
0
LINE
8
DEFAULT_255_2_778
10
30.8034306
20
145.7861017
11
30.7690306
21
145.7861017
0
LINE
8
DEFAULT_255_2_778
10
30.7690306
20
145.7861017
11
30.7002306
21
145.7861017
0
LINE
8
DEFAULT_255_2_778
10
30.7002306
20
145.7861017
11
30.5623306
21
145.7861017
0
LINE
8
DEFAULT_255_2_778
10
30.5623306
20
145.7861017
11
30.5618306
21
145.2009017
0
LINE
8
DEFAULT_255_2_778
10
22.9439306
20
145.3890017
11
23.0371306
21
145.3292017
0
LINE
8
DEFAULT_255_2_778
10
23.0371306
20
145.3292017
11
22.7286306
21
144.8432017
0
LINE
8
DEFAULT_255_2_778
10
22.7286306
20
144.8432017
11
23.0593306
21
144.3084017
0
LINE
8
DEFAULT_255_2_778
10
23.0593306
20
144.3084017
11
22.9638306
21
144.2508017
0
LINE
8
DEFAULT_255_2_778
10
22.9638306
20
144.2508017
11
22.6619306
21
144.7368017
0
LINE
8
DEFAULT_255_2_778
10
22.6619306
20
144.7368017
11
22.3600306
21
144.2553017
0
LINE
8
DEFAULT_255_2_778
10
22.3600306
20
144.2553017
11
22.2645306
21
144.3150017
0
LINE
8
DEFAULT_255_2_778
10
22.2645306
20
144.3150017
11
22.5973306
21
144.8432017
0
LINE
8
DEFAULT_255_2_778
10
22.5973306
20
144.8432017
11
22.2912306
21
145.3337017
0
LINE
8
DEFAULT_255_2_778
10
22.2912306
20
145.3337017
11
22.3867306
21
145.3935017
0
LINE
8
DEFAULT_255_2_778
10
22.3867306
20
145.3935017
11
22.6640306
21
144.9474017
0
LINE
8
DEFAULT_255_2_778
10
22.6640306
20
144.9474017
11
22.9437306
21
145.3890017
0
LINE
8
DEFAULT_255_2_778
10
20.7661306
20
145.8851017
11
20.4685306
21
145.5874017
0
LINE
8
DEFAULT_255_2_778
10
20.4685306
20
145.5874017
11
20.4685306
21
145.4551017
0
LINE
8
DEFAULT_255_2_778
10
20.4685306
20
145.4551017
11
20.7661306
21
145.7528017
0
LINE
8
DEFAULT_255_2_778
10
20.7661306
20
145.7528017
11
20.7661306
21
144.2645017
0
LINE
8
DEFAULT_255_2_778
10
20.7661306
20
144.2645017
11
20.8984306
21
144.2645017
0
LINE
8
DEFAULT_255_2_778
10
20.8984306
20
144.2645017
11
20.8984306
21
145.8851017
0
LINE
8
DEFAULT_255_2_778
10
20.8984306
20
145.8851017
11
20.7661306
21
145.8851017
0
LINE
8
DEFAULT_255_2_778
10
23.3569306
20
145.6208017
11
23.2577306
21
145.6869017
0
ARC
8
DEFAULT_255_2_778
10
21.7553601
20
144.8100617
40
0.385428
50
99.4340966
51
131.1425356
0
ARC
8
DEFAULT_255_2_778
10
21.7440421
20
144.8502336
40
0.3481898
50
134.0905249
51
173.8921772
0
ARC
8
DEFAULT_255_2_778
10
22.0123299
20
144.7993287
40
0.6207633
50
171.8546914
51
180.236947
0
ARC
8
DEFAULT_255_2_778
10
22.2154906
20
144.7978694
40
0.8239195
50
180.0770455
51
184.2882255
0
ARC
8
DEFAULT_255_2_778
10
22.3292243
20
144.805216
40
0.937885
50
184.2162417
51
184.766839
0
ARC
8
DEFAULT_255_2_778
10
22.041406
20
144.8439797
40
0.6572664
50
190.2275615
51
206.5465474
0
ARC
8
DEFAULT_255_2_778
10
21.6888292
20
144.6536771
40
0.2571222
50
203.7234184
51
270.7474677
0
ARC
8
DEFAULT_255_2_778
10
21.6976308
20
144.6314368
40
0.2349233
50
268.6713165
51
347.0374595
0
ARC
8
DEFAULT_255_2_778
10
21.2962505
20
144.7843049
40
0.6629904
50
341.9373527
51
355.0655157
0
ARC
8
DEFAULT_255_2_778
10
20.8272504
20
144.8909405
40
1.1413285
50
351.7555029
51
355.9362928
0
ARC
8
DEFAULT_255_2_778
10
21.1136091
20
144.8701161
40
0.8542141
50
355.9684235
51
359.9126443
0
ARC
8
DEFAULT_255_2_778
10
21.4771987
20
144.8792015
40
0.4907336
50
358.7870834
51
17.1869381
0
ARC
8
DEFAULT_255_2_778
10
21.7220351
20
144.9560369
40
0.2341283
50
16.9280984
51
92.7461766
0
ARC
8
DEFAULT_255_2_778
10
21.6923462
20
144.7414182
40
0.4488585
50
87.6414966
51
90.0207784
0
ARC
8
DEFAULT_255_2_778
10
21.6066942
20
145.3867038
40
0.5329489
50
38.638114
51
59.4595536
0
ARC
8
DEFAULT_255_2_778
10
21.713863
20
145.5624134
40
0.3271717
50
59.9875851
51
89.7833752
0
ARC
8
DEFAULT_255_2_778
10
21.7155901
20
145.5492219
40
0.3403613
50
90.0824962
51
99.5393976
0
ARC
8
DEFAULT_255_2_778
10
21.6967023
20
145.3324649
40
0.5536844
50
93.885468
51
115.7628633
0
ARC
8
DEFAULT_255_2_778
10
21.6191822
20
145.5154241
40
0.3553499
50
117.3283554
51
175.5013146
0
ARC
8
DEFAULT_255_2_778
10
21.8511846
20
145.4622787
40
0.5918292
50
172.1318624
51
174.2982766
0
LINE
8
DEFAULT_255_2_778
10
21.2622834
20
145.5210767
11
21.2622834
21
144.7603767
0
ARC
8
DEFAULT_255_2_778
10
22.2186832
20
144.8354202
40
0.9593394
50
184.4864986
51
196.5553792
0
ARC
8
DEFAULT_255_2_778
10
21.6999936
20
144.6741065
40
0.4162431
50
195.6151869
51
221.4063834
0
ARC
8
DEFAULT_255_2_778
10
21.5741973
20
144.5712244
40
0.2539174
50
222.7684523
51
251.5369364
0
ARC
8
DEFAULT_255_2_778
10
21.6419972
20
144.5674451
40
0.2795868
50
237.9866197
51
266.3040123
0
ARC
8
DEFAULT_255_2_778
10
21.6690846
20
144.769963
40
0.4836315
50
264.6480135
51
270.1170066
0
ARC
8
DEFAULT_255_2_778
10
21.6654617
20
144.9989856
40
0.7126683
50
270.3706751
51
278.6848267
0
ARC
8
DEFAULT_255_2_778
10
21.6343196
20
145.2390901
40
0.9547378
50
278.3565278
51
279.4748483
0
ARC
8
DEFAULT_255_2_778
10
21.6670525
20
144.7784967
40
0.4969502
50
284.5005378
51
305.5593316
0
ARC
8
DEFAULT_255_2_778
10
21.8094552
20
144.5785584
40
0.2514843
50
305.656548
51
348.6060613
0
ARC
8
DEFAULT_255_2_778
10
21.2847418
20
144.7954139
40
0.8159998
50
340.9351109
51
356.7473022
0
ARC
8
DEFAULT_255_2_778
10
21.4580429
20
144.7788647
40
0.6420739
50
357.3442487
51
359.9891729
0
ARC
8
DEFAULT_255_2_778
10
21.5208201
20
144.7801447
40
0.5792983
50
359.8613995
51
11.201244
0
ARC
8
DEFAULT_255_2_778
10
21.617085
20
144.9058881
40
0.4721833
50
358.3966892
51
24.7624056
0
ARC
8
DEFAULT_255_2_778
10
21.7470582
20
144.955449
40
0.3335354
50
26.3835972
51
64.4934279
0
ARC
8
DEFAULT_255_2_778
10
21.6852058
20
144.7526728
40
0.5440951
50
67.8117951
51
79.7207323
0
ARC
8
DEFAULT_255_2_778
10
21.7114006
20
144.8883587
40
0.4059155
50
79.9411785
51
89.8417288
0
ARC
8
DEFAULT_255_2_778
10
21.7151208
20
144.9379873
40
0.3562948
50
90.4179299
51
138.7594935
0
ARC
8
DEFAULT_255_2_778
10
21.9273378
20
144.7251953
40
0.6564562
50
137.0039396
51
149.5400285
0
ARC
8
DEFAULT_255_2_778
10
24.4623381
20
145.069235
40
3.1008751
50
175.84271
51
180.2080235
0
ARC
8
DEFAULT_255_2_778
10
22.909748
20
145.187684
40
1.5437933
50
168.633106
51
176.0499049
0
ARC
8
DEFAULT_255_2_778
10
22.0148377
20
145.3736543
40
0.6298115
50
154.9487335
51
169.1738422
0
ARC
8
DEFAULT_255_2_778
10
21.6287345
20
145.5632983
40
0.1999019
50
117.0456054
51
157.33316
0
ARC
8
DEFAULT_255_2_778
10
21.5920042
20
145.6164548
40
0.1361254
50
89.5878395
51
113.4472669
0
ARC
8
DEFAULT_255_2_778
10
21.659432
20
145.4226046
40
0.3365962
50
90.0423085
51
101.3857332
0
ARC
8
DEFAULT_255_2_778
10
21.6507923
20
145.3678578
40
0.3914329
50
55.387139
51
88.7716644
0
ARC
8
DEFAULT_255_2_778
10
21.5343607
20
145.1683281
40
0.6220306
50
51.2406611
51
57.0006107
0
LINE
8
DEFAULT_255_2_778
10
26.1350834
20
145.8649767
11
26.2591834
21
145.8980767
0
LINE
8
DEFAULT_255_2_778
10
26.2591834
20
145.8980767
11
26.6727834
21
144.4510767
0
LINE
8
DEFAULT_255_2_778
10
26.6727834
20
144.4510767
11
27.1026834
21
145.8980767
0
LINE
8
DEFAULT_255_2_778
10
27.1026834
20
145.8980767
11
27.2100834
21
145.8649767
0
LINE
8
DEFAULT_255_2_778
10
27.2100834
20
145.8649767
11
26.7552834
21
144.3023767
0
LINE
8
DEFAULT_255_2_778
10
26.7552834
20
144.3023767
11
26.5981834
21
144.3023767
0
LINE
8
DEFAULT_255_2_778
10
26.5981834
20
144.3023767
11
26.1350834
21
145.8649767
0
LINE
8
DEFAULT_255_2_778
10
21.6921834
20
145.1902767
11
21.6921834
21
145.1902767
0
LINE
8
DEFAULT_255_2_778
10
21.9237834
20
145.6533767
11
22.0229834
21
145.7194767
0
LINE
8
DEFAULT_255_2_778
10
21.9237834
20
145.6533767
11
21.9237834
21
145.6533767
0
ARC
8
DEFAULT_255_2_778
10
24.5992432
20
145.3540838
40
0.5025579
50
89.6460326
51
138.6503502
0
ARC
8
DEFAULT_255_2_778
10
24.5996068
20
145.2052828
40
0.651355
50
78.9102106
51
89.7588703
0
ARC
8
DEFAULT_255_2_778
10
24.5818725
20
145.0977239
40
0.7603236
50
78.5061124
51
79.1577972
0
ARC
8
DEFAULT_255_2_778
10
24.6817052
20
145.5314667
40
0.3155921
50
10.1678532
51
80.5765398
0
ARC
8
DEFAULT_255_2_778
10
24.3242403
20
145.4341019
40
0.685413
50
359.3204437
51
12.9050127
0
ARC
8
DEFAULT_255_2_778
10
23.95547
20
145.4272863
40
1.054136
50
356.2443231
51
359.9286053
0
ARC
8
DEFAULT_255_2_778
10
23.7974805
20
145.436296
40
1.2123771
50
355.5344102
51
356.3085137
0
ARC
8
DEFAULT_255_2_778
10
24.6799849
20
145.4452926
40
0.3421862
50
305.5497691
51
342.4130196
0
ARC
8
DEFAULT_255_2_778
10
24.7175168
20
145.4119323
40
0.293434
50
279.8227993
51
303.3739877
0
ARC
8
DEFAULT_255_2_778
10
24.64772
20
144.6906904
40
0.4484243
50
49.3397897
51
74.497227
0
ARC
8
DEFAULT_255_2_778
10
24.7177187
20
144.7916941
40
0.3264427
50
357.2559521
51
47.1082319
0
ARC
8
DEFAULT_255_2_778
10
24.4846625
20
144.7772687
40
0.5591259
50
353.6676789
51
359.8767457
0
ARC
8
DEFAULT_255_2_778
10
24.3940991
20
144.8204607
40
0.6547298
50
332.8344833
51
350.7838779
0
ARC
8
DEFAULT_255_2_778
10
24.6821731
20
144.6685623
40
0.3291016
50
267.0397163
51
333.4645418
0
ARC
8
DEFAULT_255_2_778
10
24.5883971
20
145.0009488
40
0.665493
50
270.1000992
51
276.6251479
0
ARC
8
DEFAULT_255_2_778
10
24.5786924
20
144.8104847
40
0.475152
50
221.3455484
51
271.3105467
0
ARC
8
DEFAULT_255_2_778
10
24.3693353
20
144.3557287
40
0.2038606
50
93.0531808
51
136.2893044
0
ARC
8
DEFAULT_255_2_778
10
24.5678075
20
144.6708912
40
0.2372169
50
208.0614992
51
273.1887992
0
ARC
8
DEFAULT_255_2_778
10
24.5859288
20
144.8304723
40
0.3964613
50
269.2881155
51
270.0039025
0
ARC
8
DEFAULT_255_2_778
10
24.5817367
20
144.9523027
40
0.5183088
50
270.4664004
51
281.2261858
0
ARC
8
DEFAULT_255_2_778
10
24.5279001
20
145.2399642
40
0.8109537
50
281.0003687
51
287.2052885
0
ARC
8
DEFAULT_255_2_778
10
24.667788
20
144.6642078
40
0.2226257
50
296.6882375
51
348.5199646
0
ARC
8
DEFAULT_255_2_778
10
24.3033363
20
144.7679325
40
0.6011355
50
345.7439427
51
1.016788
0
ARC
8
DEFAULT_255_2_778
10
24.6560715
20
144.7948468
40
0.2488366
50
356.2564182
51
75.3826989
0
ARC
8
DEFAULT_255_2_778
10
24.5466527
20
144.5012976
40
0.5613987
50
72.1358236
51
84.8160491
0
LINE
8
DEFAULT_255_2_778
10
24.5973771
20
145.0603999
11
24.5973771
21
145.1854999
0
ARC
8
DEFAULT_255_2_778
10
24.566146
20
145.6167488
40
0.4323783
50
274.1421399
51
298.4554076
0
ARC
8
DEFAULT_255_2_778
10
24.6336438
20
145.4686141
40
0.2702128
50
300.8392389
51
1.2318076
0
ARC
8
DEFAULT_255_2_778
10
24.4162153
20
145.4982747
40
0.4881619
50
357.1993941
51
0.0264284
0
ARC
8
DEFAULT_255_2_778
10
24.5759881
20
145.4667902
40
0.3299164
50
5.5154556
51
35.9781177
0
ARC
8
DEFAULT_255_2_778
10
24.65411
20
145.5028806
40
0.2460613
50
39.8671581
51
91.6863208
0
ARC
8
DEFAULT_255_2_778
10
24.6316766
20
145.3128395
40
0.4362604
50
88.0043241
51
90.0130724
0
ARC
8
DEFAULT_255_2_778
10
24.6191635
20
145.3344021
40
0.4148835
50
88.2854163
51
111.7503633
0
ARC
8
DEFAULT_255_2_778
10
24.5481753
20
145.5203134
40
0.2159225
50
112.5351679
51
151.3013886
0
ARC
8
DEFAULT_255_2_778
10
24.3779128
20
145.7823343
40
0.1594866
50
240.3214275
51
263.108871
0
ARC
8
DEFAULT_255_2_778
10
24.7156359
20
146.4778584
40
0.9323812
50
238.0527352
51
243.4544106
0
ARC
8
DEFAULT_255_2_778
10
25.5905513
20
145.4091984
40
0.4468206
50
89.4709381
51
103.8650421
0
ARC
8
DEFAULT_255_2_778
10
26.1993332
20
145.2991631
40
1.0107526
50
167.4901335
51
173.7557395
0
ARC
8
DEFAULT_255_2_778
10
26.0286254
20
144.759966
40
0.8371175
50
188.7168295
51
196.3296045
0
ARC
8
DEFAULT_255_2_778
10
25.5909133
20
144.6017922
40
0.3707094
50
209.0298335
51
226.2958494
0
ARC
8
DEFAULT_255_2_778
10
25.5547097
20
144.5492302
40
0.3078646
50
224.4075015
51
237.5624031
0
ARC
8
DEFAULT_255_2_778
10
25.6281662
20
144.5538802
40
0.313747
50
302.4425814
51
315.4559052
0
ARC
8
DEFAULT_255_2_778
10
25.5688886
20
144.6171357
40
0.4003812
50
314.9547465
51
330.9137177
0
ARC
8
DEFAULT_255_2_778
10
25.2413158
20
144.7425013
40
0.7517908
50
343.215131
51
351.6710608
0
ARC
8
DEFAULT_255_2_778
10
25.3282841
20
145.3824249
40
0.6614936
50
11.9772174
51
21.5406646
0
ARC
8
DEFAULT_255_2_778
10
25.5631764
20
145.4734676
40
0.4095824
50
21.7588087
51
29.5231904
0
ARC
8
DEFAULT_255_2_778
10
25.9021164
20
144.7231231
40
0.5905264
50
192.8490571
51
200.0775949
0
ARC
8
DEFAULT_255_2_778
10
26.7780701
20
144.8650002
40
1.4786361
50
182.0463965
51
187.7892964
0
ARC
8
DEFAULT_255_2_778
10
25.9212393
20
145.363193
40
0.6133456
50
162.0714262
51
168.9928611
0
ARC
8
DEFAULT_255_2_778
10
25.6088551
20
145.4820147
40
0.2782207
50
134.9261415
51
150.2197558
0
ARC
8
DEFAULT_255_2_778
10
25.5442326
20
145.5512841
40
0.183568
50
120.5317696
51
135.9136752
0
ARC
8
DEFAULT_255_2_778
10
25.6336978
20
145.5353329
40
0.2021242
50
45.0977611
51
59.1725863
0
ARC
8
DEFAULT_255_2_778
10
25.547306
20
145.4620625
40
0.3151487
50
26.1994674
51
43.3756398
0
ARC
8
DEFAULT_255_2_778
10
25.4821018
20
145.4297982
40
0.3878987
50
19.2210779
51
26.2234022
0
ARC
8
DEFAULT_255_2_778
10
25.1506137
20
144.7625793
40
0.7323014
50
345.1258512
51
352.5161875
0
ARC
8
DEFAULT_255_2_778
10
25.5021927
20
144.6509561
40
0.3630668
50
333.0659747
51
340.4728691
0
ARC
8
DEFAULT_255_2_778
10
25.5905846
20
144.6916311
40
0.3424522
50
269.9970404
51
270.6345419
0
ARC
8
DEFAULT_255_2_778
10
25.5903749
20
144.6881681
40
0.3389894
50
256.975395
51
270.0324429
0
ARC
8
DEFAULT_255_2_778
10
25.6281464
20
144.6176402
40
0.2974227
50
199.2056848
51
214.7524186
0
LINE
8
DEFAULT_255_2_778
10
24.2222771
20
145.6866999
11
24.2219771
21
145.6860999
0
LINE
8
DEFAULT_255_2_778
10
25.4834771
20
145.8429999
11
25.4303771
21
145.8247999
0
LINE
8
DEFAULT_255_2_778
10
25.4303771
20
145.8247999
11
25.3810771
21
145.7979999
0
LINE
8
DEFAULT_255_2_778
10
25.3810771
20
145.7979999
11
25.3583771
21
145.7813999
0
LINE
8
DEFAULT_255_2_778
10
25.3583771
20
145.7813999
11
25.3371771
21
145.7628999
0
LINE
8
DEFAULT_255_2_778
10
25.3371771
20
145.7628999
11
25.2998771
21
145.7212999
0
LINE
8
DEFAULT_255_2_778
10
25.2998771
20
145.7212999
11
25.2834771
21
145.6982999
0
LINE
8
DEFAULT_255_2_778
10
25.2834771
20
145.6982999
11
25.2689771
21
145.6744999
0
LINE
8
DEFAULT_255_2_778
10
25.2689771
20
145.6744999
11
25.2562771
21
145.6498999
0
LINE
8
DEFAULT_255_2_778
10
25.2562771
20
145.6498999
11
25.2450771
21
145.6244999
0
LINE
8
DEFAULT_255_2_778
10
25.2450771
20
145.6244999
11
25.2268771
21
145.5717999
0
LINE
8
DEFAULT_255_2_778
10
25.2268771
20
145.5717999
11
25.2125771
21
145.5180999
0
LINE
8
DEFAULT_255_2_778
10
25.1945771
20
145.4090999
11
25.1866771
21
145.2987999
0
LINE
8
DEFAULT_255_2_778
10
25.1866771
20
145.2987999
11
25.1852771
21
145.2431999
0
LINE
8
DEFAULT_255_2_778
10
25.1852771
20
145.2431999
11
25.1845771
21
145.1876999
0
LINE
8
DEFAULT_255_2_778
10
25.1845771
20
145.1876999
11
25.1837771
21
145.0764999
0
LINE
8
DEFAULT_255_2_778
10
25.1837771
20
145.0764999
11
25.1839771
21
144.9653999
0
LINE
8
DEFAULT_255_2_778
10
25.1839771
20
144.9653999
11
25.1852771
21
144.8542999
0
LINE
8
DEFAULT_255_2_778
10
25.1852771
20
144.8542999
11
25.1866771
21
144.7986999
0
LINE
8
DEFAULT_255_2_778
10
25.1866771
20
144.7986999
11
25.1892771
21
144.7433999
0
LINE
8
DEFAULT_255_2_778
10
25.1892771
20
144.7433999
11
25.2011771
21
144.6330999
0
LINE
8
DEFAULT_255_2_778
10
25.2252771
20
144.5245999
11
25.2432771
21
144.4721999
0
LINE
8
DEFAULT_255_2_778
10
25.2432771
20
144.4721999
11
25.2540771
21
144.4467999
0
LINE
8
DEFAULT_255_2_778
10
25.2540771
20
144.4467999
11
25.2667771
21
144.4218999
0
LINE
8
DEFAULT_255_2_778
10
25.3895771
20
144.2893999
11
25.4205771
21
144.2721999
0
LINE
8
DEFAULT_255_2_778
10
25.4205771
20
144.2721999
11
25.4533771
21
144.2583999
0
LINE
8
DEFAULT_255_2_778
10
25.4533771
20
144.2583999
11
25.5221771
21
144.2414999
0
LINE
8
DEFAULT_255_2_778
10
25.5221771
20
144.2414999
11
25.5927771
21
144.2361999
0
LINE
8
DEFAULT_255_2_778
10
25.5927771
20
144.2361999
11
25.6633771
21
144.2411999
0
LINE
8
DEFAULT_255_2_778
10
25.6633771
20
144.2411999
11
25.6983771
21
144.2480999
0
LINE
8
DEFAULT_255_2_778
10
25.6983771
20
144.2480999
11
25.7324771
21
144.2581999
0
LINE
8
DEFAULT_255_2_778
10
25.7324771
20
144.2581999
11
25.7652771
21
144.2716999
0
LINE
8
DEFAULT_255_2_778
10
25.7652771
20
144.2716999
11
25.7964771
21
144.2890999
0
LINE
8
DEFAULT_255_2_778
10
25.9187771
20
144.4224999
11
25.9314771
21
144.4472999
0
LINE
8
DEFAULT_255_2_778
10
25.9314771
20
144.4472999
11
25.9425771
21
144.4729999
0
LINE
8
DEFAULT_255_2_778
10
25.9425771
20
144.4729999
11
25.9610771
21
144.5253999
0
LINE
8
DEFAULT_255_2_778
10
25.9851771
20
144.6335999
11
25.9925771
21
144.6888999
0
LINE
8
DEFAULT_255_2_778
10
25.9925771
20
144.6888999
11
25.9973771
21
144.7441999
0
LINE
8
DEFAULT_255_2_778
10
25.9973771
20
144.7441999
11
25.9999771
21
144.7997999
0
LINE
8
DEFAULT_255_2_778
10
25.9999771
20
144.7997999
11
26.0004771
21
144.8275999
0
LINE
8
DEFAULT_255_2_778
10
26.0004771
20
144.8275999
11
26.0010771
21
144.8552999
0
LINE
8
DEFAULT_255_2_778
10
26.0010771
20
144.8552999
11
26.0023771
21
144.9661999
0
LINE
8
DEFAULT_255_2_778
10
26.0023771
20
144.9661999
11
26.0025771
21
145.0770999
0
LINE
8
DEFAULT_255_2_778
10
26.0025771
20
145.0770999
11
26.0018771
21
145.1881999
0
LINE
8
DEFAULT_255_2_778
10
26.0018771
20
145.1881999
11
26.0010771
21
145.2436999
0
LINE
8
DEFAULT_255_2_778
10
26.0010771
20
145.2436999
11
25.9996771
21
145.2992999
0
LINE
8
DEFAULT_255_2_778
10
25.9996771
20
145.2992999
11
25.9922771
21
145.4098999
0
LINE
8
DEFAULT_255_2_778
10
25.9922771
20
145.4098999
11
25.9853771
21
145.4648999
0
LINE
8
DEFAULT_255_2_778
10
25.9853771
20
145.4648999
11
25.9753771
21
145.5196999
0
LINE
8
DEFAULT_255_2_778
10
25.9195771
20
145.6752999
11
25.8885771
21
145.7215999
0
LINE
8
DEFAULT_255_2_778
10
25.8885771
20
145.7215999
11
25.8512771
21
145.7630999
0
LINE
8
DEFAULT_255_2_778
10
25.8512771
20
145.7630999
11
25.8303771
21
145.7815999
0
LINE
8
DEFAULT_255_2_778
10
25.8303771
20
145.7815999
11
25.8078771
21
145.7979999
0
LINE
8
DEFAULT_255_2_778
10
25.8078771
20
145.7979999
11
25.7591771
21
145.8244999
0
LINE
8
DEFAULT_255_2_778
10
25.7591771
20
145.8244999
11
25.7329771
21
145.8345999
0
LINE
8
DEFAULT_255_2_778
10
25.7329771
20
145.8345999
11
25.7059771
21
145.8424999
0
LINE
8
DEFAULT_255_2_778
10
25.7059771
20
145.8424999
11
25.6509771
21
145.8525999
0
LINE
8
DEFAULT_255_2_778
10
25.6509771
20
145.8525999
11
25.5946771
21
145.8559999
0
LINE
8
DEFAULT_255_2_778
10
25.3263771
20
144.5917999
11
25.3130771
21
144.6645999
0
LINE
8
DEFAULT_255_2_778
10
25.3003771
20
144.8121999
11
25.2993771
21
144.8494999
0
LINE
8
DEFAULT_255_2_778
10
25.2993771
20
144.8494999
11
25.2985771
21
144.8865999
0
LINE
8
DEFAULT_255_2_778
10
25.2985771
20
144.8865999
11
25.2974771
21
144.9608999
0
LINE
8
DEFAULT_255_2_778
10
25.2974771
20
144.9608999
11
25.2972771
21
145.0352999
0
LINE
8
DEFAULT_255_2_778
10
25.2972771
20
145.0352999
11
25.2972771
21
145.1095999
0
LINE
8
DEFAULT_255_2_778
10
25.2972771
20
145.1095999
11
25.2993771
21
145.2582999
0
LINE
8
DEFAULT_255_2_778
10
25.2993771
20
145.2582999
11
25.3085771
21
145.4064999
0
LINE
8
DEFAULT_255_2_778
10
25.3085771
20
145.4064999
11
25.3130771
21
145.4434999
0
LINE
8
DEFAULT_255_2_778
10
25.3130771
20
145.4434999
11
25.3191771
21
145.4802999
0
LINE
8
DEFAULT_255_2_778
10
25.3376771
20
145.5519999
11
25.3506771
21
145.5868999
0
LINE
8
DEFAULT_255_2_778
10
25.3506771
20
145.5868999
11
25.3673771
21
145.6201999
0
LINE
8
DEFAULT_255_2_778
10
25.4509771
20
145.7093999
11
25.4728771
21
145.7207999
0
LINE
8
DEFAULT_255_2_778
10
25.4728771
20
145.7207999
11
25.4961771
21
145.7294999
0
LINE
8
DEFAULT_255_2_778
10
25.4961771
20
145.7294999
11
25.5202771
21
145.7358999
0
LINE
8
DEFAULT_255_2_778
10
25.5202771
20
145.7358999
11
25.5448771
21
145.7400999
0
LINE
8
DEFAULT_255_2_778
10
25.5448771
20
145.7400999
11
25.5940771
21
145.7429999
0
LINE
8
DEFAULT_255_2_778
10
25.5940771
20
145.7429999
11
25.6432771
21
145.7397999
0
LINE
8
DEFAULT_255_2_778
10
25.6432771
20
145.7397999
11
25.6917771
21
145.7289999
0
LINE
8
DEFAULT_255_2_778
10
25.6917771
20
145.7289999
11
25.7149771
21
145.7202999
0
LINE
8
DEFAULT_255_2_778
10
25.7149771
20
145.7202999
11
25.7372771
21
145.7088999
0
LINE
8
DEFAULT_255_2_778
10
25.8483771
20
145.5574999
11
25.8621771
21
145.5125999
0
LINE
8
DEFAULT_255_2_778
10
25.8621771
20
145.5125999
11
25.8718771
21
145.4667999
0
LINE
8
DEFAULT_255_2_778
10
25.8718771
20
145.4667999
11
25.8787771
21
145.4201999
0
LINE
8
DEFAULT_255_2_778
10
25.8787771
20
145.4201999
11
25.8869771
21
145.3262999
0
LINE
8
DEFAULT_255_2_778
10
25.8869771
20
145.3262999
11
25.8890771
21
145.2791999
0
LINE
8
DEFAULT_255_2_778
10
25.8890771
20
145.2791999
11
25.8901771
21
145.2320999
0
LINE
8
DEFAULT_255_2_778
10
25.8901771
20
145.2320999
11
25.8914771
21
145.1378999
0
LINE
8
DEFAULT_255_2_778
10
25.8914771
20
145.1378999
11
25.8917771
21
145.0436999
0
LINE
8
DEFAULT_255_2_778
10
25.8917771
20
145.0436999
11
25.8914771
21
144.9494999
0
LINE
8
DEFAULT_255_2_778
10
25.8914771
20
144.9494999
11
25.8898771
21
144.8552999
0
LINE
8
DEFAULT_255_2_778
10
25.8898771
20
144.8552999
11
25.8885771
21
144.8081999
0
LINE
8
DEFAULT_255_2_778
10
25.8885771
20
144.8081999
11
25.8861771
21
144.7610999
0
LINE
8
DEFAULT_255_2_778
10
25.8861771
20
144.7610999
11
25.8766771
21
144.6671999
0
LINE
8
DEFAULT_255_2_778
10
25.8583771
20
144.5745999
11
25.8443771
21
144.5295999
0
LINE
8
DEFAULT_255_2_778
10
25.8258771
20
144.4864999
11
25.8015771
21
144.4462999
0
LINE
8
DEFAULT_255_2_778
10
25.8015771
20
144.4462999
11
25.7866771
21
144.4274999
0
LINE
8
DEFAULT_255_2_778
10
25.7866771
20
144.4274999
11
25.7705771
21
144.4099999
0
LINE
8
DEFAULT_255_2_778
10
25.7705771
20
144.4099999
11
25.7525771
21
144.3943999
0
LINE
8
DEFAULT_255_2_778
10
25.7525771
20
144.3943999
11
25.7324771
21
144.3811999
0
LINE
8
DEFAULT_255_2_778
10
25.7324771
20
144.3811999
11
25.6887771
21
144.3621999
0
LINE
8
DEFAULT_255_2_778
10
25.6887771
20
144.3621999
11
25.6655771
21
144.3560999
0
LINE
8
DEFAULT_255_2_778
10
25.6655771
20
144.3560999
11
25.6419771
21
144.3520999
0
LINE
8
DEFAULT_255_2_778
10
25.6419771
20
144.3520999
11
25.5943771
21
144.3491999
0
LINE
8
DEFAULT_255_2_778
10
25.5139771
20
144.3578999
11
25.4752771
21
144.3705999
0
LINE
8
DEFAULT_255_2_778
10
25.4752771
20
144.3705999
11
25.4398771
21
144.3901999
0
LINE
8
DEFAULT_255_2_778
10
25.4398771
20
144.3901999
11
25.4236771
21
144.4025999
0
LINE
8
DEFAULT_255_2_778
10
25.4236771
20
144.4025999
11
25.4091771
21
144.4166999
0
LINE
8
DEFAULT_255_2_778
10
25.4091771
20
144.4166999
11
25.3837771
21
144.4480999
0
LINE
8
DEFAULT_255_2_778
10
25.3472771
20
144.5197999
11
25.3474771
21
144.5203999
0
LINE
8
DEFAULT_255_2_778
10
32.7074167
20
144.2690146
11
32.6714167
21
144.3770146
0
LINE
8
DEFAULT_255_2_778
10
32.6714167
20
144.3770146
11
32.6529167
21
144.4307146
0
LINE
8
DEFAULT_255_2_778
10
32.6529167
20
144.4307146
11
32.6346167
21
144.4847146
0
LINE
8
DEFAULT_255_2_778
10
32.6346167
20
144.4847146
11
32.5995167
21
144.5929146
0
LINE
8
DEFAULT_255_2_778
10
32.5995167
20
144.5929146
11
32.5653167
21
144.7014146
0
LINE
8
DEFAULT_255_2_778
10
32.5653167
20
144.7014146
11
31.8795167
21
144.7014146
0
LINE
8
DEFAULT_255_2_778
10
31.8795167
20
144.7014146
11
31.7332167
21
144.2688146
0
LINE
8
DEFAULT_255_2_778
10
31.7332167
20
144.2688146
11
31.6266167
21
144.3042146
0
LINE
8
DEFAULT_255_2_778
10
31.6266167
20
144.3042146
11
32.1568167
21
145.8822146
0
LINE
8
DEFAULT_255_2_778
10
32.1568167
20
145.8822146
11
32.2989167
21
145.8822146
0
LINE
8
DEFAULT_255_2_778
10
32.2989167
20
145.8822146
11
32.8162167
21
144.3042146
0
LINE
8
DEFAULT_255_2_778
10
32.8162167
20
144.3042146
11
32.7074167
21
144.2690146
0
LINE
8
DEFAULT_255_2_778
10
32.5277167
20
144.8149146
11
32.4532167
21
145.0464146
0
LINE
8
DEFAULT_255_2_778
10
32.4532167
20
145.0464146
11
32.4151167
21
145.1620146
0
LINE
8
DEFAULT_255_2_778
10
32.4151167
20
145.1620146
11
32.3769167
21
145.2776146
0
LINE
8
DEFAULT_255_2_778
10
32.3769167
20
145.2776146
11
32.3021167
21
145.5089146
0
LINE
8
DEFAULT_255_2_778
10
32.3021167
20
145.5089146
11
32.2650167
21
145.6248146
0
LINE
8
DEFAULT_255_2_778
10
32.2650167
20
145.6248146
11
32.2468167
21
145.6827146
0
LINE
8
DEFAULT_255_2_778
10
32.2468167
20
145.6827146
11
32.2280167
21
145.7406146
0
LINE
8
DEFAULT_255_2_778
10
32.2280167
20
145.7406146
11
32.2203167
21
145.7174146
0
LINE
8
DEFAULT_255_2_778
10
32.2203167
20
145.7174146
11
32.2042167
21
145.6687146
0
LINE
8
DEFAULT_255_2_778
10
32.2042167
20
145.6687146
11
32.1880167
21
145.6200146
0
LINE
8
DEFAULT_255_2_778
10
32.1880167
20
145.6200146
11
32.1206167
21
145.4189146
0
LINE
8
DEFAULT_255_2_778
10
32.1206167
20
145.4189146
11
32.0520167
21
145.2181146
0
LINE
8
DEFAULT_255_2_778
10
32.0520167
20
145.2181146
11
31.9846167
21
145.0167146
0
LINE
8
DEFAULT_255_2_778
10
31.9846167
20
145.0167146
11
31.9171167
21
144.8154146
0
LINE
8
DEFAULT_255_2_778
10
31.9171167
20
144.8154146
11
32.5277167
21
144.8149146
0
LINE
8
DEFAULT_255_2_778
10
25.8157583
20
140.3818
11
26.3216583
21
140.3818
0
LINE
8
DEFAULT_255_2_778
10
26.3216522
20
140.4939417
11
25.8157522
21
140.4939417
0
LINE
8
DEFAULT_255_2_778
10
25.8157522
20
140.4939417
11
25.8157522
21
140.3690417
0
LINE
8
DEFAULT_255_2_778
10
25.8157522
20
140.3690417
11
26.3216522
21
140.3690417
0
LINE
8
DEFAULT_255_2_778
10
26.3216522
20
140.3690417
11
26.3216522
21
140.4939417
0
LINE
8
DEFAULT_255_2_778
10
31.7831522
20
140.3817417
11
32.2890522
21
140.3817417
0
ARC
8
DEFAULT_255_2_778
10
20.5718233
20
141.0473995
40
0.3695395
50
210.8282606
51
226.9573951
0
ARC
8
DEFAULT_255_2_778
10
20.7850454
20
140.2888085
40
0.1818144
50
11.199928
51
32.434844
0
ARC
8
DEFAULT_255_2_778
10
20.7413334
20
140.2782184
40
0.2267587
50
7.4124739
51
11.6795377
0
ARC
8
DEFAULT_255_2_778
10
20.7183276
20
140.2752517
40
0.2499549
50
3.5716043
51
7.4064883
0
ARC
8
DEFAULT_255_2_778
10
20.62724
20
140.2747424
40
0.3413071
50
351.3860773
51
357.0576846
0
ARC
8
DEFAULT_255_2_778
10
20.625131
20
140.2549936
40
0.3377402
50
314.9874444
51
326.3249869
0
ARC
8
DEFAULT_255_2_778
10
20.5829938
20
140.1745342
40
0.2545642
50
216.8903809
51
232.1508508
0
ARC
8
DEFAULT_255_2_778
10
20.729178
20
140.2530829
40
0.4211282
50
195.0512832
51
204.2790666
0
ARC
8
DEFAULT_255_2_778
10
20.7385445
20
140.2622868
40
0.5453572
50
195.9172934
51
205.1027485
0
ARC
8
DEFAULT_255_2_778
10
20.6419532
20
140.215948
40
0.4382314
50
204.9741166
51
216.4602014
0
ARC
8
DEFAULT_255_2_778
10
20.5896894
20
140.1779534
40
0.3736185
50
216.5369664
51
230.0530287
0
ARC
8
DEFAULT_255_2_778
10
20.6055524
20
140.2621139
40
0.4577174
50
257.6298321
51
268.6535541
0
ARC
8
DEFAULT_255_2_778
10
20.625497
20
140.2516615
40
0.446681
50
277.4219271
51
288.6848793
0
ARC
8
DEFAULT_255_2_778
10
20.6163355
20
140.2712196
40
0.4677505
50
299.8002426
51
310.6099352
0
ARC
8
DEFAULT_255_2_778
10
20.5836107
20
140.2787416
40
0.4980619
50
333.2059644
51
343.3125737
0
ARC
8
DEFAULT_255_2_778
10
20.6884542
20
140.2748133
40
0.3925803
50
5.0723701
51
6.9136963
0
ARC
8
DEFAULT_255_2_778
10
20.7607563
20
140.2842669
40
0.3196667
50
6.7915466
51
12.4573186
0
ARC
8
DEFAULT_255_2_778
10
20.7962437
20
140.2927324
40
0.2831893
50
12.3336561
51
21.2395525
0
ARC
8
DEFAULT_255_2_778
10
20.5259373
20
140.9960367
40
0.1923225
50
183.1039418
51
196.2488746
0
ARC
8
DEFAULT_255_2_778
10
20.6558343
20
141.0261591
40
0.3205161
50
163.5126161
51
171.4297685
0
ARC
8
DEFAULT_255_2_778
10
20.6580244
20
141.0560479
40
0.2656007
50
42.833792
51
59.2567933
0
ARC
8
DEFAULT_255_2_778
10
20.6095308
20
141.0190499
40
0.3263686
50
27.3957102
51
41.8088868
0
ARC
8
DEFAULT_255_2_778
10
20.5082547
20
140.9673347
40
0.5533383
50
16.5034178
51
29.8469624
0
ARC
8
DEFAULT_255_2_778
10
20.6562079
20
141.0603486
40
0.378088
50
38.5986299
51
48.3864986
0
ARC
8
DEFAULT_255_2_778
10
20.6088413
20
141.0418092
40
0.3812562
50
139.5775116
51
149.3059398
0
ARC
8
DEFAULT_255_2_778
10
20.6501933
20
141.0183255
40
0.4288034
50
149.4281392
51
158.1491047
0
ARC
8
DEFAULT_255_2_778
10
20.6373615
20
141.0222272
40
0.4154429
50
157.9898726
51
169.333424
0
ARC
8
DEFAULT_255_2_778
10
20.5136225
20
140.9915148
40
0.2933191
50
182.9688579
51
191.0047733
0
ARC
8
DEFAULT_255_2_778
10
20.4365396
20
140.9678573
40
0.2123008
50
199.8057526
51
210.96581
0
ARC
8
DEFAULT_255_2_778
10
23.2421983
20
140.1875123
40
0.4252577
50
204.1950473
51
213.528109
0
ARC
8
DEFAULT_255_2_778
10
23.2231329
20
140.1489922
40
0.341586
50
288.1073213
51
299.9169847
0
ARC
8
DEFAULT_255_2_778
10
23.1319845
20
140.2250165
40
0.4608793
50
322.6990439
51
331.4177752
0
ARC
8
DEFAULT_255_2_778
10
23.0571051
20
140.2667303
40
0.5465905
50
331.3332362
51
338.6822446
0
ARC
8
DEFAULT_255_2_778
10
23.0111882
20
140.2854996
40
0.5961895
50
338.6060937
51
345.3507822
0
ARC
8
DEFAULT_255_2_778
10
22.9104646
20
140.3079691
40
0.6993315
50
345.6567016
51
357.0946665
0
ARC
8
DEFAULT_255_2_778
10
22.6467436
20
140.3542223
40
0.9626025
50
3.4543892
51
11.7727728
0
ARC
8
DEFAULT_255_2_778
10
22.9282112
20
140.4092296
40
0.6758418
50
12.0761011
51
18.0487429
0
ARC
8
DEFAULT_255_2_778
10
23.0702562
20
140.4556986
40
0.5263891
50
18.0298858
51
25.6940597
0
ARC
8
DEFAULT_255_2_778
10
23.256962
20
140.5673947
40
0.3079702
50
35.1099312
51
48.1843012
0
ARC
8
DEFAULT_255_2_778
10
23.258734
20
140.5033275
40
0.3665097
50
133.4457772
51
144.4880716
0
ARC
8
DEFAULT_255_2_778
10
23.1615884
20
140.5735935
40
0.1339484
50
145.7279585
51
159.9014858
0
ARC
8
DEFAULT_255_2_778
10
22.9732998
20
140.3029138
40
0.5245937
50
341.2308814
51
350.631982
0
ARC
8
DEFAULT_255_2_778
10
23.1347986
20
140.1248552
40
0.1884521
50
213.4703053
51
227.0924272
0
ARC
8
DEFAULT_255_2_778
10
18.5817183
20
140.359103
40
0.3687302
50
146.9082461
51
159.5186051
0
ARC
8
DEFAULT_255_2_778
10
18.4677154
20
140.4625778
40
0.3185974
50
18.5858563
51
29.0999744
0
ARC
8
DEFAULT_255_2_778
10
18.5459911
20
140.1177948
40
0.1943822
50
285.7631329
51
307.7134355
0
ARC
8
DEFAULT_255_2_778
10
18.5146102
20
140.2226888
40
0.303861
50
272.053252
51
286.0846373
0
ARC
8
DEFAULT_255_2_778
10
18.5871074
20
140.2698324
40
0.378189
50
217.3821835
51
227.2715932
0
ARC
8
DEFAULT_255_2_778
10
18.5722425
20
140.2606329
40
0.3607962
50
207.2876635
51
217.6545335
0
ARC
8
DEFAULT_255_2_778
10
18.6062782
20
140.279917
40
0.3998882
50
198.1087713
51
207.507468
0
ARC
8
DEFAULT_255_2_778
10
18.6362552
20
140.2908996
40
0.4317956
50
187.0205915
51
198.2575333
0
ARC
8
DEFAULT_255_2_778
10
18.882107
20
140.297751
40
0.6766746
50
170.7155553
51
177.8766102
0
ARC
8
DEFAULT_255_2_778
10
18.6283771
20
140.338866
40
0.4196355
50
159.1209104
51
170.6664955
0
ARC
8
DEFAULT_255_2_778
10
18.5037438
20
141.0528792
40
0.3803142
50
27.2343682
51
39.3116744
0
ARC
8
DEFAULT_255_2_778
10
18.5133141
20
141.0573812
40
0.3702727
50
52.1921258
51
64.6582291
0
ARC
8
DEFAULT_255_2_778
10
18.5171412
20
141.0470681
40
0.4180443
50
147.0863263
51
158.051344
0
ARC
8
DEFAULT_255_2_778
10
18.5618738
20
140.2244684
40
0.4607316
50
201.1911454
51
211.6333857
0
ARC
8
DEFAULT_255_2_778
10
18.550728
20
140.1376865
40
0.3273143
50
296.4847708
51
311.3095445
0
ARC
8
DEFAULT_255_2_778
10
18.3541516
20
140.2390236
40
0.5508901
50
337.7155116
51
346.489527
0
ARC
8
DEFAULT_255_2_778
10
18.1269277
20
140.3663601
40
0.78512
50
5.7502321
51
11.927431
0
ARC
8
DEFAULT_255_2_778
10
18.3283714
20
140.4100861
40
0.5789896
50
11.8137175
51
20.2435241
0
ARC
8
DEFAULT_255_2_778
10
18.5565392
20
140.5135847
40
0.3272695
50
31.9611426
51
46.8176511
0
ARC
8
DEFAULT_255_2_778
10
18.5468048
20
140.4073021
40
0.4290234
50
78.7780535
51
90.2013547
0
ARC
8
DEFAULT_255_2_778
10
18.5602445
20
140.4264964
40
0.4211801
50
129.578307
51
140.106961
0
ARC
8
DEFAULT_255_2_778
10
18.4789308
20
140.4681077
40
0.3325836
50
145.5130217
51
154.3597742
0
ARC
8
DEFAULT_255_2_778
10
18.8660229
20
140.9226497
40
0.6744466
50
162.5834276
51
168.8543376
0
ARC
8
DEFAULT_255_2_778
10
18.4889842
20
140.9897661
40
0.3299275
50
75.3195462
51
88.1566367
0
LINE
8
DEFAULT_255_2_778
10
32.2890971
20
140.4940229
11
31.7831971
21
140.4940229
0
LINE
8
DEFAULT_255_2_778
10
31.7831971
20
140.4940229
11
31.7831971
21
140.3691229
0
LINE
8
DEFAULT_255_2_778
10
31.7831971
20
140.3691229
11
32.2890971
21
140.3691229
0
LINE
8
DEFAULT_255_2_778
10
32.2890971
20
140.3691229
11
32.2890971
21
140.4940229
0
LINE
8
DEFAULT_255_2_778
10
27.5897971
20
141.4327229
11
28.3509971
21
141.4327229
0
LINE
8
DEFAULT_255_2_778
10
28.3509971
20
141.4327229
11
28.3509971
21
141.3195229
0
LINE
8
DEFAULT_255_2_778
10
28.3509971
20
141.3195229
11
27.7030971
21
141.3195229
0
LINE
8
DEFAULT_255_2_778
10
27.7030971
20
141.3195229
11
27.7030971
21
140.7337229
0
LINE
8
DEFAULT_255_2_778
10
27.7030971
20
140.7337229
11
28.3110971
21
140.7337229
0
LINE
8
DEFAULT_255_2_778
10
28.3110971
20
140.7337229
11
28.3110971
21
140.6228229
0
LINE
8
DEFAULT_255_2_778
10
28.3110971
20
140.6228229
11
27.7030971
21
140.6228229
0
LINE
8
DEFAULT_255_2_778
10
27.7030971
20
140.6228229
11
27.7030971
21
139.8373229
0
LINE
8
DEFAULT_255_2_778
10
27.7030971
20
139.8373229
11
27.5897971
21
139.8373229
0
LINE
8
DEFAULT_255_2_778
10
27.5897971
20
139.8373229
11
27.5897971
21
141.4327229
0
LINE
8
DEFAULT_255_2_778
10
20.3195971
20
140.7773229
11
20.3597971
21
140.7437229
0
LINE
8
DEFAULT_255_2_778
10
20.3597971
20
140.7437229
11
20.4031971
21
140.7138229
0
LINE
8
DEFAULT_255_2_778
10
20.4031971
20
140.7138229
11
20.4484971
21
140.6871229
0
LINE
8
DEFAULT_255_2_778
10
20.4484971
20
140.6871229
11
20.4717971
21
140.6749229
0
LINE
8
DEFAULT_255_2_778
10
20.4717971
20
140.6749229
11
20.4952971
21
140.6628229
0
LINE
8
DEFAULT_255_2_778
10
20.4952971
20
140.6628229
11
20.5881971
21
140.6130229
0
LINE
8
DEFAULT_255_2_778
10
20.5881971
20
140.6130229
11
20.6341971
21
140.5874229
0
LINE
8
DEFAULT_255_2_778
10
20.6341971
20
140.5874229
11
20.6809971
21
140.5630229
0
LINE
8
DEFAULT_255_2_778
10
20.6809971
20
140.5630229
11
20.7283971
21
140.5397229
0
LINE
8
DEFAULT_255_2_778
10
20.7283971
20
140.5397229
11
20.7521971
21
140.5284229
0
LINE
8
DEFAULT_255_2_778
10
20.7521971
20
140.5284229
11
20.7757971
21
140.5167229
0
LINE
8
DEFAULT_255_2_778
10
20.7757971
20
140.5167229
11
20.8217971
21
140.4910229
0
LINE
8
DEFAULT_255_2_778
10
20.8217971
20
140.4910229
11
20.8439971
21
140.4770229
0
LINE
8
DEFAULT_255_2_778
10
20.8439971
20
140.4770229
11
20.8656971
21
140.4617229
0
LINE
8
DEFAULT_255_2_778
10
20.8656971
20
140.4617229
11
20.9053971
21
140.4270229
0
LINE
8
DEFAULT_255_2_778
10
20.9053971
20
140.4270229
11
20.9384971
21
140.3863229
0
LINE
8
DEFAULT_255_2_778
10
20.9677971
20
140.2908229
11
20.9680971
21
140.2572229
0
LINE
8
DEFAULT_255_2_778
10
20.9646971
20
140.2236229
11
20.9582971
21
140.1907229
0
LINE
8
DEFAULT_255_2_778
10
20.9582971
20
140.1907229
11
20.9495971
21
140.1585229
0
LINE
8
DEFAULT_255_2_778
10
20.9495971
20
140.1585229
11
20.9381971
21
140.1270229
0
LINE
8
DEFAULT_255_2_778
10
20.9381971
20
140.1270229
11
20.9236971
21
140.0966229
0
LINE
8
DEFAULT_255_2_778
10
20.9236971
20
140.0966229
11
20.9061971
21
140.0677229
0
LINE
8
DEFAULT_255_2_778
10
20.8638971
20
140.0161229
11
20.8386971
21
139.9936229
0
LINE
8
DEFAULT_255_2_778
10
20.8386971
20
139.9936229
11
20.8114971
21
139.9735229
0
LINE
8
DEFAULT_255_2_778
10
20.8114971
20
139.9735229
11
20.7825971
21
139.9561229
0
LINE
8
DEFAULT_255_2_778
10
20.7825971
20
139.9561229
11
20.7521971
21
139.9415229
0
LINE
8
DEFAULT_255_2_778
10
20.7521971
20
139.9415229
11
20.7198971
21
139.9304229
0
LINE
8
DEFAULT_255_2_778
10
20.7198971
20
139.9304229
11
20.6868971
21
139.9230229
0
LINE
8
DEFAULT_255_2_778
10
20.6868971
20
139.9230229
11
20.6532971
21
139.9188229
0
LINE
8
DEFAULT_255_2_778
10
20.6532971
20
139.9188229
11
20.6190971
21
139.9172229
0
LINE
8
DEFAULT_255_2_778
10
20.6190971
20
139.9172229
11
20.5513971
21
139.9217229
0
LINE
8
DEFAULT_255_2_778
10
20.5513971
20
139.9217229
11
20.5180971
21
139.9288229
0
LINE
8
DEFAULT_255_2_778
10
20.5180971
20
139.9288229
11
20.4857971
21
139.9397229
0
LINE
8
DEFAULT_255_2_778
10
20.4857971
20
139.9397229
11
20.4553971
21
139.9545229
0
LINE
8
DEFAULT_255_2_778
10
20.4553971
20
139.9545229
11
20.4407971
21
139.9635229
0
LINE
8
DEFAULT_255_2_778
10
20.4407971
20
139.9635229
11
20.4267971
21
139.9735229
0
LINE
8
DEFAULT_255_2_778
10
20.3793971
20
140.0217229
11
20.3605971
21
140.0500229
0
LINE
8
DEFAULT_255_2_778
10
20.3605971
20
140.0500229
11
20.3452971
21
140.0799229
0
LINE
8
DEFAULT_255_2_778
10
20.3224971
20
140.1437229
11
20.2140971
21
140.1127229
0
LINE
8
DEFAULT_255_2_778
10
20.3497971
20
139.8915229
11
20.3671971
21
139.8777229
0
LINE
8
DEFAULT_255_2_778
10
20.3671971
20
139.8777229
11
20.3854971
21
139.8650229
0
LINE
8
DEFAULT_255_2_778
10
20.3854971
20
139.8650229
11
20.4238971
21
139.8436229
0
LINE
8
DEFAULT_255_2_778
10
20.4238971
20
139.8436229
11
20.4645971
21
139.8269229
0
LINE
8
DEFAULT_255_2_778
10
20.4645971
20
139.8269229
11
20.5074971
21
139.8150229
0
LINE
8
DEFAULT_255_2_778
10
20.5947971
20
139.8045229
11
20.6389971
21
139.8047229
0
LINE
8
DEFAULT_255_2_778
10
20.6389971
20
139.8047229
11
20.6831971
21
139.8087229
0
LINE
8
DEFAULT_255_2_778
10
20.7685971
20
139.8285229
11
20.8095971
21
139.8449229
0
LINE
8
DEFAULT_255_2_778
10
20.8095971
20
139.8449229
11
20.8487971
21
139.8653229
0
LINE
8
DEFAULT_255_2_778
10
20.9207971
20
139.9161229
11
20.9527971
21
139.9468229
0
LINE
8
DEFAULT_255_2_778
10
20.9527971
20
139.9468229
11
20.9812971
21
139.9801229
0
LINE
8
DEFAULT_255_2_778
10
20.9812971
20
139.9801229
11
21.0064971
21
140.0159229
0
LINE
8
DEFAULT_255_2_778
10
21.0064971
20
140.0159229
11
21.0281971
21
140.0542229
0
LINE
8
DEFAULT_255_2_778
10
21.0606971
20
140.1357229
11
21.0715971
21
140.1783229
0
LINE
8
DEFAULT_255_2_778
10
21.0715971
20
140.1783229
11
21.0783971
21
140.2220229
0
LINE
8
DEFAULT_255_2_778
10
21.0783971
20
140.2220229
11
21.0810971
21
140.2656229
0
LINE
8
DEFAULT_255_2_778
10
21.0810971
20
140.2656229
11
21.0794971
21
140.3095229
0
LINE
8
DEFAULT_255_2_778
10
21.0601971
20
140.3953229
11
21.0511971
21
140.4154229
0
LINE
8
DEFAULT_255_2_778
10
21.0511971
20
140.4154229
11
21.0402971
21
140.4350229
0
LINE
8
DEFAULT_255_2_778
10
21.0402971
20
140.4350229
11
21.0151971
21
140.4715229
0
LINE
8
DEFAULT_255_2_778
10
21.0151971
20
140.4715229
11
20.9860971
21
140.5048229
0
LINE
8
DEFAULT_255_2_778
10
20.9860971
20
140.5048229
11
20.9532971
21
140.5347229
0
LINE
8
DEFAULT_255_2_778
10
20.9532971
20
140.5347229
11
20.9357971
21
140.5485229
0
LINE
8
DEFAULT_255_2_778
10
20.9357971
20
140.5485229
11
20.9180971
21
140.5614229
0
LINE
8
DEFAULT_255_2_778
10
20.9180971
20
140.5614229
11
20.8812971
21
140.5855229
0
LINE
8
DEFAULT_255_2_778
10
20.8812971
20
140.5855229
11
20.8431971
21
140.6075229
0
LINE
8
DEFAULT_255_2_778
10
20.8431971
20
140.6075229
11
20.8236971
21
140.6178229
0
LINE
8
DEFAULT_255_2_778
10
20.8236971
20
140.6178229
11
20.8037971
21
140.6276229
0
LINE
8
DEFAULT_255_2_778
10
20.8037971
20
140.6276229
11
20.7254971
21
140.6675229
0
LINE
8
DEFAULT_255_2_778
10
20.7254971
20
140.6675229
11
20.6865971
21
140.6882229
0
LINE
8
DEFAULT_255_2_778
10
20.6865971
20
140.6882229
11
20.6479971
21
140.7091229
0
LINE
8
DEFAULT_255_2_778
10
20.6479971
20
140.7091229
11
20.5698971
21
140.7495229
0
LINE
8
DEFAULT_255_2_778
10
20.5698971
20
140.7495229
11
20.5502971
21
140.7593229
0
LINE
8
DEFAULT_255_2_778
10
20.5502971
20
140.7593229
11
20.5307971
21
140.7691229
0
LINE
8
DEFAULT_255_2_778
10
20.5307971
20
140.7691229
11
20.4920971
21
140.7900229
0
LINE
8
DEFAULT_255_2_778
10
20.4920971
20
140.7900229
11
20.4547971
21
140.8128229
0
LINE
8
DEFAULT_255_2_778
10
20.4547971
20
140.8128229
11
20.4367971
21
140.8250229
0
LINE
8
DEFAULT_255_2_778
10
20.4367971
20
140.8250229
11
20.4193971
21
140.8379229
0
LINE
8
DEFAULT_255_2_778
10
20.4193971
20
140.8379229
11
20.3870971
21
140.8673229
0
LINE
8
DEFAULT_255_2_778
10
20.3870971
20
140.8673229
11
20.3724971
21
140.8842229
0
LINE
8
DEFAULT_255_2_778
10
20.3724971
20
140.8842229
11
20.3595971
21
140.9022229
0
LINE
8
DEFAULT_255_2_778
10
20.3595971
20
140.9022229
11
20.3489971
21
140.9215229
0
LINE
8
DEFAULT_255_2_778
10
20.3489971
20
140.9215229
11
20.3412971
21
140.9422229
0
LINE
8
DEFAULT_255_2_778
10
20.3338971
20
140.9856229
11
20.3335971
21
141.0078229
0
LINE
8
DEFAULT_255_2_778
10
20.3335971
20
141.0078229
11
20.3343971
21
141.0300229
0
LINE
8
DEFAULT_255_2_778
10
20.3343971
20
141.0300229
11
20.3388971
21
141.0739229
0
LINE
8
DEFAULT_255_2_778
10
20.3484971
20
141.1171229
11
20.3555971
21
141.1382229
0
LINE
8
DEFAULT_255_2_778
10
20.3555971
20
141.1382229
11
20.3645971
21
141.1583229
0
LINE
8
DEFAULT_255_2_778
10
20.3645971
20
141.1583229
11
20.3753971
21
141.1774229
0
LINE
8
DEFAULT_255_2_778
10
20.3753971
20
141.1774229
11
20.3878971
21
141.1956229
0
LINE
8
DEFAULT_255_2_778
10
20.3878971
20
141.1956229
11
20.4015971
21
141.2134229
0
LINE
8
DEFAULT_255_2_778
10
20.4015971
20
141.2134229
11
20.4164971
21
141.2298229
0
LINE
8
DEFAULT_255_2_778
10
20.4164971
20
141.2298229
11
20.4497971
21
141.2586229
0
LINE
8
DEFAULT_255_2_778
10
20.4497971
20
141.2586229
11
20.4685971
21
141.2708229
0
LINE
8
DEFAULT_255_2_778
10
20.4685971
20
141.2708229
11
20.4881971
21
141.2814229
0
LINE
8
DEFAULT_255_2_778
10
20.4881971
20
141.2814229
11
20.5293971
21
141.2983229
0
LINE
8
DEFAULT_255_2_778
10
20.5293971
20
141.2983229
11
20.5730971
21
141.3089229
0
LINE
8
DEFAULT_255_2_778
10
20.5730971
20
141.3089229
11
20.6106971
21
141.3139229
0
LINE
8
DEFAULT_255_2_778
10
20.6106971
20
141.3139229
11
20.6481971
21
141.3171229
0
LINE
8
DEFAULT_255_2_778
10
20.6481971
20
141.3171229
11
20.6857971
21
141.3171229
0
LINE
8
DEFAULT_255_2_778
10
20.6857971
20
141.3171229
11
20.7045971
21
141.3155229
0
LINE
8
DEFAULT_255_2_778
10
20.7045971
20
141.3155229
11
20.7233971
21
141.3123229
0
LINE
8
DEFAULT_255_2_778
10
20.7233971
20
141.3123229
11
20.7598971
21
141.3015229
0
LINE
8
DEFAULT_255_2_778
10
20.7598971
20
141.3015229
11
20.7770971
21
141.2935229
0
LINE
8
DEFAULT_255_2_778
10
20.7770971
20
141.2935229
11
20.7937971
21
141.2843229
0
LINE
8
DEFAULT_255_2_778
10
20.8992971
20
141.1692229
11
20.9082971
21
141.1507229
0
LINE
8
DEFAULT_255_2_778
10
20.9082971
20
141.1507229
11
20.9164971
21
141.1319229
0
LINE
8
DEFAULT_255_2_778
10
20.9164971
20
141.1319229
11
20.9299971
21
141.0932229
0
LINE
8
DEFAULT_255_2_778
10
20.9299971
20
141.0932229
11
21.0387971
21
141.1245229
0
LINE
8
DEFAULT_255_2_778
10
20.9881971
20
141.2427229
11
20.9709971
21
141.2700229
0
LINE
8
DEFAULT_255_2_778
10
20.9709971
20
141.2700229
11
20.9516971
21
141.2962229
0
LINE
8
DEFAULT_255_2_778
10
20.9072971
20
141.3430229
11
20.8818971
21
141.3634229
0
LINE
8
DEFAULT_255_2_778
10
20.8818971
20
141.3634229
11
20.8548971
21
141.3814229
0
LINE
8
DEFAULT_255_2_778
10
20.8548971
20
141.3814229
11
20.7966971
21
141.4092229
0
LINE
8
DEFAULT_255_2_778
10
20.7966971
20
141.4092229
11
20.7333971
21
141.4256229
0
LINE
8
DEFAULT_255_2_778
10
20.7333971
20
141.4256229
11
20.6685971
21
141.4308229
0
LINE
8
DEFAULT_255_2_778
10
20.6685971
20
141.4308229
11
20.6357971
21
141.4301229
0
LINE
8
DEFAULT_255_2_778
10
20.6357971
20
141.4301229
11
20.6032971
21
141.4277229
0
LINE
8
DEFAULT_255_2_778
10
20.6032971
20
141.4277229
11
20.5394971
21
141.4174229
0
LINE
8
DEFAULT_255_2_778
10
20.5394971
20
141.4174229
11
20.4772971
21
141.3991229
0
LINE
8
DEFAULT_255_2_778
10
20.4772971
20
141.3991229
11
20.4470971
21
141.3864229
0
LINE
8
DEFAULT_255_2_778
10
20.4470971
20
141.3864229
11
20.4182971
21
141.3716229
0
LINE
8
DEFAULT_255_2_778
10
20.4182971
20
141.3716229
11
20.3648971
21
141.3348229
0
LINE
8
DEFAULT_255_2_778
10
20.3648971
20
141.3348229
11
20.3404971
21
141.3128229
0
LINE
8
DEFAULT_255_2_778
10
20.3404971
20
141.3128229
11
20.3185971
21
141.2890229
0
LINE
8
DEFAULT_255_2_778
10
20.2290971
20
141.0991229
11
20.2229971
21
141.0583229
0
LINE
8
DEFAULT_255_2_778
10
20.2229971
20
141.0583229
11
20.2200971
21
141.0173229
0
LINE
8
DEFAULT_255_2_778
10
20.2200971
20
141.0173229
11
20.2206971
21
140.9763229
0
LINE
8
DEFAULT_255_2_778
10
20.2256971
20
140.9355229
11
20.2304971
21
140.9154229
0
LINE
8
DEFAULT_255_2_778
10
20.2304971
20
140.9154229
11
20.2367971
21
140.8959229
0
LINE
8
DEFAULT_255_2_778
10
22.0330971
20
141.2758229
11
22.0319971
21
141.2732229
0
LINE
8
DEFAULT_255_2_778
10
22.0319971
20
141.2732229
11
22.0308971
21
141.2705229
0
LINE
8
DEFAULT_255_2_778
10
22.0308971
20
141.2705229
11
22.0290971
21
141.2650229
0
LINE
8
DEFAULT_255_2_778
10
22.0290971
20
141.2650229
11
22.0253971
21
141.2538229
0
LINE
8
DEFAULT_255_2_778
10
22.0253971
20
141.2538229
11
22.0181971
21
141.2316229
0
LINE
8
DEFAULT_255_2_778
10
22.0181971
20
141.2316229
11
22.0039971
21
141.1872229
0
LINE
8
DEFAULT_255_2_778
10
22.0039971
20
141.1872229
11
21.9753971
21
141.0980229
0
LINE
8
DEFAULT_255_2_778
10
21.9753971
20
141.0980229
11
21.9189971
21
140.9194229
0
LINE
8
DEFAULT_255_2_778
10
21.9189971
20
140.9194229
11
21.8067971
21
140.5620229
0
LINE
8
DEFAULT_255_2_778
10
21.8067971
20
140.5620229
11
21.6948971
21
140.2045229
0
LINE
8
DEFAULT_255_2_778
10
21.6948971
20
140.2045229
11
21.5826971
21
139.8471229
0
LINE
8
DEFAULT_255_2_778
10
21.5826971
20
139.8471229
11
21.6893971
21
139.8116229
0
LINE
8
DEFAULT_255_2_778
10
21.6893971
20
139.8116229
11
22.1441971
21
141.2586229
0
LINE
8
DEFAULT_255_2_778
10
22.1441971
20
141.2586229
11
22.1441971
21
141.4205229
0
LINE
8
DEFAULT_255_2_778
10
22.1441971
20
141.4205229
11
21.3456971
21
141.4205229
0
LINE
8
DEFAULT_255_2_778
10
21.3456971
20
141.4205229
11
21.3456971
21
141.3073229
0
LINE
8
DEFAULT_255_2_778
10
21.3456971
20
141.3073229
11
22.0332971
21
141.3073229
0
LINE
8
DEFAULT_255_2_778
10
22.0332971
20
141.3073229
11
22.0332971
21
141.2761229
0
LINE
8
DEFAULT_255_2_778
10
19.9160971
20
141.4179229
11
19.1194971
21
141.4179229
0
LINE
8
DEFAULT_255_2_778
10
19.1194971
20
141.4179229
11
19.1194971
21
139.8224229
0
LINE
8
DEFAULT_255_2_778
10
19.1194971
20
139.8224229
11
19.9160971
21
139.8224229
0
LINE
8
DEFAULT_255_2_778
10
19.9160971
20
139.8224229
11
19.9160971
21
139.9333229
0
LINE
8
DEFAULT_255_2_778
10
19.9160971
20
139.9333229
11
19.2302971
21
139.9333229
0
LINE
8
DEFAULT_255_2_778
10
19.2302971
20
139.9333229
11
19.2302971
21
140.6083229
0
LINE
8
DEFAULT_255_2_778
10
19.2302971
20
140.6083229
11
19.8737971
21
140.6083229
0
LINE
8
DEFAULT_255_2_778
10
19.8737971
20
140.6083229
11
19.8737971
21
140.7191229
0
LINE
8
DEFAULT_255_2_778
10
19.8737971
20
140.7191229
11
19.2302971
21
140.7191229
0
LINE
8
DEFAULT_255_2_778
10
19.2302971
20
140.7191229
11
19.2302971
21
141.3049229
0
LINE
8
DEFAULT_255_2_778
10
19.2302971
20
141.3049229
11
19.9160971
21
141.3049229
0
LINE
8
DEFAULT_255_2_778
10
19.9160971
20
141.3049229
11
19.9160971
21
141.4181229
0
LINE
8
DEFAULT_255_2_778
10
26.7174971
20
141.0358229
11
26.7291971
21
141.0371229
0
LINE
8
DEFAULT_255_2_778
10
26.7291971
20
141.0371229
11
26.7404971
21
141.0401229
0
LINE
8
DEFAULT_255_2_778
10
26.7404971
20
141.0401229
11
26.7510971
21
141.0448229
0
LINE
8
DEFAULT_255_2_778
10
26.7510971
20
141.0448229
11
26.7608971
21
141.0509229
0
LINE
8
DEFAULT_255_2_778
10
26.7608971
20
141.0509229
11
26.7793971
21
141.0647229
0
LINE
8
DEFAULT_255_2_778
10
26.7793971
20
141.0647229
11
26.8142971
21
141.0948229
0
LINE
8
DEFAULT_255_2_778
10
26.8142971
20
141.0948229
11
26.8804971
21
141.1591229
0
LINE
8
DEFAULT_255_2_778
10
26.8804971
20
141.1591229
11
26.9447971
21
141.2255229
0
LINE
8
DEFAULT_255_2_778
10
26.9447971
20
141.2255229
11
27.0077971
21
141.2930229
0
LINE
8
DEFAULT_255_2_778
10
27.0077971
20
141.2930229
11
27.0077971
21
139.8370229
0
LINE
8
DEFAULT_255_2_778
10
27.0077971
20
139.8370229
11
27.1185971
21
139.8370229
0
LINE
8
DEFAULT_255_2_778
10
27.1185971
20
139.8370229
11
27.1185971
21
141.4306229
0
LINE
8
DEFAULT_255_2_778
10
27.1185971
20
141.4306229
11
26.9788971
21
141.4306229
0
LINE
8
DEFAULT_255_2_778
10
26.9788971
20
141.4306229
11
26.9632971
21
141.4126229
0
LINE
8
DEFAULT_255_2_778
10
26.9632971
20
141.4126229
11
26.8994971
21
141.3425229
0
LINE
8
DEFAULT_255_2_778
10
26.8994971
20
141.3425229
11
26.8349971
21
141.2732229
0
LINE
8
DEFAULT_255_2_778
10
26.8349971
20
141.2732229
11
26.7687971
21
141.2057229
0
LINE
8
DEFAULT_255_2_778
10
26.7687971
20
141.2057229
11
26.7341971
21
141.1737229
0
LINE
8
DEFAULT_255_2_778
10
26.7341971
20
141.1737229
11
26.7161971
21
141.1583229
0
LINE
8
DEFAULT_255_2_778
10
26.7161971
20
141.1583229
11
26.7068971
21
141.1509229
0
LINE
8
DEFAULT_255_2_778
10
26.7068971
20
141.1509229
11
26.6970971
21
141.1440229
0
LINE
8
DEFAULT_255_2_778
10
26.6970971
20
141.1440229
11
26.7103971
21
141.1485229
0
LINE
8
DEFAULT_255_2_778
10
26.7103971
20
141.1485229
11
26.7171971
21
141.0353229
0
LINE
8
DEFAULT_255_2_778
10
22.8876971
20
139.9526229
11
22.9082971
21
139.9248229
0
LINE
8
DEFAULT_255_2_778
10
22.9082971
20
139.9248229
11
22.9198971
21
139.9119229
0
LINE
8
DEFAULT_255_2_778
10
22.9198971
20
139.9119229
11
22.9323971
21
139.8997229
0
LINE
8
DEFAULT_255_2_778
10
22.9323971
20
139.8997229
11
22.9455971
21
139.8883229
0
LINE
8
DEFAULT_255_2_778
10
22.9455971
20
139.8883229
11
22.9593971
21
139.8777229
0
LINE
8
DEFAULT_255_2_778
10
22.9593971
20
139.8777229
11
22.9881971
21
139.8582229
0
LINE
8
DEFAULT_255_2_778
10
22.9881971
20
139.8582229
11
23.0188971
21
139.8415229
0
LINE
8
DEFAULT_255_2_778
10
23.0188971
20
139.8415229
11
23.0349971
21
139.8346229
0
LINE
8
DEFAULT_255_2_778
10
23.0349971
20
139.8346229
11
23.0513971
21
139.8285229
0
LINE
8
DEFAULT_255_2_778
10
23.0513971
20
139.8285229
11
23.1193971
21
139.8121229
0
LINE
8
DEFAULT_255_2_778
10
23.1193971
20
139.8121229
11
23.1368971
21
139.8103229
0
LINE
8
DEFAULT_255_2_778
10
23.1368971
20
139.8103229
11
23.1545971
21
139.8090229
0
LINE
8
DEFAULT_255_2_778
10
23.1545971
20
139.8090229
11
23.1897971
21
139.8071229
0
LINE
8
DEFAULT_255_2_778
10
23.1897971
20
139.8071229
11
23.2249971
21
139.8068229
0
LINE
8
DEFAULT_255_2_778
10
23.2249971
20
139.8068229
11
23.2601971
21
139.8092229
0
LINE
8
DEFAULT_255_2_778
10
23.2601971
20
139.8092229
11
23.2950971
21
139.8150229
0
LINE
8
DEFAULT_255_2_778
10
23.2950971
20
139.8150229
11
23.3292971
21
139.8243229
0
LINE
8
DEFAULT_255_2_778
10
23.3934971
20
139.8529229
11
23.4233971
21
139.8719229
0
LINE
8
DEFAULT_255_2_778
10
23.4233971
20
139.8719229
11
23.4506971
21
139.8939229
0
LINE
8
DEFAULT_255_2_778
10
23.4506971
20
139.8939229
11
23.4757971
21
139.9185229
0
LINE
8
DEFAULT_255_2_778
10
23.4757971
20
139.9185229
11
23.4985971
21
139.9457229
0
LINE
8
DEFAULT_255_2_778
10
23.6088971
20
140.2725229
11
23.6101971
21
140.3426229
0
LINE
8
DEFAULT_255_2_778
10
23.6101971
20
140.3426229
11
23.6075971
21
140.4122229
0
LINE
8
DEFAULT_255_2_778
10
23.5445971
20
140.6839229
11
23.5279971
21
140.7152229
0
LINE
8
DEFAULT_255_2_778
10
23.5279971
20
140.7152229
11
23.5088971
21
140.7445229
0
LINE
8
DEFAULT_255_2_778
10
23.4622971
20
140.7969229
11
23.4342971
21
140.8189229
0
LINE
8
DEFAULT_255_2_778
10
23.4342971
20
140.8189229
11
23.4038971
21
140.8366229
0
LINE
8
DEFAULT_255_2_778
10
23.4038971
20
140.8366229
11
23.3710971
21
140.8504229
0
LINE
8
DEFAULT_255_2_778
10
23.3710971
20
140.8504229
11
23.3366971
21
140.8593229
0
LINE
8
DEFAULT_255_2_778
10
23.3366971
20
140.8593229
11
23.3014971
21
140.8641229
0
LINE
8
DEFAULT_255_2_778
10
23.3014971
20
140.8641229
11
23.2836971
21
140.8649229
0
LINE
8
DEFAULT_255_2_778
10
23.2836971
20
140.8649229
11
23.2659971
21
140.8649229
0
LINE
8
DEFAULT_255_2_778
10
23.2659971
20
140.8649229
11
23.1955971
21
140.8591229
0
LINE
8
DEFAULT_255_2_778
10
23.1955971
20
140.8591229
11
23.1609971
21
140.8519229
0
LINE
8
DEFAULT_255_2_778
10
23.1609971
20
140.8519229
11
23.1267971
21
140.8419229
0
LINE
8
DEFAULT_255_2_778
10
23.1267971
20
140.8419229
11
23.0939971
21
140.8287229
0
LINE
8
DEFAULT_255_2_778
10
23.0939971
20
140.8287229
11
23.0630971
21
140.8120229
0
LINE
8
DEFAULT_255_2_778
10
23.0630971
20
140.8120229
11
23.0336971
21
140.7921229
0
LINE
8
DEFAULT_255_2_778
10
23.0336971
20
140.7921229
11
23.0066971
21
140.7694229
0
LINE
8
DEFAULT_255_2_778
10
22.9603971
20
140.7162229
11
22.9603971
21
141.3070229
0
LINE
8
DEFAULT_255_2_778
10
22.9603971
20
141.3070229
11
23.5882971
21
141.3070229
0
LINE
8
DEFAULT_255_2_778
10
23.5882971
20
141.3070229
11
23.5882971
21
141.4179229
0
LINE
8
DEFAULT_255_2_778
10
23.5882971
20
141.4179229
11
22.8495971
21
141.4179229
0
LINE
8
DEFAULT_255_2_778
10
22.8495971
20
141.4179229
11
22.8495971
21
140.5389229
0
LINE
8
DEFAULT_255_2_778
10
22.8495971
20
140.5389229
11
23.0183971
21
140.5389229
0
LINE
8
DEFAULT_255_2_778
10
23.0183971
20
140.5389229
11
23.0270971
21
140.5876229
0
LINE
8
DEFAULT_255_2_778
10
23.0270971
20
140.5876229
11
23.0275971
21
140.5919229
0
LINE
8
DEFAULT_255_2_778
10
23.0275971
20
140.5919229
11
23.0283971
21
140.5958229
0
LINE
8
DEFAULT_255_2_778
10
23.0283971
20
140.5958229
11
23.0304971
21
140.6038229
0
LINE
8
DEFAULT_255_2_778
10
23.0304971
20
140.6038229
11
23.0357971
21
140.6196229
0
LINE
8
DEFAULT_255_2_778
10
23.0508971
20
140.6490229
11
23.0715971
21
140.6752229
0
LINE
8
DEFAULT_255_2_778
10
23.0715971
20
140.6752229
11
23.1040971
21
140.7040229
0
LINE
8
DEFAULT_255_2_778
10
23.1040971
20
140.7040229
11
23.1418971
21
140.7263229
0
LINE
8
DEFAULT_255_2_778
10
23.1418971
20
140.7263229
11
23.1516971
21
140.7310229
0
LINE
8
DEFAULT_255_2_778
10
23.1516971
20
140.7310229
11
23.1617971
21
140.7350229
0
LINE
8
DEFAULT_255_2_778
10
23.1617971
20
140.7350229
11
23.1826971
21
140.7416229
0
LINE
8
DEFAULT_255_2_778
10
23.1826971
20
140.7416229
11
23.2040971
21
140.7464229
0
LINE
8
DEFAULT_255_2_778
10
23.2040971
20
140.7464229
11
23.2257971
21
140.7495229
0
LINE
8
DEFAULT_255_2_778
10
23.2257971
20
140.7495229
11
23.2694971
21
140.7522229
0
LINE
8
DEFAULT_255_2_778
10
23.2694971
20
140.7522229
11
23.2913971
21
140.7517229
0
LINE
8
DEFAULT_255_2_778
10
23.2913971
20
140.7517229
11
23.3130971
21
140.7488229
0
LINE
8
DEFAULT_255_2_778
10
23.3130971
20
140.7488229
11
23.3342971
21
140.7432229
0
LINE
8
DEFAULT_255_2_778
10
23.3342971
20
140.7432229
11
23.3543971
21
140.7347229
0
LINE
8
DEFAULT_255_2_778
10
23.3543971
20
140.7347229
11
23.3728971
21
140.7234229
0
LINE
8
DEFAULT_255_2_778
10
23.3728971
20
140.7234229
11
23.3895971
21
140.7091229
0
LINE
8
DEFAULT_255_2_778
10
23.3895971
20
140.7091229
11
23.4040971
21
140.6929229
0
LINE
8
DEFAULT_255_2_778
10
23.4040971
20
140.6929229
11
23.4173971
21
140.6757229
0
LINE
8
DEFAULT_255_2_778
10
23.4173971
20
140.6757229
11
23.4400971
21
140.6387229
0
LINE
8
DEFAULT_255_2_778
10
23.4400971
20
140.6387229
11
23.4577971
21
140.5993229
0
LINE
8
DEFAULT_255_2_778
10
23.4577971
20
140.5993229
11
23.4649971
21
140.5789229
0
LINE
8
DEFAULT_255_2_778
10
23.4649971
20
140.5789229
11
23.4712971
21
140.5583229
0
LINE
8
DEFAULT_255_2_778
10
23.4712971
20
140.5583229
11
23.4818971
21
140.5162229
0
LINE
8
DEFAULT_255_2_778
10
23.4818971
20
140.5162229
11
23.4895971
21
140.4739229
0
LINE
8
DEFAULT_255_2_778
10
23.4895971
20
140.4739229
11
23.4921971
21
140.4527229
0
LINE
8
DEFAULT_255_2_778
10
23.4921971
20
140.4527229
11
23.4943971
21
140.4315229
0
LINE
8
DEFAULT_255_2_778
10
23.4943971
20
140.4315229
11
23.4974971
21
140.3889229
0
LINE
8
DEFAULT_255_2_778
10
23.4974971
20
140.3889229
11
23.4993971
21
140.3463229
0
LINE
8
DEFAULT_255_2_778
10
23.4993971
20
140.3463229
11
23.4993971
21
140.3035229
0
LINE
8
DEFAULT_255_2_778
10
23.4993971
20
140.3035229
11
23.4966971
21
140.2603229
0
LINE
8
DEFAULT_255_2_778
10
23.4966971
20
140.2603229
11
23.4908971
21
140.2175229
0
LINE
8
DEFAULT_255_2_778
10
23.4699971
20
140.1341229
11
23.4543971
21
140.0939229
0
LINE
8
DEFAULT_255_2_778
10
23.4543971
20
140.0939229
11
23.4347971
21
140.0555229
0
LINE
8
DEFAULT_255_2_778
10
23.4347971
20
140.0555229
11
23.4106971
21
140.0196229
0
LINE
8
DEFAULT_255_2_778
10
23.4106971
20
140.0196229
11
23.3966971
21
140.0029229
0
LINE
8
DEFAULT_255_2_778
10
23.3966971
20
140.0029229
11
23.3815971
21
139.9875229
0
LINE
8
DEFAULT_255_2_778
10
23.3815971
20
139.9875229
11
23.3477971
21
139.9606229
0
LINE
8
DEFAULT_255_2_778
10
23.3477971
20
139.9606229
11
23.3292971
21
139.9489229
0
LINE
8
DEFAULT_255_2_778
10
23.3292971
20
139.9489229
11
23.3098971
21
139.9391229
0
LINE
8
DEFAULT_255_2_778
10
23.3098971
20
139.9391229
11
23.2895971
21
139.9315229
0
LINE
8
DEFAULT_255_2_778
10
23.2895971
20
139.9315229
11
23.2683971
21
139.9256229
0
LINE
8
DEFAULT_255_2_778
10
23.2683971
20
139.9256229
11
23.2254971
21
139.9201229
0
LINE
8
DEFAULT_255_2_778
10
23.2254971
20
139.9201229
11
23.2037971
21
139.9201229
0
LINE
8
DEFAULT_255_2_778
10
23.2037971
20
139.9201229
11
23.1820971
21
139.9209229
0
LINE
8
DEFAULT_255_2_778
10
23.1820971
20
139.9209229
11
23.1387971
21
139.9246229
0
LINE
8
DEFAULT_255_2_778
10
23.1387971
20
139.9246229
11
23.1021971
21
139.9320229
0
LINE
8
DEFAULT_255_2_778
10
23.1021971
20
139.9320229
11
23.0672971
21
139.9452229
0
LINE
8
DEFAULT_255_2_778
10
23.0672971
20
139.9452229
11
23.0352971
21
139.9637229
0
LINE
8
DEFAULT_255_2_778
10
23.0352971
20
139.9637229
11
23.0064971
21
139.9868229
0
LINE
8
DEFAULT_255_2_778
10
22.9775971
20
140.0209229
11
22.9556971
21
140.0598229
0
LINE
8
DEFAULT_255_2_778
10
22.9556971
20
140.0598229
11
22.8537971
21
140.0132229
0
LINE
8
DEFAULT_255_2_778
10
24.9526971
20
141.1229229
11
24.9624971
21
141.1298229
0
LINE
8
DEFAULT_255_2_778
10
24.9624971
20
141.1298229
11
24.9717971
21
141.1372229
0
LINE
8
DEFAULT_255_2_778
10
24.9717971
20
141.1372229
11
24.9897971
21
141.1525229
0
LINE
8
DEFAULT_255_2_778
10
24.9897971
20
141.1525229
11
25.0243971
21
141.1845229
0
LINE
8
DEFAULT_255_2_778
10
25.0243971
20
141.1845229
11
25.0908971
21
141.2520229
0
LINE
8
DEFAULT_255_2_778
10
25.0908971
20
141.2520229
11
25.1553971
21
141.3213229
0
LINE
8
DEFAULT_255_2_778
10
25.1553971
20
141.3213229
11
25.2191971
21
141.3914229
0
LINE
8
DEFAULT_255_2_778
10
25.2191971
20
141.3914229
11
25.2347971
21
141.4094229
0
LINE
8
DEFAULT_255_2_778
10
25.2347971
20
141.4094229
11
25.3744971
21
141.4094229
0
LINE
8
DEFAULT_255_2_778
10
25.3744971
20
141.4094229
11
25.3744971
21
139.8158229
0
LINE
8
DEFAULT_255_2_778
10
25.3744971
20
139.8158229
11
25.2635971
21
139.8158229
0
LINE
8
DEFAULT_255_2_778
10
25.2635971
20
139.8158229
11
25.2635971
21
141.2718229
0
LINE
8
DEFAULT_255_2_778
10
25.2635971
20
141.2718229
11
25.2006971
21
141.2044229
0
LINE
8
DEFAULT_255_2_778
10
25.2006971
20
141.2044229
11
25.1363971
21
141.1380229
0
LINE
8
DEFAULT_255_2_778
10
25.1363971
20
141.1380229
11
25.0698971
21
141.0737229
0
LINE
8
DEFAULT_255_2_778
10
25.0698971
20
141.0737229
11
25.0349971
21
141.0435229
0
LINE
8
DEFAULT_255_2_778
10
25.0349971
20
141.0435229
11
25.0164971
21
141.0297229
0
LINE
8
DEFAULT_255_2_778
10
25.0164971
20
141.0297229
11
25.0066971
21
141.0237229
0
LINE
8
DEFAULT_255_2_778
10
25.0066971
20
141.0237229
11
24.9960971
21
141.0189229
0
LINE
8
DEFAULT_255_2_778
10
24.9960971
20
141.0189229
11
24.9847971
21
141.0160229
0
LINE
8
DEFAULT_255_2_778
10
24.9847971
20
141.0160229
11
24.9730971
21
141.0147229
0
LINE
8
DEFAULT_255_2_778
10
24.9730971
20
141.0147229
11
24.9661971
21
141.1279229
0
LINE
8
DEFAULT_255_2_778
10
24.9661971
20
141.1279229
11
24.9529971
21
141.1234229
0
LINE
8
DEFAULT_255_2_778
10
18.2727971
20
140.5604229
11
18.2970971
21
140.5945229
0
LINE
8
DEFAULT_255_2_778
10
18.2970971
20
140.5945229
11
18.3235971
21
140.6270229
0
LINE
8
DEFAULT_255_2_778
10
18.3235971
20
140.6270229
11
18.3534971
21
140.6567229
0
LINE
8
DEFAULT_255_2_778
10
18.3534971
20
140.6567229
11
18.3873971
21
140.6818229
0
LINE
8
DEFAULT_255_2_778
10
18.3873971
20
140.6818229
11
18.4248971
21
140.7011229
0
LINE
8
DEFAULT_255_2_778
10
18.4248971
20
140.7011229
11
18.4651971
21
140.7141229
0
LINE
8
DEFAULT_255_2_778
10
18.4651971
20
140.7141229
11
18.5069971
21
140.7207229
0
LINE
8
DEFAULT_255_2_778
10
18.5069971
20
140.7207229
11
18.5174971
21
140.7215229
0
LINE
8
DEFAULT_255_2_778
10
18.5174971
20
140.7215229
11
18.5280971
21
140.7223229
0
LINE
8
DEFAULT_255_2_778
10
18.5280971
20
140.7223229
11
18.5492971
21
140.7236229
0
LINE
8
DEFAULT_255_2_778
10
18.5492971
20
140.7236229
11
18.6077971
21
140.7181229
0
LINE
8
DEFAULT_255_2_778
10
18.6077971
20
140.7181229
11
18.6362971
21
140.7104229
0
LINE
8
DEFAULT_255_2_778
10
18.6362971
20
140.7104229
11
18.6635971
21
140.6990229
0
LINE
8
DEFAULT_255_2_778
10
18.6635971
20
140.6990229
11
18.6886971
21
140.6837229
0
LINE
8
DEFAULT_255_2_778
10
18.6886971
20
140.6837229
11
18.7109971
21
140.6644229
0
LINE
8
DEFAULT_255_2_778
10
18.7109971
20
140.6644229
11
18.7299971
21
140.6421229
0
LINE
8
DEFAULT_255_2_778
10
18.7299971
20
140.6421229
11
18.7460971
21
140.6175229
0
LINE
8
DEFAULT_255_2_778
10
18.7696971
20
140.5641229
11
18.7781971
21
140.5360229
0
LINE
8
DEFAULT_255_2_778
10
18.7781971
20
140.5360229
11
18.7847971
21
140.5077229
0
LINE
8
DEFAULT_255_2_778
10
18.7847971
20
140.5077229
11
18.7939971
21
140.4506229
0
LINE
8
DEFAULT_255_2_778
10
18.7939971
20
140.4506229
11
18.7987971
21
140.3929229
0
LINE
8
DEFAULT_255_2_778
10
18.7987971
20
140.3929229
11
18.8000971
21
140.3349229
0
LINE
8
DEFAULT_255_2_778
10
18.8000971
20
140.3349229
11
18.7976971
21
140.2767229
0
LINE
8
DEFAULT_255_2_778
10
18.7976971
20
140.2767229
11
18.7921971
21
140.2191229
0
LINE
8
DEFAULT_255_2_778
10
18.7921971
20
140.2191229
11
18.7881971
21
140.1905229
0
LINE
8
DEFAULT_255_2_778
10
18.7881971
20
140.1905229
11
18.7823971
21
140.1622229
0
LINE
8
DEFAULT_255_2_778
10
18.7823971
20
140.1622229
11
18.7746971
21
140.1341229
0
LINE
8
DEFAULT_255_2_778
10
18.7746971
20
140.1341229
11
18.7651971
21
140.1063229
0
LINE
8
DEFAULT_255_2_778
10
18.7651971
20
140.1063229
11
18.7540971
21
140.0794229
0
LINE
8
DEFAULT_255_2_778
10
18.7540971
20
140.0794229
11
18.7410971
21
140.0532229
0
LINE
8
DEFAULT_255_2_778
10
18.7410971
20
140.0532229
11
18.7254971
21
140.0283229
0
LINE
8
DEFAULT_255_2_778
10
18.7254971
20
140.0283229
11
18.7074971
21
140.0050229
0
LINE
8
DEFAULT_255_2_778
10
18.7074971
20
140.0050229
11
18.6648971
21
139.9640229
0
LINE
8
DEFAULT_255_2_778
10
18.5254971
20
139.9190229
11
18.5069971
21
139.9185229
0
LINE
8
DEFAULT_255_2_778
10
18.5069971
20
139.9185229
11
18.4881971
21
139.9190229
0
LINE
8
DEFAULT_255_2_778
10
18.4881971
20
139.9190229
11
18.4513971
21
139.9243229
0
LINE
8
DEFAULT_255_2_778
10
18.4513971
20
139.9243229
11
18.4158971
21
139.9354229
0
LINE
8
DEFAULT_255_2_778
10
18.4158971
20
139.9354229
11
18.3825971
21
139.9524229
0
LINE
8
DEFAULT_255_2_778
10
18.3825971
20
139.9524229
11
18.3304971
21
139.9920229
0
LINE
8
DEFAULT_255_2_778
10
18.2076971
20
140.2381229
11
18.2050971
21
140.2804229
0
LINE
8
DEFAULT_255_2_778
10
18.2050971
20
140.2804229
11
18.2058971
21
140.3228229
0
LINE
8
DEFAULT_255_2_778
10
18.2362971
20
140.4884229
11
18.2362971
21
140.4881229
0
LINE
8
DEFAULT_255_2_778
10
18.7979971
20
141.2938229
11
18.7706971
21
141.3234229
0
LINE
8
DEFAULT_255_2_778
10
18.7706971
20
141.3234229
11
18.7402971
21
141.3499229
0
LINE
8
DEFAULT_255_2_778
10
18.6717971
20
141.3920229
11
18.6344971
21
141.4076229
0
LINE
8
DEFAULT_255_2_778
10
18.6344971
20
141.4076229
11
18.5958971
21
141.4189229
0
LINE
8
DEFAULT_255_2_778
10
18.5958971
20
141.4189229
11
18.5561971
21
141.4266229
0
LINE
8
DEFAULT_255_2_778
10
18.5561971
20
141.4266229
11
18.5159971
21
141.4306229
0
LINE
8
DEFAULT_255_2_778
10
18.5159971
20
141.4306229
11
18.4756971
21
141.4314229
0
LINE
8
DEFAULT_255_2_778
10
18.4756971
20
141.4314229
11
18.4357971
21
141.4293229
0
LINE
8
DEFAULT_255_2_778
10
18.4357971
20
141.4293229
11
18.3957971
21
141.4242229
0
LINE
8
DEFAULT_255_2_778
10
18.3957971
20
141.4242229
11
18.3560971
21
141.4152229
0
LINE
8
DEFAULT_255_2_778
10
18.3560971
20
141.4152229
11
18.3179971
21
141.4020229
0
LINE
8
DEFAULT_255_2_778
10
18.3179971
20
141.4020229
11
18.2817971
21
141.3843229
0
LINE
8
DEFAULT_255_2_778
10
18.2817971
20
141.3843229
11
18.2476971
21
141.3623229
0
LINE
8
DEFAULT_255_2_778
10
18.2476971
20
141.3623229
11
18.2169971
21
141.3367229
0
LINE
8
DEFAULT_255_2_778
10
18.2169971
20
141.3367229
11
18.1896971
21
141.3070229
0
LINE
8
DEFAULT_255_2_778
10
18.1896971
20
141.3070229
11
18.1661971
21
141.2742229
0
LINE
8
DEFAULT_255_2_778
10
18.1293971
20
141.2033229
11
18.1155971
21
141.1655229
0
LINE
8
DEFAULT_255_2_778
10
18.1155971
20
141.1655229
11
18.1044971
21
141.1271229
0
LINE
8
DEFAULT_255_2_778
10
18.1044971
20
141.1271229
11
18.0880971
21
141.0493229
0
LINE
8
DEFAULT_255_2_778
10
18.0880971
20
141.0493229
11
18.0777971
21
140.9707229
0
LINE
8
DEFAULT_255_2_778
10
18.0777971
20
140.9707229
11
18.0679971
21
140.8120229
0
LINE
8
DEFAULT_255_2_778
10
18.0679971
20
140.8120229
11
18.0658971
21
140.6429229
0
LINE
8
DEFAULT_255_2_778
10
18.0658971
20
140.6429229
11
18.0671971
21
140.4739229
0
LINE
8
DEFAULT_255_2_778
10
18.0671971
20
140.4739229
11
18.0682971
21
140.4315229
0
LINE
8
DEFAULT_255_2_778
10
18.0682971
20
140.4315229
11
18.0700971
21
140.3892229
0
LINE
8
DEFAULT_255_2_778
10
18.0700971
20
140.3892229
11
18.0769971
21
140.3048229
0
LINE
8
DEFAULT_255_2_778
10
18.0769971
20
140.3048229
11
18.0883971
21
140.2209229
0
LINE
8
DEFAULT_255_2_778
10
18.0883971
20
140.2209229
11
18.1065971
21
140.1384229
0
LINE
8
DEFAULT_255_2_778
10
18.1065971
20
140.1384229
11
18.1185971
21
140.0976229
0
LINE
8
DEFAULT_255_2_778
10
18.1185971
20
140.0976229
11
18.1322971
21
140.0579229
0
LINE
8
DEFAULT_255_2_778
10
18.1695971
20
139.9828229
11
18.1933971
21
139.9476229
0
LINE
8
DEFAULT_255_2_778
10
18.1933971
20
139.9476229
11
18.2208971
21
139.9151229
0
LINE
8
DEFAULT_255_2_778
10
18.2208971
20
139.9151229
11
18.2521971
21
139.8862229
0
LINE
8
DEFAULT_255_2_778
10
18.2521971
20
139.8862229
11
18.2867971
21
139.8613229
0
LINE
8
DEFAULT_255_2_778
10
18.2867971
20
139.8613229
11
18.3240971
21
139.8404229
0
LINE
8
DEFAULT_255_2_778
10
18.3240971
20
139.8404229
11
18.3635971
21
139.8246229
0
LINE
8
DEFAULT_255_2_778
10
18.3635971
20
139.8246229
11
18.4050971
21
139.8137229
0
LINE
8
DEFAULT_255_2_778
10
18.4050971
20
139.8137229
11
18.4471971
21
139.8074229
0
LINE
8
DEFAULT_255_2_778
10
18.4471971
20
139.8074229
11
18.4894971
21
139.8045229
0
LINE
8
DEFAULT_255_2_778
10
18.4894971
20
139.8045229
11
18.5320971
21
139.8047229
0
LINE
8
DEFAULT_255_2_778
10
18.5320971
20
139.8047229
11
18.5746971
21
139.8084229
0
LINE
8
DEFAULT_255_2_778
10
18.5746971
20
139.8084229
11
18.6164971
21
139.8161229
0
LINE
8
DEFAULT_255_2_778
10
18.6164971
20
139.8161229
11
18.6571971
21
139.8280229
0
LINE
8
DEFAULT_255_2_778
10
18.6571971
20
139.8280229
11
18.6966971
21
139.8447229
0
LINE
8
DEFAULT_255_2_778
10
18.7667971
20
139.8918229
11
18.7971971
21
139.9219229
0
LINE
8
DEFAULT_255_2_778
10
18.7971971
20
139.9219229
11
18.8233971
21
139.9553229
0
LINE
8
DEFAULT_255_2_778
10
18.8233971
20
139.9553229
11
18.8455971
21
139.9915229
0
LINE
8
DEFAULT_255_2_778
10
18.8455971
20
139.9915229
11
18.8638971
21
140.0301229
0
LINE
8
DEFAULT_255_2_778
10
18.8897971
20
140.1103229
11
18.8984971
21
140.1516229
0
LINE
8
DEFAULT_255_2_778
10
18.8984971
20
140.1516229
11
18.9048971
21
140.1937229
0
LINE
8
DEFAULT_255_2_778
10
18.9048971
20
140.1937229
11
18.9119971
21
140.2775229
0
LINE
8
DEFAULT_255_2_778
10
18.9119971
20
140.2775229
11
18.9130971
21
140.3614229
0
LINE
8
DEFAULT_255_2_778
10
18.9130971
20
140.3614229
11
18.9080971
21
140.4450229
0
LINE
8
DEFAULT_255_2_778
10
18.8715971
20
140.6104229
11
18.8548971
21
140.6495229
0
LINE
8
DEFAULT_255_2_778
10
18.8548971
20
140.6495229
11
18.8341971
21
140.6868229
0
LINE
8
DEFAULT_255_2_778
10
18.7804971
20
140.7522229
11
18.7643971
21
140.7662229
0
LINE
8
DEFAULT_255_2_778
10
18.7643971
20
140.7662229
11
18.7474971
21
140.7789229
0
LINE
8
DEFAULT_255_2_778
10
18.7474971
20
140.7789229
11
18.7109971
21
140.8006229
0
LINE
8
DEFAULT_255_2_778
10
18.7109971
20
140.8006229
11
18.6714971
21
140.8170229
0
LINE
8
DEFAULT_255_2_778
10
18.6714971
20
140.8170229
11
18.6302971
21
140.8281229
0
LINE
8
DEFAULT_255_2_778
10
18.5452971
20
140.8363229
11
18.5053971
21
140.8339229
0
LINE
8
DEFAULT_255_2_778
10
18.5053971
20
140.8339229
11
18.4285971
21
140.8215229
0
LINE
8
DEFAULT_255_2_778
10
18.4285971
20
140.8215229
11
18.3915971
21
140.8096229
0
LINE
8
DEFAULT_255_2_778
10
18.3915971
20
140.8096229
11
18.3563971
21
140.7937229
0
LINE
8
DEFAULT_255_2_778
10
18.3563971
20
140.7937229
11
18.3230971
21
140.7742229
0
LINE
8
DEFAULT_255_2_778
10
18.3230971
20
140.7742229
11
18.2918971
21
140.7511229
0
LINE
8
DEFAULT_255_2_778
10
18.2370971
20
140.6966229
11
18.2047971
21
140.6564229
0
LINE
8
DEFAULT_255_2_778
10
18.1790971
20
140.6120229
11
18.1806971
21
140.7593229
0
LINE
8
DEFAULT_255_2_778
10
18.1806971
20
140.7593229
11
18.1864971
21
140.9067229
0
LINE
8
DEFAULT_255_2_778
10
18.1864971
20
140.9067229
11
18.1928971
21
140.9803229
0
LINE
8
DEFAULT_255_2_778
10
18.1928971
20
140.9803229
11
18.2042971
21
141.0530229
0
LINE
8
DEFAULT_255_2_778
10
18.2224971
20
141.1245229
11
18.2349971
21
141.1591229
0
LINE
8
DEFAULT_255_2_778
10
18.2349971
20
141.1591229
11
18.2507971
21
141.1922229
0
LINE
8
DEFAULT_255_2_778
10
18.2507971
20
141.1922229
11
18.2706971
21
141.2234229
0
LINE
8
DEFAULT_255_2_778
10
18.2706971
20
141.2234229
11
18.2944971
21
141.2515229
0
LINE
8
DEFAULT_255_2_778
10
18.2944971
20
141.2515229
11
18.3079971
21
141.2642229
0
LINE
8
DEFAULT_255_2_778
10
18.3079971
20
141.2642229
11
18.3224971
21
141.2758229
0
LINE
8
DEFAULT_255_2_778
10
18.3224971
20
141.2758229
11
18.3542971
21
141.2943229
0
LINE
8
DEFAULT_255_2_778
10
18.3542971
20
141.2943229
11
18.3714971
21
141.3015229
0
LINE
8
DEFAULT_255_2_778
10
18.3714971
20
141.3015229
11
18.3891971
21
141.3073229
0
LINE
8
DEFAULT_255_2_778
10
18.3891971
20
141.3073229
11
18.4254971
21
141.3152229
0
LINE
8
DEFAULT_255_2_778
10
18.4254971
20
141.3152229
11
18.4621971
21
141.3189229
0
LINE
8
DEFAULT_255_2_778
10
18.4621971
20
141.3189229
11
18.4995971
21
141.3195229
0
LINE
8
DEFAULT_255_2_778
10
18.5725971
20
141.3089229
11
18.6077971
21
141.2967229
0
LINE
8
DEFAULT_255_2_778
10
18.6077971
20
141.2967229
11
18.6407971
21
141.2803229
0
LINE
8
DEFAULT_255_2_778
10
18.6407971
20
141.2803229
11
18.6563971
21
141.2705229
0
LINE
8
DEFAULT_255_2_778
10
18.6563971
20
141.2705229
11
18.6714971
21
141.2594229
0
LINE
8
DEFAULT_255_2_778
10
18.6714971
20
141.2594229
11
18.6984971
21
141.2343229
0
LINE
8
DEFAULT_255_2_778
10
18.6984971
20
141.2343229
11
18.7214971
21
141.2054229
0
LINE
8
DEFAULT_255_2_778
10
18.7214971
20
141.2054229
11
18.7402971
21
141.1734229
0
LINE
8
DEFAULT_255_2_778
10
18.7402971
20
141.1734229
11
18.8418971
21
141.2269229
0
ARC
8
DEFAULT_255_2_778
10
30.180218
20
140.2407724
40
0.3400121
50
269.9969913
51
270.6368091
0
ARC
8
DEFAULT_255_2_778
10
30.1801431
20
140.2410511
40
0.340291
50
257.0004704
51
270.0096152
0
ARC
8
DEFAULT_255_2_778
10
30.2161293
20
140.1683883
40
0.2956029
50
199.1575558
51
214.8005979
0
ARC
8
DEFAULT_255_2_778
10
30.4915363
20
140.2741045
40
0.5905264
50
192.8490571
51
200.0775949
0
ARC
8
DEFAULT_255_2_778
10
31.3067284
20
140.4101042
40
1.4176407
50
182.5629305
51
187.8867817
0
ARC
8
DEFAULT_255_2_778
10
31.679499
20
140.4319565
40
1.791023
50
182.200698
51
182.728044
0
ARC
8
DEFAULT_255_2_778
10
30.5056436
20
140.9154674
40
0.6081755
50
162.0418731
51
169.0222195
0
ARC
8
DEFAULT_255_2_778
10
30.2022038
20
141.0300902
40
0.2831244
50
135.0881102
51
150.086686
0
ARC
8
DEFAULT_255_2_778
10
30.1370711
20
141.0974795
40
0.1894277
50
120.6870278
51
135.6143472
0
ARC
8
DEFAULT_255_2_778
10
30.2254946
20
141.0893714
40
0.1982814
50
44.9606613
51
59.3096827
0
ARC
8
DEFAULT_255_2_778
10
30.1367259
20
141.0130439
40
0.3151487
50
26.1994674
51
43.3756398
0
ARC
8
DEFAULT_255_2_778
10
30.0800362
20
140.9840607
40
0.3788115
50
19.1907289
51
26.3472702
0
ARC
8
DEFAULT_255_2_778
10
29.7468304
20
140.3123174
40
0.7253876
50
345.0905825
51
352.5514561
0
ARC
8
DEFAULT_255_2_778
10
30.0966379
20
140.1995052
40
0.3574848
50
333.0486872
51
340.5861642
0
ARC
8
DEFAULT_255_2_778
10
30.1558216
20
140.1702962
40
0.4034683
50
315.0161119
51
330.8521902
0
ARC
8
DEFAULT_255_2_778
10
29.8081752
20
140.2988068
40
0.7748429
50
343.3412
51
351.5451222
0
ARC
8
DEFAULT_255_2_778
10
29.9176914
20
140.933703
40
0.6615066
50
11.9772643
51
21.540524
0
ARC
8
DEFAULT_255_2_778
10
30.1455674
20
141.0213746
40
0.4173617
50
21.8313308
51
29.4507734
0
ARC
8
DEFAULT_255_2_778
10
30.1800884
20
140.9557743
40
0.4512238
50
89.5036905
51
103.742405
0
ARC
8
DEFAULT_255_2_778
10
30.7865428
20
140.8507098
40
1.008494
50
167.4887486
51
173.774015
0
ARC
8
DEFAULT_255_2_778
10
30.6180438
20
140.3112474
40
0.8371161
50
188.7168445
51
196.3296325
0
ARC
8
DEFAULT_255_2_778
10
30.1792802
20
140.152057
40
0.3692472
50
208.9576322
51
226.3049804
0
ARC
8
DEFAULT_255_2_778
10
30.1469644
20
140.1040103
40
0.3123384
50
224.5021158
51
237.4677774
0
ARC
8
DEFAULT_255_2_778
10
30.2231102
20
140.0981281
40
0.3050182
50
302.2554806
51
315.6428895
0
ARC
8
DEFAULT_255_2_778
10
23.9437755
20
141.0426905
40
0.5165245
50
349.9644388
51
0.0415738
0
ARC
8
DEFAULT_255_2_778
10
23.9344733
20
141.0431265
40
0.5258265
50
359.9933238
51
0.1803026
0
ARC
8
DEFAULT_255_2_778
10
24.0389852
20
141.0443452
40
0.4213121
50
0.0592974
51
6.3689128
0
ARC
8
DEFAULT_255_2_778
10
24.0646404
20
141.0443429
40
0.3958256
50
6.7811972
51
13.5200501
0
ARC
8
DEFAULT_255_2_778
10
24.2127126
20
141.0799262
40
0.243538
50
13.5247448
51
35.2495135
0
ARC
8
DEFAULT_255_2_778
10
24.2410637
20
141.0983479
40
0.2097574
50
35.6096522
51
54.3903478
0
ARC
8
DEFAULT_255_2_778
10
24.1832595
20
141.0232675
40
0.2927653
50
93.517561
51
106.9726148
0
ARC
8
DEFAULT_255_2_778
10
24.2415494
20
141.0189006
40
0.3298823
50
140.8032759
51
152.7429355
0
ARC
8
DEFAULT_255_2_778
10
24.24247
20
141.0238776
40
0.4404382
50
139.8137236
51
153.4155037
0
ARC
8
DEFAULT_255_2_778
10
24.2644168
20
141.1229208
40
0.289668
50
47.2356249
51
63.0280361
0
ARC
8
DEFAULT_255_2_778
10
24.2183885
20
141.0764811
40
0.3550215
50
35.8652135
51
46.8709068
0
ARC
8
DEFAULT_255_2_778
10
24.033589
20
141.0387645
40
0.541151
50
5.7712681
51
12.987422
0
ARC
8
DEFAULT_255_2_778
10
23.9396397
20
141.040723
40
0.6348331
50
352.5382803
51
358.6513271
0
ARC
8
DEFAULT_255_2_778
10
24.0277554
20
141.019104
40
0.544338
50
339.253526
51
346.4296731
0
ARC
8
DEFAULT_255_2_778
10
23.9601464
20
141.0414349
40
0.6154811
50
333.3201794
51
339.538988
0
ARC
8
DEFAULT_255_2_778
10
23.9869556
20
141.0220651
40
0.4709253
50
332.4540742
51
340.4372902
0
ARC
8
DEFAULT_255_2_778
10
31.172418
20
140.2248724
40
0.3400121
50
269.9969913
51
270.6368091
0
ARC
8
DEFAULT_255_2_778
10
31.1723431
20
140.2251511
40
0.340291
50
257.0004704
51
270.0096152
0
ARC
8
DEFAULT_255_2_778
10
31.2099663
20
140.1533215
40
0.2974227
50
199.2056848
51
214.7524186
0
ARC
8
DEFAULT_255_2_778
10
31.4854072
20
140.2593221
40
0.5924797
50
192.9069203
51
200.1236376
0
ARC
8
DEFAULT_255_2_778
10
32.3326211
20
140.3977173
40
1.4514971
50
181.9873426
51
187.8416489
0
ARC
8
DEFAULT_255_2_778
10
31.4841292
20
140.9029068
40
0.5940388
50
161.9587835
51
169.1054595
0
ARC
8
DEFAULT_255_2_778
10
31.1929338
20
141.0153527
40
0.2811213
50
135.073244
51
150.1956431
0
ARC
8
DEFAULT_255_2_778
10
31.1276064
20
141.0834987
40
0.186756
50
120.579634
51
135.7217393
0
ARC
8
DEFAULT_255_2_778
10
31.221443
20
141.0779721
40
0.1924496
50
44.8010843
51
59.6110297
0
ARC
8
DEFAULT_255_2_778
10
31.1294749
20
140.9973454
40
0.3146113
50
26.2270089
51
43.4176203
0
ARC
8
DEFAULT_255_2_778
10
31.0637407
20
140.9649875
40
0.3878781
50
19.2208958
51
26.2235922
0
ARC
8
DEFAULT_255_2_778
10
30.6995307
20
140.3042235
40
0.7655705
50
345.2866355
51
352.3553955
0
ARC
8
DEFAULT_255_2_778
10
31.0964011
20
140.180736
40
0.349398
50
332.9205839
51
340.6176691
0
ARC
8
DEFAULT_255_2_778
10
31.1530625
20
140.1505133
40
0.3970881
50
314.9084206
51
330.9802041
0
ARC
8
DEFAULT_255_2_778
10
30.8065368
20
140.2815343
40
0.7685465
50
343.3075362
51
351.578786
0
ARC
8
DEFAULT_255_2_778
10
30.9029299
20
140.9157059
40
0.6687521
50
12.0292532
51
21.4886636
0
ARC
8
DEFAULT_255_2_778
10
31.1507203
20
141.0109904
40
0.4032866
50
21.7882363
51
29.6801904
0
ARC
8
DEFAULT_255_2_778
10
31.1726936
20
140.9398833
40
0.4513115
50
89.55522
51
103.7926356
0
ARC
8
DEFAULT_255_2_778
10
31.7809684
20
140.8343418
40
1.0107682
50
167.4901779
51
173.7556871
0
ARC
8
DEFAULT_255_2_778
10
31.5978127
20
140.2925851
40
0.8244103
50
188.6580207
51
196.3883141
0
ARC
8
DEFAULT_255_2_778
10
31.1709441
20
140.1360462
40
0.3687245
50
208.9829037
51
226.3425858
0
ARC
8
DEFAULT_255_2_778
10
31.136937
20
140.0848755
40
0.3084133
50
224.3503021
51
237.4934764
0
ARC
8
DEFAULT_255_2_778
10
31.2153042
20
140.0822365
40
0.3050286
50
302.2555833
51
315.6425396
0
ARC
8
DEFAULT_255_2_778
10
32.875818
20
140.2579724
40
0.3400121
50
269.9969913
51
270.6368091
0
ARC
8
DEFAULT_255_2_778
10
32.8757431
20
140.2582511
40
0.340291
50
257.0004704
51
270.0096152
0
ARC
8
DEFAULT_255_2_778
10
32.9117293
20
140.1855883
40
0.2956029
50
199.1575558
51
214.8005979
0
ARC
8
DEFAULT_255_2_778
10
33.1705149
20
140.2871766
40
0.573501
50
192.8140513
51
200.2603236
0
ARC
8
DEFAULT_255_2_778
10
34.0023284
20
140.4273042
40
1.4176407
50
182.5629305
51
187.8867817
0
ARC
8
DEFAULT_255_2_778
10
34.375099
20
140.4491565
40
1.791023
50
182.200698
51
182.728044
0
ARC
8
DEFAULT_255_2_778
10
33.1700031
20
140.9405291
40
0.5759749
50
161.8465864
51
169.2177035
0
ARC
8
DEFAULT_255_2_778
10
32.9035785
20
141.0424934
40
0.2904606
50
135.2501787
51
149.8957186
0
ARC
8
DEFAULT_255_2_778
10
32.8324362
20
141.115096
40
0.1888288
50
120.7472835
51
135.6981613
0
ARC
8
DEFAULT_255_2_778
10
32.9226255
20
141.1082117
40
0.1960393
50
44.9375926
51
59.4748821
0
ARC
8
DEFAULT_255_2_778
10
32.8300434
20
141.0286582
40
0.317897
50
26.2742718
51
43.3008455
0
ARC
8
DEFAULT_255_2_778
10
32.7756362
20
141.0012607
40
0.3788115
50
19.1907289
51
26.3472702
0
ARC
8
DEFAULT_255_2_778
10
32.4199337
20
140.3337571
40
0.7482452
50
345.2126842
51
352.4528603
0
ARC
8
DEFAULT_255_2_778
10
32.7769012
20
140.223273
40
0.3741342
50
333.2166191
51
340.4182176
0
ARC
8
DEFAULT_255_2_778
10
32.8515687
20
140.1869876
40
0.4030049
50
315.0524697
51
330.8982253
0
ARC
8
DEFAULT_255_2_778
10
32.5264183
20
140.3102753
40
0.7515077
50
343.2649394
51
351.7224
0
ARC
8
DEFAULT_255_2_778
10
32.6032749
20
140.9478859
40
0.6719317
50
12.0516868
51
21.4662325
0
ARC
8
DEFAULT_255_2_778
10
32.8541215
20
141.0440918
40
0.4032851
50
21.7881135
51
29.6800993
0
ARC
8
DEFAULT_255_2_778
10
32.8754199
20
140.9727342
40
0.4514646
50
89.4952572
51
103.7390445
0
ARC
8
DEFAULT_255_2_778
10
33.4818428
20
140.8679098
40
1.008494
50
167.4887486
51
173.774015
0
ARC
8
DEFAULT_255_2_778
10
33.2974474
20
140.3249153
40
0.8208686
50
188.6413154
51
196.4050126
0
ARC
8
DEFAULT_255_2_778
10
32.8756357
20
140.1702745
40
0.3707121
50
209.0297724
51
226.2956683
0
ARC
8
DEFAULT_255_2_778
10
32.8422491
20
140.1211915
40
0.3123143
50
224.5016256
51
237.4682905
0
ARC
8
DEFAULT_255_2_778
10
32.9183931
20
140.1153487
40
0.3050448
50
302.2561219
51
315.6423593
0
LINE
8
DEFAULT_255_2_778
10
30.103597
20
139.9094812
11
30.064997
21
139.9221812
0
LINE
8
DEFAULT_255_2_778
10
30.064997
20
139.9221812
11
30.029497
21
139.9417812
0
LINE
8
DEFAULT_255_2_778
10
30.029497
20
139.9417812
11
30.013397
21
139.9541812
0
LINE
8
DEFAULT_255_2_778
10
30.013397
20
139.9541812
11
29.998797
21
139.9681812
0
LINE
8
DEFAULT_255_2_778
10
29.998797
20
139.9681812
11
29.973397
21
139.9996812
0
LINE
8
DEFAULT_255_2_778
10
29.915797
20
140.1427812
11
29.902497
21
140.2155812
0
LINE
8
DEFAULT_255_2_778
10
29.889797
20
140.3631812
11
29.888797
21
140.4005812
0
LINE
8
DEFAULT_255_2_778
10
29.888797
20
140.4005812
11
29.887997
21
140.4375812
0
LINE
8
DEFAULT_255_2_778
10
29.887997
20
140.4375812
11
29.886897
21
140.5118812
0
LINE
8
DEFAULT_255_2_778
10
29.886897
20
140.5118812
11
29.886697
21
140.5862812
0
LINE
8
DEFAULT_255_2_778
10
29.886697
20
140.5862812
11
29.886697
21
140.6605812
0
LINE
8
DEFAULT_255_2_778
10
29.886697
20
140.6605812
11
29.888797
21
140.8092812
0
LINE
8
DEFAULT_255_2_778
10
29.888797
20
140.8092812
11
29.897997
21
140.9574812
0
LINE
8
DEFAULT_255_2_778
10
29.897997
20
140.9574812
11
29.902497
21
140.9944812
0
LINE
8
DEFAULT_255_2_778
10
29.902497
20
140.9944812
11
29.908597
21
141.0312812
0
LINE
8
DEFAULT_255_2_778
10
29.927097
20
141.1029812
11
29.940097
21
141.1378812
0
LINE
8
DEFAULT_255_2_778
10
29.940097
20
141.1378812
11
29.956797
21
141.1712812
0
LINE
8
DEFAULT_255_2_778
10
30.040397
20
141.2603812
11
30.062297
21
141.2717812
0
LINE
8
DEFAULT_255_2_778
10
30.062297
20
141.2717812
11
30.085597
21
141.2805812
0
LINE
8
DEFAULT_255_2_778
10
30.085597
20
141.2805812
11
30.109697
21
141.2868812
0
LINE
8
DEFAULT_255_2_778
10
30.109697
20
141.2868812
11
30.134297
21
141.2910812
0
LINE
8
DEFAULT_255_2_778
10
30.134297
20
141.2910812
11
30.183497
21
141.2940812
0
LINE
8
DEFAULT_255_2_778
10
30.183497
20
141.2940812
11
30.232697
21
141.2908812
0
LINE
8
DEFAULT_255_2_778
10
30.232697
20
141.2908812
11
30.281097
21
141.2799812
0
LINE
8
DEFAULT_255_2_778
10
30.281097
20
141.2799812
11
30.304397
21
141.2712812
0
LINE
8
DEFAULT_255_2_778
10
30.304397
20
141.2712812
11
30.326697
21
141.2598812
0
LINE
8
DEFAULT_255_2_778
10
30.437797
20
141.1085812
11
30.451497
21
141.0635812
0
LINE
8
DEFAULT_255_2_778
10
30.451497
20
141.0635812
11
30.461297
21
141.0177812
0
LINE
8
DEFAULT_255_2_778
10
30.461297
20
141.0177812
11
30.468197
21
140.9712812
0
LINE
8
DEFAULT_255_2_778
10
30.468197
20
140.9712812
11
30.476397
21
140.8772812
0
LINE
8
DEFAULT_255_2_778
10
30.476397
20
140.8772812
11
30.478497
21
140.8301812
0
LINE
8
DEFAULT_255_2_778
10
30.478497
20
140.8301812
11
30.479597
21
140.7830812
0
LINE
8
DEFAULT_255_2_778
10
30.479597
20
140.7830812
11
30.480897
21
140.6888812
0
LINE
8
DEFAULT_255_2_778
10
30.480897
20
140.6888812
11
30.481197
21
140.5947812
0
LINE
8
DEFAULT_255_2_778
10
30.481197
20
140.5947812
11
30.480897
21
140.5005812
0
LINE
8
DEFAULT_255_2_778
10
30.480897
20
140.5005812
11
30.479297
21
140.4063812
0
LINE
8
DEFAULT_255_2_778
10
30.479297
20
140.4063812
11
30.477997
21
140.3592812
0
LINE
8
DEFAULT_255_2_778
10
30.477997
20
140.3592812
11
30.475597
21
140.3121812
0
LINE
8
DEFAULT_255_2_778
10
30.475597
20
140.3121812
11
30.466097
21
140.2182812
0
LINE
8
DEFAULT_255_2_778
10
30.447797
20
140.1256812
11
30.433797
21
140.0806812
0
LINE
8
DEFAULT_255_2_778
10
30.415297
20
140.0374812
11
30.390897
21
139.9972812
0
LINE
8
DEFAULT_255_2_778
10
30.390897
20
139.9972812
11
30.376097
21
139.9784812
0
LINE
8
DEFAULT_255_2_778
10
30.376097
20
139.9784812
11
30.359997
21
139.9610812
0
LINE
8
DEFAULT_255_2_778
10
30.359997
20
139.9610812
11
30.341997
21
139.9454812
0
LINE
8
DEFAULT_255_2_778
10
30.341997
20
139.9454812
11
30.321897
21
139.9321812
0
LINE
8
DEFAULT_255_2_778
10
30.321897
20
139.9321812
11
30.278197
21
139.9131812
0
LINE
8
DEFAULT_255_2_778
10
30.278197
20
139.9131812
11
30.254997
21
139.9070812
0
LINE
8
DEFAULT_255_2_778
10
30.254997
20
139.9070812
11
30.231397
21
139.9030812
0
LINE
8
DEFAULT_255_2_778
10
30.231397
20
139.9030812
11
30.183997
21
139.9007812
0
LINE
8
DEFAULT_255_2_778
10
30.508197
20
139.9737812
11
30.520897
21
139.9986812
0
LINE
8
DEFAULT_255_2_778
10
30.520897
20
139.9986812
11
30.531997
21
140.0242812
0
LINE
8
DEFAULT_255_2_778
10
30.531997
20
140.0242812
11
30.550497
21
140.0766812
0
LINE
8
DEFAULT_255_2_778
10
30.574597
20
140.1848812
11
30.581997
21
140.2401812
0
LINE
8
DEFAULT_255_2_778
10
30.581997
20
140.2401812
11
30.586697
21
140.2954812
0
LINE
8
DEFAULT_255_2_778
10
30.586697
20
140.2954812
11
30.589397
21
140.3510812
0
LINE
8
DEFAULT_255_2_778
10
30.589397
20
140.3510812
11
30.589897
21
140.3788812
0
LINE
8
DEFAULT_255_2_778
10
30.589897
20
140.3788812
11
30.590397
21
140.4065812
0
LINE
8
DEFAULT_255_2_778
10
30.590397
20
140.4065812
11
30.591797
21
140.5174812
0
LINE
8
DEFAULT_255_2_778
10
30.591797
20
140.5174812
11
30.591997
21
140.6283812
0
LINE
8
DEFAULT_255_2_778
10
30.591997
20
140.6283812
11
30.591197
21
140.7394812
0
LINE
8
DEFAULT_255_2_778
10
30.591197
20
140.7394812
11
30.590397
21
140.7949812
0
LINE
8
DEFAULT_255_2_778
10
30.590397
20
140.7949812
11
30.589097
21
140.8505812
0
LINE
8
DEFAULT_255_2_778
10
30.589097
20
140.8505812
11
30.581697
21
140.9611812
0
LINE
8
DEFAULT_255_2_778
10
30.581697
20
140.9611812
11
30.574797
21
141.0161812
0
LINE
8
DEFAULT_255_2_778
10
30.574797
20
141.0161812
11
30.564797
21
141.0709812
0
LINE
8
DEFAULT_255_2_778
10
30.508997
20
141.2265812
11
30.477997
21
141.2728812
0
LINE
8
DEFAULT_255_2_778
10
30.477997
20
141.2728812
11
30.440697
21
141.3143812
0
LINE
8
DEFAULT_255_2_778
10
30.440697
20
141.3143812
11
30.419797
21
141.3328812
0
LINE
8
DEFAULT_255_2_778
10
30.419797
20
141.3328812
11
30.397297
21
141.3492812
0
LINE
8
DEFAULT_255_2_778
10
30.397297
20
141.3492812
11
30.348597
21
141.3757812
0
LINE
8
DEFAULT_255_2_778
10
30.348597
20
141.3757812
11
30.322397
21
141.3858812
0
LINE
8
DEFAULT_255_2_778
10
30.322397
20
141.3858812
11
30.295397
21
141.3937812
0
LINE
8
DEFAULT_255_2_778
10
30.295397
20
141.3937812
11
30.240397
21
141.4038812
0
LINE
8
DEFAULT_255_2_778
10
30.240397
20
141.4038812
11
30.183997
21
141.4069812
0
LINE
8
DEFAULT_255_2_778
10
30.072897
20
141.3940812
11
30.019697
21
141.3757812
0
LINE
8
DEFAULT_255_2_778
10
30.019697
20
141.3757812
11
29.970497
21
141.3490812
0
LINE
8
DEFAULT_255_2_778
10
29.970497
20
141.3490812
11
29.947797
21
141.3323812
0
LINE
8
DEFAULT_255_2_778
10
29.947797
20
141.3323812
11
29.926597
21
141.3138812
0
LINE
8
DEFAULT_255_2_778
10
29.926597
20
141.3138812
11
29.889297
21
141.2723812
0
LINE
8
DEFAULT_255_2_778
10
29.889297
20
141.2723812
11
29.872897
21
141.2492812
0
LINE
8
DEFAULT_255_2_778
10
29.872897
20
141.2492812
11
29.858297
21
141.2254812
0
LINE
8
DEFAULT_255_2_778
10
29.858297
20
141.2254812
11
29.845597
21
141.2008812
0
LINE
8
DEFAULT_255_2_778
10
29.845597
20
141.2008812
11
29.834497
21
141.1754812
0
LINE
8
DEFAULT_255_2_778
10
29.834497
20
141.1754812
11
29.816297
21
141.1228812
0
LINE
8
DEFAULT_255_2_778
10
29.816297
20
141.1228812
11
29.801997
21
141.0691812
0
LINE
8
DEFAULT_255_2_778
10
29.783997
20
140.9600812
11
29.776097
21
140.8497812
0
LINE
8
DEFAULT_255_2_778
10
29.776097
20
140.8497812
11
29.774697
21
140.7942812
0
LINE
8
DEFAULT_255_2_778
10
29.774697
20
140.7942812
11
29.773897
21
140.7386812
0
LINE
8
DEFAULT_255_2_778
10
29.773897
20
140.7386812
11
29.773097
21
140.6275812
0
LINE
8
DEFAULT_255_2_778
10
29.773097
20
140.6275812
11
29.773397
21
140.5163812
0
LINE
8
DEFAULT_255_2_778
10
29.773397
20
140.5163812
11
29.774697
21
140.4052812
0
LINE
8
DEFAULT_255_2_778
10
29.774697
20
140.4052812
11
29.776097
21
140.3497812
0
LINE
8
DEFAULT_255_2_778
10
29.776097
20
140.3497812
11
29.778697
21
140.2944812
0
LINE
8
DEFAULT_255_2_778
10
29.778697
20
140.2944812
11
29.790597
21
140.1843812
0
LINE
8
DEFAULT_255_2_778
10
29.814697
20
140.0758812
11
29.832697
21
140.0234812
0
LINE
8
DEFAULT_255_2_778
10
29.832697
20
140.0234812
11
29.843497
21
139.9980812
0
LINE
8
DEFAULT_255_2_778
10
29.843497
20
139.9980812
11
29.856197
21
139.9732812
0
LINE
8
DEFAULT_255_2_778
10
29.978997
20
139.8406812
11
30.009897
21
139.8234812
0
LINE
8
DEFAULT_255_2_778
10
30.009897
20
139.8234812
11
30.042797
21
139.8096812
0
LINE
8
DEFAULT_255_2_778
10
30.042797
20
139.8096812
11
30.111497
21
139.7927812
0
LINE
8
DEFAULT_255_2_778
10
30.111497
20
139.7927812
11
30.182197
21
139.7874812
0
LINE
8
DEFAULT_255_2_778
10
30.182197
20
139.7874812
11
30.252797
21
139.7922812
0
LINE
8
DEFAULT_255_2_778
10
30.252797
20
139.7922812
11
30.287797
21
139.7991812
0
LINE
8
DEFAULT_255_2_778
10
30.287797
20
139.7991812
11
30.321897
21
139.8091812
0
LINE
8
DEFAULT_255_2_778
10
30.321897
20
139.8091812
11
30.354697
21
139.8226812
0
LINE
8
DEFAULT_255_2_778
10
30.354697
20
139.8226812
11
30.385897
21
139.8401812
0
LINE
8
DEFAULT_255_2_778
10
30.441197
20
139.8848812
11
30.441197
21
139.8850812
0
LINE
8
DEFAULT_255_2_778
10
24.429097
20
140.8632812
11
24.442597
21
140.9077812
0
LINE
8
DEFAULT_255_2_778
10
24.442597
20
140.9077812
11
24.452397
21
140.9526812
0
LINE
8
DEFAULT_255_2_778
10
24.363197
20
141.2688812
11
24.333597
21
141.2865812
0
LINE
8
DEFAULT_255_2_778
10
24.333597
20
141.2865812
11
24.301597
21
141.2995812
0
LINE
8
DEFAULT_255_2_778
10
24.301597
20
141.2995812
11
24.268197
21
141.3085812
0
LINE
8
DEFAULT_255_2_778
10
24.268197
20
141.3085812
11
24.234397
21
141.3138812
0
LINE
8
DEFAULT_255_2_778
10
24.234397
20
141.3138812
11
24.199997
21
141.3159812
0
LINE
8
DEFAULT_255_2_778
10
24.199997
20
141.3159812
11
24.165297
21
141.3154812
0
LINE
8
DEFAULT_255_2_778
10
24.097797
20
141.3032812
11
24.081397
21
141.2974812
0
LINE
8
DEFAULT_255_2_778
10
24.081397
20
141.2974812
11
24.065797
21
141.2905812
0
LINE
8
DEFAULT_255_2_778
10
24.065797
20
141.2905812
11
24.036397
21
141.2736812
0
LINE
8
DEFAULT_255_2_778
10
24.036397
20
141.2736812
11
24.009497
21
141.2521812
0
LINE
8
DEFAULT_255_2_778
10
24.009497
20
141.2521812
11
23.985897
21
141.2273812
0
LINE
8
DEFAULT_255_2_778
10
23.948297
20
141.1699812
11
23.848597
21
141.2209812
0
LINE
8
DEFAULT_255_2_778
10
23.905997
20
141.3080812
11
23.943297
21
141.3450812
0
LINE
8
DEFAULT_255_2_778
10
23.943297
20
141.3450812
11
23.985597
21
141.3757812
0
LINE
8
DEFAULT_255_2_778
10
23.985597
20
141.3757812
11
24.008697
21
141.3884812
0
LINE
8
DEFAULT_255_2_778
10
24.008697
20
141.3884812
11
24.032697
21
141.3993812
0
LINE
8
DEFAULT_255_2_778
10
24.032697
20
141.3993812
11
24.082797
21
141.4154812
0
LINE
8
DEFAULT_255_2_778
10
24.082797
20
141.4154812
11
24.134897
21
141.4244812
0
LINE
8
DEFAULT_255_2_778
10
24.134897
20
141.4244812
11
24.187797
21
141.4273812
0
LINE
8
DEFAULT_255_2_778
10
24.187797
20
141.4273812
11
24.241497
21
141.4249812
0
LINE
8
DEFAULT_255_2_778
10
24.241497
20
141.4249812
11
24.294697
21
141.4167812
0
LINE
8
DEFAULT_255_2_778
10
24.294697
20
141.4167812
11
24.320597
21
141.4101812
0
LINE
8
DEFAULT_255_2_778
10
24.320597
20
141.4101812
11
24.346297
21
141.4019812
0
LINE
8
DEFAULT_255_2_778
10
24.346297
20
141.4019812
11
24.395797
21
141.3810812
0
LINE
8
DEFAULT_255_2_778
10
24.506097
20
141.2844812
11
24.524297
21
141.2556812
0
LINE
8
DEFAULT_255_2_778
10
24.524297
20
141.2556812
11
24.539697
21
141.2249812
0
LINE
8
DEFAULT_255_2_778
10
24.539697
20
141.2249812
11
24.551897
21
141.1931812
0
LINE
8
DEFAULT_255_2_778
10
24.551897
20
141.1931812
11
24.560897
21
141.1603812
0
LINE
8
DEFAULT_255_2_778
10
24.571997
20
141.0931812
11
24.574297
21
141.0257812
0
LINE
8
DEFAULT_255_2_778
10
24.569097
20
140.9582812
11
24.563797
21
140.9246812
0
LINE
8
DEFAULT_255_2_778
10
24.563797
20
140.9246812
11
24.556897
21
140.8913812
0
LINE
8
DEFAULT_255_2_778
10
24.510097
20
140.7650812
11
24.478297
21
140.7071812
0
LINE
8
DEFAULT_255_2_778
10
24.478297
20
140.7071812
11
24.442797
21
140.6515812
0
LINE
8
DEFAULT_255_2_778
10
24.442797
20
140.6515812
11
24.405297
21
140.5973812
0
LINE
8
DEFAULT_255_2_778
10
24.405297
20
140.5973812
11
24.325597
21
140.4917812
0
LINE
8
DEFAULT_255_2_778
10
24.325597
20
140.4917812
11
24.284397
21
140.4399812
0
LINE
8
DEFAULT_255_2_778
10
24.284397
20
140.4399812
11
24.242597
21
140.3885812
0
LINE
8
DEFAULT_255_2_778
10
24.242597
20
140.3885812
11
24.157597
21
140.2864812
0
LINE
8
DEFAULT_255_2_778
10
24.157597
20
140.2864812
11
24.071597
21
140.1853812
0
LINE
8
DEFAULT_255_2_778
10
24.071597
20
140.1853812
11
23.899897
21
139.9829812
0
LINE
8
DEFAULT_255_2_778
10
23.899897
20
139.9829812
11
23.899897
21
139.9298812
0
LINE
8
DEFAULT_255_2_778
10
23.899897
20
139.9298812
11
24.640997
21
139.9298812
0
LINE
8
DEFAULT_255_2_778
10
24.640997
20
139.9298812
11
24.640997
21
139.8189812
0
LINE
8
DEFAULT_255_2_778
10
24.640997
20
139.8189812
11
23.788797
21
139.8189812
0
LINE
8
DEFAULT_255_2_778
10
23.788797
20
139.8189812
11
23.788797
21
140.0232812
0
LINE
8
DEFAULT_255_2_778
10
23.788797
20
140.0232812
11
23.801997
21
140.0388812
0
LINE
8
DEFAULT_255_2_778
10
23.801997
20
140.0388812
11
23.887497
21
140.1372812
0
LINE
8
DEFAULT_255_2_778
10
23.887497
20
140.1372812
11
23.972697
21
140.2356812
0
LINE
8
DEFAULT_255_2_778
10
23.972697
20
140.2356812
11
24.014997
21
140.2851812
0
LINE
8
DEFAULT_255_2_778
10
24.014997
20
140.2851812
11
24.057097
21
140.3348812
0
LINE
8
DEFAULT_255_2_778
10
24.057097
20
140.3348812
11
24.140997
21
140.4346812
0
LINE
8
DEFAULT_255_2_778
10
24.140997
20
140.4346812
11
24.182197
21
140.4849812
0
LINE
8
DEFAULT_255_2_778
10
24.182197
20
140.4849812
11
24.222697
21
140.5359812
0
LINE
8
DEFAULT_255_2_778
10
24.222697
20
140.5359812
11
24.262097
21
140.5875812
0
LINE
8
DEFAULT_255_2_778
10
24.262097
20
140.5875812
11
24.300497
21
140.6399812
0
LINE
8
DEFAULT_255_2_778
10
24.300497
20
140.6399812
11
24.337297
21
140.6933812
0
LINE
8
DEFAULT_255_2_778
10
24.337297
20
140.6933812
11
24.372497
21
140.7479812
0
LINE
8
DEFAULT_255_2_778
10
24.372497
20
140.7479812
11
24.404497
21
140.8042812
0
LINE
8
DEFAULT_255_2_778
10
28.560797
20
139.8335812
11
28.671697
21
139.8335812
0
LINE
8
DEFAULT_255_2_778
10
29.341897
20
139.8335812
11
29.455097
21
139.8335812
0
LINE
8
DEFAULT_255_2_778
10
28.671697
20
141.4162812
11
28.560797
21
141.4162812
0
LINE
8
DEFAULT_255_2_778
10
28.560797
20
141.4162812
11
28.560797
21
139.8208812
0
LINE
8
DEFAULT_255_2_778
10
28.560797
20
139.8208812
11
28.671697
21
139.8208812
0
LINE
8
DEFAULT_255_2_778
10
28.671697
20
139.8208812
11
28.671697
21
140.6171812
0
LINE
8
DEFAULT_255_2_778
10
28.671697
20
140.6171812
11
29.341897
21
140.6171812
0
LINE
8
DEFAULT_255_2_778
10
29.341897
20
140.6171812
11
29.341897
21
139.8208812
0
LINE
8
DEFAULT_255_2_778
10
29.341897
20
139.8208812
11
29.455097
21
139.8208812
0
LINE
8
DEFAULT_255_2_778
10
29.455097
20
139.8208812
11
29.455097
21
141.4162812
0
LINE
8
DEFAULT_255_2_778
10
29.455097
20
141.4162812
11
29.341897
21
141.4162812
0
LINE
8
DEFAULT_255_2_778
10
29.341897
20
141.4162812
11
29.341897
21
140.7293812
0
LINE
8
DEFAULT_255_2_778
10
29.341897
20
140.7293812
11
28.671697
21
140.7293812
0
LINE
8
DEFAULT_255_2_778
10
28.671697
20
140.7293812
11
28.671697
21
141.4162812
0
LINE
8
DEFAULT_255_2_778
10
28.671697
20
140.6044812
11
29.341897
21
140.6044812
0
LINE
8
DEFAULT_255_2_778
10
31.095797
20
139.8935812
11
31.057197
21
139.9062812
0
LINE
8
DEFAULT_255_2_778
10
31.057197
20
139.9062812
11
31.021697
21
139.9258812
0
LINE
8
DEFAULT_255_2_778
10
31.021697
20
139.9258812
11
31.005597
21
139.9382812
0
LINE
8
DEFAULT_255_2_778
10
31.005597
20
139.9382812
11
30.990997
21
139.9522812
0
LINE
8
DEFAULT_255_2_778
10
30.990997
20
139.9522812
11
30.965597
21
139.9837812
0
LINE
8
DEFAULT_255_2_778
10
30.907897
20
140.1269812
11
30.894697
21
140.1996812
0
LINE
8
DEFAULT_255_2_778
10
30.881997
20
140.3473812
11
30.880997
21
140.3843812
0
LINE
8
DEFAULT_255_2_778
10
30.880997
20
140.3843812
11
30.880197
21
140.4214812
0
LINE
8
DEFAULT_255_2_778
10
30.880197
20
140.4214812
11
30.879097
21
140.4957812
0
LINE
8
DEFAULT_255_2_778
10
30.879097
20
140.4957812
11
30.878797
21
140.5701812
0
LINE
8
DEFAULT_255_2_778
10
30.878797
20
140.5701812
11
30.878797
21
140.6444812
0
LINE
8
DEFAULT_255_2_778
10
30.878797
20
140.6444812
11
30.880997
21
140.7931812
0
LINE
8
DEFAULT_255_2_778
10
30.880997
20
140.7931812
11
30.890197
21
140.9413812
0
LINE
8
DEFAULT_255_2_778
10
30.890197
20
140.9413812
11
30.894697
21
140.9783812
0
LINE
8
DEFAULT_255_2_778
10
30.894697
20
140.9783812
11
30.900797
21
141.0151812
0
LINE
8
DEFAULT_255_2_778
10
30.919297
20
141.0868812
11
30.932297
21
141.1217812
0
LINE
8
DEFAULT_255_2_778
10
30.932297
20
141.1217812
11
30.948997
21
141.1550812
0
LINE
8
DEFAULT_255_2_778
10
31.032597
20
141.2442812
11
31.054497
21
141.2556812
0
LINE
8
DEFAULT_255_2_778
10
31.054497
20
141.2556812
11
31.077797
21
141.2643812
0
LINE
8
DEFAULT_255_2_778
10
31.077797
20
141.2643812
11
31.101897
21
141.2707812
0
LINE
8
DEFAULT_255_2_778
10
31.101897
20
141.2707812
11
31.126497
21
141.2749812
0
LINE
8
DEFAULT_255_2_778
10
31.126497
20
141.2749812
11
31.175697
21
141.2781812
0
LINE
8
DEFAULT_255_2_778
10
31.175697
20
141.2781812
11
31.224897
21
141.2749812
0
LINE
8
DEFAULT_255_2_778
10
31.224897
20
141.2749812
11
31.273297
21
141.2641812
0
LINE
8
DEFAULT_255_2_778
10
31.273297
20
141.2641812
11
31.296597
21
141.2553812
0
LINE
8
DEFAULT_255_2_778
10
31.296597
20
141.2553812
11
31.318797
21
141.2439812
0
LINE
8
DEFAULT_255_2_778
10
31.429997
20
141.0926812
11
31.443697
21
141.0476812
0
LINE
8
DEFAULT_255_2_778
10
31.443697
20
141.0476812
11
31.453497
21
141.0019812
0
LINE
8
DEFAULT_255_2_778
10
31.453497
20
141.0019812
11
31.460397
21
140.9553812
0
LINE
8
DEFAULT_255_2_778
10
31.460397
20
140.9553812
11
31.468597
21
140.8614812
0
LINE
8
DEFAULT_255_2_778
10
31.468597
20
140.8614812
11
31.470697
21
140.8143812
0
LINE
8
DEFAULT_255_2_778
10
31.470697
20
140.8143812
11
31.471797
21
140.7672812
0
LINE
8
DEFAULT_255_2_778
10
31.471797
20
140.7672812
11
31.473097
21
140.6730812
0
LINE
8
DEFAULT_255_2_778
10
31.473097
20
140.6730812
11
31.473397
21
140.5788812
0
LINE
8
DEFAULT_255_2_778
10
31.473397
20
140.5788812
11
31.473097
21
140.4846812
0
LINE
8
DEFAULT_255_2_778
10
31.473097
20
140.4846812
11
31.471497
21
140.3904812
0
LINE
8
DEFAULT_255_2_778
10
31.471497
20
140.3904812
11
31.470197
21
140.3433812
0
LINE
8
DEFAULT_255_2_778
10
31.470197
20
140.3433812
11
31.467797
21
140.2962812
0
LINE
8
DEFAULT_255_2_778
10
31.467797
20
140.2962812
11
31.458297
21
140.2023812
0
LINE
8
DEFAULT_255_2_778
10
31.439997
20
140.1097812
11
31.425997
21
140.0647812
0
LINE
8
DEFAULT_255_2_778
10
31.407497
20
140.0216812
11
31.383097
21
139.9814812
0
LINE
8
DEFAULT_255_2_778
10
31.383097
20
139.9814812
11
31.368297
21
139.9626812
0
LINE
8
DEFAULT_255_2_778
10
31.368297
20
139.9626812
11
31.352197
21
139.9451812
0
LINE
8
DEFAULT_255_2_778
10
31.352197
20
139.9451812
11
31.334197
21
139.9295812
0
LINE
8
DEFAULT_255_2_778
10
31.334197
20
139.9295812
11
31.314097
21
139.9163812
0
LINE
8
DEFAULT_255_2_778
10
31.314097
20
139.9163812
11
31.270397
21
139.8972812
0
LINE
8
DEFAULT_255_2_778
10
31.270397
20
139.8972812
11
31.247097
21
139.8911812
0
LINE
8
DEFAULT_255_2_778
10
31.247097
20
139.8911812
11
31.223597
21
139.8872812
0
LINE
8
DEFAULT_255_2_778
10
31.223597
20
139.8872812
11
31.176197
21
139.8848812
0
LINE
8
DEFAULT_255_2_778
10
31.500297
20
139.9578812
11
31.512997
21
139.9827812
0
LINE
8
DEFAULT_255_2_778
10
31.512997
20
139.9827812
11
31.524197
21
140.0083812
0
LINE
8
DEFAULT_255_2_778
10
31.524197
20
140.0083812
11
31.542697
21
140.0607812
0
LINE
8
DEFAULT_255_2_778
10
31.566797
20
140.1689812
11
31.574197
21
140.2242812
0
LINE
8
DEFAULT_255_2_778
10
31.574197
20
140.2242812
11
31.578897
21
140.2795812
0
LINE
8
DEFAULT_255_2_778
10
31.578897
20
140.2795812
11
31.581597
21
140.3351812
0
LINE
8
DEFAULT_255_2_778
10
31.581597
20
140.3351812
11
31.582097
21
140.3629812
0
LINE
8
DEFAULT_255_2_778
10
31.582097
20
140.3629812
11
31.582597
21
140.3907812
0
LINE
8
DEFAULT_255_2_778
10
31.582597
20
140.3907812
11
31.583997
21
140.5015812
0
LINE
8
DEFAULT_255_2_778
10
31.583997
20
140.5015812
11
31.584197
21
140.6124812
0
LINE
8
DEFAULT_255_2_778
10
31.584197
20
140.6124812
11
31.583397
21
140.7235812
0
LINE
8
DEFAULT_255_2_778
10
31.583397
20
140.7235812
11
31.582597
21
140.7791812
0
LINE
8
DEFAULT_255_2_778
10
31.582597
20
140.7791812
11
31.581297
21
140.8346812
0
LINE
8
DEFAULT_255_2_778
10
31.581297
20
140.8346812
11
31.573897
21
140.9452812
0
LINE
8
DEFAULT_255_2_778
10
31.573897
20
140.9452812
11
31.566997
21
141.0003812
0
LINE
8
DEFAULT_255_2_778
10
31.566997
20
141.0003812
11
31.556997
21
141.0550812
0
LINE
8
DEFAULT_255_2_778
10
31.501097
20
141.2106812
11
31.470197
21
141.2569812
0
LINE
8
DEFAULT_255_2_778
10
31.470197
20
141.2569812
11
31.432897
21
141.2984812
0
LINE
8
DEFAULT_255_2_778
10
31.432897
20
141.2984812
11
31.411997
21
141.3170812
0
LINE
8
DEFAULT_255_2_778
10
31.411997
20
141.3170812
11
31.389497
21
141.3334812
0
LINE
8
DEFAULT_255_2_778
10
31.389497
20
141.3334812
11
31.340797
21
141.3598812
0
LINE
8
DEFAULT_255_2_778
10
31.340797
20
141.3598812
11
31.314597
21
141.3699812
0
LINE
8
DEFAULT_255_2_778
10
31.314597
20
141.3699812
11
31.287597
21
141.3778812
0
LINE
8
DEFAULT_255_2_778
10
31.287597
20
141.3778812
11
31.232597
21
141.3879812
0
LINE
8
DEFAULT_255_2_778
10
31.232597
20
141.3879812
11
31.176197
21
141.3911812
0
LINE
8
DEFAULT_255_2_778
10
31.065097
20
141.3781812
11
31.011897
21
141.3598812
0
LINE
8
DEFAULT_255_2_778
10
31.011897
20
141.3598812
11
30.962697
21
141.3331812
0
LINE
8
DEFAULT_255_2_778
10
30.962697
20
141.3331812
11
30.939997
21
141.3164812
0
LINE
8
DEFAULT_255_2_778
10
30.939997
20
141.3164812
11
30.918797
21
141.2979812
0
LINE
8
DEFAULT_255_2_778
10
30.918797
20
141.2979812
11
30.881497
21
141.2564812
0
LINE
8
DEFAULT_255_2_778
10
30.881497
20
141.2564812
11
30.865097
21
141.2334812
0
LINE
8
DEFAULT_255_2_778
10
30.865097
20
141.2334812
11
30.850497
21
141.2095812
0
LINE
8
DEFAULT_255_2_778
10
30.850497
20
141.2095812
11
30.837797
21
141.1849812
0
LINE
8
DEFAULT_255_2_778
10
30.837797
20
141.1849812
11
30.826697
21
141.1595812
0
LINE
8
DEFAULT_255_2_778
10
30.826697
20
141.1595812
11
30.808497
21
141.1069812
0
LINE
8
DEFAULT_255_2_778
10
30.808497
20
141.1069812
11
30.794197
21
141.0532812
0
LINE
8
DEFAULT_255_2_778
10
30.776197
20
140.9442812
11
30.768197
21
140.8338812
0
LINE
8
DEFAULT_255_2_778
10
30.768197
20
140.8338812
11
30.766897
21
140.7783812
0
LINE
8
DEFAULT_255_2_778
10
30.766897
20
140.7783812
11
30.766097
21
140.7227812
0
LINE
8
DEFAULT_255_2_778
10
30.766097
20
140.7227812
11
30.765297
21
140.6116812
0
LINE
8
DEFAULT_255_2_778
10
30.765297
20
140.6116812
11
30.765597
21
140.5005812
0
LINE
8
DEFAULT_255_2_778
10
30.765597
20
140.5005812
11
30.766897
21
140.3893812
0
LINE
8
DEFAULT_255_2_778
10
30.766897
20
140.3893812
11
30.768197
21
140.3338812
0
LINE
8
DEFAULT_255_2_778
10
30.768197
20
140.3338812
11
30.770897
21
140.2785812
0
LINE
8
DEFAULT_255_2_778
10
30.770897
20
140.2785812
11
30.782797
21
140.1684812
0
LINE
8
DEFAULT_255_2_778
10
30.806897
20
140.0599812
11
30.824897
21
140.0075812
0
LINE
8
DEFAULT_255_2_778
10
30.824897
20
140.0075812
11
30.835697
21
139.9821812
0
LINE
8
DEFAULT_255_2_778
10
30.835697
20
139.9821812
11
30.848397
21
139.9573812
0
LINE
8
DEFAULT_255_2_778
10
30.971197
20
139.8247812
11
31.002097
21
139.8075812
0
LINE
8
DEFAULT_255_2_778
10
31.002097
20
139.8075812
11
31.034897
21
139.7938812
0
LINE
8
DEFAULT_255_2_778
10
31.034897
20
139.7938812
11
31.103697
21
139.7768812
0
LINE
8
DEFAULT_255_2_778
10
31.103697
20
139.7768812
11
31.174397
21
139.7715812
0
LINE
8
DEFAULT_255_2_778
10
31.174397
20
139.7715812
11
31.244997
21
139.7763812
0
LINE
8
DEFAULT_255_2_778
10
31.244997
20
139.7763812
11
31.279897
21
139.7832812
0
LINE
8
DEFAULT_255_2_778
10
31.279897
20
139.7832812
11
31.314097
21
139.7932812
0
LINE
8
DEFAULT_255_2_778
10
31.314097
20
139.7932812
11
31.346897
21
139.8067812
0
LINE
8
DEFAULT_255_2_778
10
31.346897
20
139.8067812
11
31.378097
21
139.8242812
0
LINE
8
DEFAULT_255_2_778
10
31.433397
20
139.8689812
11
31.433397
21
139.8692812
0
LINE
8
DEFAULT_255_2_778
10
32.799197
20
139.9266812
11
32.760597
21
139.9393812
0
LINE
8
DEFAULT_255_2_778
10
32.760597
20
139.9393812
11
32.725097
21
139.9589812
0
LINE
8
DEFAULT_255_2_778
10
32.725097
20
139.9589812
11
32.708997
21
139.9713812
0
LINE
8
DEFAULT_255_2_778
10
32.708997
20
139.9713812
11
32.694397
21
139.9853812
0
LINE
8
DEFAULT_255_2_778
10
32.694397
20
139.9853812
11
32.668997
21
140.0168812
0
LINE
8
DEFAULT_255_2_778
10
32.611297
20
140.1599812
11
32.598097
21
140.2327812
0
LINE
8
DEFAULT_255_2_778
10
32.585397
20
140.3803812
11
32.584297
21
140.4174812
0
LINE
8
DEFAULT_255_2_778
10
32.584297
20
140.4174812
11
32.583497
21
140.4544812
0
LINE
8
DEFAULT_255_2_778
10
32.583497
20
140.4544812
11
32.582497
21
140.5288812
0
LINE
8
DEFAULT_255_2_778
10
32.582497
20
140.5288812
11
32.582197
21
140.6031812
0
LINE
8
DEFAULT_255_2_778
10
32.582197
20
140.6031812
11
32.582197
21
140.6775812
0
LINE
8
DEFAULT_255_2_778
10
32.582197
20
140.6775812
11
32.584297
21
140.8262812
0
LINE
8
DEFAULT_255_2_778
10
32.584297
20
140.8262812
11
32.593597
21
140.9743812
0
LINE
8
DEFAULT_255_2_778
10
32.593597
20
140.9743812
11
32.598097
21
141.0114812
0
LINE
8
DEFAULT_255_2_778
10
32.598097
20
141.0114812
11
32.604197
21
141.0482812
0
LINE
8
DEFAULT_255_2_778
10
32.622697
20
141.1199812
11
32.635697
21
141.1548812
0
LINE
8
DEFAULT_255_2_778
10
32.635697
20
141.1548812
11
32.652297
21
141.1881812
0
LINE
8
DEFAULT_255_2_778
10
32.735897
20
141.2773812
11
32.757897
21
141.2887812
0
LINE
8
DEFAULT_255_2_778
10
32.757897
20
141.2887812
11
32.781197
21
141.2974812
0
LINE
8
DEFAULT_255_2_778
10
32.781197
20
141.2974812
11
32.805297
21
141.3037812
0
LINE
8
DEFAULT_255_2_778
10
32.805297
20
141.3037812
11
32.829897
21
141.3080812
0
LINE
8
DEFAULT_255_2_778
10
32.829897
20
141.3080812
11
32.879097
21
141.3111812
0
LINE
8
DEFAULT_255_2_778
10
32.879097
20
141.3111812
11
32.928297
21
141.3080812
0
LINE
8
DEFAULT_255_2_778
10
32.928297
20
141.3080812
11
32.976697
21
141.2971812
0
LINE
8
DEFAULT_255_2_778
10
32.976697
20
141.2971812
11
32.999997
21
141.2884812
0
LINE
8
DEFAULT_255_2_778
10
32.999997
20
141.2884812
11
33.022197
21
141.2770812
0
LINE
8
DEFAULT_255_2_778
10
33.133397
20
141.1257812
11
33.147097
21
141.0807812
0
LINE
8
DEFAULT_255_2_778
10
33.147097
20
141.0807812
11
33.156897
21
141.0349812
0
LINE
8
DEFAULT_255_2_778
10
33.156897
20
141.0349812
11
33.163797
21
140.9884812
0
LINE
8
DEFAULT_255_2_778
10
33.163797
20
140.9884812
11
33.171997
21
140.8944812
0
LINE
8
DEFAULT_255_2_778
10
33.171997
20
140.8944812
11
33.174097
21
140.8473812
0
LINE
8
DEFAULT_255_2_778
10
33.174097
20
140.8473812
11
33.175197
21
140.8002812
0
LINE
8
DEFAULT_255_2_778
10
33.175197
20
140.8002812
11
33.176497
21
140.7060812
0
LINE
8
DEFAULT_255_2_778
10
33.176497
20
140.7060812
11
33.176697
21
140.6119812
0
LINE
8
DEFAULT_255_2_778
10
33.176697
20
140.6119812
11
33.176497
21
140.5177812
0
LINE
8
DEFAULT_255_2_778
10
33.176497
20
140.5177812
11
33.174897
21
140.4235812
0
LINE
8
DEFAULT_255_2_778
10
33.174897
20
140.4235812
11
33.173597
21
140.3764812
0
LINE
8
DEFAULT_255_2_778
10
33.173597
20
140.3764812
11
33.171197
21
140.3293812
0
LINE
8
DEFAULT_255_2_778
10
33.171197
20
140.3293812
11
33.161697
21
140.2354812
0
LINE
8
DEFAULT_255_2_778
10
33.143397
20
140.1427812
11
33.129397
21
140.0978812
0
LINE
8
DEFAULT_255_2_778
10
33.110897
20
140.0546812
11
33.086497
21
140.0144812
0
LINE
8
DEFAULT_255_2_778
10
33.086497
20
140.0144812
11
33.071697
21
139.9956812
0
LINE
8
DEFAULT_255_2_778
10
33.071697
20
139.9956812
11
33.055597
21
139.9782812
0
LINE
8
DEFAULT_255_2_778
10
33.055597
20
139.9782812
11
33.037597
21
139.9626812
0
LINE
8
DEFAULT_255_2_778
10
33.037597
20
139.9626812
11
33.017497
21
139.9493812
0
LINE
8
DEFAULT_255_2_778
10
33.017497
20
139.9493812
11
32.973797
21
139.9303812
0
LINE
8
DEFAULT_255_2_778
10
32.973797
20
139.9303812
11
32.950497
21
139.9242812
0
LINE
8
DEFAULT_255_2_778
10
32.950497
20
139.9242812
11
32.926997
21
139.9202812
0
LINE
8
DEFAULT_255_2_778
10
32.926997
20
139.9202812
11
32.879597
21
139.9179812
0
LINE
8
DEFAULT_255_2_778
10
33.203697
20
139.9909812
11
33.216397
21
140.0157812
0
LINE
8
DEFAULT_255_2_778
10
33.216397
20
140.0157812
11
33.227497
21
140.0414812
0
LINE
8
DEFAULT_255_2_778
10
33.227497
20
140.0414812
11
33.246097
21
140.0938812
0
LINE
8
DEFAULT_255_2_778
10
33.270097
20
140.2020812
11
33.277597
21
140.2573812
0
LINE
8
DEFAULT_255_2_778
10
33.277597
20
140.2573812
11
33.282297
21
140.3126812
0
LINE
8
DEFAULT_255_2_778
10
33.282297
20
140.3126812
11
33.284997
21
140.3682812
0
LINE
8
DEFAULT_255_2_778
10
33.284997
20
140.3682812
11
33.285497
21
140.3960812
0
LINE
8
DEFAULT_255_2_778
10
33.285497
20
140.3960812
11
33.285997
21
140.4237812
0
LINE
8
DEFAULT_255_2_778
10
33.285997
20
140.4237812
11
33.287297
21
140.5346812
0
LINE
8
DEFAULT_255_2_778
10
33.287297
20
140.5346812
11
33.287597
21
140.6455812
0
LINE
8
DEFAULT_255_2_778
10
33.287597
20
140.6455812
11
33.286797
21
140.7566812
0
LINE
8
DEFAULT_255_2_778
10
33.286797
20
140.7566812
11
33.285997
21
140.8121812
0
LINE
8
DEFAULT_255_2_778
10
33.285997
20
140.8121812
11
33.284697
21
140.8677812
0
LINE
8
DEFAULT_255_2_778
10
33.284697
20
140.8677812
11
33.277297
21
140.9783812
0
LINE
8
DEFAULT_255_2_778
10
33.277297
20
140.9783812
11
33.270397
21
141.0333812
0
LINE
8
DEFAULT_255_2_778
10
33.270397
20
141.0333812
11
33.260397
21
141.0881812
0
LINE
8
DEFAULT_255_2_778
10
33.204497
20
141.2437812
11
33.173597
21
141.2900812
0
LINE
8
DEFAULT_255_2_778
10
33.173597
20
141.2900812
11
33.136297
21
141.3315812
0
LINE
8
DEFAULT_255_2_778
10
33.136297
20
141.3315812
11
33.115097
21
141.3500812
0
LINE
8
DEFAULT_255_2_778
10
33.115097
20
141.3500812
11
33.092597
21
141.3664812
0
LINE
8
DEFAULT_255_2_778
10
33.092597
20
141.3664812
11
33.043897
21
141.3929812
0
LINE
8
DEFAULT_255_2_778
10
33.043897
20
141.3929812
11
33.017697
21
141.4030812
0
LINE
8
DEFAULT_255_2_778
10
33.017697
20
141.4030812
11
32.990697
21
141.4109812
0
LINE
8
DEFAULT_255_2_778
10
32.990697
20
141.4109812
11
32.935697
21
141.4210812
0
LINE
8
DEFAULT_255_2_778
10
32.935697
20
141.4210812
11
32.879397
21
141.4241812
0
LINE
8
DEFAULT_255_2_778
10
32.768197
20
141.4112812
11
32.714997
21
141.3929812
0
LINE
8
DEFAULT_255_2_778
10
32.714997
20
141.3929812
11
32.665797
21
141.3662812
0
LINE
8
DEFAULT_255_2_778
10
32.665797
20
141.3662812
11
32.643097
21
141.3495812
0
LINE
8
DEFAULT_255_2_778
10
32.643097
20
141.3495812
11
32.621897
21
141.3310812
0
LINE
8
DEFAULT_255_2_778
10
32.621897
20
141.3310812
11
32.584597
21
141.2895812
0
LINE
8
DEFAULT_255_2_778
10
32.584597
20
141.2895812
11
32.568197
21
141.2664812
0
LINE
8
DEFAULT_255_2_778
10
32.568197
20
141.2664812
11
32.553697
21
141.2426812
0
LINE
8
DEFAULT_255_2_778
10
32.553697
20
141.2426812
11
32.540997
21
141.2180812
0
LINE
8
DEFAULT_255_2_778
10
32.540997
20
141.2180812
11
32.529797
21
141.1926812
0
LINE
8
DEFAULT_255_2_778
10
32.529797
20
141.1926812
11
32.511597
21
141.1400812
0
LINE
8
DEFAULT_255_2_778
10
32.511597
20
141.1400812
11
32.497297
21
141.0863812
0
LINE
8
DEFAULT_255_2_778
10
32.479297
20
140.9772812
11
32.471397
21
140.8669812
0
LINE
8
DEFAULT_255_2_778
10
32.471397
20
140.8669812
11
32.469997
21
140.8114812
0
LINE
8
DEFAULT_255_2_778
10
32.469997
20
140.8114812
11
32.469197
21
140.7558812
0
LINE
8
DEFAULT_255_2_778
10
32.469197
20
140.7558812
11
32.468497
21
140.6447812
0
LINE
8
DEFAULT_255_2_778
10
32.468497
20
140.6447812
11
32.468697
21
140.5335812
0
LINE
8
DEFAULT_255_2_778
10
32.468697
20
140.5335812
11
32.469997
21
140.4224812
0
LINE
8
DEFAULT_255_2_778
10
32.469997
20
140.4224812
11
32.471397
21
140.3669812
0
LINE
8
DEFAULT_255_2_778
10
32.471397
20
140.3669812
11
32.473997
21
140.3116812
0
LINE
8
DEFAULT_255_2_778
10
32.473997
20
140.3116812
11
32.485897
21
140.2015812
0
LINE
8
DEFAULT_255_2_778
10
32.509997
20
140.0930812
11
32.527997
21
140.0406812
0
LINE
8
DEFAULT_255_2_778
10
32.527997
20
140.0406812
11
32.538797
21
140.0152812
0
LINE
8
DEFAULT_255_2_778
10
32.538797
20
140.0152812
11
32.551497
21
139.9903812
0
LINE
8
DEFAULT_255_2_778
10
32.674297
20
139.8578812
11
32.705297
21
139.8406812
0
LINE
8
DEFAULT_255_2_778
10
32.705297
20
139.8406812
11
32.738097
21
139.8268812
0
LINE
8
DEFAULT_255_2_778
10
32.738097
20
139.8268812
11
32.806897
21
139.8099812
0
LINE
8
DEFAULT_255_2_778
10
32.806897
20
139.8099812
11
32.877497
21
139.8046812
0
LINE
8
DEFAULT_255_2_778
10
32.877497
20
139.8046812
11
32.948097
21
139.8094812
0
LINE
8
DEFAULT_255_2_778
10
32.948097
20
139.8094812
11
32.983097
21
139.8163812
0
LINE
8
DEFAULT_255_2_778
10
32.983097
20
139.8163812
11
33.017197
21
139.8263812
0
LINE
8
DEFAULT_255_2_778
10
33.017197
20
139.8263812
11
33.049997
21
139.8398812
0
LINE
8
DEFAULT_255_2_778
10
33.049997
20
139.8398812
11
33.081197
21
139.8573812
0
LINE
8
DEFAULT_255_2_778
10
33.136497
20
139.9020812
11
33.136797
21
139.9022812
0
LINE
8
DEFAULT_255_2_778
10
34.5261167
20
139.8113146
11
34.4901167
21
139.9193146
0
LINE
8
DEFAULT_255_2_778
10
34.4901167
20
139.9193146
11
34.4716167
21
139.9730146
0
LINE
8
DEFAULT_255_2_778
10
34.4716167
20
139.9730146
11
34.4534167
21
140.0270146
0
LINE
8
DEFAULT_255_2_778
10
34.4534167
20
140.0270146
11
34.4182167
21
140.1352146
0
LINE
8
DEFAULT_255_2_778
10
34.4182167
20
140.1352146
11
34.3840167
21
140.2437146
0
LINE
8
DEFAULT_255_2_778
10
34.3840167
20
140.2437146
11
33.6982167
21
140.2437146
0
LINE
8
DEFAULT_255_2_778
10
33.6982167
20
140.2437146
11
33.5519167
21
139.8111146
0
LINE
8
DEFAULT_255_2_778
10
33.5519167
20
139.8111146
11
33.4453167
21
139.8465146
0
LINE
8
DEFAULT_255_2_778
10
33.4453167
20
139.8465146
11
33.9755167
21
141.4245146
0
LINE
8
DEFAULT_255_2_778
10
33.9755167
20
141.4245146
11
34.1176167
21
141.4245146
0
LINE
8
DEFAULT_255_2_778
10
34.1176167
20
141.4245146
11
34.6349167
21
139.8465146
0
LINE
8
DEFAULT_255_2_778
10
34.6349167
20
139.8465146
11
34.5261167
21
139.8113146
0
LINE
8
DEFAULT_255_2_778
10
34.3465167
20
140.3572146
11
34.2719167
21
140.5887146
0
LINE
8
DEFAULT_255_2_778
10
34.2719167
20
140.5887146
11
34.2338167
21
140.7043146
0
LINE
8
DEFAULT_255_2_778
10
34.2338167
20
140.7043146
11
34.1957167
21
140.8199146
0
LINE
8
DEFAULT_255_2_778
10
34.1957167
20
140.8199146
11
34.1208167
21
141.0512146
0
LINE
8
DEFAULT_255_2_778
10
34.1208167
20
141.0512146
11
34.0837167
21
141.1671146
0
LINE
8
DEFAULT_255_2_778
10
34.0837167
20
141.1671146
11
34.0655167
21
141.2250146
0
LINE
8
DEFAULT_255_2_778
10
34.0655167
20
141.2250146
11
34.0467167
21
141.2829146
0
LINE
8
DEFAULT_255_2_778
10
34.0467167
20
141.2829146
11
34.0390167
21
141.2597146
0
LINE
8
DEFAULT_255_2_778
10
34.0390167
20
141.2597146
11
34.0229167
21
141.2110146
0
LINE
8
DEFAULT_255_2_778
10
34.0229167
20
141.2110146
11
34.0067167
21
141.1623146
0
LINE
8
DEFAULT_255_2_778
10
34.0067167
20
141.1623146
11
33.9393167
21
140.9612146
0
LINE
8
DEFAULT_255_2_778
10
33.9393167
20
140.9612146
11
33.8707167
21
140.7604146
0
LINE
8
DEFAULT_255_2_778
10
33.8707167
20
140.7604146
11
33.8033167
21
140.5590146
0
LINE
8
DEFAULT_255_2_778
10
33.8033167
20
140.5590146
11
33.7358167
21
140.3577146
0
LINE
8
DEFAULT_255_2_778
10
33.7358167
20
140.3577146
11
34.3465167
21
140.3572146
0
ARC
8
DEFAULT_255_2_778
10
36.4723825
20
140.2935331
40
0.3424531
50
269.99704
51
270.6345416
0
ARC
8
DEFAULT_255_2_778
10
36.4722429
20
140.2915609
40
0.340481
50
257.004099
51
270.020525
0
ARC
8
DEFAULT_255_2_778
10
36.5052566
20
140.2175404
40
0.2924323
50
199.131157
51
214.9538618
0
ARC
8
DEFAULT_255_2_778
10
36.8427346
20
140.342577
40
0.6522936
50
193.2382772
51
199.7924783
0
ARC
8
DEFAULT_255_2_778
10
37.6043559
20
140.4615334
40
1.423488
50
181.9296558
51
187.8992569
0
ARC
8
DEFAULT_255_2_778
10
36.7662461
20
140.9736571
40
0.5759389
50
161.8462735
51
169.2178513
0
ARC
8
DEFAULT_255_2_778
10
36.4976537
20
141.0772989
40
0.2877095
50
135.1797627
51
149.9661189
0
ARC
8
DEFAULT_255_2_778
10
36.4270449
20
141.1503354
40
0.186154
50
120.6392566
51
135.8062122
0
ARC
8
DEFAULT_255_2_778
10
36.5171198
20
141.1390322
40
0.1989262
50
45.0434827
51
59.3686768
0
ARC
8
DEFAULT_255_2_778
10
36.427917
20
141.0628869
40
0.3159755
50
26.2220362
51
43.3529241
0
ARC
8
DEFAULT_255_2_778
10
36.3549528
20
141.0281215
40
0.3967935
50
19.2439458
51
26.070185
0
ARC
8
DEFAULT_255_2_778
10
36.0026409
20
140.3697058
40
0.7617734
50
345.2689966
51
352.3730358
0
ARC
8
DEFAULT_255_2_778
10
36.3957194
20
140.2469795
40
0.3494622
50
332.9215865
51
340.6172572
0
ARC
8
DEFAULT_255_2_778
10
36.4528003
20
140.2172311
40
0.3975399
50
314.872063
51
330.9342344
0
ARC
8
DEFAULT_255_2_778
10
36.1228168
20
140.3441016
40
0.7517876
50
343.215122
51
351.6710878
0
ARC
8
DEFAULT_255_2_778
10
36.2098002
20
140.9840319
40
0.6614746
50
11.977046
51
21.540769
0
ARC
8
DEFAULT_255_2_778
10
36.4376454
20
141.0716944
40
0.4173617
50
21.8313308
51
29.4507734
0
ARC
8
DEFAULT_255_2_778
10
36.4720047
20
141.0075199
40
0.4498004
50
89.4687644
51
103.7655249
0
ARC
8
DEFAULT_255_2_778
10
37.0808354
20
140.9005633
40
1.010757
50
167.4901404
51
173.7557189
0
ARC
8
DEFAULT_255_2_778
10
36.898034
20
140.3588159
40
0.8244548
50
188.6583276
51
196.3882026
0
ARC
8
DEFAULT_255_2_778
10
36.4762779
20
140.2053607
40
0.3747343
50
209.01485
51
226.0657302
0
ARC
8
DEFAULT_255_2_778
10
36.436815
20
140.1510953
40
0.3084133
50
224.3503021
51
237.4934764
0
ARC
8
DEFAULT_255_2_778
10
36.5151775
20
140.1484596
40
0.3050339
50
302.2560029
51
315.6427147
0
LINE
8
DEFAULT_255_2_778
10
35.8162751
20
139.811401
11
35.7802751
21
139.919301
0
LINE
8
DEFAULT_255_2_778
10
35.7802751
20
139.919301
11
35.7617751
21
139.973001
0
LINE
8
DEFAULT_255_2_778
10
35.7617751
20
139.973001
11
35.7434751
21
140.027001
0
LINE
8
DEFAULT_255_2_778
10
35.7434751
20
140.027001
11
35.7082751
21
140.135201
0
LINE
8
DEFAULT_255_2_778
10
35.7082751
20
140.135201
11
35.6741751
21
140.243701
0
LINE
8
DEFAULT_255_2_778
10
35.6741751
20
140.243701
11
34.9883751
21
140.243701
0
LINE
8
DEFAULT_255_2_778
10
34.9883751
20
140.243701
11
34.8420751
21
139.811101
0
LINE
8
DEFAULT_255_2_778
10
34.8420751
20
139.811101
11
34.7354751
21
139.846601
0
LINE
8
DEFAULT_255_2_778
10
34.7354751
20
139.846601
11
35.2656751
21
141.424501
0
LINE
8
DEFAULT_255_2_778
10
35.2656751
20
141.424501
11
35.4077751
21
141.424501
0
LINE
8
DEFAULT_255_2_778
10
35.4077751
20
141.424501
11
35.9249751
21
139.846601
0
LINE
8
DEFAULT_255_2_778
10
35.9249751
20
139.846601
11
35.8162751
21
139.811401
0
LINE
8
DEFAULT_255_2_778
10
35.6365751
20
140.357201
11
35.5619751
21
140.588701
0
LINE
8
DEFAULT_255_2_778
10
35.5619751
20
140.588701
11
35.5238751
21
140.704301
0
LINE
8
DEFAULT_255_2_778
10
35.5238751
20
140.704301
11
35.4857751
21
140.820001
0
LINE
8
DEFAULT_255_2_778
10
35.4857751
20
140.820001
11
35.4108751
21
141.051201
0
LINE
8
DEFAULT_255_2_778
10
35.4108751
20
141.051201
11
35.3738751
21
141.167101
0
LINE
8
DEFAULT_255_2_778
10
35.3738751
20
141.167101
11
35.3553751
21
141.225001
0
LINE
8
DEFAULT_255_2_778
10
35.3553751
20
141.225001
11
35.3365751
21
141.283001
0
LINE
8
DEFAULT_255_2_778
10
35.3365751
20
141.283001
11
35.3288751
21
141.259701
0
LINE
8
DEFAULT_255_2_778
10
35.3288751
20
141.259701
11
35.3127751
21
141.211001
0
LINE
8
DEFAULT_255_2_778
10
35.3127751
20
141.211001
11
35.2965751
21
141.162301
0
LINE
8
DEFAULT_255_2_778
10
35.2965751
20
141.162301
11
35.2291751
21
140.961201
0
LINE
8
DEFAULT_255_2_778
10
35.2291751
20
140.961201
11
35.1605751
21
140.760401
0
LINE
8
DEFAULT_255_2_778
10
35.1605751
20
140.760401
11
35.0931751
21
140.559101
0
LINE
8
DEFAULT_255_2_778
10
35.0931751
20
140.559101
11
35.0256751
21
140.357701
0
LINE
8
DEFAULT_255_2_778
10
35.0256751
20
140.357701
11
35.6365751
21
140.357201
0
LINE
8
DEFAULT_255_2_778
10
36.3956751
20
139.959801
11
36.3570751
21
139.972501
0
LINE
8
DEFAULT_255_2_778
10
36.3570751
20
139.972501
11
36.3215751
21
139.992101
0
LINE
8
DEFAULT_255_2_778
10
36.3215751
20
139.992101
11
36.3054751
21
140.004501
0
LINE
8
DEFAULT_255_2_778
10
36.3054751
20
140.004501
11
36.2909751
21
140.018501
0
LINE
8
DEFAULT_255_2_778
10
36.2909751
20
140.018501
11
36.2655751
21
140.050001
0
LINE
8
DEFAULT_255_2_778
10
36.2077751
20
140.193201
11
36.1943751
21
140.265901
0
LINE
8
DEFAULT_255_2_778
10
36.1816751
20
140.413601
11
36.1805751
21
140.450601
0
LINE
8
DEFAULT_255_2_778
10
36.1805751
20
140.450601
11
36.1797751
21
140.487601
0
LINE
8
DEFAULT_255_2_778
10
36.1797751
20
140.487601
11
36.1787751
21
140.562001
0
LINE
8
DEFAULT_255_2_778
10
36.1787751
20
140.562001
11
36.1784751
21
140.636301
0
LINE
8
DEFAULT_255_2_778
10
36.1784751
20
140.636301
11
36.1784751
21
140.710701
0
LINE
8
DEFAULT_255_2_778
10
36.1784751
20
140.710701
11
36.1805751
21
140.859401
0
LINE
8
DEFAULT_255_2_778
10
36.1805751
20
140.859401
11
36.1898751
21
141.007501
0
LINE
8
DEFAULT_255_2_778
10
36.1898751
20
141.007501
11
36.1943751
21
141.044601
0
LINE
8
DEFAULT_255_2_778
10
36.1943751
20
141.044601
11
36.2004751
21
141.081401
0
LINE
8
DEFAULT_255_2_778
10
36.2189751
20
141.153101
11
36.2319751
21
141.188001
0
LINE
8
DEFAULT_255_2_778
10
36.2319751
20
141.188001
11
36.2485751
21
141.221301
0
LINE
8
DEFAULT_255_2_778
10
36.3321751
20
141.310501
11
36.3541751
21
141.321901
0
LINE
8
DEFAULT_255_2_778
10
36.3541751
20
141.321901
11
36.3773751
21
141.330601
0
LINE
8
DEFAULT_255_2_778
10
36.3773751
20
141.330601
11
36.4014751
21
141.337001
0
LINE
8
DEFAULT_255_2_778
10
36.4014751
20
141.337001
11
36.4261751
21
141.341201
0
LINE
8
DEFAULT_255_2_778
10
36.4261751
20
141.341201
11
36.4753751
21
141.344401
0
LINE
8
DEFAULT_255_2_778
10
36.4753751
20
141.344401
11
36.5245751
21
141.341201
0
LINE
8
DEFAULT_255_2_778
10
36.5245751
20
141.341201
11
36.5729751
21
141.330301
0
LINE
8
DEFAULT_255_2_778
10
36.5729751
20
141.330301
11
36.5962751
21
141.321601
0
LINE
8
DEFAULT_255_2_778
10
36.5962751
20
141.321601
11
36.6184751
21
141.310201
0
LINE
8
DEFAULT_255_2_778
10
36.7295751
20
141.158901
11
36.7430751
21
141.113901
0
LINE
8
DEFAULT_255_2_778
10
36.7430751
20
141.113901
11
36.7528751
21
141.068101
0
LINE
8
DEFAULT_255_2_778
10
36.7528751
20
141.068101
11
36.7597751
21
141.021601
0
LINE
8
DEFAULT_255_2_778
10
36.7597751
20
141.021601
11
36.7679751
21
140.927601
0
LINE
8
DEFAULT_255_2_778
10
36.7679751
20
140.927601
11
36.7700751
21
140.880501
0
LINE
8
DEFAULT_255_2_778
10
36.7700751
20
140.880501
11
36.7711751
21
140.833401
0
LINE
8
DEFAULT_255_2_778
10
36.7711751
20
140.833401
11
36.7724751
21
140.739301
0
LINE
8
DEFAULT_255_2_778
10
36.7724751
20
140.739301
11
36.7729751
21
140.645101
0
LINE
8
DEFAULT_255_2_778
10
36.7729751
20
140.645101
11
36.7727751
21
140.550901
0
LINE
8
DEFAULT_255_2_778
10
36.7727751
20
140.550901
11
36.7711751
21
140.456701
0
LINE
8
DEFAULT_255_2_778
10
36.7711751
20
140.456701
11
36.7697751
21
140.409601
0
LINE
8
DEFAULT_255_2_778
10
36.7697751
20
140.409601
11
36.7671751
21
140.362501
0
LINE
8
DEFAULT_255_2_778
10
36.7671751
20
140.362501
11
36.7576751
21
140.268601
0
LINE
8
DEFAULT_255_2_778
10
36.7393751
20
140.176001
11
36.7253751
21
140.131001
0
LINE
8
DEFAULT_255_2_778
10
36.7068751
20
140.087901
11
36.6824751
21
140.047601
0
LINE
8
DEFAULT_255_2_778
10
36.6824751
20
140.047601
11
36.6676751
21
140.028901
0
LINE
8
DEFAULT_255_2_778
10
36.6676751
20
140.028901
11
36.6515751
21
140.011401
0
LINE
8
DEFAULT_255_2_778
10
36.6515751
20
140.011401
11
36.6335751
21
139.995801
0
LINE
8
DEFAULT_255_2_778
10
36.6335751
20
139.995801
11
36.6134751
21
139.982501
0
LINE
8
DEFAULT_255_2_778
10
36.6134751
20
139.982501
11
36.5697751
21
139.963501
0
LINE
8
DEFAULT_255_2_778
10
36.5697751
20
139.963501
11
36.5464751
21
139.957401
0
LINE
8
DEFAULT_255_2_778
10
36.5464751
20
139.957401
11
36.5229751
21
139.953401
0
LINE
8
DEFAULT_255_2_778
10
36.5229751
20
139.953401
11
36.4761751
21
139.951101
0
LINE
8
DEFAULT_255_2_778
10
36.8002751
20
140.024101
11
36.8129751
21
140.049001
0
LINE
8
DEFAULT_255_2_778
10
36.8129751
20
140.049001
11
36.8240751
21
140.074601
0
LINE
8
DEFAULT_255_2_778
10
36.8240751
20
140.074601
11
36.8425751
21
140.127001
0
LINE
8
DEFAULT_255_2_778
10
36.8666751
20
140.235201
11
36.8740751
21
140.290501
0
LINE
8
DEFAULT_255_2_778
10
36.8740751
20
140.290501
11
36.8788751
21
140.345801
0
LINE
8
DEFAULT_255_2_778
10
36.8788751
20
140.345801
11
36.8814751
21
140.401401
0
LINE
8
DEFAULT_255_2_778
10
36.8814751
20
140.401401
11
36.8819751
21
140.429201
0
LINE
8
DEFAULT_255_2_778
10
36.8819751
20
140.429201
11
36.8825751
21
140.456901
0
LINE
8
DEFAULT_255_2_778
10
36.8825751
20
140.456901
11
36.8838751
21
140.567801
0
LINE
8
DEFAULT_255_2_778
10
36.8838751
20
140.567801
11
36.8840751
21
140.678701
0
LINE
8
DEFAULT_255_2_778
10
36.8840751
20
140.678701
11
36.8833751
21
140.789801
0
LINE
8
DEFAULT_255_2_778
10
36.8833751
20
140.789801
11
36.8825751
21
140.845401
0
LINE
8
DEFAULT_255_2_778
10
36.8825751
20
140.845401
11
36.8811751
21
140.900901
0
LINE
8
DEFAULT_255_2_778
10
36.8811751
20
140.900901
11
36.8737751
21
141.011501
0
LINE
8
DEFAULT_255_2_778
10
36.8737751
20
141.011501
11
36.8669751
21
141.066501
0
LINE
8
DEFAULT_255_2_778
10
36.8669751
20
141.066501
11
36.8568751
21
141.121301
0
LINE
8
DEFAULT_255_2_778
10
36.8010751
20
141.276901
11
36.7700751
21
141.323201
0
LINE
8
DEFAULT_255_2_778
10
36.7700751
20
141.323201
11
36.7327751
21
141.364701
0
LINE
8
DEFAULT_255_2_778
10
36.7327751
20
141.364701
11
36.7118751
21
141.383301
0
LINE
8
DEFAULT_255_2_778
10
36.7118751
20
141.383301
11
36.6893751
21
141.399701
0
LINE
8
DEFAULT_255_2_778
10
36.6893751
20
141.399701
11
36.6406751
21
141.426101
0
LINE
8
DEFAULT_255_2_778
10
36.6406751
20
141.426101
11
36.6144751
21
141.436201
0
LINE
8
DEFAULT_255_2_778
10
36.6144751
20
141.436201
11
36.5875751
21
141.444101
0
LINE
8
DEFAULT_255_2_778
10
36.5875751
20
141.444101
11
36.5324751
21
141.454201
0
LINE
8
DEFAULT_255_2_778
10
36.5324751
20
141.454201
11
36.4761751
21
141.457301
0
LINE
8
DEFAULT_255_2_778
10
36.3649751
20
141.444401
11
36.3115751
21
141.426101
0
LINE
8
DEFAULT_255_2_778
10
36.3115751
20
141.426101
11
36.2623751
21
141.399401
0
LINE
8
DEFAULT_255_2_778
10
36.2623751
20
141.399401
11
36.2395751
21
141.382701
0
LINE
8
DEFAULT_255_2_778
10
36.2395751
20
141.382701
11
36.2184751
21
141.364201
0
LINE
8
DEFAULT_255_2_778
10
36.2184751
20
141.364201
11
36.1811751
21
141.322701
0
LINE
8
DEFAULT_255_2_778
10
36.1811751
20
141.322701
11
36.1646751
21
141.299601
0
LINE
8
DEFAULT_255_2_778
10
36.1646751
20
141.299601
11
36.1501751
21
141.275801
0
LINE
8
DEFAULT_255_2_778
10
36.1501751
20
141.275801
11
36.1374751
21
141.251201
0
LINE
8
DEFAULT_255_2_778
10
36.1374751
20
141.251201
11
36.1265751
21
141.225801
0
LINE
8
DEFAULT_255_2_778
10
36.1265751
20
141.225801
11
36.1083751
21
141.173201
0
LINE
8
DEFAULT_255_2_778
10
36.1083751
20
141.173201
11
36.0940751
21
141.119501
0
LINE
8
DEFAULT_255_2_778
10
36.0760751
20
141.010501
11
36.0681751
21
140.900101
0
LINE
8
DEFAULT_255_2_778
10
36.0681751
20
140.900101
11
36.0670751
21
140.844601
0
LINE
8
DEFAULT_255_2_778
10
36.0670751
20
140.844601
11
36.0662751
21
140.789001
0
LINE
8
DEFAULT_255_2_778
10
36.0662751
20
140.789001
11
36.0654751
21
140.677901
0
LINE
8
DEFAULT_255_2_778
10
36.0654751
20
140.677901
11
36.0657751
21
140.566701
0
LINE
8
DEFAULT_255_2_778
10
36.0657751
20
140.566701
11
36.0670751
21
140.455601
0
LINE
8
DEFAULT_255_2_778
10
36.0670751
20
140.455601
11
36.0683751
21
140.400101
0
LINE
8
DEFAULT_255_2_778
10
36.0683751
20
140.400101
11
36.0710751
21
140.344801
0
LINE
8
DEFAULT_255_2_778
10
36.0710751
20
140.344801
11
36.0829751
21
140.234701
0
LINE
8
DEFAULT_255_2_778
10
36.1070751
20
140.126201
11
36.1250751
21
140.073801
0
LINE
8
DEFAULT_255_2_778
10
36.1250751
20
140.073801
11
36.1358751
21
140.048401
0
LINE
8
DEFAULT_255_2_778
10
36.1358751
20
140.048401
11
36.1485751
21
140.023601
0
LINE
8
DEFAULT_255_2_778
10
36.2710751
20
139.891001
11
36.3020751
21
139.873801
0
LINE
8
DEFAULT_255_2_778
10
36.3020751
20
139.873801
11
36.3348751
21
139.860001
0
LINE
8
DEFAULT_255_2_778
10
36.3348751
20
139.860001
11
36.4036751
21
139.843101
0
LINE
8
DEFAULT_255_2_778
10
36.4036751
20
139.843101
11
36.4742751
21
139.837801
0
LINE
8
DEFAULT_255_2_778
10
36.4742751
20
139.837801
11
36.5446751
21
139.842601
0
LINE
8
DEFAULT_255_2_778
10
36.5446751
20
139.842601
11
36.5798751
21
139.849501
0
LINE
8
DEFAULT_255_2_778
10
36.5798751
20
139.849501
11
36.6139751
21
139.859501
0
LINE
8
DEFAULT_255_2_778
10
36.6139751
20
139.859501
11
36.6467751
21
139.873001
0
LINE
8
DEFAULT_255_2_778
10
36.6467751
20
139.873001
11
36.6779751
21
139.890501
0
LINE
8
DEFAULT_255_2_778
10
36.7332751
20
139.935201
11
36.7332751
21
139.935501
0
LINE
8
DEFAULT_255_2_778
10
32.7248751
20
141.851301
11
34.7248751
21
141.851301
0
LINE
8
DEFAULT_255_2_778
10
34.724922
20
143.8499812
11
32.724922
21
143.8499812
0
LINE
8
DEFAULT_255_2_778
10
32.724922
20
143.8499812
11
32.724922
21
141.8131812
0
LINE
8
DEFAULT_255_2_778
10
32.724922
20
141.8131812
11
34.724922
21
141.8131812
0
LINE
8
DEFAULT_255_2_778
10
34.724922
20
141.8131812
11
34.724922
21
143.8499812
0
LINE
8
DEFAULT_255_2_778
10
28.724922
20
141.8512812
11
30.724922
21
141.8512812
0
LINE
8
DEFAULT_255_2_778
10
30.724922
20
143.8499812
11
28.724922
21
143.8499812
0
LINE
8
DEFAULT_255_2_778
10
28.724922
20
143.8499812
11
28.724922
21
141.8131812
0
LINE
8
DEFAULT_255_2_778
10
28.724922
20
141.8131812
11
30.724922
21
141.8131812
0
LINE
8
DEFAULT_255_2_778
10
30.724922
20
141.8131812
11
30.724922
21
143.8499812
0
LINE
8
DEFAULT_255_2_778
10
24.724922
20
141.8512812
11
26.724922
21
141.8512812
0
ARC
8
DEFAULT_255_2_778
10
35.411554
20
6.3839778
40
0.3201174
50
201.4130762
51
264.1872996
0
ARC
8
DEFAULT_255_2_778
10
35.6010917
20
6.6243709
40
0.3552642
50
215.1563441
51
255.3821592
0
LINE
8
DEFAULT_255_2_778
10
26.7249335
20
143.8499064
11
24.7249335
21
143.8499064
0
LINE
8
DEFAULT_255_2_778
10
24.7249335
20
143.8499064
11
24.7249335
21
141.8131064
0
LINE
8
DEFAULT_255_2_778
10
24.7249335
20
141.8131064
11
26.7249335
21
141.8131064
0
LINE
8
DEFAULT_255_2_778
10
26.7249335
20
141.8131064
11
26.7249335
21
143.8499064
0
LINE
8
DEFAULT_255_2_778
10
35.1135335
20
6.2671064
11
35.3106335
21
6.4198064
0
LINE
8
DEFAULT_255_2_778
10
35.5148354
20
6.2830208
11
35.7612354
21
6.2914208
0
LINE
8
DEFAULT_255_2_778
10
35.7612354
20
6.2914208
11
35.9554354
21
6.4419208
0
LINE
8
DEFAULT_255_2_778
10
35.9554354
20
6.4419208
11
36.0234354
21
6.6769208
0
LINE
8
DEFAULT_255_2_778
10
36.0234354
20
6.6769208
11
35.9389354
21
6.9066208
0
LINE
8
DEFAULT_255_2_778
10
35.9389354
20
6.9066208
11
35.6029354
21
7.3328208
0
LINE
8
DEFAULT_255_2_778
10
35.6029354
20
7.3328208
11
35.4037354
21
7.1820208
0
LINE
8
DEFAULT_255_2_778
10
36.1278354
20
7.1069208
11
35.8466354
21
7.4659208
0
LINE
8
DEFAULT_255_2_778
10
36.1146354
20
7.5278208
11
36.4009354
21
7.1646208
0
LINE
8
DEFAULT_255_2_778
10
36.4009354
20
7.1646208
11
36.5980354
21
7.3172208
0
LINE
8
DEFAULT_255_2_778
10
36.5980354
20
7.3172208
11
36.3829354
21
7.5900208
0
ARC
8
DEFAULT_255_2_778
10
35.6587101
20
6.797253
40
1.2884283
50
180.5465177
51
198.4659641
0
ARC
8
DEFAULT_255_2_778
10
36.1152933
20
6.9333124
40
1.7646673
50
197.9605944
51
203.6342336
0
LINE
8
DEFAULT_255_2_778
10
34.4986403
20
6.2258635
11
34.8455403
21
5.7946635
0
LINE
8
DEFAULT_255_2_778
10
34.8455403
20
5.7946635
11
35.3466403
21
5.5554635
0
LINE
8
DEFAULT_255_2_778
10
35.3466403
20
5.5554635
11
35.9030403
21
5.5554635
0
LINE
8
DEFAULT_255_2_778
10
35.9030403
20
5.5554635
11
36.4042403
21
5.7946635
0
LINE
8
DEFAULT_255_2_778
10
36.4042403
20
5.7946635
11
36.7510403
21
6.2258635
0
LINE
8
DEFAULT_255_2_778
10
36.7510403
20
6.2258635
11
36.8748403
21
6.7635635
0
LINE
8
DEFAULT_255_2_778
10
36.8748403
20
6.7635635
11
36.8748403
21
7.7067635
0
ARC
8
DEFAULT_255_2_778
10
44.4827775
20
129.3149141
40
1.928991
50
359.6514513
51
6.0971052
0
ARC
8
DEFAULT_255_2_778
10
45.5277291
20
129.4320226
40
0.8775287
50
5.7407553
51
17.2018916
0
ARC
8
DEFAULT_255_2_778
10
45.9235957
20
129.548474
40
0.4649669
50
17.9204438
51
24.7557675
0
ARC
8
DEFAULT_255_2_778
10
46.1406881
20
129.6654817
40
0.2193656
50
20.7439976
51
91.4250177
0
ARC
8
DEFAULT_255_2_778
10
46.1309994
20
129.6679777
40
0.2168432
50
88.8813628
51
158.9455954
0
ARC
8
DEFAULT_255_2_778
10
46.5103231
20
129.4855037
40
0.6373062
50
155.8857968
51
171.0594271
0
ARC
8
DEFAULT_255_2_778
10
47.3244068
20
129.3436792
40
1.4636028
50
170.5276195
51
178.5405885
0
ARC
8
DEFAULT_255_2_778
10
48.1178264
20
129.3062349
40
2.2577844
50
178.1034722
51
179.4862462
0
ARC
8
DEFAULT_255_2_778
10
47.7001359
20
128.9265639
40
1.8400443
50
179.6165116
51
186.7325104
0
ARC
8
DEFAULT_255_2_778
10
46.7196522
20
128.8056271
40
0.8521594
50
186.3858022
51
198.7271041
0
ARC
8
DEFAULT_255_2_778
10
46.3759673
20
128.6967473
40
0.4917658
50
199.5693009
51
204.5430153
0
ARC
8
DEFAULT_255_2_778
10
46.1583075
20
128.5824645
40
0.2466735
50
201.3949084
51
244.3404083
0
ARC
8
DEFAULT_255_2_778
10
46.1352403
20
128.5597572
40
0.2164945
50
247.2421265
51
270.7125793
0
ARC
8
DEFAULT_255_2_778
10
46.1407513
20
128.5592434
40
0.2159823
50
269.2522695
51
339.6343864
0
ARC
8
DEFAULT_255_2_778
10
45.7513809
20
128.7452171
40
0.6469014
50
336.1919068
51
351.1239448
0
ARC
8
DEFAULT_255_2_778
10
44.9265241
20
128.8894842
40
1.4842188
50
350.5346126
51
358.0489362
0
ARC
8
DEFAULT_255_2_778
10
44.0771441
20
128.9339424
40
2.3346715
50
357.668188
51
359.5174411
0
ARC
8
DEFAULT_255_2_778
10
45.2337617
20
131.0123705
40
1.4259233
50
350.5312153
51
0.4905833
0
ARC
8
DEFAULT_255_2_778
10
45.9227935
20
130.8917635
40
0.7264598
50
333.1174823
51
350.9737534
0
ARC
8
DEFAULT_255_2_778
10
46.1435749
20
130.789115
40
0.483194
50
325.5932755
51
332.1364209
0
ARC
8
DEFAULT_255_2_778
10
46.2202516
20
130.7328715
40
0.3881632
50
267.1767718
51
326.0473571
0
ARC
8
DEFAULT_255_2_778
10
46.1889778
20
130.7047351
40
0.359761
50
206.7549516
51
271.9361757
0
ARC
8
DEFAULT_255_2_778
10
46.1886537
20
131.4853598
40
0.3571564
50
88.4149738
51
151.2808267
0
ARC
8
DEFAULT_255_2_778
10
46.2130725
20
131.4162535
40
0.426374
50
57.0860911
51
91.9542168
0
ARC
8
DEFAULT_255_2_778
10
46.2301049
20
131.4633976
40
0.3777117
50
33.9210384
51
55.3689
0
ARC
8
DEFAULT_255_2_778
10
46.0367974
20
131.3434317
40
0.6051238
50
12.1951877
51
33.1326161
0
ARC
8
DEFAULT_255_2_778
10
45.4266393
20
131.1989336
40
1.2320989
50
1.7377217
51
12.7693103
0
ARC
8
DEFAULT_255_2_778
10
44.8086964
20
131.1626279
40
1.8509418
50
0.1408934
51
2.2809972
0
ARC
8
DEFAULT_255_2_778
10
45.1497823
20
131.1715545
40
1.2827073
50
359.4606269
51
8.1058053
0
ARC
8
DEFAULT_255_2_778
10
45.9163521
20
131.2870412
40
0.5075509
50
7.4007636
51
24.7392111
0
ARC
8
DEFAULT_255_2_778
10
46.1351699
20
131.3799873
40
0.2700136
50
26.2580904
51
32.3275419
0
ARC
8
DEFAULT_255_2_778
10
46.1611311
20
131.3911227
40
0.2421629
50
33.3860488
51
92.910192
0
ARC
8
DEFAULT_255_2_778
10
46.1392651
20
131.2017307
40
0.4313489
50
88.728554
51
90.0042999
0
ARC
8
DEFAULT_255_2_778
10
46.1391393
20
131.3648373
40
0.2682422
50
89.980046
51
156.5143814
0
ARC
8
DEFAULT_255_2_778
10
46.3526485
20
131.2273698
40
0.5204645
50
151.9970371
51
156.3949261
0
ARC
8
DEFAULT_255_2_778
10
46.193907
20
130.8732091
40
0.3417124
50
201.3903949
51
233.8240314
0
ARC
8
DEFAULT_255_2_778
10
46.136294
20
130.8139306
40
0.2601102
50
236.3614417
51
271.2201326
0
ARC
8
DEFAULT_255_2_778
10
46.1565734
20
130.8080117
40
0.2545594
50
266.6803423
51
312.2723738
0
ARC
8
DEFAULT_255_2_778
10
46.1666951
20
130.7831334
40
0.2295284
50
314.5807534
51
329.337772
0
ARC
8
DEFAULT_255_2_778
10
45.9641809
20
130.8890779
40
0.457919
50
330.8575698
51
351.1772501
0
ARC
8
DEFAULT_255_2_778
10
45.2996596
20
131.0083818
40
1.1329885
50
350.3696567
51
0.2982503
0
ARC
8
DEFAULT_255_2_778
10
46.1927883
20
53.7894374
40
0.5419459
50
89.7838498
51
119.0882626
0
ARC
8
DEFAULT_255_2_778
10
46.1548681
20
53.8776873
40
0.4464987
50
120.3415493
51
138.9723331
0
ARC
8
DEFAULT_255_2_778
10
46.263476
20
53.7972595
40
0.5813234
50
140.0189746
51
164.922214
0
ARC
8
DEFAULT_255_2_778
10
46.7910754
20
53.6424021
40
1.1311092
50
164.3000776
51
176.8894299
0
ARC
8
DEFAULT_255_2_778
10
45.9918306
20
53.4530215
40
0.4146205
50
89.004695
51
142.7863349
0
ARC
8
DEFAULT_255_2_778
10
46.0100788
20
53.4608806
40
0.4068488
50
34.1856788
51
91.5557915
0
ARC
8
DEFAULT_255_2_778
10
45.7883779
20
53.3002161
40
0.6805692
50
7.7852615
51
34.887535
0
ARC
8
DEFAULT_255_2_778
10
45.3887094
20
53.2276154
40
1.0865341
50
359.7449901
51
8.7235276
0
ARC
8
DEFAULT_255_2_778
10
45.4841962
20
53.2101867
40
0.9911165
50
345.0788412
51
0.7280002
0
ARC
8
DEFAULT_255_2_778
10
45.8505366
20
53.1130118
40
0.6121074
50
322.0378464
51
345.0385327
0
ARC
8
DEFAULT_255_2_778
10
45.9679682
20
53.0197392
40
0.4621485
50
267.9743604
51
322.1991182
0
ARC
8
DEFAULT_255_2_778
10
45.9461466
20
53.0094197
40
0.4515736
50
212.2011106
51
270.6961057
0
ARC
8
DEFAULT_255_2_778
10
46.2251471
20
53.2144791
40
0.7973208
50
190.2446162
51
213.9864394
0
ARC
8
DEFAULT_255_2_778
10
46.7346321
20
53.3195611
40
1.3174344
50
179.581687
51
190.8010497
0
ARC
8
DEFAULT_255_2_778
10
48.2638746
20
53.4371249
40
2.846669
50
174.1945706
51
180.250493
0
ARC
8
DEFAULT_255_2_778
10
47.0386981
20
53.56629
40
1.6147177
50
165.0681849
51
174.3569188
0
ARC
8
DEFAULT_255_2_778
10
46.4920403
20
53.7044171
40
1.0509537
50
159.8307837
51
164.6650765
0
ARC
8
DEFAULT_255_2_778
10
46.2596196
20
53.8024143
40
0.7990844
50
139.3681423
51
160.6805286
0
ARC
8
DEFAULT_255_2_778
10
46.1001003
20
53.9288481
40
0.5957435
50
124.0965825
51
138.6057776
0
ARC
8
DEFAULT_255_2_778
10
46.1573972
20
53.8237079
40
0.7150217
50
95.7233658
51
123.1755668
0
ARC
8
DEFAULT_255_2_778
10
46.2085033
20
53.5002849
40
1.0420951
50
90.7956372
51
96.7459545
0
ARC
8
DEFAULT_255_2_778
10
45.9615117
20
53.3938511
40
0.2671511
50
90.7461449
51
133.6729945
0
ARC
8
DEFAULT_255_2_778
10
46.0540124
20
53.2788942
40
0.414362
50
131.9474256
51
163.1535614
0
ARC
8
DEFAULT_255_2_778
10
46.6266038
20
53.2884225
40
0.9692511
50
179.2636025
51
193.9179411
0
ARC
8
DEFAULT_255_2_778
10
46.2581676
20
53.2008532
40
0.5905796
50
194.269373
51
209.1393125
0
ARC
8
DEFAULT_255_2_778
10
46.0339476
20
53.0642062
40
0.3283567
50
207.3640517
51
235.6276153
0
ARC
8
DEFAULT_255_2_778
10
45.9504878
20
52.953169
40
0.1896906
50
237.5001458
51
270.1947995
0
ARC
8
DEFAULT_255_2_778
10
45.9545598
20
52.9999116
40
0.236457
50
269.1695784
51
331.3331604
0
ARC
8
DEFAULT_255_2_778
10
45.7085622
20
53.1529136
40
0.5259493
50
329.563872
51
354.6323144
0
ARC
8
DEFAULT_255_2_778
10
45.333532
20
53.2080099
40
0.9047052
50
353.3800455
51
0.181733
0
ARC
8
DEFAULT_255_2_778
10
45.5094447
20
53.2236284
40
0.7288996
50
358.9978088
51
17.2876454
0
ARC
8
DEFAULT_255_2_778
10
45.763506
20
53.2959471
40
0.4648693
50
18.0823251
51
30.9866169
0
ARC
8
DEFAULT_255_2_778
10
45.956745
20
53.4305025
40
0.2304806
50
27.0393444
51
89.6798587
0
ARC
8
DEFAULT_255_2_778
10
11.9632456
20
128.9783629
40
2.1490225
50
353.0640389
51
0.3283788
0
ARC
8
DEFAULT_255_2_778
10
12.9493564
20
128.8536849
40
1.1550817
50
341.6565444
51
353.2963245
0
ARC
8
DEFAULT_255_2_778
10
13.4141077
20
128.7029883
40
0.6665275
50
329.8962056
51
341.3794224
0
ARC
8
DEFAULT_255_2_778
10
13.6343582
20
128.572268
40
0.4104279
50
266.5602139
51
330.2616761
0
ARC
8
DEFAULT_255_2_778
10
13.5871008
20
128.5758686
40
0.4139083
50
211.4063052
51
273.134424
0
ARC
8
DEFAULT_255_2_778
10
13.8628182
20
128.7388712
40
0.7341867
50
193.2096472
51
211.0507801
0
ARC
8
DEFAULT_255_2_778
10
14.5532108
20
128.9122326
40
1.4459694
50
183.6434231
51
193.6458934
0
ARC
8
DEFAULT_255_2_778
10
15.3680336
20
128.9806332
40
2.2635519
50
180.6620256
51
184.060647
0
ARC
8
DEFAULT_255_2_778
10
15.2021226
20
129.289874
40
2.0975259
50
172.9647658
51
180.3358379
0
ARC
8
DEFAULT_255_2_778
10
14.2347466
20
129.4139582
40
1.122245
50
161.3558634
51
173.2029885
0
ARC
8
DEFAULT_255_2_778
10
13.7827854
20
129.5630484
40
0.6463473
50
149.3676979
51
161.0703479
0
ARC
8
DEFAULT_255_2_778
10
13.5822879
20
129.6838467
40
0.4122821
50
86.5451633
51
149.6154406
0
ARC
8
DEFAULT_255_2_778
10
13.6213536
20
129.6327503
40
0.4628477
50
59.5783051
51
91.7606655
0
ARC
8
DEFAULT_255_2_778
10
13.6417917
20
129.6919879
40
0.4016073
50
31.6594839
51
57.813056
0
ARC
8
DEFAULT_255_2_778
10
13.3709032
20
129.5308114
40
0.7167969
50
13.3624774
51
31.2605679
0
ARC
8
DEFAULT_255_2_778
10
12.683369
20
129.3560256
40
1.4261562
50
3.8260457
51
13.810729
0
ARC
8
DEFAULT_255_2_778
10
11.8713539
20
129.2851386
40
2.2411528
50
0.8958683
51
4.2490351
0
ARC
8
DEFAULT_255_2_778
10
11.9553
20
129.3294998
40
1.9283684
50
359.6517645
51
6.0980678
0
ARC
8
DEFAULT_255_2_778
10
12.9990305
20
129.4464835
40
0.8781333
50
5.7427454
51
17.1972756
0
ARC
8
DEFAULT_255_2_778
10
13.3947291
20
129.5628516
40
0.4657562
50
17.9142015
51
24.7411209
0
ARC
8
DEFAULT_255_2_778
10
13.6125421
20
129.6798584
40
0.2194878
50
20.7942694
51
91.412226
0
ARC
8
DEFAULT_255_2_778
10
13.6028157
20
129.6826021
40
0.2167204
50
88.8586073
51
158.9683508
0
ARC
8
DEFAULT_255_2_778
10
13.9826956
20
129.499737
40
0.6378464
50
155.8812682
51
171.0368128
0
ARC
8
DEFAULT_255_2_778
10
14.7952939
20
129.3578833
40
1.462685
50
170.5072492
51
178.5185455
0
ARC
8
DEFAULT_255_2_778
10
15.5874925
20
129.3202146
40
2.2556582
50
178.0822785
51
179.464924
0
ARC
8
DEFAULT_255_2_778
10
15.1688406
20
128.9413569
40
1.8369492
50
179.6156457
51
186.743106
0
ARC
8
DEFAULT_255_2_778
10
14.1896191
20
128.8203844
40
0.8503125
50
186.3955767
51
198.7607979
0
ARC
8
DEFAULT_255_2_778
10
13.8465398
20
128.7114811
40
0.4904892
50
199.604604
51
204.5897645
0
ARC
8
DEFAULT_255_2_778
10
13.63037
20
128.5973305
40
0.2468124
50
201.3737868
51
244.3026689
0
ARC
8
DEFAULT_255_2_778
10
13.6070478
20
128.5741857
40
0.2161228
50
247.2147025
51
270.7118144
0
ARC
8
DEFAULT_255_2_778
10
13.6126059
20
128.5741076
40
0.2160472
50
269.2380259
51
339.6226038
0
ARC
8
DEFAULT_255_2_778
10
13.2219263
20
128.7602166
40
0.6482214
50
336.2241065
51
351.1243186
0
ARC
8
DEFAULT_255_2_778
10
12.3949328
20
128.9048311
40
1.4877034
50
350.5356373
51
358.0324362
0
ARC
8
DEFAULT_255_2_778
10
11.5436858
20
128.9496004
40
2.340037
50
357.6525133
51
359.4975401
0
LINE
8
DEFAULT_255_2_778
10
36.1234328
20
7.1156795
11
36.2676328
21
6.7529795
0
LINE
8
DEFAULT_255_2_778
10
36.2676328
20
6.7529795
11
36.2266328
21
6.4224795
0
LINE
8
DEFAULT_255_2_778
10
36.2266328
20
6.4224795
11
36.0244328
21
6.1565795
0
LINE
8
DEFAULT_255_2_778
10
36.0244328
20
6.1565795
11
35.7151328
21
6.0263795
0
LINE
8
DEFAULT_255_2_778
10
35.7151328
20
6.0263795
11
35.3818328
21
6.0668795
0
LINE
8
DEFAULT_255_2_778
10
35.4064328
20
7.1805795
11
35.7720328
21
6.7164795
0
LINE
8
DEFAULT_255_2_778
10
35.7720328
20
6.7164795
11
35.7720328
21
6.6772795
0
LINE
8
DEFAULT_255_2_778
10
35.7720328
20
6.6772795
11
35.5749328
21
6.5246795
0
LINE
8
DEFAULT_255_2_778
10
35.5749328
20
6.5246795
11
34.9854328
21
7.2725795
0
LINE
8
DEFAULT_255_2_778
10
34.3748328
20
7.1410795
11
34.3748328
21
6.7635795
0
LINE
8
DEFAULT_255_2_778
10
46.4117328
20
128.9142795
11
46.4117328
21
129.3031795
0
LINE
8
DEFAULT_255_2_778
10
45.8601328
20
129.3264795
11
45.8601328
21
128.9388795
0
LINE
8
DEFAULT_255_2_778
10
46.4117328
20
128.9142795
11
46.4117328
21
128.9142795
0
LINE
8
DEFAULT_255_2_778
10
46.6596328
20
131.1674795
11
46.6596328
21
131.0245795
0
LINE
8
DEFAULT_255_2_778
10
45.8677328
20
130.5427795
11
45.8561328
21
130.3718795
0
LINE
8
DEFAULT_255_2_778
10
45.8561328
20
130.3718795
11
45.6481328
21
130.3718795
0
LINE
8
DEFAULT_255_2_778
10
45.6481328
20
130.3718795
11
45.6481328
21
132.4215795
0
LINE
8
DEFAULT_255_2_778
10
45.6481328
20
132.4215795
11
45.8754328
21
132.4215795
0
LINE
8
DEFAULT_255_2_778
10
45.8754328
20
132.4215795
11
45.8754328
21
131.6569795
0
LINE
8
DEFAULT_255_2_778
10
46.6596328
20
131.1671795
11
46.6596328
21
131.1674795
0
LINE
8
DEFAULT_255_2_778
10
46.4324328
20
131.0139795
11
46.4324328
21
131.1594795
0
LINE
8
DEFAULT_255_2_778
10
45.8757328
20
131.4357795
11
45.8757328
21
130.7485795
0
LINE
8
DEFAULT_255_2_778
10
46.4326328
20
131.0142795
11
46.4324328
21
131.0139795
0
LINE
8
DEFAULT_255_2_778
10
46.2789328
20
76.2007795
11
46.2789328
21
74.8635795
0
LINE
8
DEFAULT_255_2_778
10
46.2789328
20
74.8635795
11
46.5080328
21
74.8635795
0
LINE
8
DEFAULT_255_2_778
10
46.5080328
20
74.8635795
11
46.5080328
21
74.6548795
0
LINE
8
DEFAULT_255_2_778
10
46.5080328
20
74.6548795
11
46.2789328
21
74.6548795
0
LINE
8
DEFAULT_255_2_778
10
46.2789328
20
74.6548795
11
46.2789328
21
74.1875795
0
LINE
8
DEFAULT_255_2_778
10
46.2789328
20
74.1875795
11
46.0286328
21
74.1875795
0
LINE
8
DEFAULT_255_2_778
10
46.0286328
20
74.1875795
11
46.0286328
21
74.6548795
0
LINE
8
DEFAULT_255_2_778
10
46.0286328
20
74.6548795
11
45.2510328
21
74.6548795
0
LINE
8
DEFAULT_255_2_778
10
45.2510328
20
74.6548795
11
45.2510328
21
74.8056795
0
LINE
8
DEFAULT_255_2_778
10
45.2510328
20
74.8056795
11
46.0159328
21
76.2007795
0
LINE
8
DEFAULT_255_2_778
10
46.0159328
20
76.2007795
11
46.2789328
21
76.2007795
0
LINE
8
DEFAULT_255_2_778
10
46.2789328
20
76.2007795
11
46.2789328
21
76.2007795
0
LINE
8
DEFAULT_255_2_778
10
46.0286328
20
75.8205795
11
45.5283328
21
74.8638795
0
LINE
8
DEFAULT_255_2_778
10
45.5283328
20
74.8638795
11
46.0286328
21
74.8638795
0
LINE
8
DEFAULT_255_2_778
10
46.0286328
20
74.8638795
11
46.0286328
21
75.8205795
0
LINE
8
DEFAULT_255_2_778
10
46.0286328
20
75.8205795
11
46.0286328
21
75.8205795
0
LINE
8
DEFAULT_255_2_778
10
46.1934328
20
54.5422795
11
46.2342328
21
54.5422795
0
LINE
8
DEFAULT_255_2_778
10
46.2342328
20
54.5422795
11
46.2342328
21
54.3313795
0
LINE
8
DEFAULT_255_2_778
10
46.2342328
20
54.3313795
11
46.1948328
21
54.3313795
0
LINE
8
DEFAULT_255_2_778
10
45.4172328
20
53.3291795
11
45.4172328
21
53.4246795
0
LINE
8
DEFAULT_255_2_778
10
46.1940328
20
54.5422795
11
46.1934328
21
54.5422795
0
LINE
8
DEFAULT_255_2_778
10
45.6574328
20
53.3989795
11
45.6574328
21
53.3008795
0
LINE
8
DEFAULT_255_2_778
10
45.9580328
20
53.6609795
11
45.9580328
21
53.6609795
0
LINE
8
DEFAULT_255_2_778
10
14.0328328
20
76.2007795
11
14.0328328
21
74.8635795
0
LINE
8
DEFAULT_255_2_778
10
14.0328328
20
74.8635795
11
14.2619328
21
74.8635795
0
LINE
8
DEFAULT_255_2_778
10
14.2619328
20
74.8635795
11
14.2619328
21
74.6548795
0
LINE
8
DEFAULT_255_2_778
10
14.2619328
20
74.6548795
11
14.0328328
21
74.6548795
0
LINE
8
DEFAULT_255_2_778
10
14.0328328
20
74.6548795
11
14.0328328
21
74.1875795
0
LINE
8
DEFAULT_255_2_778
10
14.0328328
20
74.1875795
11
13.7825328
21
74.1875795
0
LINE
8
DEFAULT_255_2_778
10
13.7825328
20
74.1875795
11
13.7825328
21
74.6548795
0
LINE
8
DEFAULT_255_2_778
10
13.7825328
20
74.6548795
11
13.0049328
21
74.6548795
0
LINE
8
DEFAULT_255_2_778
10
13.0049328
20
74.6548795
11
13.0049328
21
74.8056795
0
LINE
8
DEFAULT_255_2_778
10
13.0049328
20
74.8056795
11
13.7698328
21
76.2007795
0
LINE
8
DEFAULT_255_2_778
10
13.7698328
20
76.2007795
11
14.0328328
21
76.2007795
0
LINE
8
DEFAULT_255_2_778
10
14.0328328
20
76.2007795
11
14.0328328
21
76.2007795
0
LINE
8
DEFAULT_255_2_778
10
13.7825328
20
75.8205795
11
13.2822328
21
74.8635795
0
LINE
8
DEFAULT_255_2_778
10
13.2822328
20
74.8635795
11
13.7825328
21
74.8635795
0
LINE
8
DEFAULT_255_2_778
10
13.7825328
20
74.8635795
11
13.7825328
21
75.8205795
0
LINE
8
DEFAULT_255_2_778
10
13.7825328
20
75.8205795
11
13.7825328
21
75.8205795
0
LINE
8
DEFAULT_255_2_778
10
14.1122328
20
129.3201795
11
14.1122328
21
128.9906795
0
LINE
8
DEFAULT_255_2_778
10
13.1046328
20
128.9544795
11
13.1046328
21
129.2775795
0
LINE
8
DEFAULT_255_2_778
10
14.1122328
20
129.3201795
11
14.1122328
21
129.3201795
0
LINE
8
DEFAULT_255_2_778
10
13.8836328
20
128.9287795
11
13.8836328
21
129.3177795
0
LINE
8
DEFAULT_255_2_778
10
13.3319328
20
129.3412795
11
13.3319328
21
128.9536795
0
LINE
8
DEFAULT_255_2_778
10
13.8836328
20
128.9290795
11
13.8836328
21
128.9287795
0
ARC
8
DEFAULT_255_2_778
10
14.182677
20
130.6328934
40
0.348603
50
186.4533802
51
201.7659107
0
ARC
8
DEFAULT_255_2_778
10
14.8645879
20
130.7400423
40
1.0386644
50
184.6396516
51
188.098938
0
ARC
8
DEFAULT_255_2_778
10
13.4922804
20
130.8679246
40
0.3981225
50
292.3370783
51
327.8427566
0
ARC
8
DEFAULT_255_2_778
10
13.5218164
20
130.8247525
40
0.3471362
50
269.5726218
51
290.535722
0
ARC
8
DEFAULT_255_2_778
10
13.5059309
20
130.9332522
40
0.4558201
50
243.3681565
51
271.6715455
0
ARC
8
DEFAULT_255_2_778
10
13.4585933
20
130.8201636
40
0.3336155
50
224.9843752
51
241.9292691
0
ARC
8
DEFAULT_255_2_778
10
13.4964167
20
130.8452479
40
0.3782076
50
183.0968514
51
223.6214506
0
ARC
8
DEFAULT_255_2_778
10
13.7487319
20
130.8835842
40
0.6327058
50
179.9056578
51
185.3295769
0
ARC
8
DEFAULT_255_2_778
10
13.5401649
20
130.9034014
40
0.4245532
50
131.162185
51
182.5346654
0
ARC
8
DEFAULT_255_2_778
10
13.5985397
20
130.8170639
40
0.5281312
50
97.3355503
51
129.7648036
0
ARC
8
DEFAULT_255_2_778
10
13.6622341
20
130.4833468
40
0.8674932
50
90.3240998
51
98.693886
0
ARC
8
DEFAULT_255_2_778
10
13.5087643
20
131.5116151
40
0.3167936
50
357.8130147
51
22.5085408
0
ARC
8
DEFAULT_255_2_778
10
13.6668665
20
131.5718477
40
0.1477574
50
24.4014538
51
45.8274682
0
ARC
8
DEFAULT_255_2_778
10
13.6292054
20
131.5131231
40
0.2165676
50
49.5096355
51
89.4309473
0
ARC
8
DEFAULT_255_2_778
10
13.6010705
20
131.2919804
40
0.438746
50
86.041833
51
90.070958
0
ARC
8
DEFAULT_255_2_778
10
13.5906481
20
131.4969619
40
0.2339728
50
87.5800793
51
132.55025
0
ARC
8
DEFAULT_255_2_778
10
13.573325
20
131.5197558
40
0.2054834
50
133.2898669
51
181.6536658
0
ARC
8
DEFAULT_255_2_778
10
13.5102067
20
131.5114253
40
0.3708874
50
146.0553023
51
179.6291274
0
ARC
8
DEFAULT_255_2_778
10
13.5714429
20
131.4791685
40
0.4397623
50
116.7907864
51
147.0239577
0
ARC
8
DEFAULT_255_2_778
10
13.6050428
20
131.4167172
40
0.510658
50
89.2051189
51
116.9977152
0
ARC
8
DEFAULT_255_2_778
10
13.6249277
20
131.3429455
40
0.5845207
50
70.46827
51
91.2548426
0
ARC
8
DEFAULT_255_2_778
10
13.6999303
20
131.5677479
40
0.3476076
50
46.6997301
51
69.7312571
0
ARC
8
DEFAULT_255_2_778
10
13.6700507
20
131.5534616
40
0.3786852
50
5.3773432
51
44.89173
0
ARC
8
DEFAULT_255_2_778
10
13.398244
20
131.5035957
40
0.6544156
50
0.5717567
51
7.4943374
0
ARC
8
DEFAULT_255_2_778
10
14.9571197
20
130.7995117
40
0.9045077
50
179.6696986
51
195.1922605
0
ARC
8
DEFAULT_255_2_778
10
14.6923567
20
130.7369882
40
0.6326775
50
196.0114164
51
199.6509142
0
ARC
8
DEFAULT_255_2_778
10
13.5528124
20
130.988627
40
0.302703
50
270.2109924
51
302.180196
0
ARC
8
DEFAULT_255_2_778
10
13.5698081
20
130.9815272
40
0.2878377
50
300.0690219
51
332.5016729
0
ARC
8
DEFAULT_255_2_778
10
13.6917726
20
130.6741331
40
0.5079108
50
89.5200555
51
111.8545521
0
ARC
8
DEFAULT_255_2_778
10
13.6267304
20
130.8551521
40
0.3157671
50
113.1278728
51
126.5175713
0
ARC
8
DEFAULT_255_2_778
10
13.5761514
20
130.9222341
40
0.2317581
50
126.3369547
51
182.5739772
0
ARC
8
DEFAULT_255_2_778
10
13.673662
20
130.8997909
40
0.329255
50
177.9052239
51
201.4761781
0
ARC
8
DEFAULT_255_2_778
10
13.5072461
20
130.8398674
40
0.1525419
50
203.416261
51
221.2317666
0
ARC
8
DEFAULT_255_2_778
10
13.5193407
20
130.8679147
40
0.180601
50
225.3982073
51
268.7040513
0
ARC
8
DEFAULT_255_2_778
10
13.552935
20
131.0956269
40
0.410002
50
264.7271241
51
270.1386464
0
LINE
8
DEFAULT_255_2_778
10
14.0965271
20
130.503626
11
13.8589271
21
130.503626
0
LINE
8
DEFAULT_255_2_778
10
13.6573271
20
131.350826
11
13.8253271
21
131.350826
0
LINE
8
DEFAULT_255_2_778
10
13.8253271
20
131.350826
11
13.8253271
21
131.499526
0
LINE
8
DEFAULT_255_2_778
10
13.3679271
20
131.513826
11
13.1393271
21
131.513826
0
LINE
8
DEFAULT_255_2_778
10
14.0526271
20
131.510126
11
14.0526271
21
130.804726
0
LINE
8
DEFAULT_255_2_778
10
14.0965271
20
130.524226
11
14.0965271
21
130.503626
0
LINE
8
DEFAULT_255_2_778
10
14.0965271
20
130.503626
11
14.0965271
21
130.503626
0
LINE
8
DEFAULT_255_2_778
10
13.8251271
20
130.848626
11
13.8251271
21
131.182026
0
LINE
8
DEFAULT_255_2_778
10
13.8251271
20
131.182026
11
13.6960271
21
131.182026
0
LINE
8
DEFAULT_255_2_778
10
13.5539271
20
130.685626
11
13.5539271
21
130.685926
0
ENDSEC
0
EOF