0
SECTION
2
HEADER
9
$MEASUREMENT
70
1
0
ENDSEC
0
SECTION
2
TABLES
0
TABLE
2
LTYPE
0
LTYPE
72
65
70
64
2
CONTINUOUS
3
______
73
0
40
0
0
ENDTAB
0
TABLE
2
LAYER
0
LAYER
2
DEFAULT_255_2_778
70
0
62
255
6
CONTINUOUS
0
LAYER
2
DEFAULT_255_1_234
70
0
62
255
6
CONTINUOUS
0
ENDTAB
0
ENDSEC
0
SECTION
2
ENTITIES
0
ARC
8
DEFAULT_255_2_778
10
3.5695693
20
28.1802037
40
0.7914215
50
129.1312896
51
180.1450914
0
ARC
8
DEFAULT_255_2_778
10
3.5698345
20
28.1806908
40
0.7912112
50
89.854026
51
129.1684493
0
ARC
8
DEFAULT_255_2_778
10
25.7988937
20
28.1803773
40
0.7915249
50
39.4792447
51
90.147911
0
ARC
8
DEFAULT_255_2_778
10
25.7994935
20
28.180224
40
0.7911595
50
359.8533901
51
39.5154338
0
ARC
8
DEFAULT_255_2_778
10
25.7991693
20
-1.9863486
40
0.7914836
50
309.4761667
51
0.1482649
0
ARC
8
DEFAULT_255_2_778
10
25.798898
20
-1.9867797
40
0.7913235
50
269.8517415
51
309.511178
0
ARC
8
DEFAULT_255_2_778
10
3.569842
20
-1.9867215
40
0.7913815
50
219.1282118
51
270.1454017
0
ARC
8
DEFAULT_255_2_778
10
3.5695247
20
-1.986339
40
0.7913769
50
179.8524075
51
219.1641908
0
LINE
8
DEFAULT_255_2_778
10
3.5718503
20
28.9718996
11
25.7968503
21
28.9718996
0
LINE
8
DEFAULT_255_2_778
10
26.5906503
20
28.1781996
11
26.5906503
21
-1.9843004
0
LINE
8
DEFAULT_255_2_778
10
25.7968503
20
-2.7781004
11
3.5718503
21
-2.7781004
0
LINE
8
DEFAULT_255_2_778
10
2.7781503
20
-1.9843004
11
2.7781503
21
28.1781996
0
LINE
8
DEFAULT_255_1_234
10
6.6912835
20
0.5189243
11
6.7177882
21
0.5189243
0
LINE
8
DEFAULT_255_1_234
10
6.7177882
20
0.5189243
11
6.7177882
21
0.392826
0
LINE
8
DEFAULT_255_1_234
10
6.7177882
20
0.392826
11
6.6904803
21
0.392826
0
LINE
8
DEFAULT_255_1_234
10
6.1435189
20
-0.2063417
11
6.1435189
21
-0.1493164
0
LINE
8
DEFAULT_255_1_234
10
6.2929093
20
-0.1685925
11
6.2929093
21
-0.2232083
0
ARC
8
DEFAULT_255_1_234
10
6.6957151
20
-0.1069545
40
0.4998079
50
90.6001036
51
104.514704
0
ARC
8
DEFAULT_255_1_234
10
6.6568667
20
0.0375131
40
0.3502176
50
104.2855254
51
133.862935
0
ARC
8
DEFAULT_255_1_234
10
6.6732424
20
0.026683
40
0.3693984
50
134.5302688
51
161.6210873
0
ARC
8
DEFAULT_255_1_234
10
6.8385613
20
-0.0316105
40
0.5446739
50
161.2849839
51
174.2076652
0
ARC
8
DEFAULT_255_1_234
10
6.979255
20
-0.0510213
40
0.6866274
50
173.7810589
51
174.9254635
0
ARC
8
DEFAULT_255_1_234
10
6.5242382
20
-0.1893161
40
0.3033419
50
95.8330959
51
138.9954921
0
ARC
8
DEFAULT_255_1_234
10
6.5465738
20
-0.3171625
40
0.4328947
50
89.8753725
51
97.0544009
0
ARC
8
DEFAULT_255_1_234
10
6.5513204
20
-0.2336252
40
0.3493769
50
71.6407809
51
90.6240094
0
ARC
8
DEFAULT_255_1_234
10
6.5663777
20
-0.1781918
40
0.2920396
50
39.6367836
51
71.019018
0
ARC
8
DEFAULT_255_1_234
10
6.502725
20
-0.2332002
40
0.3761538
50
10.658731
51
39.9043955
0
ARC
8
DEFAULT_255_1_234
10
6.3479333
20
-0.2668314
40
0.5345136
50
359.682601
51
11.132623
0
ARC
8
DEFAULT_255_1_234
10
6.3439464
20
-0.273899
40
0.5385081
50
347.2486944
51
0.4369317
0
ARC
8
DEFAULT_255_1_234
10
6.5106941
20
-0.3140193
40
0.3670249
50
318.1409698
51
347.6118597
0
ARC
8
DEFAULT_255_1_234
10
6.5431934
20
-0.3407298
40
0.3250007
50
275.6342139
51
317.8248465
0
ARC
8
DEFAULT_255_1_234
10
6.5211045
20
-0.2107781
40
0.4565864
50
269.8874292
51
276.7917694
0
ARC
8
DEFAULT_255_1_234
10
6.5156116
20
-0.3133257
40
0.3540676
50
246.9140195
51
270.7437342
0
ARC
8
DEFAULT_255_1_234
10
6.5162506
20
-0.3275616
40
0.3412781
50
218.1665114
51
245.878116
0
ARC
8
DEFAULT_255_1_234
10
6.6041967
20
-0.2539721
40
0.455911
50
191.4115814
51
218.6077802
0
ARC
8
DEFAULT_255_1_234
10
6.7980056
20
-0.2105167
40
0.6545001
50
179.6345085
51
191.7836486
0
ARC
8
DEFAULT_255_1_234
10
7.3562393
20
-0.1426303
40
1.2127388
50
171.4525249
51
180.3158839
0
ARC
8
DEFAULT_255_1_234
10
6.9167269
20
-0.0742392
40
0.7679464
50
157.9802646
51
171.6246686
0
ARC
8
DEFAULT_255_1_234
10
6.695329
20
0.0140421
40
0.5296008
50
141.4298019
51
157.854097
0
ARC
8
DEFAULT_255_1_234
10
6.631161
20
0.0594381
40
0.4511509
50
102.8715806
51
140.8564722
0
ARC
8
DEFAULT_255_1_234
10
6.6959226
20
-0.1845448
40
0.7034845
50
90.3778349
51
103.5869322
0
ARC
8
DEFAULT_255_1_234
10
6.5221002
20
-0.245027
40
0.2370698
50
89.8751008
51
126.2071704
0
ARC
8
DEFAULT_255_1_234
10
6.5266792
20
-0.2604697
40
0.2522934
50
124.9745049
51
144.895901
0
ARC
8
DEFAULT_255_1_234
10
6.5090982
20
-0.246144
40
0.2296779
50
145.2974905
51
160.2660252
0
ARC
8
DEFAULT_255_1_234
10
6.8163521
20
-0.2263929
40
0.5234525
50
179.6514266
51
190.2855912
0
ARC
8
DEFAULT_255_1_234
10
6.6469658
20
-0.2583214
40
0.3510893
50
190.0945431
51
207.5098196
0
ARC
8
DEFAULT_255_1_234
10
6.5903928
20
-0.2852377
40
0.288489
50
207.9583163
51
216.3251085
0
ARC
8
DEFAULT_255_1_234
10
6.5564036
20
-0.3131895
40
0.2445587
50
215.7661442
51
232.5456785
0
ARC
8
DEFAULT_255_1_234
10
6.5181019
20
-0.3618518
40
0.1826382
50
232.8005391
51
270.6605633
0
ARC
8
DEFAULT_255_1_234
10
6.522672
20
-0.3254388
40
0.2190529
50
269.35537
51
288.4744281
0
ARC
8
DEFAULT_255_1_234
10
6.5319617
20
-0.3603882
40
0.1829749
50
289.1833337
51
322.9683818
0
ARC
8
DEFAULT_255_1_234
10
6.4708139
20
-0.3121609
40
0.2608399
50
322.6007884
51
346.5182367
0
ARC
8
DEFAULT_255_1_234
10
6.3550735
20
-0.2826384
40
0.3802777
50
346.2582162
51
358.7741648
0
ARC
8
DEFAULT_255_1_234
10
6.2532404
20
-0.2771035
40
0.4822176
50
358.3755224
51
0.0098023
0
ARC
8
DEFAULT_255_1_234
10
6.3288591
20
-0.2743343
40
0.4066078
50
359.6214041
51
11.2839074
0
ARC
8
DEFAULT_255_1_234
10
6.4565738
20
-0.2476934
40
0.2761514
50
11.0482309
51
31.8146458
0
ARC
8
DEFAULT_255_1_234
10
6.4874781
20
-0.2309416
40
0.2410679
50
32.3035391
51
38.082671
0
ARC
8
DEFAULT_255_1_234
10
6.5295441
20
-0.1928338
40
0.1844966
50
36.825067
51
85.7415724
0
ARC
8
DEFAULT_255_1_234
10
6.5228274
20
-0.2428699
40
0.2349122
50
85.0140713
51
90.0513278
0
LINE
8
DEFAULT_255_1_234
10
7.7578983
20
0.0153343
11
7.7578983
21
-0.110764
0
LINE
8
DEFAULT_255_1_234
10
7.7578983
20
-0.110764
11
7.2510957
21
-0.110764
0
LINE
8
DEFAULT_255_1_234
10
7.2510957
20
-0.110764
11
7.2510957
21
-0.5252017
0
LINE
8
DEFAULT_255_1_234
10
7.2510957
20
-0.5252017
11
7.8398221
21
-0.5252017
0
LINE
8
DEFAULT_255_1_234
10
7.8398221
20
-0.5252017
11
7.8398221
21
-0.6513
0
LINE
8
DEFAULT_255_1_234
10
7.8398221
20
-0.6513
11
7.0968863
21
-0.6513
0
LINE
8
DEFAULT_255_1_234
10
7.0968863
20
-0.6513
11
7.0968863
21
0.5181211
0
LINE
8
DEFAULT_255_1_234
10
7.0968863
20
0.5181211
11
7.8317903
21
0.5181211
0
LINE
8
DEFAULT_255_1_234
10
7.8317903
20
0.5181211
11
7.8317903
21
0.3912196
0
LINE
8
DEFAULT_255_1_234
10
7.8317903
20
0.3912196
11
7.2510957
21
0.3912196
0
LINE
8
DEFAULT_255_1_234
10
7.2510957
20
0.3912196
11
7.2510957
21
0.0153343
0
LINE
8
DEFAULT_255_1_234
10
7.2510957
20
0.0153343
11
7.7578983
21
0.0153343
0
LINE
8
DEFAULT_255_1_234
10
8.8076465
20
0.1799849
11
8.652634
21
0.1799849
0
LINE
8
DEFAULT_255_1_234
10
7.9602981
20
-0.3123606
11
8.1153107
21
-0.3123606
0
ARC
8
DEFAULT_255_1_234
10
8.7185153
20
1.0746768
40
1.252368
50
248.9199003
51
254.1439814
0
ARC
8
DEFAULT_255_1_234
10
8.5504648
20
0.6420234
40
0.788226
50
241.633709
51
249.0064503
0
ARC
8
DEFAULT_255_1_234
10
8.3976042
20
0.3619317
40
0.4691427
50
230.498225
51
241.8087113
0
ARC
8
DEFAULT_255_1_234
10
8.3191616
20
0.2619906
40
0.3421437
50
227.4064532
51
229.9881192
0
ARC
8
DEFAULT_255_1_234
10
8.2704137
20
0.2144088
40
0.2741476
50
200.6781896
51
228.1763934
0
ARC
8
DEFAULT_255_1_234
10
8.2776447
20
0.2129077
40
0.2804109
50
179.5061581
51
199.8694617
0
ARC
8
DEFAULT_255_1_234
10
8.2767199
20
0.220321
40
0.2795204
50
132.4834203
51
181.0242172
0
ARC
8
DEFAULT_255_1_234
10
8.3362782
20
0.1640704
40
0.3612768
50
129.2532479
51
133.4242687
0
ARC
8
DEFAULT_255_1_234
10
8.3509231
20
0.1420965
40
0.3875675
50
101.98776
51
128.8742646
0
ARC
8
DEFAULT_255_1_234
10
8.3907842
20
-0.0300259
40
0.5642249
50
89.5906553
51
102.3169264
0
ARC
8
DEFAULT_255_1_234
10
8.3978334
20
0.0018148
40
0.5323783
50
77.2360837
51
90.3248275
0
ARC
8
DEFAULT_255_1_234
10
8.4185413
20
0.09854
40
0.4334697
50
63.837784
51
77.0809408
0
ARC
8
DEFAULT_255_1_234
10
8.4463175
20
0.1502911
40
0.3747796
50
45.9864267
51
64.1607727
0
ARC
8
DEFAULT_255_1_234
10
8.4724056
20
0.1800866
40
0.3352302
50
32.2747395
51
45.6547121
0
ARC
8
DEFAULT_255_1_234
10
8.4790497
20
0.181988
40
0.328603
50
359.6507365
51
32.6130309
0
ARC
8
DEFAULT_255_1_234
10
8.3847592
20
0.182466
40
0.2678863
50
359.469343
51
14.9832209
0
ARC
8
DEFAULT_255_1_234
10
8.4552654
20
0.2013539
40
0.1948938
50
14.9781179
51
48.2004265
0
ARC
8
DEFAULT_255_1_234
10
8.4388299
20
0.1806983
40
0.2212521
50
48.5927837
51
74.1241538
0
ARC
8
DEFAULT_255_1_234
10
8.4054788
20
0.0706248
40
0.3362561
50
73.7888341
51
86.6652678
0
ARC
8
DEFAULT_255_1_234
10
8.3952354
20
-0.0501119
40
0.4573953
50
86.2640471
51
90.0526343
0
ARC
8
DEFAULT_255_1_234
10
8.3924066
20
-0.0105808
40
0.4178709
50
89.6697524
51
99.2309573
0
ARC
8
DEFAULT_255_1_234
10
8.3681517
20
0.1338964
40
0.2713749
50
99.069534
51
113.7658566
0
ARC
8
DEFAULT_255_1_234
10
8.3407708
20
0.1984677
40
0.2012469
50
114.0401004
51
127.9850673
0
ARC
8
DEFAULT_255_1_234
10
8.3167272
20
0.228073
40
0.1631167
50
127.7287463
51
176.7105154
0
ARC
8
DEFAULT_255_1_234
10
8.384599
20
0.2179693
40
0.2315392
50
175.1779447
51
180.0581938
0
ARC
8
DEFAULT_255_1_234
10
8.3002836
20
0.2167428
40
0.1472271
50
179.6142195
51
228.1246017
0
ARC
8
DEFAULT_255_1_234
10
8.3444505
20
0.2576308
40
0.2072299
50
226.5779593
51
230.8800004
0
ARC
8
DEFAULT_255_1_234
10
8.3915584
20
0.3201636
40
0.2854818
50
231.4635071
51
241.9260842
0
ARC
8
DEFAULT_255_1_234
10
8.5112762
20
0.54048
40
0.53622
50
241.7178533
51
248.3259551
0
ARC
8
DEFAULT_255_1_234
10
8.6498134
20
0.8837064
40
0.9063478
50
248.2007737
51
252.4528373
0
ARC
8
DEFAULT_255_1_234
10
8.7701858
20
1.2558441
40
1.2974635
50
252.3391078
51
254.3469452
0
ARC
8
DEFAULT_255_1_234
10
8.0159561
20
-1.4418852
40
1.5037162
50
71.0197183
51
74.4087047
0
ARC
8
DEFAULT_255_1_234
10
8.1854246
20
-0.9526889
40
0.9859993
50
66.1847285
51
71.086374
0
ARC
8
DEFAULT_255_1_234
10
8.3410559
20
-0.60228
40
0.6025855
50
59.3536294
51
66.2691831
0
ARC
8
DEFAULT_255_1_234
10
8.4299211
20
-0.4519391
40
0.4279449
50
49.1020879
51
59.3293958
0
ARC
8
DEFAULT_255_1_234
10
8.5117951
20
-0.3586166
40
0.3038015
50
32.7919921
51
49.2505539
0
ARC
8
DEFAULT_255_1_234
10
8.5439041
20
-0.3357809
40
0.264448
50
31.1181161
51
32.4005348
0
ARC
8
DEFAULT_255_1_234
10
8.5350579
20
-0.3393221
40
0.2738556
50
8.1116974
51
30.7958831
0
ARC
8
DEFAULT_255_1_234
10
8.4540247
20
-0.3531247
40
0.3560327
50
359.8389159
51
8.4706516
0
ARC
8
DEFAULT_255_1_234
10
8.5166038
20
-0.3579863
40
0.2934776
50
337.4731098
51
0.7537279
0
ARC
8
DEFAULT_255_1_234
10
8.5344733
20
-0.3599613
40
0.2762607
50
307.5917067
51
336.4315538
0
ARC
8
DEFAULT_255_1_234
10
8.4884561
20
-0.3086898
40
0.3449979
50
307.6551545
51
308.4529766
0
ARC
8
DEFAULT_255_1_234
10
8.465428
20
-0.273175
40
0.3871988
50
284.3734338
51
307.1424381
0
ARC
8
DEFAULT_255_1_234
10
8.415911
20
-0.0910068
40
0.5759636
50
272.4382747
51
284.646547
0
ARC
8
DEFAULT_255_1_234
10
8.4032319
20
0.0889893
40
0.7563528
50
269.9708387
51
272.8178037
0
ARC
8
DEFAULT_255_1_234
10
8.3989358
20
-0.1148284
40
0.5525489
50
248.2707594
51
270.4055579
0
ARC
8
DEFAULT_255_1_234
10
8.39351
20
-0.1338808
40
0.5328452
50
246.1383403
51
248.0542782
0
ARC
8
DEFAULT_255_1_234
10
8.3516478
20
-0.2218157
40
0.4355005
50
233.1670131
51
246.4950969
0
ARC
8
DEFAULT_255_1_234
10
8.2962383
20
-0.2966188
40
0.3424126
50
215.3403242
51
233.0843104
0
ARC
8
DEFAULT_255_1_234
10
8.2689815
20
-0.3164451
40
0.3087104
50
179.2419209
51
215.2648451
0
ARC
8
DEFAULT_255_1_234
10
8.3457409
20
-0.3150334
40
0.2304457
50
179.335461
51
199.1045811
0
ARC
8
DEFAULT_255_1_234
10
8.3125085
20
-0.3237234
40
0.1962176
50
199.8828939
51
232.7063202
0
ARC
8
DEFAULT_255_1_234
10
8.3597353
20
-0.2643212
40
0.2720938
50
232.3738199
51
255.5136649
0
ARC
8
DEFAULT_255_1_234
10
8.393822
20
-0.1399165
40
0.4010747
50
255.2446292
51
267.5320849
0
ARC
8
DEFAULT_255_1_234
10
8.4025843
20
-0.0166298
40
0.5246356
50
267.1557994
51
270.0286766
0
ARC
8
DEFAULT_255_1_234
10
8.4053616
20
-0.061005
40
0.4802668
50
269.7000017
51
278.1660162
0
ARC
8
DEFAULT_255_1_234
10
8.430962
20
-0.2340485
40
0.3053425
50
278.0231263
51
290.625471
0
ARC
8
DEFAULT_255_1_234
10
8.4657308
20
-0.3267975
40
0.206291
50
290.6619762
51
307.0370976
0
ARC
8
DEFAULT_255_1_234
10
8.4957697
20
-0.3636496
40
0.1587906
50
306.3943566
51
355.3030547
0
ARC
8
DEFAULT_255_1_234
10
8.4445628
20
-0.3559887
40
0.2104809
50
354.3660432
51
0.0698737
0
ARC
8
DEFAULT_255_1_234
10
8.4587973
20
-0.3537383
40
0.1962563
50
359.417946
51
16.1971788
0
ARC
8
DEFAULT_255_1_234
10
8.5043284
20
-0.3412582
40
0.149053
50
16.4723299
51
52.6262157
0
ARC
8
DEFAULT_255_1_234
10
8.4222338
20
-0.4496567
40
0.2850296
50
52.7386432
51
62.4979148
0
ARC
8
DEFAULT_255_1_234
10
8.2837415
20
-0.7102717
40
0.5801521
50
62.2515216
51
68.1220564
0
ARC
8
DEFAULT_255_1_234
10
8.1117325
20
-1.1330128
40
1.0365451
50
68.0062803
51
71.8053402
0
ARC
8
DEFAULT_255_1_234
10
7.9321697
20
-1.6715242
40
1.6042013
50
71.7183119
51
73.9258742
0
LINE
8
DEFAULT_255_1_234
10
9.7240679
20
0.5181211
11
9.7240679
21
0.434591
0
LINE
8
DEFAULT_255_1_234
10
9.7240679
20
0.434591
11
9.2397541
21
-0.6513
0
LINE
8
DEFAULT_255_1_234
10
9.2397541
20
-0.6513
11
9.0839383
21
-0.6513
0
LINE
8
DEFAULT_255_1_234
10
9.0839383
20
-0.6513
11
9.5666458
21
0.3960387
0
LINE
8
DEFAULT_255_1_234
10
9.5666458
20
0.3960387
11
8.9337448
21
0.3960387
0
LINE
8
DEFAULT_255_1_234
10
8.9337448
20
0.3960387
11
8.9337448
21
0.5181211
0
LINE
8
DEFAULT_255_1_234
10
8.9337448
20
0.5181211
11
9.7240679
21
0.5181211
0
LINE
8
DEFAULT_255_1_234
10
10.0798739
20
-0.0955037
11
9.9610042
21
-0.0649831
0
LINE
8
DEFAULT_255_1_234
10
9.9610042
20
-0.0649831
11
10.020439
21
0.5181211
0
LINE
8
DEFAULT_255_1_234
10
10.020439
20
0.5181211
11
10.6196067
21
0.5181211
0
LINE
8
DEFAULT_255_1_234
10
10.6196067
20
0.5181211
11
10.6196067
21
0.3807784
0
LINE
8
DEFAULT_255_1_234
10
10.6196067
20
0.3807784
11
10.1465373
21
0.3807784
0
LINE
8
DEFAULT_255_1_234
10
10.1465373
20
0.3807784
11
10.1111977
21
0.0619184
0
LINE
8
DEFAULT_255_1_234
10
9.9192391
20
-0.3436844
11
10.0597945
21
-0.3436844
0
LINE
8
DEFAULT_255_1_234
10
10.1192294
20
-0.0633768
11
10.0798739
21
-0.0955037
0
ARC
8
DEFAULT_255_1_234
10
10.2966761
20
-0.256077
40
0.3681349
50
93.7182161
51
120.2538958
0
ARC
8
DEFAULT_255_1_234
10
10.3061023
20
-0.3368606
40
0.449379
50
89.9660152
51
94.2496022
0
ARC
8
DEFAULT_255_1_234
10
10.3101757
20
-0.2779451
40
0.390482
50
73.8043271
51
90.5585896
0
ARC
8
DEFAULT_255_1_234
10
10.3336654
20
-0.1921398
40
0.3015334
50
41.3071453
51
73.5430202
0
ARC
8
DEFAULT_255_1_234
10
10.2920482
20
-0.2279676
40
0.3564457
50
13.5075983
51
41.2174222
0
ARC
8
DEFAULT_255_1_234
10
10.1278685
20
-0.2709514
40
0.5261351
50
1.1331335
51
13.8829381
0
ARC
8
DEFAULT_255_1_234
10
9.9867054
20
-0.2785335
40
0.6674378
50
359.9919444
51
1.544251
0
ARC
8
DEFAULT_255_1_234
10
10.1143881
20
-0.282672
40
0.5397702
50
347.8572367
51
0.4293338
0
ARC
8
DEFAULT_255_1_234
10
10.2894198
20
-0.3223264
40
0.3603188
50
323.673004
51
348.1672506
0
ARC
8
DEFAULT_255_1_234
10
10.3188707
20
-0.3402832
40
0.3259678
50
316.8171152
51
323.1492751
0
ARC
8
DEFAULT_255_1_234
10
10.3249895
20
-0.343954
40
0.3189975
50
281.8396411
51
316.5457803
0
ARC
8
DEFAULT_255_1_234
10
10.2874159
20
-0.1884238
40
0.4789527
50
269.5770101
51
282.4214771
0
ARC
8
DEFAULT_255_1_234
10
10.2802971
20
-0.2097875
40
0.45759
50
256.2427136
51
270.4486331
0
ARC
8
DEFAULT_255_1_234
10
10.2503873
20
-0.3297771
40
0.3339303
50
228.9023911
51
256.3314342
0
ARC
8
DEFAULT_255_1_234
10
10.2430106
20
-0.3414254
40
0.32031
50
193.753695
51
228.5271154
0
ARC
8
DEFAULT_255_1_234
10
10.366806
20
-0.30512
40
0.4492253
50
184.924711
51
194.497588
0
ARC
8
DEFAULT_255_1_234
10
10.3860626
20
-0.3015409
40
0.3289787
50
187.3600538
51
198.6732863
0
ARC
8
DEFAULT_255_1_234
10
10.281092
20
-0.3379326
40
0.217884
50
198.4451669
51
217.794479
0
ARC
8
DEFAULT_255_1_234
10
10.2515096
20
-0.3588915
40
0.1816698
50
218.2887171
51
228.5612368
0
ARC
8
DEFAULT_255_1_234
10
10.2612883
20
-0.3457037
40
0.1980329
50
228.9654866
51
258.1234728
0
ARC
8
DEFAULT_255_1_234
10
10.2818593
20
-0.2576167
40
0.2884748
50
257.7258293
51
270.401361
0
ARC
8
DEFAULT_255_1_234
10
10.2863479
20
-0.3021179
40
0.2439788
50
269.4204404
51
286.4209037
0
ARC
8
DEFAULT_255_1_234
10
10.3011966
20
-0.3560343
40
0.1880666
50
286.7251356
51
320.600362
0
ARC
8
DEFAULT_255_1_234
10
10.2628791
20
-0.3249405
40
0.2374121
50
320.6712579
51
344.5441685
0
ARC
8
DEFAULT_255_1_234
10
10.1472118
20
-0.2909955
40
0.3579479
50
344.2412205
51
356.7357071
0
ARC
8
DEFAULT_255_1_234
10
10.0223266
20
-0.2806556
40
0.4832297
50
356.3548756
51
0.0500261
0
ARC
8
DEFAULT_255_1_234
10
10.1559775
20
-0.277535
40
0.3495889
50
359.5576869
51
12.953486
0
ARC
8
DEFAULT_255_1_234
10
10.2614673
20
-0.2519566
40
0.2410532
50
12.6490276
51
41.6081334
0
ARC
8
DEFAULT_255_1_234
10
10.2845044
20
-0.2323679
40
0.2108218
50
41.7850273
51
85.9892764
0
ARC
8
DEFAULT_255_1_234
10
10.272178
20
-0.3136538
40
0.2928454
50
84.6957577
51
90.0676183
0
ARC
8
DEFAULT_255_1_234
10
10.2698264
20
-0.3805284
40
0.3597255
50
89.6804936
51
99.1614436
0
ARC
8
DEFAULT_255_1_234
10
10.2492896
20
-0.2577869
40
0.235281
50
98.9830931
51
113.8908934
0
ARC
8
DEFAULT_255_1_234
10
10.2263306
20
-0.2036413
40
0.176479
50
114.1950727
51
127.3641004
0
LINE
8
DEFAULT_255_1_234
10
11.549682
20
0.0402327
11
11.549682
21
-0.1525291
0
LINE
8
DEFAULT_255_1_234
10
10.8115652
20
-0.1726084
11
10.8115652
21
0.0257755
0
LINE
8
DEFAULT_255_1_234
10
11.4010948
20
-0.1926877
11
11.4010948
21
0.0506739
0
LINE
8
DEFAULT_255_1_234
10
10.9601524
20
0.0619184
11
10.9601524
21
-0.1758211
0
ARC
8
DEFAULT_255_1_234
10
10.3249709
20
-0.1574195
40
1.2247208
50
353.8441951
51
0.2287902
0
ARC
8
DEFAULT_255_1_234
10
10.7889213
20
-0.2092194
40
0.7578929
50
344.4934747
51
353.9765454
0
ARC
8
DEFAULT_255_1_234
10
11.0881803
20
-0.2943019
40
0.4467846
50
329.2803592
51
344.7472793
0
ARC
8
DEFAULT_255_1_234
10
11.1874628
20
-0.3487982
40
0.3336173
50
324.9352394
51
328.6160465
0
ARC
8
DEFAULT_255_1_234
10
11.2251737
20
-0.3751573
40
0.2876076
50
280.580143
51
324.9173126
0
ARC
8
DEFAULT_255_1_234
10
11.1850529
20
-0.2080901
40
0.4592847
50
269.5977311
51
281.6734359
0
ARC
8
DEFAULT_255_1_234
10
11.1778435
20
-0.2200827
40
0.4472986
50
256.6228859
51
270.51044
0
ARC
8
DEFAULT_255_1_234
10
11.1376413
20
-0.3749123
40
0.2873874
50
215.8618325
51
257.2788573
0
ARC
8
DEFAULT_255_1_234
10
11.2397444
20
-0.3064023
40
0.4102928
50
197.9693508
51
215.2623606
0
ARC
8
DEFAULT_255_1_234
10
11.488256
20
-0.2225291
40
0.6725652
50
187.8816417
51
198.2346507
0
ARC
8
DEFAULT_255_1_234
10
11.8840768
20
-0.1653921
40
1.0724845
50
180.8976217
51
188.0055519
0
ARC
8
DEFAULT_255_1_234
10
12.1640957
20
-0.1550223
40
1.3526448
50
180.7449369
51
181.1510016
0
ARC
8
DEFAULT_255_1_234
10
12.0063686
20
0.0306042
40
1.1948131
50
173.7675579
51
180.231553
0
ARC
8
DEFAULT_255_1_234
10
11.5545832
20
0.0816666
40
0.7401564
50
164.3058563
51
173.9002247
0
ARC
8
DEFAULT_255_1_234
10
11.2633901
20
0.1655656
40
0.4371288
50
148.7922025
51
164.568378
0
ARC
8
DEFAULT_255_1_234
10
11.1682353
20
0.2186929
40
0.3282386
50
144.5883898
51
148.1176286
0
ARC
8
DEFAULT_255_1_234
10
11.1339251
20
0.2426315
40
0.2864044
50
101.6440918
51
144.514236
0
ARC
8
DEFAULT_255_1_234
10
11.1764318
20
0.0737069
40
0.4604934
50
89.5284041
51
102.5819763
0
ARC
8
DEFAULT_255_1_234
10
11.1843406
20
0.0698018
40
0.464401
50
77.0437873
51
90.5081339
0
ARC
8
DEFAULT_255_1_234
10
11.2245407
20
0.2340615
40
0.2953195
50
48.2778575
51
77.4994676
0
ARC
8
DEFAULT_255_1_234
10
11.2318039
20
0.2469746
40
0.2808655
50
36.3142134
51
47.6305865
0
ARC
8
DEFAULT_255_1_234
10
11.1449346
20
0.1884515
40
0.3855453
50
18.2931786
51
35.6769206
0
ARC
8
DEFAULT_255_1_234
10
10.8906104
20
0.1011593
40
0.654423
50
8.024666
51
18.5605216
0
ARC
8
DEFAULT_255_1_234
10
10.4743024
20
0.0396792
40
1.0752407
50
1.1274072
51
8.1718305
0
ARC
8
DEFAULT_255_1_234
10
10.1507215
20
0.0269885
40
1.3990231
50
0.5424119
51
1.3863029
0
ARC
8
DEFAULT_255_1_234
10
10.3328593
20
0.0542342
40
1.0682415
50
359.8090433
51
4.9407866
0
ARC
8
DEFAULT_255_1_234
10
10.7538607
20
0.0918113
40
0.6455691
50
4.8362157
51
12.2904523
0
ARC
8
DEFAULT_255_1_234
10
11.0293722
20
0.1531965
40
0.3633074
50
12.0805627
51
23.8173984
0
ARC
8
DEFAULT_255_1_234
10
11.1467427
20
0.2028919
40
0.2358723
50
24.2871213
51
31.3935614
0
ARC
8
DEFAULT_255_1_234
10
11.1992124
20
0.2372233
40
0.1732111
50
30.7407893
51
82.4657128
0
ARC
8
DEFAULT_255_1_234
10
11.1812259
20
0.1488691
40
0.263235
50
81.1060089
51
90.2184952
0
ARC
8
DEFAULT_255_1_234
10
11.1776557
20
0.1746924
40
0.2374236
50
89.3806855
51
105.6762551
0
ARC
8
DEFAULT_255_1_234
10
11.1593188
20
0.2413567
40
0.1682847
50
105.7981136
51
149.7388061
0
ARC
8
DEFAULT_255_1_234
10
11.2657266
20
0.177395
40
0.2924306
50
149.4208916
51
163.6286378
0
ARC
8
DEFAULT_255_1_234
10
11.4748154
20
0.113625
40
0.5110213
50
163.3763315
51
172.1410975
0
ARC
8
DEFAULT_255_1_234
10
11.8048873
20
0.0663518
40
0.8444586
50
172.0259487
51
178.0703232
0
ARC
8
DEFAULT_255_1_234
10
12.1078963
20
0.0519906
40
1.1477868
50
177.8631668
51
179.5044149
0
ARC
8
DEFAULT_255_1_234
10
12.0006367
20
-0.1794611
40
1.0404907
50
179.7995573
51
185.2460446
0
ARC
8
DEFAULT_255_1_234
10
11.5963407
20
-0.2177487
40
0.6343885
50
185.1411642
51
193.0079639
0
ARC
8
DEFAULT_255_1_234
10
11.3319879
20
-0.2802359
40
0.3627568
50
192.7897626
51
205.2507664
0
ARC
8
DEFAULT_255_1_234
10
11.2273426
20
-0.3269585
40
0.2481908
50
205.8005384
51
211.2537509
0
ARC
8
DEFAULT_255_1_234
10
11.1749867
20
-0.362042
40
0.1852521
50
210.3789793
51
238.4008143
0
ARC
8
DEFAULT_255_1_234
10
11.1730389
20
-0.3573624
40
0.1882621
50
239.6520629
51
265.9793761
0
ARC
8
DEFAULT_255_1_234
10
11.1815589
20
-0.2901573
40
0.2559272
50
265.1315437
51
270.060332
0
ARC
8
DEFAULT_255_1_234
10
11.1844367
20
-0.3225466
40
0.2235528
50
269.3314664
51
287.2178029
0
ARC
8
DEFAULT_255_1_234
10
11.1982219
20
-0.3728721
40
0.1714108
50
287.7958004
51
329.080874
0
ARC
8
DEFAULT_255_1_234
10
11.1024676
20
-0.313107
40
0.2842745
50
328.6634704
51
343.3325132
0
ARC
8
DEFAULT_255_1_234
10
10.8851696
20
-0.2454137
40
0.5118644
50
343.0499468
51
351.9393422
0
ARC
8
DEFAULT_255_1_234
10
10.5384996
20
-0.1943051
40
0.8622784
50
351.8069023
51
357.7959224
0
ARC
8
DEFAULT_255_1_234
10
10.2149552
20
-0.1775279
40
1.1862365
50
357.5871873
51
359.2677531
0
LINE
8
DEFAULT_255_1_234
10
11.9271737
20
-0.0955037
11
11.808304
21
-0.0649831
0
LINE
8
DEFAULT_255_1_234
10
11.808304
20
-0.0649831
11
11.8677388
21
0.5181211
0
LINE
8
DEFAULT_255_1_234
10
11.8677388
20
0.5181211
11
12.4669065
21
0.5181211
0
LINE
8
DEFAULT_255_1_234
10
12.4669065
20
0.5181211
11
12.4669065
21
0.3807784
0
LINE
8
DEFAULT_255_1_234
10
12.4669065
20
0.3807784
11
11.9938371
21
0.3807784
0
LINE
8
DEFAULT_255_1_234
10
11.9938371
20
0.3807784
11
11.9584975
21
0.0619184
0
LINE
8
DEFAULT_255_1_234
10
11.7665389
20
-0.3436844
11
11.9070943
21
-0.3436844
0
LINE
8
DEFAULT_255_1_234
10
11.9665292
20
-0.0633768
11
11.9271737
21
-0.0955037
0
ARC
8
DEFAULT_255_1_234
10
12.1439759
20
-0.256077
40
0.3681349
50
93.7182161
51
120.2538958
0
ARC
8
DEFAULT_255_1_234
10
12.1534022
20
-0.3368606
40
0.449379
50
89.9660152
51
94.2496022
0
ARC
8
DEFAULT_255_1_234
10
12.1574755
20
-0.2779451
40
0.390482
50
73.8043271
51
90.5585896
0
ARC
8
DEFAULT_255_1_234
10
12.1809652
20
-0.1921398
40
0.3015334
50
41.3071453
51
73.5430202
0
ARC
8
DEFAULT_255_1_234
10
12.139348
20
-0.2279676
40
0.3564457
50
13.5075983
51
41.2174222
0
ARC
8
DEFAULT_255_1_234
10
11.9751684
20
-0.2709514
40
0.5261351
50
1.1331335
51
13.8829381
0
ARC
8
DEFAULT_255_1_234
10
11.8340052
20
-0.2785335
40
0.6674378
50
359.9919444
51
1.544251
0
ARC
8
DEFAULT_255_1_234
10
11.9616879
20
-0.282672
40
0.5397702
50
347.8572367
51
0.4293338
0
ARC
8
DEFAULT_255_1_234
10
12.1367197
20
-0.3223264
40
0.3603188
50
323.673004
51
348.1672506
0
ARC
8
DEFAULT_255_1_234
10
12.1661705
20
-0.3402832
40
0.3259678
50
316.8171152
51
323.1492751
0
ARC
8
DEFAULT_255_1_234
10
12.1722894
20
-0.343954
40
0.3189975
50
281.8396411
51
316.5457803
0
ARC
8
DEFAULT_255_1_234
10
12.1347157
20
-0.1884238
40
0.4789527
50
269.5770101
51
282.4214771
0
ARC
8
DEFAULT_255_1_234
10
12.1275969
20
-0.2097875
40
0.45759
50
256.2427136
51
270.4486331
0
ARC
8
DEFAULT_255_1_234
10
12.0976871
20
-0.3297771
40
0.3339303
50
228.9023911
51
256.3314342
0
ARC
8
DEFAULT_255_1_234
10
12.0903104
20
-0.3414254
40
0.32031
50
193.753695
51
228.5271154
0
ARC
8
DEFAULT_255_1_234
10
12.2141058
20
-0.30512
40
0.4492253
50
184.924711
51
194.497588
0
ARC
8
DEFAULT_255_1_234
10
12.2333625
20
-0.3015409
40
0.3289787
50
187.3600538
51
198.6732863
0
ARC
8
DEFAULT_255_1_234
10
12.1283919
20
-0.3379326
40
0.217884
50
198.4451669
51
217.794479
0
ARC
8
DEFAULT_255_1_234
10
12.0988094
20
-0.3588915
40
0.1816698
50
218.2887171
51
228.5612368
0
ARC
8
DEFAULT_255_1_234
10
12.1085881
20
-0.3457037
40
0.1980329
50
228.9654866
51
258.1234728
0
ARC
8
DEFAULT_255_1_234
10
12.1291591
20
-0.2576167
40
0.2884748
50
257.7258293
51
270.401361
0
ARC
8
DEFAULT_255_1_234
10
12.1336477
20
-0.3021179
40
0.2439788
50
269.4204404
51
286.4209037
0
ARC
8
DEFAULT_255_1_234
10
12.1484965
20
-0.3560343
40
0.1880666
50
286.7251356
51
320.600362
0
ARC
8
DEFAULT_255_1_234
10
12.110179
20
-0.3249405
40
0.2374121
50
320.6712579
51
344.5441685
0
ARC
8
DEFAULT_255_1_234
10
11.9945116
20
-0.2909955
40
0.3579479
50
344.2412205
51
356.7357071
0
ARC
8
DEFAULT_255_1_234
10
11.8696264
20
-0.2806556
40
0.4832297
50
356.3548756
51
0.0500261
0
ARC
8
DEFAULT_255_1_234
10
12.0032773
20
-0.277535
40
0.3495889
50
359.5576869
51
12.953486
0
ARC
8
DEFAULT_255_1_234
10
12.1087671
20
-0.2519566
40
0.2410532
50
12.6490276
51
41.6081334
0
ARC
8
DEFAULT_255_1_234
10
12.1318042
20
-0.2323679
40
0.2108218
50
41.7850273
51
85.9892764
0
ARC
8
DEFAULT_255_1_234
10
12.1194778
20
-0.3136538
40
0.2928454
50
84.6957577
51
90.0676183
0
ARC
8
DEFAULT_255_1_234
10
12.1171263
20
-0.3805284
40
0.3597255
50
89.6804936
51
99.1614436
0
ARC
8
DEFAULT_255_1_234
10
12.0965894
20
-0.2577869
40
0.235281
50
98.9830931
51
113.8908934
0
ARC
8
DEFAULT_255_1_234
10
12.0736304
20
-0.2036413
40
0.176479
50
114.1950727
51
127.3641004
0
LINE
8
DEFAULT_255_1_234
10
12.9881663
20
-0.0938974
11
12.9881663
21
-0.2151766
0
LINE
8
DEFAULT_255_1_234
10
12.9881663
20
-0.2151766
11
12.5962175
21
-0.2151766
0
LINE
8
DEFAULT_255_1_234
10
12.5962175
20
-0.2151766
11
12.5962175
21
-0.0938974
0
LINE
8
DEFAULT_255_1_234
10
12.5962175
20
-0.0938974
11
12.9881663
21
-0.0938974
0
LINE
8
DEFAULT_255_1_234
10
13.850775
20
0.0402327
11
13.850775
21
-0.1525291
0
LINE
8
DEFAULT_255_1_234
10
13.1126583
20
-0.1726084
11
13.1126583
21
0.0257755
0
LINE
8
DEFAULT_255_1_234
10
13.7021878
20
-0.1926877
11
13.7021878
21
0.0506739
0
LINE
8
DEFAULT_255_1_234
10
13.2612454
20
0.0619184
11
13.2612454
21
-0.1758211
0
ARC
8
DEFAULT_255_1_234
10
12.626064
20
-0.1574195
40
1.2247208
50
353.8441951
51
0.2287902
0
ARC
8
DEFAULT_255_1_234
10
13.0900143
20
-0.2092194
40
0.7578929
50
344.4934747
51
353.9765454
0
ARC
8
DEFAULT_255_1_234
10
13.3892733
20
-0.2943019
40
0.4467846
50
329.2803592
51
344.7472793
0
ARC
8
DEFAULT_255_1_234
10
13.4885558
20
-0.3487982
40
0.3336173
50
324.9352394
51
328.6160465
0
ARC
8
DEFAULT_255_1_234
10
13.5262667
20
-0.3751573
40
0.2876076
50
280.580143
51
324.9173126
0
ARC
8
DEFAULT_255_1_234
10
13.486146
20
-0.2080901
40
0.4592847
50
269.5977311
51
281.6734359
0
ARC
8
DEFAULT_255_1_234
10
13.4789365
20
-0.2200827
40
0.4472986
50
256.6228859
51
270.51044
0
ARC
8
DEFAULT_255_1_234
10
13.4387343
20
-0.3749123
40
0.2873874
50
215.8618325
51
257.2788573
0
ARC
8
DEFAULT_255_1_234
10
13.5408375
20
-0.3064023
40
0.4102928
50
197.9693508
51
215.2623606
0
ARC
8
DEFAULT_255_1_234
10
13.789349
20
-0.2225291
40
0.6725652
50
187.8816417
51
198.2346507
0
ARC
8
DEFAULT_255_1_234
10
14.1851699
20
-0.1653921
40
1.0724845
50
180.8976217
51
188.0055519
0
ARC
8
DEFAULT_255_1_234
10
14.4651887
20
-0.1550223
40
1.3526448
50
180.7449369
51
181.1510016
0
ARC
8
DEFAULT_255_1_234
10
14.3074616
20
0.0306042
40
1.1948131
50
173.7675579
51
180.231553
0
ARC
8
DEFAULT_255_1_234
10
13.8556762
20
0.0816666
40
0.7401564
50
164.3058563
51
173.9002247
0
ARC
8
DEFAULT_255_1_234
10
13.5644831
20
0.1655656
40
0.4371288
50
148.7922025
51
164.568378
0
ARC
8
DEFAULT_255_1_234
10
13.4693283
20
0.2186929
40
0.3282386
50
144.5883898
51
148.1176286
0
ARC
8
DEFAULT_255_1_234
10
13.4350181
20
0.2426315
40
0.2864044
50
101.6440918
51
144.514236
0
ARC
8
DEFAULT_255_1_234
10
13.4775248
20
0.0737069
40
0.4604934
50
89.5284041
51
102.5819763
0
ARC
8
DEFAULT_255_1_234
10
13.4854336
20
0.0698018
40
0.464401
50
77.0437873
51
90.5081339
0
ARC
8
DEFAULT_255_1_234
10
13.5256337
20
0.2340615
40
0.2953195
50
48.2778575
51
77.4994676
0
ARC
8
DEFAULT_255_1_234
10
13.5328969
20
0.2469746
40
0.2808655
50
36.3142134
51
47.6305865
0
ARC
8
DEFAULT_255_1_234
10
13.4460276
20
0.1884515
40
0.3855453
50
18.2931786
51
35.6769206
0
ARC
8
DEFAULT_255_1_234
10
13.1917035
20
0.1011593
40
0.654423
50
8.024666
51
18.5605216
0
ARC
8
DEFAULT_255_1_234
10
12.7753955
20
0.0396792
40
1.0752407
50
1.1274072
51
8.1718305
0
ARC
8
DEFAULT_255_1_234
10
12.4518145
20
0.0269885
40
1.3990231
50
0.5424119
51
1.3863029
0
ARC
8
DEFAULT_255_1_234
10
12.6339523
20
0.0542342
40
1.0682415
50
359.8090433
51
4.9407866
0
ARC
8
DEFAULT_255_1_234
10
13.0549537
20
0.0918113
40
0.6455691
50
4.8362157
51
12.2904523
0
ARC
8
DEFAULT_255_1_234
10
13.3304652
20
0.1531965
40
0.3633074
50
12.0805627
51
23.8173984
0
ARC
8
DEFAULT_255_1_234
10
13.4478357
20
0.2028919
40
0.2358723
50
24.2871213
51
31.3935614
0
ARC
8
DEFAULT_255_1_234
10
13.5003054
20
0.2372233
40
0.1732111
50
30.7407893
51
82.4657128
0
ARC
8
DEFAULT_255_1_234
10
13.4823189
20
0.1488691
40
0.263235
50
81.1060089
51
90.2184952
0
ARC
8
DEFAULT_255_1_234
10
13.4787488
20
0.1746924
40
0.2374236
50
89.3806855
51
105.6762551
0
ARC
8
DEFAULT_255_1_234
10
13.4604118
20
0.2413567
40
0.1682847
50
105.7981136
51
149.7388061
0
ARC
8
DEFAULT_255_1_234
10
13.5668197
20
0.177395
40
0.2924306
50
149.4208916
51
163.6286378
0
ARC
8
DEFAULT_255_1_234
10
13.7759085
20
0.113625
40
0.5110213
50
163.3763315
51
172.1410975
0
ARC
8
DEFAULT_255_1_234
10
14.1059804
20
0.0663518
40
0.8444586
50
172.0259487
51
178.0703232
0
ARC
8
DEFAULT_255_1_234
10
14.4089893
20
0.0519906
40
1.1477868
50
177.8631668
51
179.5044149
0
ARC
8
DEFAULT_255_1_234
10
14.3017297
20
-0.1794611
40
1.0404907
50
179.7995573
51
185.2460446
0
ARC
8
DEFAULT_255_1_234
10
13.8974337
20
-0.2177487
40
0.6343885
50
185.1411642
51
193.0079639
0
ARC
8
DEFAULT_255_1_234
10
13.6330809
20
-0.2802359
40
0.3627568
50
192.7897626
51
205.2507664
0
ARC
8
DEFAULT_255_1_234
10
13.5284356
20
-0.3269585
40
0.2481908
50
205.8005384
51
211.2537509
0
ARC
8
DEFAULT_255_1_234
10
13.4760797
20
-0.362042
40
0.1852521
50
210.3789793
51
238.4008143
0
ARC
8
DEFAULT_255_1_234
10
13.4741319
20
-0.3573624
40
0.1882621
50
239.6520629
51
265.9793761
0
ARC
8
DEFAULT_255_1_234
10
13.4826519
20
-0.2901573
40
0.2559272
50
265.1315437
51
270.060332
0
ARC
8
DEFAULT_255_1_234
10
13.4855298
20
-0.3225466
40
0.2235528
50
269.3314664
51
287.2178029
0
ARC
8
DEFAULT_255_1_234
10
13.499315
20
-0.3728721
40
0.1714108
50
287.7958004
51
329.080874
0
ARC
8
DEFAULT_255_1_234
10
13.4035606
20
-0.313107
40
0.2842745
50
328.6634704
51
343.3325132
0
ARC
8
DEFAULT_255_1_234
10
13.1862626
20
-0.2454137
40
0.5118644
50
343.0499468
51
351.9393422
0
ARC
8
DEFAULT_255_1_234
10
12.8395926
20
-0.1943051
40
0.8622784
50
351.8069023
51
357.7959224
0
ARC
8
DEFAULT_255_1_234
10
12.5160482
20
-0.1775279
40
1.1862365
50
357.5871873
51
359.2677531
0
LINE
8
DEFAULT_255_1_234
10
14.7623773
20
-0.6513
11
14.5085744
21
-0.1782306
0
LINE
8
DEFAULT_255_1_234
10
14.5085744
20
-0.1782306
11
14.2338889
21
-0.1782306
0
LINE
8
DEFAULT_255_1_234
10
14.2338889
20
-0.1782306
11
14.2338889
21
-0.6513
0
LINE
8
DEFAULT_255_1_234
10
14.2338889
20
-0.6513
11
14.0788764
21
-0.6513
0
LINE
8
DEFAULT_255_1_234
10
14.0788764
20
-0.6513
11
14.0788764
21
0.5181211
0
LINE
8
DEFAULT_255_1_234
10
14.0788764
20
0.5181211
11
14.4660062
21
0.5181211
0
LINE
8
DEFAULT_255_1_234
10
14.6531457
20
-0.1453005
11
14.9278311
21
-0.6416619
0
LINE
8
DEFAULT_255_1_234
10
14.9278311
20
-0.6416619
11
14.9278311
21
-0.6513
0
LINE
8
DEFAULT_255_1_234
10
14.9278311
20
-0.6513
11
14.7623773
21
-0.6513
0
LINE
8
DEFAULT_255_1_234
10
14.2338889
20
0.3912196
11
14.2338889
21
-0.0521323
0
LINE
8
DEFAULT_255_1_234
10
14.2338889
20
-0.0521323
11
14.4708252
21
-0.0521323
0
LINE
8
DEFAULT_255_1_234
10
14.470022
20
0.3912196
11
14.2338889
21
0.3912196
0
ARC
8
DEFAULT_255_1_234
10
14.4701701
20
-0.1780239
40
0.6961575
50
80.653586
51
90.3427061
0
ARC
8
DEFAULT_255_1_234
10
14.5121176
20
0.0682348
40
0.4463577
50
65.6987447
51
80.8329603
0
ARC
8
DEFAULT_255_1_234
10
14.5598816
20
0.1777322
40
0.3269094
50
50.0017161
51
65.4305835
0
ARC
8
DEFAULT_255_1_234
10
14.5817281
20
0.2072482
40
0.2902647
50
11.628416
51
49.5603263
0
ARC
8
DEFAULT_255_1_234
10
14.4281617
20
0.1697299
40
0.4482792
50
359.5655735
51
12.3691
0
ARC
8
DEFAULT_255_1_234
10
14.5358476
20
0.1634644
40
0.3405924
50
341.9983148
51
0.4822259
0
ARC
8
DEFAULT_255_1_234
10
14.5753317
20
0.1527471
40
0.2997359
50
323.8609373
51
341.61416
0
ARC
8
DEFAULT_255_1_234
10
14.5451561
20
0.1760484
40
0.3378487
50
296.7018614
51
323.6876402
0
ARC
8
DEFAULT_255_1_234
10
14.5010456
20
0.2549235
40
0.4281516
50
290.8086567
51
297.2323311
0
ARC
8
DEFAULT_255_1_234
10
14.4733985
20
0.3072351
40
0.3593766
50
269.589728
51
281.8058135
0
ARC
8
DEFAULT_255_1_234
10
14.4984885
20
0.1924743
40
0.2419125
50
281.5501019
51
303.9357432
0
ARC
8
DEFAULT_255_1_234
10
14.5122072
20
0.1686936
40
0.2145323
50
304.4415616
51
311.2106213
0
ARC
8
DEFAULT_255_1_234
10
14.5254178
20
0.1547632
40
0.1953505
50
310.9875673
51
356.2715578
0
ARC
8
DEFAULT_255_1_234
10
14.4497826
20
0.1660422
40
0.2716331
50
354.9348262
51
0.0609027
0
ARC
8
DEFAULT_255_1_234
10
14.4310701
20
0.1687435
40
0.2903554
50
359.5239371
51
12.8808918
0
ARC
8
DEFAULT_255_1_234
10
14.5288256
20
0.1926728
40
0.1897315
50
12.4173452
51
43.1022135
0
ARC
8
DEFAULT_255_1_234
10
14.5349861
20
0.1963724
40
0.1827118
50
43.5751728
51
48.203944
0
ARC
8
DEFAULT_255_1_234
10
14.5180353
20
0.1742302
40
0.2105272
50
48.7809703
51
72.6969569
0
ARC
8
DEFAULT_255_1_234
10
14.4825977
20
0.066682
40
0.3237537
50
72.3702241
51
84.8791103
0
ARC
8
DEFAULT_255_1_234
10
14.4678453
20
-0.0675231
40
0.4587478
50
84.5400526
51
89.7281406
0
LINE
8
DEFAULT_255_1_234
10
15.8498747
20
-0.6513
11
15.7382335
21
-0.3460939
0
LINE
8
DEFAULT_255_1_234
10
15.7382335
20
-0.3460939
11
15.2482975
21
-0.3460939
0
LINE
8
DEFAULT_255_1_234
10
15.2482975
20
-0.3460939
11
15.1382626
21
-0.6513
0
LINE
8
DEFAULT_255_1_234
10
15.1382626
20
-0.6513
11
14.9792342
21
-0.6513
0
LINE
8
DEFAULT_255_1_234
10
14.9792342
20
-0.6513
11
15.4257989
21
0.5181211
0
LINE
8
DEFAULT_255_1_234
10
15.4257989
20
0.5181211
11
15.5607321
21
0.5181211
0
LINE
8
DEFAULT_255_1_234
10
15.5607321
20
0.5181211
11
16.0080999
21
-0.6513
0
LINE
8
DEFAULT_255_1_234
10
16.0080999
20
-0.6513
11
15.8498747
21
-0.6513
0
LINE
8
DEFAULT_255_1_234
10
15.4932655
20
0.3277689
11
15.2948815
21
-0.2191925
0
LINE
8
DEFAULT_255_1_234
10
15.2948815
20
-0.2191925
11
15.6924526
21
-0.2191925
0
LINE
8
DEFAULT_255_1_234
10
15.6924526
20
-0.2191925
11
15.4932655
21
0.3277689
0
LINE
8
DEFAULT_255_1_234
10
16.8602673
20
0.0402327
11
16.8602673
21
-0.1525291
0
LINE
8
DEFAULT_255_1_234
10
16.1221506
20
-0.1726084
11
16.1221506
21
0.0257755
0
LINE
8
DEFAULT_255_1_234
10
16.7116802
20
-0.1926877
11
16.7116802
21
0.0506739
0
LINE
8
DEFAULT_255_1_234
10
16.2707377
20
0.0619184
11
16.2707377
21
-0.1758211
0
ARC
8
DEFAULT_255_1_234
10
15.6355563
20
-0.1574195
40
1.2247208
50
353.8441951
51
0.2287902
0
ARC
8
DEFAULT_255_1_234
10
16.0995067
20
-0.2092194
40
0.7578929
50
344.4934747
51
353.9765454
0
ARC
8
DEFAULT_255_1_234
10
16.3987657
20
-0.2943019
40
0.4467846
50
329.2803592
51
344.7472793
0
ARC
8
DEFAULT_255_1_234
10
16.4980482
20
-0.3487982
40
0.3336173
50
324.9352394
51
328.6160465
0
ARC
8
DEFAULT_255_1_234
10
16.535759
20
-0.3751573
40
0.2876076
50
280.580143
51
324.9173126
0
ARC
8
DEFAULT_255_1_234
10
16.4956383
20
-0.2080901
40
0.4592847
50
269.5977311
51
281.6734359
0
ARC
8
DEFAULT_255_1_234
10
16.4884289
20
-0.2200827
40
0.4472986
50
256.6228859
51
270.51044
0
ARC
8
DEFAULT_255_1_234
10
16.4482266
20
-0.3749123
40
0.2873874
50
215.8618325
51
257.2788573
0
ARC
8
DEFAULT_255_1_234
10
16.5503298
20
-0.3064023
40
0.4102928
50
197.9693508
51
215.2623606
0
ARC
8
DEFAULT_255_1_234
10
16.7988414
20
-0.2225291
40
0.6725652
50
187.8816417
51
198.2346507
0
ARC
8
DEFAULT_255_1_234
10
17.1946622
20
-0.1653921
40
1.0724845
50
180.8976217
51
188.0055519
0
ARC
8
DEFAULT_255_1_234
10
17.474681
20
-0.1550223
40
1.3526448
50
180.7449369
51
181.1510016
0
ARC
8
DEFAULT_255_1_234
10
17.3169539
20
0.0306042
40
1.1948131
50
173.7675579
51
180.231553
0
ARC
8
DEFAULT_255_1_234
10
16.8651686
20
0.0816666
40
0.7401564
50
164.3058563
51
173.9002247
0
ARC
8
DEFAULT_255_1_234
10
16.5739755
20
0.1655656
40
0.4371288
50
148.7922025
51
164.568378
0
ARC
8
DEFAULT_255_1_234
10
16.4788207
20
0.2186929
40
0.3282386
50
144.5883898
51
148.1176286
0
ARC
8
DEFAULT_255_1_234
10
16.4445105
20
0.2426315
40
0.2864044
50
101.6440918
51
144.514236
0
ARC
8
DEFAULT_255_1_234
10
16.4870171
20
0.0737069
40
0.4604934
50
89.5284041
51
102.5819763
0
ARC
8
DEFAULT_255_1_234
10
16.4949259
20
0.0698018
40
0.464401
50
77.0437873
51
90.5081339
0
ARC
8
DEFAULT_255_1_234
10
16.5351261
20
0.2340615
40
0.2953195
50
48.2778575
51
77.4994676
0
ARC
8
DEFAULT_255_1_234
10
16.5423892
20
0.2469746
40
0.2808655
50
36.3142134
51
47.6305865
0
ARC
8
DEFAULT_255_1_234
10
16.4555199
20
0.1884515
40
0.3855453
50
18.2931786
51
35.6769206
0
ARC
8
DEFAULT_255_1_234
10
16.2011958
20
0.1011593
40
0.654423
50
8.024666
51
18.5605216
0
ARC
8
DEFAULT_255_1_234
10
15.7848878
20
0.0396792
40
1.0752407
50
1.1274072
51
8.1718305
0
ARC
8
DEFAULT_255_1_234
10
15.4613068
20
0.0269885
40
1.3990231
50
0.5424119
51
1.3863029
0
ARC
8
DEFAULT_255_1_234
10
15.6434446
20
0.0542342
40
1.0682415
50
359.8090433
51
4.9407866
0
ARC
8
DEFAULT_255_1_234
10
16.064446
20
0.0918113
40
0.6455691
50
4.8362157
51
12.2904523
0
ARC
8
DEFAULT_255_1_234
10
16.3399575
20
0.1531965
40
0.3633074
50
12.0805627
51
23.8173984
0
ARC
8
DEFAULT_255_1_234
10
16.457328
20
0.2028919
40
0.2358723
50
24.2871213
51
31.3935614
0
ARC
8
DEFAULT_255_1_234
10
16.5097978
20
0.2372233
40
0.1732111
50
30.7407893
51
82.4657128
0
ARC
8
DEFAULT_255_1_234
10
16.4918112
20
0.1488691
40
0.263235
50
81.1060089
51
90.2184952
0
ARC
8
DEFAULT_255_1_234
10
16.4882411
20
0.1746924
40
0.2374236
50
89.3806855
51
105.6762551
0
ARC
8
DEFAULT_255_1_234
10
16.4699042
20
0.2413567
40
0.1682847
50
105.7981136
51
149.7388061
0
ARC
8
DEFAULT_255_1_234
10
16.576312
20
0.177395
40
0.2924306
50
149.4208916
51
163.6286378
0
ARC
8
DEFAULT_255_1_234
10
16.7854008
20
0.113625
40
0.5110213
50
163.3763315
51
172.1410975
0
ARC
8
DEFAULT_255_1_234
10
17.1154727
20
0.0663518
40
0.8444586
50
172.0259487
51
178.0703232
0
ARC
8
DEFAULT_255_1_234
10
17.4184816
20
0.0519906
40
1.1477868
50
177.8631668
51
179.5044149
0
ARC
8
DEFAULT_255_1_234
10
17.3112221
20
-0.1794611
40
1.0404907
50
179.7995573
51
185.2460446
0
ARC
8
DEFAULT_255_1_234
10
16.906926
20
-0.2177487
40
0.6343885
50
185.1411642
51
193.0079639
0
ARC
8
DEFAULT_255_1_234
10
16.6425733
20
-0.2802359
40
0.3627568
50
192.7897626
51
205.2507664
0
ARC
8
DEFAULT_255_1_234
10
16.537928
20
-0.3269585
40
0.2481908
50
205.8005384
51
211.2537509
0
ARC
8
DEFAULT_255_1_234
10
16.485572
20
-0.362042
40
0.1852521
50
210.3789793
51
238.4008143
0
ARC
8
DEFAULT_255_1_234
10
16.4836242
20
-0.3573624
40
0.1882621
50
239.6520629
51
265.9793761
0
ARC
8
DEFAULT_255_1_234
10
16.4921442
20
-0.2901573
40
0.2559272
50
265.1315437
51
270.060332
0
ARC
8
DEFAULT_255_1_234
10
16.4950221
20
-0.3225466
40
0.2235528
50
269.3314664
51
287.2178029
0
ARC
8
DEFAULT_255_1_234
10
16.5088073
20
-0.3728721
40
0.1714108
50
287.7958004
51
329.080874
0
ARC
8
DEFAULT_255_1_234
10
16.413053
20
-0.313107
40
0.2842745
50
328.6634704
51
343.3325132
0
ARC
8
DEFAULT_255_1_234
10
16.195755
20
-0.2454137
40
0.5118644
50
343.0499468
51
351.9393422
0
ARC
8
DEFAULT_255_1_234
10
15.849085
20
-0.1943051
40
0.8622784
50
351.8069023
51
357.7959224
0
ARC
8
DEFAULT_255_1_234
10
15.5255406
20
-0.1775279
40
1.1862365
50
357.5871873
51
359.2677531
0
LINE
8
DEFAULT_255_1_234
10
17.7839172
20
0.0402327
11
17.7839172
21
-0.1525291
0
LINE
8
DEFAULT_255_1_234
10
17.0458005
20
-0.1726084
11
17.0458005
21
0.0257755
0
LINE
8
DEFAULT_255_1_234
10
17.6353301
20
-0.1926877
11
17.6353301
21
0.0506739
0
LINE
8
DEFAULT_255_1_234
10
17.1943876
20
0.0619184
11
17.1943876
21
-0.1758211
0
ARC
8
DEFAULT_255_1_234
10
16.5592062
20
-0.1574195
40
1.2247208
50
353.8441951
51
0.2287902
0
ARC
8
DEFAULT_255_1_234
10
17.0231566
20
-0.2092194
40
0.7578929
50
344.4934747
51
353.9765454
0
ARC
8
DEFAULT_255_1_234
10
17.3224156
20
-0.2943019
40
0.4467846
50
329.2803592
51
344.7472793
0
ARC
8
DEFAULT_255_1_234
10
17.4216981
20
-0.3487982
40
0.3336173
50
324.9352394
51
328.6160465
0
ARC
8
DEFAULT_255_1_234
10
17.4594089
20
-0.3751573
40
0.2876076
50
280.580143
51
324.9173126
0
ARC
8
DEFAULT_255_1_234
10
17.4192882
20
-0.2080901
40
0.4592847
50
269.5977311
51
281.6734359
0
ARC
8
DEFAULT_255_1_234
10
17.4120788
20
-0.2200827
40
0.4472986
50
256.6228859
51
270.51044
0
ARC
8
DEFAULT_255_1_234
10
17.3718765
20
-0.3749123
40
0.2873874
50
215.8618325
51
257.2788573
0
ARC
8
DEFAULT_255_1_234
10
17.4739797
20
-0.3064023
40
0.4102928
50
197.9693508
51
215.2623606
0
ARC
8
DEFAULT_255_1_234
10
17.7224913
20
-0.2225291
40
0.6725652
50
187.8816417
51
198.2346507
0
ARC
8
DEFAULT_255_1_234
10
18.1183121
20
-0.1653921
40
1.0724845
50
180.8976217
51
188.0055519
0
ARC
8
DEFAULT_255_1_234
10
18.3983309
20
-0.1550223
40
1.3526448
50
180.7449369
51
181.1510016
0
ARC
8
DEFAULT_255_1_234
10
18.2406038
20
0.0306042
40
1.1948131
50
173.7675579
51
180.231553
0
ARC
8
DEFAULT_255_1_234
10
17.7888185
20
0.0816666
40
0.7401564
50
164.3058563
51
173.9002247
0
ARC
8
DEFAULT_255_1_234
10
17.4976254
20
0.1655656
40
0.4371288
50
148.7922025
51
164.568378
0
ARC
8
DEFAULT_255_1_234
10
17.4024706
20
0.2186929
40
0.3282386
50
144.5883898
51
148.1176286
0
ARC
8
DEFAULT_255_1_234
10
17.3681604
20
0.2426315
40
0.2864044
50
101.6440918
51
144.514236
0
ARC
8
DEFAULT_255_1_234
10
17.410667
20
0.0737069
40
0.4604934
50
89.5284041
51
102.5819763
0
ARC
8
DEFAULT_255_1_234
10
17.4185758
20
0.0698018
40
0.464401
50
77.0437873
51
90.5081339
0
ARC
8
DEFAULT_255_1_234
10
17.458776
20
0.2340615
40
0.2953195
50
48.2778575
51
77.4994676
0
ARC
8
DEFAULT_255_1_234
10
17.4660391
20
0.2469746
40
0.2808655
50
36.3142134
51
47.6305865
0
ARC
8
DEFAULT_255_1_234
10
17.3791698
20
0.1884515
40
0.3855453
50
18.2931786
51
35.6769206
0
ARC
8
DEFAULT_255_1_234
10
17.1248457
20
0.1011593
40
0.654423
50
8.024666
51
18.5605216
0
ARC
8
DEFAULT_255_1_234
10
16.7085377
20
0.0396792
40
1.0752407
50
1.1274072
51
8.1718305
0
ARC
8
DEFAULT_255_1_234
10
16.3849568
20
0.0269885
40
1.3990231
50
0.5424119
51
1.3863029
0
ARC
8
DEFAULT_255_1_234
10
16.5670945
20
0.0542342
40
1.0682415
50
359.8090433
51
4.9407866
0
ARC
8
DEFAULT_255_1_234
10
16.9880959
20
0.0918113
40
0.6455691
50
4.8362157
51
12.2904523
0
ARC
8
DEFAULT_255_1_234
10
17.2636074
20
0.1531965
40
0.3633074
50
12.0805627
51
23.8173984
0
ARC
8
DEFAULT_255_1_234
10
17.380978
20
0.2028919
40
0.2358723
50
24.2871213
51
31.3935614
0
ARC
8
DEFAULT_255_1_234
10
17.4334477
20
0.2372233
40
0.1732111
50
30.7407893
51
82.4657128
0
ARC
8
DEFAULT_255_1_234
10
17.4154611
20
0.1488691
40
0.263235
50
81.1060089
51
90.2184952
0
ARC
8
DEFAULT_255_1_234
10
17.411891
20
0.1746924
40
0.2374236
50
89.3806855
51
105.6762551
0
ARC
8
DEFAULT_255_1_234
10
17.3935541
20
0.2413567
40
0.1682847
50
105.7981136
51
149.7388061
0
ARC
8
DEFAULT_255_1_234
10
17.4999619
20
0.177395
40
0.2924306
50
149.4208916
51
163.6286378
0
ARC
8
DEFAULT_255_1_234
10
17.7090507
20
0.113625
40
0.5110213
50
163.3763315
51
172.1410975
0
ARC
8
DEFAULT_255_1_234
10
18.0391226
20
0.0663518
40
0.8444586
50
172.0259487
51
178.0703232
0
ARC
8
DEFAULT_255_1_234
10
18.3421315
20
0.0519906
40
1.1477868
50
177.8631668
51
179.5044149
0
ARC
8
DEFAULT_255_1_234
10
18.234872
20
-0.1794611
40
1.0404907
50
179.7995573
51
185.2460446
0
ARC
8
DEFAULT_255_1_234
10
17.8305759
20
-0.2177487
40
0.6343885
50
185.1411642
51
193.0079639
0
ARC
8
DEFAULT_255_1_234
10
17.5662232
20
-0.2802359
40
0.3627568
50
192.7897626
51
205.2507664
0
ARC
8
DEFAULT_255_1_234
10
17.4615779
20
-0.3269585
40
0.2481908
50
205.8005384
51
211.2537509
0
ARC
8
DEFAULT_255_1_234
10
17.4092219
20
-0.362042
40
0.1852521
50
210.3789793
51
238.4008143
0
ARC
8
DEFAULT_255_1_234
10
17.4072741
20
-0.3573624
40
0.1882621
50
239.6520629
51
265.9793761
0
ARC
8
DEFAULT_255_1_234
10
17.4157941
20
-0.2901573
40
0.2559272
50
265.1315437
51
270.060332
0
ARC
8
DEFAULT_255_1_234
10
17.418672
20
-0.3225466
40
0.2235528
50
269.3314664
51
287.2178029
0
ARC
8
DEFAULT_255_1_234
10
17.4324572
20
-0.3728721
40
0.1714108
50
287.7958004
51
329.080874
0
ARC
8
DEFAULT_255_1_234
10
17.3367029
20
-0.313107
40
0.2842745
50
328.6634704
51
343.3325132
0
ARC
8
DEFAULT_255_1_234
10
17.1194049
20
-0.2454137
40
0.5118644
50
343.0499468
51
351.9393422
0
ARC
8
DEFAULT_255_1_234
10
16.7727349
20
-0.1943051
40
0.8622784
50
351.8069023
51
357.7959224
0
ARC
8
DEFAULT_255_1_234
10
16.4491905
20
-0.1775279
40
1.1862365
50
357.5871873
51
359.2677531
0
LINE
8
DEFAULT_255_1_234
10
18.2987517
20
-0.0938974
11
18.2987517
21
-0.2151766
0
LINE
8
DEFAULT_255_1_234
10
18.2987517
20
-0.2151766
11
17.9068028
21
-0.2151766
0
LINE
8
DEFAULT_255_1_234
10
17.9068028
20
-0.2151766
11
17.9068028
21
-0.0938974
0
LINE
8
DEFAULT_255_1_234
10
17.9068028
20
-0.0938974
11
18.2987517
21
-0.0938974
0
LINE
8
DEFAULT_255_1_234
10
19.1613604
20
0.0402327
11
19.1613604
21
-0.1525291
0
LINE
8
DEFAULT_255_1_234
10
18.4232436
20
-0.1726084
11
18.4232436
21
0.0257755
0
LINE
8
DEFAULT_255_1_234
10
19.0127732
20
-0.1926877
11
19.0127732
21
0.0506739
0
LINE
8
DEFAULT_255_1_234
10
18.5718308
20
0.0619184
11
18.5718308
21
-0.1758211
0
ARC
8
DEFAULT_255_1_234
10
17.9366493
20
-0.1574195
40
1.2247208
50
353.8441951
51
0.2287902
0
ARC
8
DEFAULT_255_1_234
10
18.4005997
20
-0.2092194
40
0.7578929
50
344.4934747
51
353.9765454
0
ARC
8
DEFAULT_255_1_234
10
18.6998587
20
-0.2943019
40
0.4467846
50
329.2803592
51
344.7472793
0
ARC
8
DEFAULT_255_1_234
10
18.7991412
20
-0.3487982
40
0.3336173
50
324.9352394
51
328.6160465
0
ARC
8
DEFAULT_255_1_234
10
18.8368521
20
-0.3751573
40
0.2876076
50
280.580143
51
324.9173126
0
ARC
8
DEFAULT_255_1_234
10
18.7967313
20
-0.2080901
40
0.4592847
50
269.5977311
51
281.6734359
0
ARC
8
DEFAULT_255_1_234
10
18.7895219
20
-0.2200827
40
0.4472986
50
256.6228859
51
270.51044
0
ARC
8
DEFAULT_255_1_234
10
18.7493197
20
-0.3749123
40
0.2873874
50
215.8618325
51
257.2788573
0
ARC
8
DEFAULT_255_1_234
10
18.8514228
20
-0.3064023
40
0.4102928
50
197.9693508
51
215.2623606
0
ARC
8
DEFAULT_255_1_234
10
19.0999344
20
-0.2225291
40
0.6725652
50
187.8816417
51
198.2346507
0
ARC
8
DEFAULT_255_1_234
10
19.4957552
20
-0.1653921
40
1.0724845
50
180.8976217
51
188.0055519
0
ARC
8
DEFAULT_255_1_234
10
19.775774
20
-0.1550223
40
1.3526448
50
180.7449369
51
181.1510016
0
ARC
8
DEFAULT_255_1_234
10
19.6180469
20
0.0306042
40
1.1948131
50
173.7675579
51
180.231553
0
ARC
8
DEFAULT_255_1_234
10
19.1662616
20
0.0816666
40
0.7401564
50
164.3058563
51
173.9002247
0
ARC
8
DEFAULT_255_1_234
10
18.8750685
20
0.1655656
40
0.4371288
50
148.7922025
51
164.568378
0
ARC
8
DEFAULT_255_1_234
10
18.7799137
20
0.2186929
40
0.3282386
50
144.5883898
51
148.1176286
0
ARC
8
DEFAULT_255_1_234
10
18.7456035
20
0.2426315
40
0.2864044
50
101.6440918
51
144.514236
0
ARC
8
DEFAULT_255_1_234
10
18.7881102
20
0.0737069
40
0.4604934
50
89.5284041
51
102.5819763
0
ARC
8
DEFAULT_255_1_234
10
18.7960189
20
0.0698018
40
0.464401
50
77.0437873
51
90.5081339
0
ARC
8
DEFAULT_255_1_234
10
18.8362191
20
0.2340615
40
0.2953195
50
48.2778575
51
77.4994676
0
ARC
8
DEFAULT_255_1_234
10
18.8434822
20
0.2469746
40
0.2808655
50
36.3142134
51
47.6305865
0
ARC
8
DEFAULT_255_1_234
10
18.7566129
20
0.1884515
40
0.3855453
50
18.2931786
51
35.6769206
0
ARC
8
DEFAULT_255_1_234
10
18.5022888
20
0.1011593
40
0.654423
50
8.024666
51
18.5605216
0
ARC
8
DEFAULT_255_1_234
10
18.0859808
20
0.0396792
40
1.0752407
50
1.1274072
51
8.1718305
0
ARC
8
DEFAULT_255_1_234
10
17.7623999
20
0.0269885
40
1.3990231
50
0.5424119
51
1.3863029
0
ARC
8
DEFAULT_255_1_234
10
17.9445377
20
0.0542342
40
1.0682415
50
359.8090433
51
4.9407866
0
ARC
8
DEFAULT_255_1_234
10
18.3655391
20
0.0918113
40
0.6455691
50
4.8362157
51
12.2904523
0
ARC
8
DEFAULT_255_1_234
10
18.6410505
20
0.1531965
40
0.3633074
50
12.0805627
51
23.8173984
0
ARC
8
DEFAULT_255_1_234
10
18.7584211
20
0.2028919
40
0.2358723
50
24.2871213
51
31.3935614
0
ARC
8
DEFAULT_255_1_234
10
18.8108908
20
0.2372233
40
0.1732111
50
30.7407893
51
82.4657128
0
ARC
8
DEFAULT_255_1_234
10
18.7929042
20
0.1488691
40
0.263235
50
81.1060089
51
90.2184952
0
ARC
8
DEFAULT_255_1_234
10
18.7893341
20
0.1746924
40
0.2374236
50
89.3806855
51
105.6762551
0
ARC
8
DEFAULT_255_1_234
10
18.7709972
20
0.2413567
40
0.1682847
50
105.7981136
51
149.7388061
0
ARC
8
DEFAULT_255_1_234
10
18.877405
20
0.177395
40
0.2924306
50
149.4208916
51
163.6286378
0
ARC
8
DEFAULT_255_1_234
10
19.0864938
20
0.113625
40
0.5110213
50
163.3763315
51
172.1410975
0
ARC
8
DEFAULT_255_1_234
10
19.4165657
20
0.0663518
40
0.8444586
50
172.0259487
51
178.0703232
0
ARC
8
DEFAULT_255_1_234
10
19.7195747
20
0.0519906
40
1.1477868
50
177.8631668
51
179.5044149
0
ARC
8
DEFAULT_255_1_234
10
19.6123151
20
-0.1794611
40
1.0404907
50
179.7995573
51
185.2460446
0
ARC
8
DEFAULT_255_1_234
10
19.208019
20
-0.2177487
40
0.6343885
50
185.1411642
51
193.0079639
0
ARC
8
DEFAULT_255_1_234
10
18.9436663
20
-0.2802359
40
0.3627568
50
192.7897626
51
205.2507664
0
ARC
8
DEFAULT_255_1_234
10
18.839021
20
-0.3269585
40
0.2481908
50
205.8005384
51
211.2537509
0
ARC
8
DEFAULT_255_1_234
10
18.786665
20
-0.362042
40
0.1852521
50
210.3789793
51
238.4008143
0
ARC
8
DEFAULT_255_1_234
10
18.7847172
20
-0.3573624
40
0.1882621
50
239.6520629
51
265.9793761
0
ARC
8
DEFAULT_255_1_234
10
18.7932372
20
-0.2901573
40
0.2559272
50
265.1315437
51
270.060332
0
ARC
8
DEFAULT_255_1_234
10
18.7961151
20
-0.3225466
40
0.2235528
50
269.3314664
51
287.2178029
0
ARC
8
DEFAULT_255_1_234
10
18.8099003
20
-0.3728721
40
0.1714108
50
287.7958004
51
329.080874
0
ARC
8
DEFAULT_255_1_234
10
18.714146
20
-0.313107
40
0.2842745
50
328.6634704
51
343.3325132
0
ARC
8
DEFAULT_255_1_234
10
18.496848
20
-0.2454137
40
0.5118644
50
343.0499468
51
351.9393422
0
ARC
8
DEFAULT_255_1_234
10
18.150178
20
-0.1943051
40
0.8622784
50
351.8069023
51
357.7959224
0
ARC
8
DEFAULT_255_1_234
10
17.8266336
20
-0.1775279
40
1.1862365
50
357.5871873
51
359.2677531
0
LINE
8
DEFAULT_255_1_234
10
20.1476578
20
-0.6513
11
20.0360167
21
-0.3460939
0
LINE
8
DEFAULT_255_1_234
10
20.0360167
20
-0.3460939
11
19.5460806
21
-0.3460939
0
LINE
8
DEFAULT_255_1_234
10
19.5460806
20
-0.3460939
11
19.4360458
21
-0.6513
0
LINE
8
DEFAULT_255_1_234
10
19.4360458
20
-0.6513
11
19.2770174
21
-0.6513
0
LINE
8
DEFAULT_255_1_234
10
19.2770174
20
-0.6513
11
19.723582
21
0.5181211
0
LINE
8
DEFAULT_255_1_234
10
19.723582
20
0.5181211
11
19.8585152
21
0.5181211
0
LINE
8
DEFAULT_255_1_234
10
19.8585152
20
0.5181211
11
20.3058831
21
-0.6513
0
LINE
8
DEFAULT_255_1_234
10
20.3058831
20
-0.6513
11
20.1476578
21
-0.6513
0
LINE
8
DEFAULT_255_1_234
10
19.7910486
20
0.3277689
11
19.5926647
21
-0.2191925
0
LINE
8
DEFAULT_255_1_234
10
19.5926647
20
-0.2191925
11
19.9902357
21
-0.2191925
0
LINE
8
DEFAULT_255_1_234
10
19.9902357
20
-0.2191925
11
19.7910486
21
0.3277689
0
LINE
8
DEFAULT_255_1_234
10
20.8689079
20
-0.6513
11
20.4633051
21
-0.6513
0
LINE
8
DEFAULT_255_1_234
10
20.4633051
20
-0.6513
11
20.4633051
21
0.5181211
0
LINE
8
DEFAULT_255_1_234
10
20.4633051
20
0.5181211
11
20.8456159
21
0.5181211
0
LINE
8
DEFAULT_255_1_234
10
20.8745301
20
-0.1043386
11
20.6175145
21
-0.1043386
0
LINE
8
DEFAULT_255_1_234
10
20.6175145
20
-0.1043386
11
20.6175145
21
-0.5252017
0
LINE
8
DEFAULT_255_1_234
10
20.6175145
20
-0.5252017
11
20.8721206
21
-0.5252017
0
LINE
8
DEFAULT_255_1_234
10
20.6175145
20
0.3912196
11
20.6175145
21
0.0193501
0
LINE
8
DEFAULT_255_1_234
10
20.6175145
20
0.0193501
11
20.8504349
21
0.0193501
0
LINE
8
DEFAULT_255_1_234
10
20.8456159
20
0.3912196
11
20.6175145
21
0.3912196
0
ARC
8
DEFAULT_255_1_234
10
20.8493867
20
-0.2186099
40
0.7367406
50
82.1257326
51
90.2932599
0
ARC
8
DEFAULT_255_1_234
10
20.8882822
20
0.0532013
40
0.4621653
50
69.9044149
51
82.2857423
0
ARC
8
DEFAULT_255_1_234
10
20.94535
20
0.2074637
40
0.2976871
50
51.1838526
51
70.0181538
0
ARC
8
DEFAULT_255_1_234
10
20.9708466
20
0.244524
40
0.2528517
50
12.1017251
51
50.4214761
0
ARC
8
DEFAULT_255_1_234
10
20.832434
20
0.2097676
40
0.3955061
50
359.5251267
51
12.8211707
0
ARC
8
DEFAULT_255_1_234
10
20.9904267
20
0.2028344
40
0.2375281
50
323.4908128
51
0.8817314
0
ARC
8
DEFAULT_255_1_234
10
20.9485953
20
0.235155
40
0.2903817
50
298.6825083
51
323.2756573
0
ARC
8
DEFAULT_255_1_234
10
20.9124316
20
0.2952649
40
0.3604842
50
293.1999386
51
299.1396394
0
ARC
8
DEFAULT_255_1_234
10
20.9797289
20
-0.3132874
40
0.2871098
50
54.0011765
51
74.9167975
0
ARC
8
DEFAULT_255_1_234
10
20.9913649
20
-0.2935668
40
0.2643248
50
36.3580696
51
53.5291921
0
ARC
8
DEFAULT_255_1_234
10
20.9786891
20
-0.3026002
40
0.2798884
50
4.8189881
51
36.3089977
0
ARC
8
DEFAULT_255_1_234
10
20.9007726
20
-0.313573
40
0.358478
50
359.9370252
51
5.5204067
0
ARC
8
DEFAULT_255_1_234
10
20.8683247
20
-0.3176333
40
0.3909429
50
344.7478609
51
0.5373281
0
ARC
8
DEFAULT_255_1_234
10
20.9674219
20
-0.3443456
40
0.2883093
50
311.1786488
51
344.6886812
0
ARC
8
DEFAULT_255_1_234
10
20.9382266
20
-0.3080013
40
0.3348923
50
286.0418249
51
310.8441291
0
ARC
8
DEFAULT_255_1_234
10
20.8875098
20
-0.1433193
40
0.5071869
50
274.1042341
51
286.4071509
0
ARC
8
DEFAULT_255_1_234
10
20.8698353
20
0.0450229
40
0.6963234
50
269.9236873
51
274.445647
0
ARC
8
DEFAULT_255_1_234
10
20.8744354
20
-0.1889463
40
0.3362634
50
269.6055768
51
281.3740047
0
ARC
8
DEFAULT_255_1_234
10
20.8974992
20
-0.2982647
40
0.224546
50
281.1055983
51
302.5132223
0
ARC
8
DEFAULT_255_1_234
10
20.9121892
20
-0.3246177
40
0.1944357
50
303.0368945
51
311.8811219
0
ARC
8
DEFAULT_255_1_234
10
20.9193298
20
-0.333111
40
0.1833454
50
311.9916004
51
351.7143462
0
ARC
8
DEFAULT_255_1_234
10
20.8376528
20
-0.316607
40
0.2665871
50
350.7339597
51
0.2221581
0
ARC
8
DEFAULT_255_1_234
10
20.8268974
20
-0.3109533
40
0.2773789
50
359.0456241
51
17.2296242
0
ARC
8
DEFAULT_255_1_234
10
20.9308091
20
-0.2800837
40
0.1689915
50
17.6685481
51
78.9940892
0
ARC
8
DEFAULT_255_1_234
10
20.8791255
20
-0.4655776
40
0.3612658
50
76.5635957
51
90.6980921
0
LINE
8
DEFAULT_255_1_234
10
20.874724
20
-0.1043387
11
20.8745301
21
-0.1043386
0
ARC
8
DEFAULT_255_1_234
10
20.8526916
20
0.3479036
40
0.3285612
50
269.6064736
51
281.4533503
0
ARC
8
DEFAULT_255_1_234
10
20.8749735
20
0.2427688
40
0.2210975
50
281.2041486
51
302.5148063
0
ARC
8
DEFAULT_255_1_234
10
20.8886585
20
0.2181241
40
0.1929674
50
303.021671
51
309.8369575
0
ARC
8
DEFAULT_255_1_234
10
20.9070047
20
0.1975488
40
0.1654181
50
309.5228395
51
356.9509836
0
ARC
8
DEFAULT_255_1_234
10
20.8406629
20
0.2070932
40
0.2322512
50
355.4701227
51
0.0492546
0
ARC
8
DEFAULT_255_1_234
10
20.812772
20
0.2093094
40
0.2601498
50
359.5558597
51
11.2096359
0
ARC
8
DEFAULT_255_1_234
10
20.908501
20
0.229123
40
0.1623975
50
10.9182341
51
31.3230275
0
ARC
8
DEFAULT_255_1_234
10
20.9370744
20
0.2450214
40
0.1297302
50
31.8852677
51
52.1412565
0
ARC
8
DEFAULT_255_1_234
10
20.9096476
20
0.206275
40
0.1771663
50
52.8285564
51
71.9850297
0
ARC
8
DEFAULT_255_1_234
10
20.8720653
20
0.0956664
40
0.2939794
50
71.6863486
51
82.8455995
0
ARC
8
DEFAULT_255_1_234
10
20.8481189
20
-0.0852851
40
0.476506
50
82.6984714
51
90.1729175
0
ARC
8
DEFAULT_255_1_234
10
20.8458824
20
0.0370623
40
0.3541573
50
89.8708275
51
90.0431131
0
LINE
8
DEFAULT_255_1_234
10
22.1820971
20
0.0402327
11
22.1820971
21
-0.1525291
0
LINE
8
DEFAULT_255_1_234
10
21.4439804
20
-0.1726084
11
21.4439804
21
0.0257755
0
LINE
8
DEFAULT_255_1_234
10
22.03351
20
-0.1926877
11
22.03351
21
0.0506739
0
LINE
8
DEFAULT_255_1_234
10
21.5925675
20
0.0619184
11
21.5925675
21
-0.1758211
0
ARC
8
DEFAULT_255_1_234
10
20.9573861
20
-0.1574195
40
1.2247208
50
353.8441951
51
0.2287902
0
ARC
8
DEFAULT_255_1_234
10
21.4213364
20
-0.2092194
40
0.7578929
50
344.4934747
51
353.9765454
0
ARC
8
DEFAULT_255_1_234
10
21.7205955
20
-0.2943019
40
0.4467846
50
329.2803592
51
344.7472793
0
ARC
8
DEFAULT_255_1_234
10
21.8198779
20
-0.3487982
40
0.3336173
50
324.9352394
51
328.6160465
0
ARC
8
DEFAULT_255_1_234
10
21.8575888
20
-0.3751573
40
0.2876076
50
280.580143
51
324.9173126
0
ARC
8
DEFAULT_255_1_234
10
21.8174681
20
-0.2080901
40
0.4592847
50
269.5977311
51
281.6734359
0
ARC
8
DEFAULT_255_1_234
10
21.8102586
20
-0.2200827
40
0.4472986
50
256.6228859
51
270.51044
0
ARC
8
DEFAULT_255_1_234
10
21.7700564
20
-0.3749123
40
0.2873874
50
215.8618325
51
257.2788573
0
ARC
8
DEFAULT_255_1_234
10
21.8721596
20
-0.3064023
40
0.4102928
50
197.9693508
51
215.2623606
0
ARC
8
DEFAULT_255_1_234
10
22.1206711
20
-0.2225291
40
0.6725652
50
187.8816417
51
198.2346507
0
ARC
8
DEFAULT_255_1_234
10
22.516492
20
-0.1653921
40
1.0724845
50
180.8976217
51
188.0055519
0
ARC
8
DEFAULT_255_1_234
10
22.7965108
20
-0.1550223
40
1.3526448
50
180.7449369
51
181.1510016
0
ARC
8
DEFAULT_255_1_234
10
22.6387837
20
0.0306042
40
1.1948131
50
173.7675579
51
180.231553
0
ARC
8
DEFAULT_255_1_234
10
22.1869983
20
0.0816666
40
0.7401564
50
164.3058563
51
173.9002247
0
ARC
8
DEFAULT_255_1_234
10
21.8958052
20
0.1655656
40
0.4371288
50
148.7922025
51
164.568378
0
ARC
8
DEFAULT_255_1_234
10
21.8006505
20
0.2186929
40
0.3282386
50
144.5883898
51
148.1176286
0
ARC
8
DEFAULT_255_1_234
10
21.7663402
20
0.2426315
40
0.2864044
50
101.6440918
51
144.514236
0
ARC
8
DEFAULT_255_1_234
10
21.8088469
20
0.0737069
40
0.4604934
50
89.5284041
51
102.5819763
0
ARC
8
DEFAULT_255_1_234
10
21.8167557
20
0.0698018
40
0.464401
50
77.0437873
51
90.5081339
0
ARC
8
DEFAULT_255_1_234
10
21.8569559
20
0.2340615
40
0.2953195
50
48.2778575
51
77.4994676
0
ARC
8
DEFAULT_255_1_234
10
21.864219
20
0.2469746
40
0.2808655
50
36.3142134
51
47.6305865
0
ARC
8
DEFAULT_255_1_234
10
21.7773497
20
0.1884515
40
0.3855453
50
18.2931786
51
35.6769206
0
ARC
8
DEFAULT_255_1_234
10
21.5230256
20
0.1011593
40
0.654423
50
8.024666
51
18.5605216
0
ARC
8
DEFAULT_255_1_234
10
21.1067176
20
0.0396792
40
1.0752407
50
1.1274072
51
8.1718305
0
ARC
8
DEFAULT_255_1_234
10
20.7831366
20
0.0269885
40
1.3990231
50
0.5424119
51
1.3863029
0
ARC
8
DEFAULT_255_1_234
10
20.9652744
20
0.0542342
40
1.0682415
50
359.8090433
51
4.9407866
0
ARC
8
DEFAULT_255_1_234
10
21.3862758
20
0.0918113
40
0.6455691
50
4.8362157
51
12.2904523
0
ARC
8
DEFAULT_255_1_234
10
21.6617873
20
0.1531965
40
0.3633074
50
12.0805627
51
23.8173984
0
ARC
8
DEFAULT_255_1_234
10
21.7791578
20
0.2028919
40
0.2358723
50
24.2871213
51
31.3935614
0
ARC
8
DEFAULT_255_1_234
10
21.8316276
20
0.2372233
40
0.1732111
50
30.7407893
51
82.4657128
0
ARC
8
DEFAULT_255_1_234
10
21.813641
20
0.1488691
40
0.263235
50
81.1060089
51
90.2184952
0
ARC
8
DEFAULT_255_1_234
10
21.8100709
20
0.1746924
40
0.2374236
50
89.3806855
51
105.6762551
0
ARC
8
DEFAULT_255_1_234
10
21.7917339
20
0.2413567
40
0.1682847
50
105.7981136
51
149.7388061
0
ARC
8
DEFAULT_255_1_234
10
21.8981418
20
0.177395
40
0.2924306
50
149.4208916
51
163.6286378
0
ARC
8
DEFAULT_255_1_234
10
22.1072306
20
0.113625
40
0.5110213
50
163.3763315
51
172.1410975
0
ARC
8
DEFAULT_255_1_234
10
22.4373025
20
0.0663518
40
0.8444586
50
172.0259487
51
178.0703232
0
ARC
8
DEFAULT_255_1_234
10
22.7403114
20
0.0519906
40
1.1477868
50
177.8631668
51
179.5044149
0
ARC
8
DEFAULT_255_1_234
10
22.6330519
20
-0.1794611
40
1.0404907
50
179.7995573
51
185.2460446
0
ARC
8
DEFAULT_255_1_234
10
22.2287558
20
-0.2177487
40
0.6343885
50
185.1411642
51
193.0079639
0
ARC
8
DEFAULT_255_1_234
10
21.964403
20
-0.2802359
40
0.3627568
50
192.7897626
51
205.2507664
0
ARC
8
DEFAULT_255_1_234
10
21.8597578
20
-0.3269585
40
0.2481908
50
205.8005384
51
211.2537509
0
ARC
8
DEFAULT_255_1_234
10
21.8074018
20
-0.362042
40
0.1852521
50
210.3789793
51
238.4008143
0
ARC
8
DEFAULT_255_1_234
10
21.805454
20
-0.3573624
40
0.1882621
50
239.6520629
51
265.9793761
0
ARC
8
DEFAULT_255_1_234
10
21.813974
20
-0.2901573
40
0.2559272
50
265.1315437
51
270.060332
0
ARC
8
DEFAULT_255_1_234
10
21.8168519
20
-0.3225466
40
0.2235528
50
269.3314664
51
287.2178029
0
ARC
8
DEFAULT_255_1_234
10
21.8306371
20
-0.3728721
40
0.1714108
50
287.7958004
51
329.080874
0
ARC
8
DEFAULT_255_1_234
10
21.7348828
20
-0.313107
40
0.2842745
50
328.6634704
51
343.3325132
0
ARC
8
DEFAULT_255_1_234
10
21.5175848
20
-0.2454137
40
0.5118644
50
343.0499468
51
351.9393422
0
ARC
8
DEFAULT_255_1_234
10
21.1709148
20
-0.1943051
40
0.8622784
50
351.8069023
51
357.7959224
0
ARC
8
DEFAULT_255_1_234
10
20.8473704
20
-0.1775279
40
1.1862365
50
357.5871873
51
359.2677531
0
LINE
8
DEFAULT_255_2_778
10
10.7156501
20
21.0343499
11
18.6531501
21
21.0343499
0
LINE
8
DEFAULT_255_2_778
10
18.6531501
20
21.0343499
11
18.6531501
21
13.0968499
0
LINE
8
DEFAULT_255_2_778
10
18.6531501
20
13.0968499
11
10.7156501
21
13.0968499
0
LINE
8
DEFAULT_255_2_778
10
10.7156501
20
13.0968499
11
10.7156501
21
21.0343499
0
LINE
8
DEFAULT_255_2_778
10
10.7156501
20
13.0968499
11
18.6531501
21
21.0343499
0
LINE
8
DEFAULT_255_2_778
10
16.27185
20
15.0019
11
17.85935
21
15.0019
0
LINE
8
DEFAULT_255_2_778
10
16.27185
20
14.3669
11
16.58935
21
14.3669
0
LINE
8
DEFAULT_255_2_778
10
16.90685
20
14.3669
11
17.22435
21
14.3669
0
LINE
8
DEFAULT_255_2_778
10
17.54185
20
14.3669
11
17.85935
21
14.3669
0
LINE
8
DEFAULT_255_2_778
10
11.64165
20
19.6321
11
13.22915
21
19.6321
0
LINE
8
DEFAULT_255_2_778
10
11.64165
20
18.9971
11
11.95915
21
18.9971
0
LINE
8
DEFAULT_255_2_778
10
12.27665
20
18.9971
11
12.59415
21
18.9971
0
LINE
8
DEFAULT_255_2_778
10
12.91165
20
18.9971
11
13.22915
21
18.9971
0
ARC
8
DEFAULT_255_2_778
10
7.7477003
20
28.6249717
40
3.1359654
50
252.328178
51
259.1195596
0
ARC
8
DEFAULT_255_2_778
10
7.5366784
20
27.5059064
40
1.9971888
50
259.0046171
51
268.8321339
0
ARC
8
DEFAULT_255_2_778
10
7.5170704
20
27.0698151
40
1.5608252
50
269.2254945
51
269.9986098
0
ARC
8
DEFAULT_255_2_778
10
7.5284241
20
26.6108978
40
1.1019669
50
269.4076934
51
279.2957889
0
ARC
8
DEFAULT_255_2_778
10
7.6424786
20
25.9550872
40
0.4363956
50
278.4262389
51
299.114971
0
ARC
8
DEFAULT_255_2_778
10
7.7685935
20
25.7334399
40
0.1814068
50
298.3777331
51
1.5635741
0
ARC
8
DEFAULT_255_2_778
10
7.7607054
20
25.741141
40
0.1892471
50
359.167
51
359.999679
0
ARC
8
DEFAULT_255_2_778
10
7.7620579
20
25.7411283
40
0.1878948
50
0.0035752
51
48.4707938
0
ARC
8
DEFAULT_255_2_778
10
7.6243134
20
25.5828495
40
0.3977142
50
48.7331485
51
61.7808617
0
ARC
8
DEFAULT_255_2_778
10
7.0293414
20
24.5357873
40
1.6019233
50
60.7378912
51
65.7087881
0
ARC
8
DEFAULT_255_2_778
10
6.1103699
20
22.544212
40
3.7952631
50
65.4320913
51
67.6032607
0
ARC
8
DEFAULT_255_2_778
10
9.6041602
20
31.0973537
40
5.4439672
50
245.1253116
51
247.9048261
0
ARC
8
DEFAULT_255_2_778
10
8.5247137
20
28.7772986
40
2.8850926
50
241.1241333
51
245.1930241
0
ARC
8
DEFAULT_255_2_778
10
7.7625999
20
27.4063069
40
1.3165346
50
234.1963629
51
241.3542762
0
ARC
8
DEFAULT_255_2_778
10
7.3437421
20
26.8215669
40
0.5972641
50
226.7006611
51
233.96868
0
ARC
8
DEFAULT_255_2_778
10
7.3607017
20
26.8286709
40
0.6141106
50
178.3932929
51
226.0036188
0
ARC
8
DEFAULT_255_2_778
10
7.4478456
20
26.8599808
40
0.7011547
50
154.8735925
51
181.1515496
0
ARC
8
DEFAULT_255_2_778
10
7.3603372
20
26.8854147
40
0.6112906
50
123.8165102
51
153.54904
0
ARC
8
DEFAULT_255_2_778
10
7.5898969
20
26.5485158
40
1.0189576
50
100.5389065
51
123.9980051
0
ARC
8
DEFAULT_255_2_778
10
7.6985372
20
26.0268654
40
1.5517207
50
89.6286302
51
100.9597008
0
ARC
8
DEFAULT_255_2_778
10
7.7085439
20
25.6496175
40
1.928936
50
89.5339909
51
89.9984868
0
ARC
8
DEFAULT_255_2_778
10
7.7099048
20
25.5770263
40
2.0015148
50
84.1492503
51
89.5898483
0
ARC
8
DEFAULT_255_2_778
10
7.5077557
20
23.4959232
40
4.0923986
50
81.082529
51
84.3039054
0
ARC
8
DEFAULT_255_2_778
10
7.023816
20
20.3677202
40
7.2578093
50
78.9383812
51
81.13635
0
ARC
8
DEFAULT_255_2_778
10
7.6682357
20
25.1920321
40
1.9859479
50
67.8708824
51
78.7622215
0
ARC
8
DEFAULT_255_2_778
10
7.7855445
20
25.7646519
40
1.4014502
50
78.9039563
51
89.7592781
0
ARC
8
DEFAULT_255_2_778
10
7.779286
20
26.1888707
40
0.9772945
50
89.2878682
51
100.1889159
0
ARC
8
DEFAULT_255_2_778
10
7.6658447
20
26.7822139
40
0.3733016
50
99.1615566
51
122.7471966
0
ARC
8
DEFAULT_255_2_778
10
7.5618383
20
26.94848
40
0.1772174
50
123.5434144
51
182.034113
0
ARC
8
DEFAULT_255_2_778
10
7.542542
20
26.9439997
40
0.1578198
50
180.6571147
51
241.2086245
0
ARC
8
DEFAULT_255_2_778
10
7.9241141
20
27.5618628
40
0.8838431
50
238.8206864
51
243.6707859
0
ARC
8
DEFAULT_255_2_778
10
9.3867888
20
30.4418479
40
4.1139343
50
243.2030661
51
244.8668907
0
ARC
8
DEFAULT_255_2_778
10
12.3063112
20
36.6294591
40
10.9557218
50
244.7879545
51
245.6216179
0
ARC
8
DEFAULT_255_2_778
10
15.2952581
20
43.1886287
40
18.1637988
50
245.574041
51
245.772102
0
ARC
8
DEFAULT_255_2_778
10
5.891327
20
22.1983387
40
4.836889
50
63.120787
51
66.22328
0
ARC
8
DEFAULT_255_2_778
10
6.947604
20
24.2709743
40
2.5106281
50
58.2792155
51
63.2371048
0
ARC
8
DEFAULT_255_2_778
10
7.6964177
20
25.4721893
40
1.0951517
50
49.8236496
51
58.5607433
0
ARC
8
DEFAULT_255_2_778
10
8.0253672
20
25.8722551
40
0.5772968
50
45.4119063
51
49.1525673
0
ARC
8
DEFAULT_255_2_778
10
8.0075487
20
25.8650188
40
0.5950077
50
359.8351939
51
44.6790936
0
ARC
8
DEFAULT_255_2_778
10
7.7572736
20
25.8380051
40
0.8456589
50
359.9921848
51
1.714555
0
ARC
8
DEFAULT_255_2_778
10
7.9239095
20
25.822161
40
0.6792051
50
328.8364528
51
1.3269532
0
ARC
8
DEFAULT_255_2_778
10
7.9044044
20
25.8580666
40
0.7147737
50
299.9575479
51
327.1824854
0
ARC
8
DEFAULT_255_2_778
10
7.7009325
20
26.1915345
40
1.1053374
50
281.4846002
51
300.4638436
0
ARC
8
DEFAULT_255_2_778
10
7.5659684
20
26.816879
40
1.7450507
50
270.5617808
51
281.7391554
0
ARC
8
DEFAULT_255_2_778
10
7.5449253
20
27.3250328
40
2.2534434
50
269.9963661
51
270.9701178
0
LINE
8
DEFAULT_255_2_778
10
7.5447824
20
25.0715895
11
7.5437325
21
25.0715898
0
ARC
8
DEFAULT_255_2_778
10
7.5511332
20
28.3693181
40
3.2977366
50
256.7257562
51
269.8714183
0
ARC
8
DEFAULT_255_2_778
10
21.7503137
20
28.5522604
40
3.0618705
50
252.1983928
51
259.1511031
0
ARC
8
DEFAULT_255_2_778
10
21.5517118
20
27.4935504
40
1.9847066
50
259.0293454
51
269.2254668
0
ARC
8
DEFAULT_255_2_778
10
21.5354446
20
27.0934784
40
1.5844885
50
269.6180891
51
269.9995636
0
ARC
8
DEFAULT_255_2_778
10
21.5473456
20
26.6146024
40
1.1056768
50
269.3826571
51
279.2415406
0
ARC
8
DEFAULT_255_2_778
10
21.6612522
20
25.9559293
40
0.4373106
50
278.3705839
51
299.0156343
0
ARC
8
DEFAULT_255_2_778
10
21.787862
20
25.7327358
40
0.1807355
50
298.2360606
51
1.5389494
0
ARC
8
DEFAULT_255_2_778
10
21.7610455
20
25.7417945
40
0.2075296
50
358.8390496
51
0.0021256
0
ARC
8
DEFAULT_255_2_778
10
21.7864788
20
25.7448335
40
0.1821217
50
359.0463196
51
48.3838938
0
ARC
8
DEFAULT_255_2_778
10
21.6437976
20
25.5782239
40
0.4014605
50
48.9521134
51
61.9896684
0
ARC
8
DEFAULT_255_2_778
10
21.0566547
20
24.5354831
40
1.5980551
50
60.9619292
51
65.9688305
0
ARC
8
DEFAULT_255_2_778
10
20.1561808
20
22.5606442
40
3.7684702
50
65.6920583
51
67.885858
0
ARC
8
DEFAULT_255_2_778
10
23.5929853
20
31.0215078
40
5.3637714
50
245.0830094
51
247.8980191
0
ARC
8
DEFAULT_255_2_778
10
22.5350276
20
28.7520368
40
2.8598243
50
241.0457755
51
245.1499877
0
ARC
8
DEFAULT_255_2_778
10
21.7841314
20
27.4055481
40
1.3181309
50
234.0995357
51
241.2713582
0
ARC
8
DEFAULT_255_2_778
10
21.3686558
20
26.8274797
40
0.6062528
50
226.6553179
51
233.8711463
0
ARC
8
DEFAULT_255_2_778
10
21.3799627
20
26.8291421
40
0.6152634
50
178.1141127
51
225.9958207
0
ARC
8
DEFAULT_255_2_778
10
21.4583747
20
26.8635933
40
0.6934876
50
154.5285774
51
181.1735781
0
ARC
8
DEFAULT_255_2_778
10
21.3752063
20
26.8872866
40
0.6083836
50
123.6225515
51
153.1744533
0
ARC
8
DEFAULT_255_2_778
10
21.5978398
20
26.5706873
40
0.9953445
50
101.8855577
51
124.202832
0
ARC
8
DEFAULT_255_2_778
10
21.7267578
20
25.9994371
40
1.5809221
50
89.8667692
51
102.1936471
0
ARC
8
DEFAULT_255_2_778
10
21.7423508
20
25.5516401
40
2.0287498
50
90.0005166
51
90.3365567
0
ARC
8
DEFAULT_255_2_778
10
21.7279623
20
25.3892478
40
2.1911891
50
83.5567842
51
89.6242426
0
ARC
8
DEFAULT_255_2_778
10
21.5238738
20
23.5055008
40
4.0859491
50
79.7344405
51
83.677263
0
ARC
8
DEFAULT_255_2_778
10
21.2084449
20
21.6741416
40
5.9442269
50
78.6878181
51
79.8885504
0
ARC
8
DEFAULT_255_2_778
10
21.6891634
20
25.2009853
40
1.9781811
50
67.8740708
51
78.900726
0
ARC
8
DEFAULT_255_2_778
10
21.8014103
20
25.7536597
40
1.4142408
50
79.0527415
51
89.7762744
0
ARC
8
DEFAULT_255_2_778
10
21.7948353
20
26.1964197
40
0.9715453
50
89.2865638
51
100.2092011
0
ARC
8
DEFAULT_255_2_778
10
21.6814944
20
26.787257
40
0.3700369
50
99.1524074
51
123.0050603
0
ARC
8
DEFAULT_255_2_778
10
21.5786288
20
26.9507593
40
0.1769101
50
123.910777
51
182.0533384
0
ARC
8
DEFAULT_255_2_778
10
21.5386504
20
26.9443379
40
0.1368181
50
179.9653657
51
180.1039286
0
ARC
8
DEFAULT_255_2_778
10
21.5592381
20
26.9456577
40
0.1574134
50
180.5707107
51
241.2950277
0
ARC
8
DEFAULT_255_2_778
10
21.9233976
20
27.5369088
40
0.8516452
50
238.9108476
51
243.8776742
0
ARC
8
DEFAULT_255_2_778
10
23.4261578
20
30.5174484
40
4.1895529
50
243.3721611
51
245.0131429
0
ARC
8
DEFAULT_255_2_778
10
26.4893422
20
37.0522747
40
11.4066824
50
244.9322399
51
245.7423879
0
ARC
8
DEFAULT_255_2_778
10
29.6670177
20
44.0657803
40
19.1064703
50
245.6953615
51
245.8864274
0
ARC
8
DEFAULT_255_2_778
10
19.9166156
20
22.2396315
40
4.7985987
50
62.9078243
51
66.0947096
0
ARC
8
DEFAULT_255_2_778
10
20.974214
20
24.2971638
40
2.4851782
50
58.0755357
51
63.0116927
0
ARC
8
DEFAULT_255_2_778
10
21.7205145
20
25.4839473
40
1.0832719
50
49.4476357
51
58.3848201
0
ARC
8
DEFAULT_255_2_778
10
22.0423586
20
25.8713595
40
0.5797131
50
45.5211037
51
48.722937
0
ARC
8
DEFAULT_255_2_778
10
22.0272601
20
25.866373
40
0.5938943
50
359.8498367
51
44.8188382
0
ARC
8
DEFAULT_255_2_778
10
21.7779342
20
25.8394985
40
0.8435982
50
359.9926129
51
1.719814
0
ARC
8
DEFAULT_255_2_778
10
21.9391725
20
25.8237691
40
0.6825388
50
329.2212416
51
1.3113892
0
ARC
8
DEFAULT_255_2_778
10
21.9242477
20
25.8565649
40
0.7124399
50
300.0989301
51
327.5692204
0
ARC
8
DEFAULT_255_2_778
10
21.7222929
20
26.189777
40
1.1020276
50
281.441673
51
300.495073
0
ARC
8
DEFAULT_255_2_778
10
21.5847316
20
26.8282642
40
1.7551333
50
270.5529807
51
281.708402
0
ARC
8
DEFAULT_255_2_778
10
21.563344
20
27.3455061
40
2.2726167
50
269.9960418
51
270.966315
0
LINE
8
DEFAULT_255_2_778
10
21.563187
20
25.0728895
11
21.5621325
21
25.0728898
0
ARC
8
DEFAULT_255_2_778
10
21.5668389
20
28.3575179
40
3.2846315
50
256.7147361
51
269.9179028
0
LINE
8
DEFAULT_255_2_778
10
6.7957325
20
25.1602898
11
6.7957325
21
25.6369898
0
LINE
8
DEFAULT_255_2_778
10
8.4163325
20
27.4906898
11
8.4163325
21
27.0316898
0
LINE
8
DEFAULT_255_2_778
10
6.7939325
20
25.1596898
11
6.7957325
21
25.1602898
0
LINE
8
DEFAULT_255_2_778
10
8.9865325
20
27.5377898
11
9.6628325
21
27.5377898
0
LINE
8
DEFAULT_255_2_778
10
9.6628325
20
27.5377898
11
9.6628325
21
25.1213898
0
LINE
8
DEFAULT_255_2_778
10
9.6628325
20
25.1213898
11
8.9865325
21
25.1213898
0
LINE
8
DEFAULT_255_2_778
10
8.9865325
20
25.1213898
11
8.9865325
21
27.5377898
0
LINE
8
DEFAULT_255_2_778
10
10.2808325
20
25.1213898
11
10.2808325
21
27.5380898
0
LINE
8
DEFAULT_255_2_778
10
10.2808325
20
27.5380898
11
12.0131325
21
27.5380898
0
LINE
8
DEFAULT_255_2_778
10
12.0131325
20
27.5380898
11
12.0131325
21
27.1009898
0
LINE
8
DEFAULT_255_2_778
10
12.0131325
20
27.1009898
11
10.9320325
21
27.1009898
0
LINE
8
DEFAULT_255_2_778
10
10.9320325
20
27.1009898
11
10.9320325
21
26.5553898
0
LINE
8
DEFAULT_255_2_778
10
10.9320325
20
26.5553898
11
11.8734325
21
26.5553898
0
LINE
8
DEFAULT_255_2_778
10
11.8734325
20
26.5553898
11
11.8734325
21
26.1568898
0
LINE
8
DEFAULT_255_2_778
10
11.8734325
20
26.1568898
11
10.9320325
21
26.1568898
0
LINE
8
DEFAULT_255_2_778
10
10.9320325
20
26.1568898
11
10.9320325
21
25.5832898
0
LINE
8
DEFAULT_255_2_778
10
10.9320325
20
25.5832898
11
12.0411325
21
25.5832898
0
LINE
8
DEFAULT_255_2_778
10
12.0411325
20
25.5832898
11
12.0411325
21
25.1205898
0
LINE
8
DEFAULT_255_2_778
10
12.0411325
20
25.1205898
11
10.2808325
21
25.1213898
0
LINE
8
DEFAULT_255_2_778
10
12.4816325
20
25.1213898
11
12.4816325
21
27.5380898
0
LINE
8
DEFAULT_255_2_778
10
12.4816325
20
27.5380898
11
13.3574325
21
27.5380898
0
LINE
8
DEFAULT_255_2_778
10
13.3574325
20
27.5380898
11
13.9670325
21
25.9939898
0
LINE
8
DEFAULT_255_2_778
10
13.9670325
20
25.9939898
11
14.5896325
21
27.5380898
0
LINE
8
DEFAULT_255_2_778
10
14.5896325
20
27.5380898
11
15.4214325
21
27.5380898
0
LINE
8
DEFAULT_255_2_778
10
15.4214325
20
27.5380898
11
15.4214325
21
25.1215898
0
LINE
8
DEFAULT_255_2_778
10
15.4214325
20
25.1215898
11
14.7811325
21
25.1215898
0
LINE
8
DEFAULT_255_2_778
10
14.7811325
20
25.1215898
11
14.7811325
21
26.8331898
0
LINE
8
DEFAULT_255_2_778
10
14.7811325
20
26.8331898
11
14.0723325
21
25.0982898
0
LINE
8
DEFAULT_255_2_778
10
14.0723325
20
25.0982898
11
13.6514325
21
25.0982898
0
LINE
8
DEFAULT_255_2_778
10
13.6514325
20
25.0982898
11
12.9558325
21
26.8331898
0
LINE
8
DEFAULT_255_2_778
10
12.9558325
20
26.8331898
11
12.9558325
21
25.1215898
0
LINE
8
DEFAULT_255_2_778
10
12.9558325
20
25.1215898
11
12.4816325
21
25.1213898
0
LINE
8
DEFAULT_255_2_778
10
16.0408325
20
25.1213898
11
16.0408325
21
27.5380898
0
LINE
8
DEFAULT_255_2_778
10
16.0408325
20
27.5380898
11
17.7730325
21
27.5380898
0
LINE
8
DEFAULT_255_2_778
10
17.7730325
20
27.5380898
11
17.7730325
21
27.1009898
0
LINE
8
DEFAULT_255_2_778
10
17.7730325
20
27.1009898
11
16.6920325
21
27.1009898
0
LINE
8
DEFAULT_255_2_778
10
16.6920325
20
27.1009898
11
16.6920325
21
26.5553898
0
LINE
8
DEFAULT_255_2_778
10
16.6920325
20
26.5553898
11
17.6333325
21
26.5553898
0
LINE
8
DEFAULT_255_2_778
10
17.6333325
20
26.5553898
11
17.6333325
21
26.1568898
0
LINE
8
DEFAULT_255_2_778
10
17.6333325
20
26.1568898
11
16.6920325
21
26.1568898
0
LINE
8
DEFAULT_255_2_778
10
16.6920325
20
26.1568898
11
16.6920325
21
25.5832898
0
LINE
8
DEFAULT_255_2_778
10
16.6920325
20
25.5832898
11
17.8029325
21
25.5832898
0
LINE
8
DEFAULT_255_2_778
10
17.8029325
20
25.5832898
11
17.8029325
21
25.1205898
0
LINE
8
DEFAULT_255_2_778
10
17.8029325
20
25.1205898
11
16.0408325
21
25.1213898
0
LINE
8
DEFAULT_255_2_778
10
18.2453325
20
25.1213898
11
18.2453325
21
27.5380898
0
LINE
8
DEFAULT_255_2_778
10
18.2453325
20
27.5380898
11
19.0282325
21
27.5380898
0
LINE
8
DEFAULT_255_2_778
10
19.0282325
20
27.5380898
11
19.8585325
21
25.9200898
0
LINE
8
DEFAULT_255_2_778
10
19.8585325
20
25.9200898
11
19.8585325
21
27.5380898
0
LINE
8
DEFAULT_255_2_778
10
19.8585325
20
27.5380898
11
20.3342325
21
27.5380898
0
LINE
8
DEFAULT_255_2_778
10
20.3342325
20
27.5380898
11
20.3342325
21
25.1215898
0
LINE
8
DEFAULT_255_2_778
10
20.3342325
20
25.1215898
11
19.5738325
21
25.1215898
0
LINE
8
DEFAULT_255_2_778
10
19.5738325
20
25.1215898
11
18.7213325
21
26.7609898
0
LINE
8
DEFAULT_255_2_778
10
18.7213325
20
26.7609898
11
18.7213325
21
25.1215898
0
LINE
8
DEFAULT_255_2_778
10
18.7213325
20
25.1215898
11
18.2453325
21
25.1213898
0
LINE
8
DEFAULT_255_2_778
10
20.8142325
20
25.1602898
11
20.8142325
21
25.6369898
0
LINE
8
DEFAULT_255_2_778
10
22.3744325
20
27.5028898
11
22.4342325
21
27.4925898
0
LINE
8
DEFAULT_255_2_778
10
22.4342325
20
27.4925898
11
22.4342325
21
27.0334898
0
LINE
8
DEFAULT_255_2_778
10
20.8120325
20
25.1607898
11
20.8142325
21
25.1602898
0
LINE
8
DEFAULT_255_1_234
10
8.6689023
20
23.3309849
11
8.5138897
21
23.3309849
0
LINE
8
DEFAULT_255_1_234
10
7.8215539
20
22.8386394
11
7.9765665
21
22.8386394
0
ARC
8
DEFAULT_255_1_234
10
8.579771
20
24.2256768
40
1.252368
50
248.9199003
51
254.1439814
0
ARC
8
DEFAULT_255_1_234
10
8.4117205
20
23.7930234
40
0.788226
50
241.633709
51
249.0064503
0
ARC
8
DEFAULT_255_1_234
10
8.25886
20
23.5129317
40
0.4691427
50
230.498225
51
241.8087113
0
ARC
8
DEFAULT_255_1_234
10
8.1804174
20
23.4129906
40
0.3421437
50
227.4064532
51
229.9881192
0
ARC
8
DEFAULT_255_1_234
10
8.1316694
20
23.3654088
40
0.2741476
50
200.6781896
51
228.1763934
0
ARC
8
DEFAULT_255_1_234
10
8.1389005
20
23.3639077
40
0.2804109
50
179.5061581
51
199.8694617
0
ARC
8
DEFAULT_255_1_234
10
8.1379757
20
23.371321
40
0.2795204
50
132.4834203
51
181.0242172
0
ARC
8
DEFAULT_255_1_234
10
8.1975339
20
23.3150704
40
0.3612768
50
129.2532479
51
133.4242687
0
ARC
8
DEFAULT_255_1_234
10
8.2121789
20
23.2930965
40
0.3875675
50
101.98776
51
128.8742646
0
ARC
8
DEFAULT_255_1_234
10
8.2520399
20
23.1209741
40
0.5642249
50
89.5906553
51
102.3169264
0
ARC
8
DEFAULT_255_1_234
10
8.2590891
20
23.1528148
40
0.5323783
50
77.2360837
51
90.3248275
0
ARC
8
DEFAULT_255_1_234
10
8.2797971
20
23.24954
40
0.4334697
50
63.837784
51
77.0809408
0
ARC
8
DEFAULT_255_1_234
10
8.3075732
20
23.3012911
40
0.3747796
50
45.9864267
51
64.1607727
0
ARC
8
DEFAULT_255_1_234
10
8.3336614
20
23.3310866
40
0.3352302
50
32.2747395
51
45.6547121
0
ARC
8
DEFAULT_255_1_234
10
8.3403054
20
23.332988
40
0.328603
50
359.6507365
51
32.6130309
0
ARC
8
DEFAULT_255_1_234
10
8.246015
20
23.333466
40
0.2678863
50
359.469343
51
14.9832209
0
ARC
8
DEFAULT_255_1_234
10
8.3165212
20
23.3523539
40
0.1948938
50
14.9781179
51
48.2004265
0
ARC
8
DEFAULT_255_1_234
10
8.3000856
20
23.3316983
40
0.2212521
50
48.5927837
51
74.1241538
0
ARC
8
DEFAULT_255_1_234
10
8.2667346
20
23.2216248
40
0.3362561
50
73.7888341
51
86.6652678
0
ARC
8
DEFAULT_255_1_234
10
8.2564911
20
23.1008881
40
0.4573953
50
86.2640471
51
90.0526343
0
ARC
8
DEFAULT_255_1_234
10
8.2536624
20
23.1404192
40
0.4178709
50
89.6697524
51
99.2309573
0
ARC
8
DEFAULT_255_1_234
10
8.2294075
20
23.2848964
40
0.2713749
50
99.069534
51
113.7658566
0
ARC
8
DEFAULT_255_1_234
10
8.2020266
20
23.3494677
40
0.2012469
50
114.0401004
51
127.9850673
0
ARC
8
DEFAULT_255_1_234
10
8.177983
20
23.379073
40
0.1631167
50
127.7287463
51
176.7105154
0
ARC
8
DEFAULT_255_1_234
10
8.2458547
20
23.3689693
40
0.2315392
50
175.1779447
51
180.0581938
0
ARC
8
DEFAULT_255_1_234
10
8.1615394
20
23.3677428
40
0.1472271
50
179.6142195
51
228.1246017
0
ARC
8
DEFAULT_255_1_234
10
8.2057063
20
23.4086308
40
0.2072299
50
226.5779593
51
230.8800004
0
ARC
8
DEFAULT_255_1_234
10
8.2528141
20
23.4711636
40
0.2854818
50
231.4635071
51
241.9260842
0
ARC
8
DEFAULT_255_1_234
10
8.3725319
20
23.69148
40
0.53622
50
241.7178533
51
248.3259551
0
ARC
8
DEFAULT_255_1_234
10
8.5110691
20
24.0347064
40
0.9063478
50
248.2007737
51
252.4528373
0
ARC
8
DEFAULT_255_1_234
10
8.6314416
20
24.4068441
40
1.2974635
50
252.3391078
51
254.3469452
0
ARC
8
DEFAULT_255_1_234
10
7.8772119
20
21.7091148
40
1.5037162
50
71.0197183
51
74.4087047
0
ARC
8
DEFAULT_255_1_234
10
8.0466804
20
22.1983111
40
0.9859993
50
66.1847285
51
71.086374
0
ARC
8
DEFAULT_255_1_234
10
8.2023116
20
22.54872
40
0.6025855
50
59.3536294
51
66.2691831
0
ARC
8
DEFAULT_255_1_234
10
8.2911769
20
22.6990609
40
0.4279449
50
49.1020879
51
59.3293958
0
ARC
8
DEFAULT_255_1_234
10
8.3730509
20
22.7923834
40
0.3038015
50
32.7919921
51
49.2505539
0
ARC
8
DEFAULT_255_1_234
10
8.4051599
20
22.8152191
40
0.264448
50
31.1181161
51
32.4005348
0
ARC
8
DEFAULT_255_1_234
10
8.3963136
20
22.8116779
40
0.2738556
50
8.1116974
51
30.7958831
0
ARC
8
DEFAULT_255_1_234
10
8.3152804
20
22.7978753
40
0.3560327
50
359.8389159
51
8.4706516
0
ARC
8
DEFAULT_255_1_234
10
8.3778596
20
22.7930137
40
0.2934776
50
337.4731098
51
0.7537279
0
ARC
8
DEFAULT_255_1_234
10
8.3957291
20
22.7910387
40
0.2762607
50
307.5917067
51
336.4315538
0
ARC
8
DEFAULT_255_1_234
10
8.3497119
20
22.8423102
40
0.3449979
50
307.6551545
51
308.4529766
0
ARC
8
DEFAULT_255_1_234
10
8.3266838
20
22.877825
40
0.3871988
50
284.3734338
51
307.1424381
0
ARC
8
DEFAULT_255_1_234
10
8.2771668
20
23.0599932
40
0.5759636
50
272.4382747
51
284.646547
0
ARC
8
DEFAULT_255_1_234
10
8.2644876
20
23.2399893
40
0.7563528
50
269.9708387
51
272.8178037
0
ARC
8
DEFAULT_255_1_234
10
8.2601916
20
23.0361716
40
0.5525489
50
248.2707594
51
270.4055579
0
ARC
8
DEFAULT_255_1_234
10
8.2547657
20
23.0171192
40
0.5328452
50
246.1383403
51
248.0542782
0
ARC
8
DEFAULT_255_1_234
10
8.2129036
20
22.9291843
40
0.4355005
50
233.1670131
51
246.4950969
0
ARC
8
DEFAULT_255_1_234
10
8.1574941
20
22.8543812
40
0.3424126
50
215.3403242
51
233.0843104
0
ARC
8
DEFAULT_255_1_234
10
8.1302372
20
22.8345549
40
0.3087104
50
179.2419209
51
215.2648451
0
ARC
8
DEFAULT_255_1_234
10
8.2069966
20
22.8359666
40
0.2304457
50
179.335461
51
199.1045811
0
ARC
8
DEFAULT_255_1_234
10
8.1737643
20
22.8272766
40
0.1962176
50
199.8828939
51
232.7063202
0
ARC
8
DEFAULT_255_1_234
10
8.2209911
20
22.8866788
40
0.2720938
50
232.3738199
51
255.5136649
0
ARC
8
DEFAULT_255_1_234
10
8.2550778
20
23.0110835
40
0.4010747
50
255.2446292
51
267.5320849
0
ARC
8
DEFAULT_255_1_234
10
8.2638401
20
23.1343702
40
0.5246356
50
267.1557994
51
270.0286766
0
ARC
8
DEFAULT_255_1_234
10
8.2666173
20
23.089995
40
0.4802668
50
269.7000017
51
278.1660162
0
ARC
8
DEFAULT_255_1_234
10
8.2922178
20
22.9169515
40
0.3053425
50
278.0231263
51
290.625471
0
ARC
8
DEFAULT_255_1_234
10
8.3269865
20
22.8242025
40
0.206291
50
290.6619762
51
307.0370976
0
ARC
8
DEFAULT_255_1_234
10
8.3570254
20
22.7873504
40
0.1587906
50
306.3943566
51
355.3030547
0
ARC
8
DEFAULT_255_1_234
10
8.3058186
20
22.7950113
40
0.2104809
50
354.3660432
51
0.0698737
0
ARC
8
DEFAULT_255_1_234
10
8.3200531
20
22.7972617
40
0.1962563
50
359.417946
51
16.1971788
0
ARC
8
DEFAULT_255_1_234
10
8.3655841
20
22.8097418
40
0.149053
50
16.4723299
51
52.6262157
0
ARC
8
DEFAULT_255_1_234
10
8.2834895
20
22.7013433
40
0.2850296
50
52.7386432
51
62.4979148
0
ARC
8
DEFAULT_255_1_234
10
8.1449972
20
22.4407283
40
0.5801521
50
62.2515216
51
68.1220564
0
ARC
8
DEFAULT_255_1_234
10
7.9729883
20
22.0179872
40
1.0365451
50
68.0062803
51
71.8053402
0
ARC
8
DEFAULT_255_1_234
10
7.7934255
20
21.4794758
40
1.6042013
50
71.7183119
51
73.9258742
0
LINE
8
DEFAULT_255_1_234
10
9.0343464
20
23.6691211
11
9.0343464
21
22.4997
0
LINE
8
DEFAULT_255_1_234
10
9.0343464
20
22.4997
11
8.880137
21
22.4997
0
LINE
8
DEFAULT_255_1_234
10
8.880137
20
22.4997
11
8.880137
21
23.6691211
0
LINE
8
DEFAULT_255_1_234
10
8.880137
20
23.6691211
11
9.0343464
21
23.6691211
0
LINE
8
DEFAULT_255_1_234
10
9.3162604
20
23.6691211
11
9.5154475
21
23.6691211
0
LINE
8
DEFAULT_255_1_234
10
9.5154475
20
23.6691211
11
9.8977583
21
22.7149506
0
LINE
8
DEFAULT_255_1_234
10
9.8977583
20
22.7149506
11
10.280069
21
23.6691211
0
LINE
8
DEFAULT_255_1_234
10
10.280069
20
23.6691211
11
10.4800593
21
23.6691211
0
LINE
8
DEFAULT_255_1_234
10
10.4800593
20
23.6691211
11
10.4800593
21
22.4997
0
LINE
8
DEFAULT_255_1_234
10
10.4800593
20
22.4997
11
10.3258499
21
22.4997
0
LINE
8
DEFAULT_255_1_234
10
10.3258499
20
22.4997
11
10.3258499
21
22.9550996
0
LINE
8
DEFAULT_255_1_234
10
10.3258499
20
22.9550996
11
10.340307
21
23.4466419
0
LINE
8
DEFAULT_255_1_234
10
10.340307
20
23.4466419
11
9.9563899
21
22.4997
0
LINE
8
DEFAULT_255_1_234
10
9.9563899
20
22.4997
11
9.8383234
21
22.4997
0
LINE
8
DEFAULT_255_1_234
10
9.8383234
20
22.4997
11
9.4552095
21
23.4442324
0
LINE
8
DEFAULT_255_1_234
10
9.4552095
20
23.4442324
11
9.4704698
21
22.9550996
0
LINE
8
DEFAULT_255_1_234
10
9.4704698
20
22.9550996
11
9.4704698
21
22.4997
0
LINE
8
DEFAULT_255_1_234
10
9.4704698
20
22.4997
11
9.3162604
21
22.4997
0
LINE
8
DEFAULT_255_1_234
10
9.3162604
20
22.4997
11
9.3162604
21
23.6691211
0
LINE
8
DEFAULT_255_1_234
10
11.5241853
20
22.4997
11
11.4125441
21
22.8049061
0
LINE
8
DEFAULT_255_1_234
10
11.4125441
20
22.8049061
11
10.9226081
21
22.8049061
0
LINE
8
DEFAULT_255_1_234
10
10.9226081
20
22.8049061
11
10.8125732
21
22.4997
0
LINE
8
DEFAULT_255_1_234
10
10.8125732
20
22.4997
11
10.6535448
21
22.4997
0
LINE
8
DEFAULT_255_1_234
10
10.6535448
20
22.4997
11
11.1001095
21
23.6691211
0
LINE
8
DEFAULT_255_1_234
10
11.1001095
20
23.6691211
11
11.2350427
21
23.6691211
0
LINE
8
DEFAULT_255_1_234
10
11.2350427
20
23.6691211
11
11.6824105
21
22.4997
0
LINE
8
DEFAULT_255_1_234
10
11.6824105
20
22.4997
11
11.5241853
21
22.4997
0
LINE
8
DEFAULT_255_1_234
10
11.1675761
20
23.4787689
11
10.9691921
21
22.9318075
0
LINE
8
DEFAULT_255_1_234
10
10.9691921
20
22.9318075
11
11.3667632
21
22.9318075
0
LINE
8
DEFAULT_255_1_234
10
11.3667632
20
22.9318075
11
11.1675761
21
23.4787689
0
LINE
8
DEFAULT_255_1_234
10
12.544216
20
23.6691211
11
12.544216
21
23.5422196
0
LINE
8
DEFAULT_255_1_234
10
12.544216
20
23.5422196
11
12.1683307
21
23.5422196
0
LINE
8
DEFAULT_255_1_234
10
12.1683307
20
23.5422196
11
12.1683307
21
22.4997
0
LINE
8
DEFAULT_255_1_234
10
12.1683307
20
22.4997
11
12.0149245
21
22.4997
0
LINE
8
DEFAULT_255_1_234
10
12.0149245
20
22.4997
11
12.0149245
21
23.5422196
0
LINE
8
DEFAULT_255_1_234
10
12.0149245
20
23.5422196
11
11.6398423
21
23.5422196
0
LINE
8
DEFAULT_255_1_234
10
11.6398423
20
23.5422196
11
11.6398423
21
23.6691211
0
LINE
8
DEFAULT_255_1_234
10
11.6398423
20
23.6691211
11
12.544216
21
23.6691211
0
LINE
8
DEFAULT_255_1_234
10
12.8831554
20
23.6691211
11
12.8831554
21
22.4997
0
LINE
8
DEFAULT_255_1_234
10
12.8831554
20
22.4997
11
12.728946
21
22.4997
0
LINE
8
DEFAULT_255_1_234
10
12.728946
20
22.4997
11
12.728946
21
23.6691211
0
LINE
8
DEFAULT_255_1_234
10
12.728946
20
23.6691211
11
12.8831554
21
23.6691211
0
LINE
8
DEFAULT_255_1_234
10
13.870256
20
22.8707663
11
14.0252686
21
22.8707663
0
LINE
8
DEFAULT_255_1_234
10
13.1249107
20
23.0297947
11
13.1249107
21
23.1422391
0
LINE
8
DEFAULT_255_1_234
10
14.0252686
20
23.2932357
11
13.870256
21
23.2932357
0
LINE
8
DEFAULT_255_1_234
10
13.2799232
20
23.1382232
11
13.2799232
21
23.0249757
0
ARC
8
DEFAULT_255_1_234
10
13.4772072
20
22.9304846
40
0.5513052
50
340.1774281
51
353.7814284
0
ARC
8
DEFAULT_255_1_234
10
13.6343425
20
22.8719582
40
0.3836379
50
311.4558989
51
340.4421614
0
ARC
8
DEFAULT_255_1_234
10
13.6310093
20
22.8830528
40
0.3941894
50
282.4333181
51
310.7513653
0
ARC
8
DEFAULT_255_1_234
10
13.5870832
20
23.0645679
40
0.5809175
50
269.9358511
51
282.809604
0
ARC
8
DEFAULT_255_1_234
10
13.5818899
20
23.2103212
40
0.7266847
50
270.0021091
51
270.3581957
0
ARC
8
DEFAULT_255_1_234
10
13.5766315
20
22.9502585
40
0.4666519
50
250.7884749
51
270.6489167
0
ARC
8
DEFAULT_255_1_234
10
13.559815
20
22.8865319
40
0.4009729
50
219.3627325
51
250.0611886
0
ARC
8
DEFAULT_255_1_234
10
13.6427361
20
22.9570042
40
0.5097822
50
193.5479632
51
219.5756669
0
ARC
8
DEFAULT_255_1_234
10
13.8798982
20
23.0185919
40
0.7547848
50
181.1218675
51
193.87563
0
ARC
8
DEFAULT_255_1_234
10
14.0869163
20
23.029658
40
0.9620055
50
179.9918545
51
181.5394234
0
ARC
8
DEFAULT_255_1_234
10
13.9018265
20
23.1459788
40
0.7769248
50
169.5837241
51
180.2757934
0
ARC
8
DEFAULT_255_1_234
10
13.7181203
20
23.1799229
40
0.590109
50
155.0365899
51
169.6003176
0
ARC
8
DEFAULT_255_1_234
10
13.6045667
20
23.2346677
40
0.4640625
50
136.783148
51
155.2472683
0
ARC
8
DEFAULT_255_1_234
10
13.5656144
20
23.2677562
40
0.4130255
50
121.7633186
51
136.428115
0
ARC
8
DEFAULT_255_1_234
10
13.5791106
20
23.2428227
40
0.4413323
50
95.6459699
51
121.5490577
0
ARC
8
DEFAULT_255_1_234
10
13.5948388
20
23.1319949
40
0.55319
50
89.924208
51
96.1377933
0
ARC
8
DEFAULT_255_1_234
10
13.5998821
20
23.1438542
40
0.5413475
50
76.6779277
51
90.4563316
0
ARC
8
DEFAULT_255_1_234
10
13.6392444
20
23.3029114
40
0.3775041
50
47.485847
51
76.9287264
0
ARC
8
DEFAULT_255_1_234
10
13.6245417
20
23.2929159
40
0.3948286
50
16.5424086
51
46.8933463
0
ARC
8
DEFAULT_255_1_234
10
13.4637574
20
23.2400861
40
0.564021
50
5.4072051
51
17.0365086
0
ARC
8
DEFAULT_255_1_234
10
13.3198591
20
23.2169679
40
0.5556559
50
7.8891745
51
15.9239216
0
ARC
8
DEFAULT_255_1_234
10
13.5185605
20
23.2746631
40
0.3487515
50
15.7653144
51
27.9410532
0
ARC
8
DEFAULT_255_1_234
10
13.6289822
20
23.333779
40
0.2235026
50
27.8166557
51
46.4008329
0
ARC
8
DEFAULT_255_1_234
10
13.6339465
20
23.3332082
40
0.2205286
50
47.4371857
51
75.0698205
0
ARC
8
DEFAULT_255_1_234
10
13.603086
20
23.2257765
40
0.3322915
50
74.7008593
51
87.8124495
0
ARC
8
DEFAULT_255_1_234
10
13.5957547
20
23.1201844
40
0.4380987
50
87.3814673
51
90.0240855
0
ARC
8
DEFAULT_255_1_234
10
13.5919091
20
23.2379291
40
0.3203749
50
89.3451631
51
108.5745436
0
ARC
8
DEFAULT_255_1_234
10
13.5782196
20
23.2892908
40
0.2673494
50
109.2998449
51
143.3037509
0
ARC
8
DEFAULT_255_1_234
10
13.6544268
20
23.2306881
40
0.3634757
50
143.0753173
51
163.1916937
0
ARC
8
DEFAULT_255_1_234
10
13.8495996
20
23.1690967
40
0.5681262
50
162.9373603
51
174.6208611
0
ARC
8
DEFAULT_255_1_234
10
14.1122038
20
23.140301
40
0.8322832
50
174.3419979
51
180.1430411
0
ARC
8
DEFAULT_255_1_234
10
14.0191194
20
23.0208698
40
0.7392076
50
179.6817502
51
189.150529
0
ARC
8
DEFAULT_255_1_234
10
13.7690443
20
22.979219
40
0.4856932
50
188.9910863
51
203.5773039
0
ARC
8
DEFAULT_255_1_234
10
13.6610775
20
22.9344211
40
0.3688271
50
203.9077269
51
215.1312379
0
ARC
8
DEFAULT_255_1_234
10
13.5687869
20
22.8628941
40
0.2522457
50
213.9071664
51
263.8849284
0
ARC
8
DEFAULT_255_1_234
10
13.5813198
20
22.9413518
40
0.3316174
50
263.1758525
51
270.1031083
0
ARC
8
DEFAULT_255_1_234
10
13.584529
20
23.0660365
40
0.4563091
50
269.6719807
51
279.0609165
0
ARC
8
DEFAULT_255_1_234
10
13.6112058
20
22.9047907
40
0.2928759
50
278.8750225
51
293.6346586
0
ARC
8
DEFAULT_255_1_234
10
13.6432266
20
22.82959
40
0.2111472
50
293.8553404
51
310.0518804
0
ARC
8
DEFAULT_255_1_234
10
13.643712
20
22.8233516
40
0.2060917
50
311.0646779
51
332.0108348
0
ARC
8
DEFAULT_255_1_234
10
13.5244847
20
22.8890978
40
0.3422352
50
331.6588543
51
343.2878891
0
ARC
8
DEFAULT_255_1_234
10
13.3182362
20
22.9524798
40
0.5580003
50
343.1446044
51
351.010618
0
ARC
8
DEFAULT_255_1_234
10
13.1641008
20
22.9805871
40
0.7146438
50
350.7157277
51
351.1602153
0
LINE
8
DEFAULT_255_1_234
10
15.4187751
20
23.3309849
11
15.2637626
21
23.3309849
0
LINE
8
DEFAULT_255_1_234
10
14.5714268
20
22.8386394
11
14.7264393
21
22.8386394
0
ARC
8
DEFAULT_255_1_234
10
15.3296439
20
24.2256768
40
1.252368
50
248.9199003
51
254.1439814
0
ARC
8
DEFAULT_255_1_234
10
15.1615934
20
23.7930234
40
0.788226
50
241.633709
51
249.0064503
0
ARC
8
DEFAULT_255_1_234
10
15.0087328
20
23.5129317
40
0.4691427
50
230.498225
51
241.8087113
0
ARC
8
DEFAULT_255_1_234
10
14.9302902
20
23.4129906
40
0.3421437
50
227.4064532
51
229.9881192
0
ARC
8
DEFAULT_255_1_234
10
14.8815423
20
23.3654088
40
0.2741476
50
200.6781896
51
228.1763934
0
ARC
8
DEFAULT_255_1_234
10
14.8887734
20
23.3639077
40
0.2804109
50
179.5061581
51
199.8694617
0
ARC
8
DEFAULT_255_1_234
10
14.8878485
20
23.371321
40
0.2795204
50
132.4834203
51
181.0242172
0
ARC
8
DEFAULT_255_1_234
10
14.9474068
20
23.3150704
40
0.3612768
50
129.2532479
51
133.4242687
0
ARC
8
DEFAULT_255_1_234
10
14.9620517
20
23.2930965
40
0.3875675
50
101.98776
51
128.8742646
0
ARC
8
DEFAULT_255_1_234
10
15.0019128
20
23.1209741
40
0.5642249
50
89.5906553
51
102.3169264
0
ARC
8
DEFAULT_255_1_234
10
15.008962
20
23.1528148
40
0.5323783
50
77.2360837
51
90.3248275
0
ARC
8
DEFAULT_255_1_234
10
15.0296699
20
23.24954
40
0.4334697
50
63.837784
51
77.0809408
0
ARC
8
DEFAULT_255_1_234
10
15.0574461
20
23.3012911
40
0.3747796
50
45.9864267
51
64.1607727
0
ARC
8
DEFAULT_255_1_234
10
15.0835342
20
23.3310866
40
0.3352302
50
32.2747395
51
45.6547121
0
ARC
8
DEFAULT_255_1_234
10
15.0901783
20
23.332988
40
0.328603
50
359.6507365
51
32.6130309
0
ARC
8
DEFAULT_255_1_234
10
14.9958878
20
23.333466
40
0.2678863
50
359.469343
51
14.9832209
0
ARC
8
DEFAULT_255_1_234
10
15.0663941
20
23.3523539
40
0.1948938
50
14.9781179
51
48.2004265
0
ARC
8
DEFAULT_255_1_234
10
15.0499585
20
23.3316983
40
0.2212521
50
48.5927837
51
74.1241538
0
ARC
8
DEFAULT_255_1_234
10
15.0166074
20
23.2216248
40
0.3362561
50
73.7888341
51
86.6652678
0
ARC
8
DEFAULT_255_1_234
10
15.006364
20
23.1008881
40
0.4573953
50
86.2640471
51
90.0526343
0
ARC
8
DEFAULT_255_1_234
10
15.0035352
20
23.1404192
40
0.4178709
50
89.6697524
51
99.2309573
0
ARC
8
DEFAULT_255_1_234
10
14.9792803
20
23.2848964
40
0.2713749
50
99.069534
51
113.7658566
0
ARC
8
DEFAULT_255_1_234
10
14.9518994
20
23.3494677
40
0.2012469
50
114.0401004
51
127.9850673
0
ARC
8
DEFAULT_255_1_234
10
14.9278558
20
23.379073
40
0.1631167
50
127.7287463
51
176.7105154
0
ARC
8
DEFAULT_255_1_234
10
14.9957276
20
23.3689693
40
0.2315392
50
175.1779447
51
180.0581938
0
ARC
8
DEFAULT_255_1_234
10
14.9114123
20
23.3677428
40
0.1472271
50
179.6142195
51
228.1246017
0
ARC
8
DEFAULT_255_1_234
10
14.9555791
20
23.4086308
40
0.2072299
50
226.5779593
51
230.8800004
0
ARC
8
DEFAULT_255_1_234
10
15.002687
20
23.4711636
40
0.2854818
50
231.4635071
51
241.9260842
0
ARC
8
DEFAULT_255_1_234
10
15.1224048
20
23.69148
40
0.53622
50
241.7178533
51
248.3259551
0
ARC
8
DEFAULT_255_1_234
10
15.260942
20
24.0347064
40
0.9063478
50
248.2007737
51
252.4528373
0
ARC
8
DEFAULT_255_1_234
10
15.3813145
20
24.4068441
40
1.2974635
50
252.3391078
51
254.3469452
0
ARC
8
DEFAULT_255_1_234
10
14.6270847
20
21.7091148
40
1.5037162
50
71.0197183
51
74.4087047
0
ARC
8
DEFAULT_255_1_234
10
14.7965532
20
22.1983111
40
0.9859993
50
66.1847285
51
71.086374
0
ARC
8
DEFAULT_255_1_234
10
14.9521845
20
22.54872
40
0.6025855
50
59.3536294
51
66.2691831
0
ARC
8
DEFAULT_255_1_234
10
15.0410497
20
22.6990609
40
0.4279449
50
49.1020879
51
59.3293958
0
ARC
8
DEFAULT_255_1_234
10
15.1229237
20
22.7923834
40
0.3038015
50
32.7919921
51
49.2505539
0
ARC
8
DEFAULT_255_1_234
10
15.1550327
20
22.8152191
40
0.264448
50
31.1181161
51
32.4005348
0
ARC
8
DEFAULT_255_1_234
10
15.1461865
20
22.8116779
40
0.2738556
50
8.1116974
51
30.7958831
0
ARC
8
DEFAULT_255_1_234
10
15.0651533
20
22.7978753
40
0.3560327
50
359.8389159
51
8.4706516
0
ARC
8
DEFAULT_255_1_234
10
15.1277324
20
22.7930137
40
0.2934776
50
337.4731098
51
0.7537279
0
ARC
8
DEFAULT_255_1_234
10
15.1456019
20
22.7910387
40
0.2762607
50
307.5917067
51
336.4315538
0
ARC
8
DEFAULT_255_1_234
10
15.0995847
20
22.8423102
40
0.3449979
50
307.6551545
51
308.4529766
0
ARC
8
DEFAULT_255_1_234
10
15.0765566
20
22.877825
40
0.3871988
50
284.3734338
51
307.1424381
0
ARC
8
DEFAULT_255_1_234
10
15.0270396
20
23.0599932
40
0.5759636
50
272.4382747
51
284.646547
0
ARC
8
DEFAULT_255_1_234
10
15.0143605
20
23.2399893
40
0.7563528
50
269.9708387
51
272.8178037
0
ARC
8
DEFAULT_255_1_234
10
15.0100645
20
23.0361716
40
0.5525489
50
248.2707594
51
270.4055579
0
ARC
8
DEFAULT_255_1_234
10
15.0046386
20
23.0171192
40
0.5328452
50
246.1383403
51
248.0542782
0
ARC
8
DEFAULT_255_1_234
10
14.9627765
20
22.9291843
40
0.4355005
50
233.1670131
51
246.4950969
0
ARC
8
DEFAULT_255_1_234
10
14.907367
20
22.8543812
40
0.3424126
50
215.3403242
51
233.0843104
0
ARC
8
DEFAULT_255_1_234
10
14.8801101
20
22.8345549
40
0.3087104
50
179.2419209
51
215.2648451
0
ARC
8
DEFAULT_255_1_234
10
14.9568695
20
22.8359666
40
0.2304457
50
179.335461
51
199.1045811
0
ARC
8
DEFAULT_255_1_234
10
14.9236371
20
22.8272766
40
0.1962176
50
199.8828939
51
232.7063202
0
ARC
8
DEFAULT_255_1_234
10
14.970864
20
22.8866788
40
0.2720938
50
232.3738199
51
255.5136649
0
ARC
8
DEFAULT_255_1_234
10
15.0049506
20
23.0110835
40
0.4010747
50
255.2446292
51
267.5320849
0
ARC
8
DEFAULT_255_1_234
10
15.013713
20
23.1343702
40
0.5246356
50
267.1557994
51
270.0286766
0
ARC
8
DEFAULT_255_1_234
10
15.0164902
20
23.089995
40
0.4802668
50
269.7000017
51
278.1660162
0
ARC
8
DEFAULT_255_1_234
10
15.0420907
20
22.9169515
40
0.3053425
50
278.0231263
51
290.625471
0
ARC
8
DEFAULT_255_1_234
10
15.0768594
20
22.8242025
40
0.206291
50
290.6619762
51
307.0370976
0
ARC
8
DEFAULT_255_1_234
10
15.1068983
20
22.7873504
40
0.1587906
50
306.3943566
51
355.3030547
0
ARC
8
DEFAULT_255_1_234
10
15.0556914
20
22.7950113
40
0.2104809
50
354.3660432
51
0.0698737
0
ARC
8
DEFAULT_255_1_234
10
15.069926
20
22.7972617
40
0.1962563
50
359.417946
51
16.1971788
0
ARC
8
DEFAULT_255_1_234
10
15.115457
20
22.8097418
40
0.149053
50
16.4723299
51
52.6262157
0
ARC
8
DEFAULT_255_1_234
10
15.0333624
20
22.7013433
40
0.2850296
50
52.7386432
51
62.4979148
0
ARC
8
DEFAULT_255_1_234
10
14.8948701
20
22.4407283
40
0.5801521
50
62.2515216
51
68.1220564
0
ARC
8
DEFAULT_255_1_234
10
14.7228612
20
22.0179872
40
1.0365451
50
68.0062803
51
71.8053402
0
ARC
8
DEFAULT_255_1_234
10
14.5432983
20
21.4794758
40
1.6042013
50
71.7183119
51
73.9258742
0
LINE
8
DEFAULT_255_1_234
10
16.3351965
20
23.6691211
11
16.3351965
21
23.585591
0
LINE
8
DEFAULT_255_1_234
10
16.3351965
20
23.585591
11
15.8508827
21
22.4997
0
LINE
8
DEFAULT_255_1_234
10
15.8508827
20
22.4997
11
15.6950669
21
22.4997
0
LINE
8
DEFAULT_255_1_234
10
15.6950669
20
22.4997
11
16.1777744
21
23.5470387
0
LINE
8
DEFAULT_255_1_234
10
16.1777744
20
23.5470387
11
15.5448734
21
23.5470387
0
LINE
8
DEFAULT_255_1_234
10
15.5448734
20
23.5470387
11
15.5448734
21
23.6691211
0
LINE
8
DEFAULT_255_1_234
10
15.5448734
20
23.6691211
11
16.3351965
21
23.6691211
0
LINE
8
DEFAULT_255_1_234
10
16.8283452
20
23.0571026
11
16.8283452
21
22.9358234
0
LINE
8
DEFAULT_255_1_234
10
16.8283452
20
22.9358234
11
16.4363964
21
22.9358234
0
LINE
8
DEFAULT_255_1_234
10
16.4363964
20
22.9358234
11
16.4363964
21
23.0571026
0
LINE
8
DEFAULT_255_1_234
10
16.4363964
20
23.0571026
11
16.8283452
21
23.0571026
0
LINE
8
DEFAULT_255_1_234
10
17.4459859
20
23.6747433
11
17.4459859
21
22.4997
0
LINE
8
DEFAULT_255_1_234
10
17.4459859
20
22.4997
11
17.2965956
21
22.4997
0
LINE
8
DEFAULT_255_1_234
10
17.2965956
20
22.4997
11
17.2965956
21
23.4900133
0
LINE
8
DEFAULT_255_1_234
10
17.2965956
20
23.4900133
11
16.9970117
21
23.3799785
0
LINE
8
DEFAULT_255_1_234
10
16.9970117
20
23.3799785
11
16.9970117
21
23.5149117
0
LINE
8
DEFAULT_255_1_234
10
16.9970117
20
23.5149117
11
17.4226938
21
23.6747433
0
LINE
8
DEFAULT_255_1_234
10
17.4226938
20
23.6747433
11
17.4459859
21
23.6747433
0
LINE
8
DEFAULT_255_1_234
10
18.0684456
20
23.0554963
11
17.9495759
21
23.0860169
0
LINE
8
DEFAULT_255_1_234
10
17.9495759
20
23.0860169
11
18.0090107
21
23.6691211
0
LINE
8
DEFAULT_255_1_234
10
18.0090107
20
23.6691211
11
18.6081784
21
23.6691211
0
LINE
8
DEFAULT_255_1_234
10
18.6081784
20
23.6691211
11
18.6081784
21
23.5317784
0
LINE
8
DEFAULT_255_1_234
10
18.6081784
20
23.5317784
11
18.135109
21
23.5317784
0
LINE
8
DEFAULT_255_1_234
10
18.135109
20
23.5317784
11
18.0997694
21
23.2129184
0
LINE
8
DEFAULT_255_1_234
10
17.9078108
20
22.8073156
11
18.0483663
21
22.8073156
0
LINE
8
DEFAULT_255_1_234
10
18.1078011
20
23.0876232
11
18.0684456
21
23.0554963
0
ARC
8
DEFAULT_255_1_234
10
18.2852478
20
22.894923
40
0.3681349
50
93.7182161
51
120.2538958
0
ARC
8
DEFAULT_255_1_234
10
18.2946741
20
22.8141394
40
0.449379
50
89.9660152
51
94.2496022
0
ARC
8
DEFAULT_255_1_234
10
18.2987475
20
22.8730549
40
0.390482
50
73.8043271
51
90.5585896
0
ARC
8
DEFAULT_255_1_234
10
18.3222372
20
22.9588602
40
0.3015334
50
41.3071453
51
73.5430202
0
ARC
8
DEFAULT_255_1_234
10
18.2806199
20
22.9230324
40
0.3564457
50
13.5075983
51
41.2174222
0
ARC
8
DEFAULT_255_1_234
10
18.1164403
20
22.8800486
40
0.5261351
50
1.1331335
51
13.8829381
0
ARC
8
DEFAULT_255_1_234
10
17.9752772
20
22.8724665
40
0.6674378
50
359.9919444
51
1.544251
0
ARC
8
DEFAULT_255_1_234
10
18.1029598
20
22.868328
40
0.5397702
50
347.8572367
51
0.4293338
0
ARC
8
DEFAULT_255_1_234
10
18.2779916
20
22.8286736
40
0.3603188
50
323.673004
51
348.1672506
0
ARC
8
DEFAULT_255_1_234
10
18.3074424
20
22.8107168
40
0.3259678
50
316.8171152
51
323.1492751
0
ARC
8
DEFAULT_255_1_234
10
18.3135613
20
22.807046
40
0.3189975
50
281.8396411
51
316.5457803
0
ARC
8
DEFAULT_255_1_234
10
18.2759876
20
22.9625762
40
0.4789527
50
269.5770101
51
282.4214771
0
ARC
8
DEFAULT_255_1_234
10
18.2688688
20
22.9412125
40
0.45759
50
256.2427136
51
270.4486331
0
ARC
8
DEFAULT_255_1_234
10
18.238959
20
22.8212229
40
0.3339303
50
228.9023911
51
256.3314342
0
ARC
8
DEFAULT_255_1_234
10
18.2315823
20
22.8095746
40
0.32031
50
193.753695
51
228.5271154
0
ARC
8
DEFAULT_255_1_234
10
18.3553777
20
22.84588
40
0.4492253
50
184.924711
51
194.497588
0
ARC
8
DEFAULT_255_1_234
10
18.3746344
20
22.8494591
40
0.3289787
50
187.3600538
51
198.6732863
0
ARC
8
DEFAULT_255_1_234
10
18.2696638
20
22.8130674
40
0.217884
50
198.4451669
51
217.794479
0
ARC
8
DEFAULT_255_1_234
10
18.2400813
20
22.7921085
40
0.1816698
50
218.2887171
51
228.5612368
0
ARC
8
DEFAULT_255_1_234
10
18.24986
20
22.8052963
40
0.1980329
50
228.9654866
51
258.1234728
0
ARC
8
DEFAULT_255_1_234
10
18.270431
20
22.8933833
40
0.2884748
50
257.7258293
51
270.401361
0
ARC
8
DEFAULT_255_1_234
10
18.2749196
20
22.8488821
40
0.2439788
50
269.4204404
51
286.4209037
0
ARC
8
DEFAULT_255_1_234
10
18.2897684
20
22.7949657
40
0.1880666
50
286.7251356
51
320.600362
0
ARC
8
DEFAULT_255_1_234
10
18.2514509
20
22.8260595
40
0.2374121
50
320.6712579
51
344.5441685
0
ARC
8
DEFAULT_255_1_234
10
18.1357835
20
22.8600045
40
0.3579479
50
344.2412205
51
356.7357071
0
ARC
8
DEFAULT_255_1_234
10
18.0108983
20
22.8703444
40
0.4832297
50
356.3548756
51
0.0500261
0
ARC
8
DEFAULT_255_1_234
10
18.1445493
20
22.873465
40
0.3495889
50
359.5576869
51
12.953486
0
ARC
8
DEFAULT_255_1_234
10
18.250039
20
22.8990434
40
0.2410532
50
12.6490276
51
41.6081334
0
ARC
8
DEFAULT_255_1_234
10
18.2730761
20
22.9186321
40
0.2108218
50
41.7850273
51
85.9892764
0
ARC
8
DEFAULT_255_1_234
10
18.2607498
20
22.8373462
40
0.2928454
50
84.6957577
51
90.0676183
0
ARC
8
DEFAULT_255_1_234
10
18.2583982
20
22.7704716
40
0.3597255
50
89.6804936
51
99.1614436
0
ARC
8
DEFAULT_255_1_234
10
18.2378613
20
22.8932131
40
0.235281
50
98.9830931
51
113.8908934
0
ARC
8
DEFAULT_255_1_234
10
18.2149023
20
22.9473587
40
0.176479
50
114.1950727
51
127.3641004
0
LINE
8
DEFAULT_255_1_234
10
19.5382537
20
23.1912327
11
19.5382537
21
22.9984709
0
LINE
8
DEFAULT_255_1_234
10
18.800137
20
22.9783916
11
18.800137
21
23.1767755
0
LINE
8
DEFAULT_255_1_234
10
19.3896666
20
22.9583123
11
19.3896666
21
23.2016739
0
LINE
8
DEFAULT_255_1_234
10
18.9487241
20
23.2129184
11
18.9487241
21
22.9751789
0
ARC
8
DEFAULT_255_1_234
10
18.3135427
20
22.9935805
40
1.2247208
50
353.8441951
51
0.2287902
0
ARC
8
DEFAULT_255_1_234
10
18.777493
20
22.9417806
40
0.7578929
50
344.4934747
51
353.9765454
0
ARC
8
DEFAULT_255_1_234
10
19.0767521
20
22.8566981
40
0.4467846
50
329.2803592
51
344.7472793
0
ARC
8
DEFAULT_255_1_234
10
19.1760345
20
22.8022018
40
0.3336173
50
324.9352394
51
328.6160465
0
ARC
8
DEFAULT_255_1_234
10
19.2137454
20
22.7758427
40
0.2876076
50
280.580143
51
324.9173126
0
ARC
8
DEFAULT_255_1_234
10
19.1736247
20
22.9429099
40
0.4592847
50
269.5977311
51
281.6734359
0
ARC
8
DEFAULT_255_1_234
10
19.1664152
20
22.9309173
40
0.4472986
50
256.6228859
51
270.51044
0
ARC
8
DEFAULT_255_1_234
10
19.126213
20
22.7760877
40
0.2873874
50
215.8618325
51
257.2788573
0
ARC
8
DEFAULT_255_1_234
10
19.2283162
20
22.8445977
40
0.4102928
50
197.9693508
51
215.2623606
0
ARC
8
DEFAULT_255_1_234
10
19.4768277
20
22.9284709
40
0.6725652
50
187.8816417
51
198.2346507
0
ARC
8
DEFAULT_255_1_234
10
19.8726486
20
22.9856079
40
1.0724845
50
180.8976217
51
188.0055519
0
ARC
8
DEFAULT_255_1_234
10
20.1526674
20
22.9959777
40
1.3526448
50
180.7449369
51
181.1510016
0
ARC
8
DEFAULT_255_1_234
10
19.9949403
20
23.1816042
40
1.1948131
50
173.7675579
51
180.231553
0
ARC
8
DEFAULT_255_1_234
10
19.5431549
20
23.2326666
40
0.7401564
50
164.3058563
51
173.9002247
0
ARC
8
DEFAULT_255_1_234
10
19.2519618
20
23.3165656
40
0.4371288
50
148.7922025
51
164.568378
0
ARC
8
DEFAULT_255_1_234
10
19.156807
20
23.3696929
40
0.3282386
50
144.5883898
51
148.1176286
0
ARC
8
DEFAULT_255_1_234
10
19.1224968
20
23.3936315
40
0.2864044
50
101.6440918
51
144.514236
0
ARC
8
DEFAULT_255_1_234
10
19.1650035
20
23.2247069
40
0.4604934
50
89.5284041
51
102.5819763
0
ARC
8
DEFAULT_255_1_234
10
19.1729123
20
23.2208018
40
0.464401
50
77.0437873
51
90.5081339
0
ARC
8
DEFAULT_255_1_234
10
19.2131125
20
23.3850615
40
0.2953195
50
48.2778575
51
77.4994676
0
ARC
8
DEFAULT_255_1_234
10
19.2203756
20
23.3979746
40
0.2808655
50
36.3142134
51
47.6305865
0
ARC
8
DEFAULT_255_1_234
10
19.1335063
20
23.3394515
40
0.3855453
50
18.2931786
51
35.6769206
0
ARC
8
DEFAULT_255_1_234
10
18.8791822
20
23.2521593
40
0.654423
50
8.024666
51
18.5605216
0
ARC
8
DEFAULT_255_1_234
10
18.4628742
20
23.1906792
40
1.0752407
50
1.1274072
51
8.1718305
0
ARC
8
DEFAULT_255_1_234
10
18.1392932
20
23.1779885
40
1.3990231
50
0.5424119
51
1.3863029
0
ARC
8
DEFAULT_255_1_234
10
18.321431
20
23.2052342
40
1.0682415
50
359.8090433
51
4.9407866
0
ARC
8
DEFAULT_255_1_234
10
18.7424324
20
23.2428113
40
0.6455691
50
4.8362157
51
12.2904523
0
ARC
8
DEFAULT_255_1_234
10
19.0179439
20
23.3041965
40
0.3633074
50
12.0805627
51
23.8173984
0
ARC
8
DEFAULT_255_1_234
10
19.1353144
20
23.3538919
40
0.2358723
50
24.2871213
51
31.3935614
0
ARC
8
DEFAULT_255_1_234
10
19.1877841
20
23.3882233
40
0.1732111
50
30.7407893
51
82.4657128
0
ARC
8
DEFAULT_255_1_234
10
19.1697976
20
23.2998691
40
0.263235
50
81.1060089
51
90.2184952
0
ARC
8
DEFAULT_255_1_234
10
19.1662275
20
23.3256924
40
0.2374236
50
89.3806855
51
105.6762551
0
ARC
8
DEFAULT_255_1_234
10
19.1478905
20
23.3923567
40
0.1682847
50
105.7981136
51
149.7388061
0
ARC
8
DEFAULT_255_1_234
10
19.2542984
20
23.328395
40
0.2924306
50
149.4208916
51
163.6286378
0
ARC
8
DEFAULT_255_1_234
10
19.4633872
20
23.264625
40
0.5110213
50
163.3763315
51
172.1410975
0
ARC
8
DEFAULT_255_1_234
10
19.7934591
20
23.2173518
40
0.8444586
50
172.0259487
51
178.0703232
0
ARC
8
DEFAULT_255_1_234
10
20.096468
20
23.2029906
40
1.1477868
50
177.8631668
51
179.5044149
0
ARC
8
DEFAULT_255_1_234
10
19.9892085
20
22.9715389
40
1.0404907
50
179.7995573
51
185.2460446
0
ARC
8
DEFAULT_255_1_234
10
19.5849124
20
22.9332513
40
0.6343885
50
185.1411642
51
193.0079639
0
ARC
8
DEFAULT_255_1_234
10
19.3205596
20
22.8707641
40
0.3627568
50
192.7897626
51
205.2507664
0
ARC
8
DEFAULT_255_1_234
10
19.2159143
20
22.8240415
40
0.2481908
50
205.8005384
51
211.2537509
0
ARC
8
DEFAULT_255_1_234
10
19.1635584
20
22.788958
40
0.1852521
50
210.3789793
51
238.4008143
0
ARC
8
DEFAULT_255_1_234
10
19.1616106
20
22.7936376
40
0.1882621
50
239.6520629
51
265.9793761
0
ARC
8
DEFAULT_255_1_234
10
19.1701306
20
22.8608427
40
0.2559272
50
265.1315437
51
270.060332
0
ARC
8
DEFAULT_255_1_234
10
19.1730085
20
22.8284534
40
0.2235528
50
269.3314664
51
287.2178029
0
ARC
8
DEFAULT_255_1_234
10
19.1867937
20
22.7781279
40
0.1714108
50
287.7958004
51
329.080874
0
ARC
8
DEFAULT_255_1_234
10
19.0910394
20
22.837893
40
0.2842745
50
328.6634704
51
343.3325132
0
ARC
8
DEFAULT_255_1_234
10
18.8737414
20
22.9055863
40
0.5118644
50
343.0499468
51
351.9393422
0
ARC
8
DEFAULT_255_1_234
10
18.5270714
20
22.9566949
40
0.8622784
50
351.8069023
51
357.7959224
0
ARC
8
DEFAULT_255_1_234
10
18.203527
20
22.9734721
40
1.1862365
50
357.5871873
51
359.2677531
0
LINE
8
DEFAULT_255_1_234
10
20.4619036
20
23.1912327
11
20.4619036
21
22.9984709
0
LINE
8
DEFAULT_255_1_234
10
19.7237869
20
22.9783916
11
19.7237869
21
23.1767755
0
LINE
8
DEFAULT_255_1_234
10
20.3133165
20
22.9583123
11
20.3133165
21
23.2016739
0
LINE
8
DEFAULT_255_1_234
10
19.872374
20
23.2129184
11
19.872374
21
22.9751789
0
ARC
8
DEFAULT_255_1_234
10
19.2371926
20
22.9935805
40
1.2247208
50
353.8441951
51
0.2287902
0
ARC
8
DEFAULT_255_1_234
10
19.7011429
20
22.9417806
40
0.7578929
50
344.4934747
51
353.9765454
0
ARC
8
DEFAULT_255_1_234
10
20.000402
20
22.8566981
40
0.4467846
50
329.2803592
51
344.7472793
0
ARC
8
DEFAULT_255_1_234
10
20.0996844
20
22.8022018
40
0.3336173
50
324.9352394
51
328.6160465
0
ARC
8
DEFAULT_255_1_234
10
20.1373953
20
22.7758427
40
0.2876076
50
280.580143
51
324.9173126
0
ARC
8
DEFAULT_255_1_234
10
20.0972746
20
22.9429099
40
0.4592847
50
269.5977311
51
281.6734359
0
ARC
8
DEFAULT_255_1_234
10
20.0900651
20
22.9309173
40
0.4472986
50
256.6228859
51
270.51044
0
ARC
8
DEFAULT_255_1_234
10
20.0498629
20
22.7760877
40
0.2873874
50
215.8618325
51
257.2788573
0
ARC
8
DEFAULT_255_1_234
10
20.1519661
20
22.8445977
40
0.4102928
50
197.9693508
51
215.2623606
0
ARC
8
DEFAULT_255_1_234
10
20.4004776
20
22.9284709
40
0.6725652
50
187.8816417
51
198.2346507
0
ARC
8
DEFAULT_255_1_234
10
20.7962985
20
22.9856079
40
1.0724845
50
180.8976217
51
188.0055519
0
ARC
8
DEFAULT_255_1_234
10
21.0763173
20
22.9959777
40
1.3526448
50
180.7449369
51
181.1510016
0
ARC
8
DEFAULT_255_1_234
10
20.9185902
20
23.1816042
40
1.1948131
50
173.7675579
51
180.231553
0
ARC
8
DEFAULT_255_1_234
10
20.4668048
20
23.2326666
40
0.7401564
50
164.3058563
51
173.9002247
0
ARC
8
DEFAULT_255_1_234
10
20.1756117
20
23.3165656
40
0.4371288
50
148.7922025
51
164.568378
0
ARC
8
DEFAULT_255_1_234
10
20.0804569
20
23.3696929
40
0.3282386
50
144.5883898
51
148.1176286
0
ARC
8
DEFAULT_255_1_234
10
20.0461467
20
23.3936315
40
0.2864044
50
101.6440918
51
144.514236
0
ARC
8
DEFAULT_255_1_234
10
20.0886534
20
23.2247069
40
0.4604934
50
89.5284041
51
102.5819763
0
ARC
8
DEFAULT_255_1_234
10
20.0965622
20
23.2208018
40
0.464401
50
77.0437873
51
90.5081339
0
ARC
8
DEFAULT_255_1_234
10
20.1367624
20
23.3850615
40
0.2953195
50
48.2778575
51
77.4994676
0
ARC
8
DEFAULT_255_1_234
10
20.1440255
20
23.3979746
40
0.2808655
50
36.3142134
51
47.6305865
0
ARC
8
DEFAULT_255_1_234
10
20.0571562
20
23.3394515
40
0.3855453
50
18.2931786
51
35.6769206
0
ARC
8
DEFAULT_255_1_234
10
19.8028321
20
23.2521593
40
0.654423
50
8.024666
51
18.5605216
0
ARC
8
DEFAULT_255_1_234
10
19.3865241
20
23.1906792
40
1.0752407
50
1.1274072
51
8.1718305
0
ARC
8
DEFAULT_255_1_234
10
19.0629431
20
23.1779885
40
1.3990231
50
0.5424119
51
1.3863029
0
ARC
8
DEFAULT_255_1_234
10
19.2450809
20
23.2052342
40
1.0682415
50
359.8090433
51
4.9407866
0
ARC
8
DEFAULT_255_1_234
10
19.6660823
20
23.2428113
40
0.6455691
50
4.8362157
51
12.2904523
0
ARC
8
DEFAULT_255_1_234
10
19.9415938
20
23.3041965
40
0.3633074
50
12.0805627
51
23.8173984
0
ARC
8
DEFAULT_255_1_234
10
20.0589643
20
23.3538919
40
0.2358723
50
24.2871213
51
31.3935614
0
ARC
8
DEFAULT_255_1_234
10
20.111434
20
23.3882233
40
0.1732111
50
30.7407893
51
82.4657128
0
ARC
8
DEFAULT_255_1_234
10
20.0934475
20
23.2998691
40
0.263235
50
81.1060089
51
90.2184952
0
ARC
8
DEFAULT_255_1_234
10
20.0898774
20
23.3256924
40
0.2374236
50
89.3806855
51
105.6762551
0
ARC
8
DEFAULT_255_1_234
10
20.0715404
20
23.3923567
40
0.1682847
50
105.7981136
51
149.7388061
0
ARC
8
DEFAULT_255_1_234
10
20.1779483
20
23.328395
40
0.2924306
50
149.4208916
51
163.6286378
0
ARC
8
DEFAULT_255_1_234
10
20.3870371
20
23.264625
40
0.5110213
50
163.3763315
51
172.1410975
0
ARC
8
DEFAULT_255_1_234
10
20.717109
20
23.2173518
40
0.8444586
50
172.0259487
51
178.0703232
0
ARC
8
DEFAULT_255_1_234
10
21.0201179
20
23.2029906
40
1.1477868
50
177.8631668
51
179.5044149
0
ARC
8
DEFAULT_255_1_234
10
20.9128584
20
22.9715389
40
1.0404907
50
179.7995573
51
185.2460446
0
ARC
8
DEFAULT_255_1_234
10
20.5085623
20
22.9332513
40
0.6343885
50
185.1411642
51
193.0079639
0
ARC
8
DEFAULT_255_1_234
10
20.2442095
20
22.8707641
40
0.3627568
50
192.7897626
51
205.2507664
0
ARC
8
DEFAULT_255_1_234
10
20.1395642
20
22.8240415
40
0.2481908
50
205.8005384
51
211.2537509
0
ARC
8
DEFAULT_255_1_234
10
20.0872083
20
22.788958
40
0.1852521
50
210.3789793
51
238.4008143
0
ARC
8
DEFAULT_255_1_234
10
20.0852605
20
22.7936376
40
0.1882621
50
239.6520629
51
265.9793761
0
ARC
8
DEFAULT_255_1_234
10
20.0937805
20
22.8608427
40
0.2559272
50
265.1315437
51
270.060332
0
ARC
8
DEFAULT_255_1_234
10
20.0966584
20
22.8284534
40
0.2235528
50
269.3314664
51
287.2178029
0
ARC
8
DEFAULT_255_1_234
10
20.1104436
20
22.7781279
40
0.1714108
50
287.7958004
51
329.080874
0
ARC
8
DEFAULT_255_1_234
10
20.0146893
20
22.837893
40
0.2842745
50
328.6634704
51
343.3325132
0
ARC
8
DEFAULT_255_1_234
10
19.7973913
20
22.9055863
40
0.5118644
50
343.0499468
51
351.9393422
0
ARC
8
DEFAULT_255_1_234
10
19.4507213
20
22.9566949
40
0.8622784
50
351.8069023
51
357.7959224
0
ARC
8
DEFAULT_255_1_234
10
19.1271769
20
22.9734721
40
1.1862365
50
357.5871873
51
359.2677531
0
LINE
8
DEFAULT_255_1_234
10
4.2459489
20
21.6848211
11
4.2459489
21
20.6414983
0
LINE
8
DEFAULT_255_1_234
10
4.2459489
20
20.6414983
11
4.8001389
21
20.6414983
0
LINE
8
DEFAULT_255_1_234
10
4.8001389
20
20.6414983
11
4.8001389
21
20.5154
0
LINE
8
DEFAULT_255_1_234
10
4.8001389
20
20.5154
11
4.0909364
21
20.5154
0
LINE
8
DEFAULT_255_1_234
10
4.0909364
20
20.5154
11
4.0909364
21
21.6848211
0
LINE
8
DEFAULT_255_1_234
10
4.0909364
20
21.6848211
11
4.2459489
21
21.6848211
0
LINE
8
DEFAULT_255_1_234
10
5.378424
20
21.4840276
11
5.378424
21
21.1426788
0
LINE
8
DEFAULT_255_1_234
10
5.378424
20
21.1426788
11
5.7045126
21
21.1426788
0
LINE
8
DEFAULT_255_1_234
10
5.7045126
20
21.1426788
11
5.7045126
21
21.0021233
0
LINE
8
DEFAULT_255_1_234
10
5.7045126
20
21.0021233
11
5.378424
21
21.0021233
0
LINE
8
DEFAULT_255_1_234
10
5.378424
20
21.0021233
11
5.378424
21
20.6326634
0
LINE
8
DEFAULT_255_1_234
10
5.378424
20
20.6326634
11
5.2290337
21
20.6326634
0
LINE
8
DEFAULT_255_1_234
10
5.2290337
20
20.6326634
11
5.2290337
21
21.0021233
0
LINE
8
DEFAULT_255_1_234
10
5.2290337
20
21.0021233
11
4.9029451
21
21.0021233
0
LINE
8
DEFAULT_255_1_234
10
4.9029451
20
21.0021233
11
4.9029451
21
21.1426788
0
LINE
8
DEFAULT_255_1_234
10
4.9029451
20
21.1426788
11
5.2290337
21
21.1426788
0
LINE
8
DEFAULT_255_1_234
10
5.2290337
20
21.1426788
11
5.2290337
21
21.4840276
0
LINE
8
DEFAULT_255_1_234
10
5.2290337
20
21.4840276
11
5.378424
21
21.4840276
0
LINE
8
DEFAULT_255_1_234
10
4.6346344
20
5.0982091
11
4.3591458
21
5.0982091
0
LINE
8
DEFAULT_255_1_234
10
4.3591458
20
5.0982091
11
4.3591458
21
4.6404
0
LINE
8
DEFAULT_255_1_234
10
4.3591458
20
4.6404
11
4.2049364
21
4.6404
0
LINE
8
DEFAULT_255_1_234
10
4.2049364
20
4.6404
11
4.2049364
21
5.8098211
0
LINE
8
DEFAULT_255_1_234
10
4.2049364
20
5.8098211
11
4.6362407
21
5.8098211
0
LINE
8
DEFAULT_255_1_234
10
4.3591458
20
5.6829196
11
4.3591458
21
5.2243074
0
LINE
8
DEFAULT_255_1_234
10
4.3591458
20
5.2243074
11
4.6362407
21
5.2243074
0
LINE
8
DEFAULT_255_1_234
10
4.6450756
20
5.6829196
11
4.3591458
21
5.6829196
0
ARC
8
DEFAULT_255_1_234
10
4.6404534
20
5.2039195
40
0.6059162
50
78.8378113
51
90.3983573
0
ARC
8
DEFAULT_255_1_234
10
4.6820548
20
5.4059879
40
0.3996205
50
58.9632738
51
79.0810598
0
ARC
8
DEFAULT_255_1_234
10
4.712209
20
5.4619721
40
0.3361177
50
48.0197965
51
58.447194
0
ARC
8
DEFAULT_255_1_234
10
4.7210951
20
5.4705225
40
0.3238191
50
3.3375044
51
48.1766626
0
ARC
8
DEFAULT_255_1_234
10
4.598079
20
5.4528171
40
0.4477806
50
359.9477528
51
4.6829065
0
ARC
8
DEFAULT_255_1_234
10
4.6104107
20
5.4485628
40
0.4354656
50
346.1877825
51
0.5060252
0
ARC
8
DEFAULT_255_1_234
10
4.7462975
20
5.4132731
40
0.295089
50
310.8831995
51
346.5426355
0
ARC
8
DEFAULT_255_1_234
10
4.7154395
20
5.4549695
40
0.3468331
50
286.6925341
51
310.2288297
0
ARC
8
DEFAULT_255_1_234
10
4.6585226
20
5.6339882
40
0.5346654
50
274.6850312
51
287.0245141
0
ARC
8
DEFAULT_255_1_234
10
4.6359949
20
5.8548932
40
0.7566852
50
269.8969846
51
275.018904
0
ARC
8
DEFAULT_255_1_234
10
4.638754
20
5.6469707
40
0.4226708
50
269.6593078
51
279.4153575
0
ARC
8
DEFAULT_255_1_234
10
4.6644815
20
5.4979133
40
0.2714146
50
279.2049762
51
294.9900808
0
ARC
8
DEFAULT_255_1_234
10
4.6935141
20
5.4331508
40
0.2004525
50
295.2888114
51
311.2911209
0
ARC
8
DEFAULT_255_1_234
10
4.7006035
20
5.422622
40
0.1878703
50
311.7854996
51
347.2861051
0
ARC
8
DEFAULT_255_1_234
10
4.6022194
20
5.4479092
40
0.2894234
50
346.6893224
51
0.1059443
0
ARC
8
DEFAULT_255_1_234
10
4.5267089
20
5.4507685
40
0.3649409
50
359.6350983
51
0.0053152
0
ARC
8
DEFAULT_255_1_234
10
4.6237417
20
5.4532937
40
0.2679199
50
359.4672059
51
15.5933957
0
ARC
8
DEFAULT_255_1_234
10
4.6862306
20
5.4701779
40
0.2031932
50
15.7442113
51
46.6203375
0
ARC
8
DEFAULT_255_1_234
10
4.6714527
20
5.4531484
40
0.2257226
50
46.8628658
51
75.6676503
0
ARC
8
DEFAULT_255_1_234
10
4.6420347
20
5.3472718
40
0.3355939
50
75.276167
51
88.2915297
0
ARC
8
DEFAULT_255_1_234
10
4.6362054
20
5.2594524
40
0.4235602
50
87.8575022
51
88.8000139
0
LINE
8
DEFAULT_255_1_234
10
5.903649
20
5.3070343
11
5.903649
21
5.180936
0
LINE
8
DEFAULT_255_1_234
10
5.903649
20
5.180936
11
5.3968463
21
5.180936
0
LINE
8
DEFAULT_255_1_234
10
5.3968463
20
5.180936
11
5.3968463
21
4.7664983
0
LINE
8
DEFAULT_255_1_234
10
5.3968463
20
4.7664983
11
5.9855728
21
4.7664983
0
LINE
8
DEFAULT_255_1_234
10
5.9855728
20
4.7664983
11
5.9855728
21
4.6404
0
LINE
8
DEFAULT_255_1_234
10
5.9855728
20
4.6404
11
5.242637
21
4.6404
0
LINE
8
DEFAULT_255_1_234
10
5.242637
20
4.6404
11
5.242637
21
5.8098211
0
LINE
8
DEFAULT_255_1_234
10
5.242637
20
5.8098211
11
5.977541
21
5.8098211
0
LINE
8
DEFAULT_255_1_234
10
5.977541
20
5.8098211
11
5.977541
21
5.6829196
0
LINE
8
DEFAULT_255_1_234
10
5.977541
20
5.6829196
11
5.3968463
21
5.6829196
0
LINE
8
DEFAULT_255_1_234
10
5.3968463
20
5.6829196
11
5.3968463
21
5.3070343
0
LINE
8
DEFAULT_255_1_234
10
5.3968463
20
5.3070343
11
5.903649
21
5.3070343
0
LINE
8
DEFAULT_255_1_234
10
4.9461879
20
13.7473211
11
4.9461879
21
12.5779
0
LINE
8
DEFAULT_255_1_234
10
4.9461879
20
12.5779
11
4.7911753
21
12.5779
0
LINE
8
DEFAULT_255_1_234
10
4.7911753
20
12.5779
11
4.2024489
21
13.479061
0
LINE
8
DEFAULT_255_1_234
10
4.2024489
20
13.479061
11
4.2024489
21
12.5779
0
LINE
8
DEFAULT_255_1_234
10
4.2024489
20
12.5779
11
4.0474364
21
12.5779
0
LINE
8
DEFAULT_255_1_234
10
4.0474364
20
12.5779
11
4.0474364
21
13.7473211
0
LINE
8
DEFAULT_255_1_234
10
4.0474364
20
13.7473211
11
4.2024489
21
13.7473211
0
LINE
8
DEFAULT_255_1_234
10
4.2024489
20
13.7473211
11
4.7927817
21
12.8421442
0
LINE
8
DEFAULT_255_1_234
10
4.7927817
20
12.8421442
11
4.7927817
21
13.7473211
0
LINE
8
DEFAULT_255_1_234
10
4.7927817
20
13.7473211
11
4.9461879
21
13.7473211
0
ENDSEC
0
EOF