0
SECTION
2
HEADER
9
$MEASUREMENT
70
1
0
ENDSEC
0
SECTION
2
TABLES
0
TABLE
2
LTYPE
0
LTYPE
72
65
70
64
2
CONTINUOUS
3
______
73
0
40
0
0
ENDTAB
0
TABLE
2
LAYER
0
LAYER
2
DEFAULT_255_2_778
70
0
62
255
6
CONTINUOUS
0
LAYER
2
DEFAULT_255_1_234
70
0
62
255
6
CONTINUOUS
0
LAYER
2
DEFAULT_255_2_778_1
70
0
62
255
6
CONTINUOUS
0
ENDTAB
0
ENDSEC
0
SECTION
2
ENTITIES
0
ARC
8
DEFAULT_255_2_778
10
3.5695693
20
139.3052021
40
0.7914215
50
129.1312896
51
180.1450914
0
ARC
8
DEFAULT_255_2_778
10
3.5698345
20
139.3056893
40
0.7912112
50
89.854026
51
129.1684493
0
ARC
8
DEFAULT_255_2_778
10
25.7988937
20
139.3053758
40
0.7915249
50
39.4792447
51
90.147911
0
ARC
8
DEFAULT_255_2_778
10
25.7994935
20
139.3052224
40
0.7911595
50
359.8533901
51
39.5154338
0
ARC
8
DEFAULT_255_2_778
10
25.7991693
20
-1.9863501
40
0.7914836
50
309.4761667
51
0.1482649
0
ARC
8
DEFAULT_255_2_778
10
25.798898
20
-1.9867812
40
0.7913235
50
269.8517415
51
309.511178
0
ARC
8
DEFAULT_255_2_778
10
3.569842
20
-1.986723
40
0.7913815
50
219.1282118
51
270.1454017
0
ARC
8
DEFAULT_255_2_778
10
3.5695247
20
-1.9863406
40
0.7913769
50
179.8524075
51
219.1641908
0
LINE
8
DEFAULT_255_2_778
10
3.5718503
20
140.096898
11
25.7968503
21
140.096898
0
LINE
8
DEFAULT_255_2_778
10
26.5906503
20
139.303198
11
26.5906503
21
-1.984302
0
LINE
8
DEFAULT_255_2_778
10
25.7968503
20
-2.778102
11
3.5718503
21
-2.778102
0
LINE
8
DEFAULT_255_2_778
10
2.7781503
20
-1.984302
11
2.7781503
21
139.303198
0
LINE
8
DEFAULT_255_1_234
10
6.4332835
20
0.5189243
11
6.4597882
21
0.5189243
0
LINE
8
DEFAULT_255_1_234
10
6.4597882
20
0.5189243
11
6.4597882
21
0.392826
0
LINE
8
DEFAULT_255_1_234
10
6.4597882
20
0.392826
11
6.4324803
21
0.392826
0
LINE
8
DEFAULT_255_1_234
10
5.8855189
20
-0.2063417
11
5.8855189
21
-0.1493164
0
LINE
8
DEFAULT_255_1_234
10
6.0349093
20
-0.1685925
11
6.0349093
21
-0.2232083
0
ARC
8
DEFAULT_255_1_234
10
6.4377151
20
-0.1069545
40
0.4998079
50
90.6001036
51
104.514704
0
ARC
8
DEFAULT_255_1_234
10
6.3988667
20
0.0375131
40
0.3502176
50
104.2855254
51
133.862935
0
ARC
8
DEFAULT_255_1_234
10
6.4152424
20
0.026683
40
0.3693984
50
134.5302688
51
161.6210873
0
ARC
8
DEFAULT_255_1_234
10
6.5805613
20
-0.0316105
40
0.5446739
50
161.2849839
51
174.2076652
0
ARC
8
DEFAULT_255_1_234
10
6.721255
20
-0.0510213
40
0.6866274
50
173.7810589
51
174.9254635
0
ARC
8
DEFAULT_255_1_234
10
6.2662382
20
-0.1893161
40
0.3033419
50
95.8330959
51
138.9954921
0
ARC
8
DEFAULT_255_1_234
10
6.2885738
20
-0.3171625
40
0.4328947
50
89.8753725
51
97.0544009
0
ARC
8
DEFAULT_255_1_234
10
6.2933204
20
-0.2336252
40
0.3493769
50
71.6407809
51
90.6240094
0
ARC
8
DEFAULT_255_1_234
10
6.3083777
20
-0.1781918
40
0.2920396
50
39.6367836
51
71.019018
0
ARC
8
DEFAULT_255_1_234
10
6.244725
20
-0.2332002
40
0.3761538
50
10.658731
51
39.9043955
0
ARC
8
DEFAULT_255_1_234
10
6.0899333
20
-0.2668314
40
0.5345136
50
359.682601
51
11.132623
0
ARC
8
DEFAULT_255_1_234
10
6.0859464
20
-0.273899
40
0.5385081
50
347.2486944
51
0.4369317
0
ARC
8
DEFAULT_255_1_234
10
6.2526941
20
-0.3140193
40
0.3670249
50
318.1409698
51
347.6118597
0
ARC
8
DEFAULT_255_1_234
10
6.2851934
20
-0.3407298
40
0.3250007
50
275.6342139
51
317.8248465
0
ARC
8
DEFAULT_255_1_234
10
6.2631045
20
-0.2107781
40
0.4565864
50
269.8874292
51
276.7917694
0
ARC
8
DEFAULT_255_1_234
10
6.2576116
20
-0.3133257
40
0.3540676
50
246.9140195
51
270.7437342
0
ARC
8
DEFAULT_255_1_234
10
6.2582506
20
-0.3275616
40
0.3412781
50
218.1665114
51
245.878116
0
ARC
8
DEFAULT_255_1_234
10
6.3461967
20
-0.2539721
40
0.455911
50
191.4115814
51
218.6077802
0
ARC
8
DEFAULT_255_1_234
10
6.5400056
20
-0.2105167
40
0.6545001
50
179.6345085
51
191.7836486
0
ARC
8
DEFAULT_255_1_234
10
7.0982393
20
-0.1426303
40
1.2127388
50
171.4525249
51
180.3158839
0
ARC
8
DEFAULT_255_1_234
10
6.6587269
20
-0.0742392
40
0.7679464
50
157.9802646
51
171.6246686
0
ARC
8
DEFAULT_255_1_234
10
6.437329
20
0.0140421
40
0.5296008
50
141.4298019
51
157.854097
0
ARC
8
DEFAULT_255_1_234
10
6.373161
20
0.0594381
40
0.4511509
50
102.8715806
51
140.8564722
0
ARC
8
DEFAULT_255_1_234
10
6.4379226
20
-0.1845448
40
0.7034845
50
90.3778349
51
103.5869322
0
ARC
8
DEFAULT_255_1_234
10
6.2641002
20
-0.245027
40
0.2370698
50
89.8751008
51
126.2071704
0
ARC
8
DEFAULT_255_1_234
10
6.2686792
20
-0.2604697
40
0.2522934
50
124.9745049
51
144.895901
0
ARC
8
DEFAULT_255_1_234
10
6.2510982
20
-0.246144
40
0.2296779
50
145.2974905
51
160.2660252
0
ARC
8
DEFAULT_255_1_234
10
6.5583521
20
-0.2263929
40
0.5234525
50
179.6514266
51
190.2855912
0
ARC
8
DEFAULT_255_1_234
10
6.3889658
20
-0.2583214
40
0.3510893
50
190.0945431
51
207.5098196
0
ARC
8
DEFAULT_255_1_234
10
6.3323928
20
-0.2852377
40
0.288489
50
207.9583163
51
216.3251085
0
ARC
8
DEFAULT_255_1_234
10
6.2984036
20
-0.3131895
40
0.2445587
50
215.7661442
51
232.5456785
0
ARC
8
DEFAULT_255_1_234
10
6.2601019
20
-0.3618518
40
0.1826382
50
232.8005391
51
270.6605633
0
ARC
8
DEFAULT_255_1_234
10
6.264672
20
-0.3254388
40
0.2190529
50
269.35537
51
288.4744281
0
ARC
8
DEFAULT_255_1_234
10
6.2739617
20
-0.3603882
40
0.1829749
50
289.1833337
51
322.9683818
0
ARC
8
DEFAULT_255_1_234
10
6.2128139
20
-0.3121609
40
0.2608399
50
322.6007884
51
346.5182367
0
ARC
8
DEFAULT_255_1_234
10
6.0970735
20
-0.2826384
40
0.3802777
50
346.2582162
51
358.7741648
0
ARC
8
DEFAULT_255_1_234
10
5.9952404
20
-0.2771035
40
0.4822176
50
358.3755224
51
0.0098023
0
ARC
8
DEFAULT_255_1_234
10
6.0708591
20
-0.2743343
40
0.4066078
50
359.6214041
51
11.2839074
0
ARC
8
DEFAULT_255_1_234
10
6.1985738
20
-0.2476934
40
0.2761514
50
11.0482309
51
31.8146458
0
ARC
8
DEFAULT_255_1_234
10
6.2294781
20
-0.2309416
40
0.2410679
50
32.3035391
51
38.082671
0
ARC
8
DEFAULT_255_1_234
10
6.2715441
20
-0.1928338
40
0.1844966
50
36.825067
51
85.7415724
0
ARC
8
DEFAULT_255_1_234
10
6.2648274
20
-0.2428699
40
0.2349122
50
85.0140713
51
90.0513278
0
LINE
8
DEFAULT_255_1_234
10
7.4998983
20
0.0153343
11
7.4998983
21
-0.110764
0
LINE
8
DEFAULT_255_1_234
10
7.4998983
20
-0.110764
11
6.9930957
21
-0.110764
0
LINE
8
DEFAULT_255_1_234
10
6.9930957
20
-0.110764
11
6.9930957
21
-0.5252017
0
LINE
8
DEFAULT_255_1_234
10
6.9930957
20
-0.5252017
11
7.5818221
21
-0.5252017
0
LINE
8
DEFAULT_255_1_234
10
7.5818221
20
-0.5252017
11
7.5818221
21
-0.6513
0
LINE
8
DEFAULT_255_1_234
10
7.5818221
20
-0.6513
11
6.8388863
21
-0.6513
0
LINE
8
DEFAULT_255_1_234
10
6.8388863
20
-0.6513
11
6.8388863
21
0.5181211
0
LINE
8
DEFAULT_255_1_234
10
6.8388863
20
0.5181211
11
7.5737903
21
0.5181211
0
LINE
8
DEFAULT_255_1_234
10
7.5737903
20
0.5181211
11
7.5737903
21
0.3912196
0
LINE
8
DEFAULT_255_1_234
10
7.5737903
20
0.3912196
11
6.9930957
21
0.3912196
0
LINE
8
DEFAULT_255_1_234
10
6.9930957
20
0.3912196
11
6.9930957
21
0.0153343
0
LINE
8
DEFAULT_255_1_234
10
6.9930957
20
0.0153343
11
7.4998983
21
0.0153343
0
LINE
8
DEFAULT_255_1_234
10
8.5496465
20
0.1799849
11
8.394634
21
0.1799849
0
LINE
8
DEFAULT_255_1_234
10
7.7022981
20
-0.3123606
11
7.8573107
21
-0.3123606
0
ARC
8
DEFAULT_255_1_234
10
8.4605153
20
1.0746768
40
1.252368
50
248.9199003
51
254.1439814
0
ARC
8
DEFAULT_255_1_234
10
8.2924648
20
0.6420234
40
0.788226
50
241.633709
51
249.0064503
0
ARC
8
DEFAULT_255_1_234
10
8.1396042
20
0.3619317
40
0.4691427
50
230.498225
51
241.8087113
0
ARC
8
DEFAULT_255_1_234
10
8.0611616
20
0.2619906
40
0.3421437
50
227.4064532
51
229.9881192
0
ARC
8
DEFAULT_255_1_234
10
8.0124137
20
0.2144088
40
0.2741476
50
200.6781896
51
228.1763934
0
ARC
8
DEFAULT_255_1_234
10
8.0196447
20
0.2129077
40
0.2804109
50
179.5061581
51
199.8694617
0
ARC
8
DEFAULT_255_1_234
10
8.0187199
20
0.220321
40
0.2795204
50
132.4834203
51
181.0242172
0
ARC
8
DEFAULT_255_1_234
10
8.0782782
20
0.1640704
40
0.3612768
50
129.2532479
51
133.4242687
0
ARC
8
DEFAULT_255_1_234
10
8.0929231
20
0.1420965
40
0.3875675
50
101.98776
51
128.8742646
0
ARC
8
DEFAULT_255_1_234
10
8.1327842
20
-0.0300259
40
0.5642249
50
89.5906553
51
102.3169264
0
ARC
8
DEFAULT_255_1_234
10
8.1398334
20
0.0018148
40
0.5323783
50
77.2360837
51
90.3248275
0
ARC
8
DEFAULT_255_1_234
10
8.1605413
20
0.09854
40
0.4334697
50
63.837784
51
77.0809408
0
ARC
8
DEFAULT_255_1_234
10
8.1883175
20
0.1502911
40
0.3747796
50
45.9864267
51
64.1607727
0
ARC
8
DEFAULT_255_1_234
10
8.2144056
20
0.1800866
40
0.3352302
50
32.2747395
51
45.6547121
0
ARC
8
DEFAULT_255_1_234
10
8.2210497
20
0.181988
40
0.328603
50
359.6507365
51
32.6130309
0
ARC
8
DEFAULT_255_1_234
10
8.1267592
20
0.182466
40
0.2678863
50
359.469343
51
14.9832209
0
ARC
8
DEFAULT_255_1_234
10
8.1972654
20
0.2013539
40
0.1948938
50
14.9781179
51
48.2004265
0
ARC
8
DEFAULT_255_1_234
10
8.1808299
20
0.1806983
40
0.2212521
50
48.5927837
51
74.1241538
0
ARC
8
DEFAULT_255_1_234
10
8.1474788
20
0.0706248
40
0.3362561
50
73.7888341
51
86.6652678
0
ARC
8
DEFAULT_255_1_234
10
8.1372354
20
-0.0501119
40
0.4573953
50
86.2640471
51
90.0526343
0
ARC
8
DEFAULT_255_1_234
10
8.1344066
20
-0.0105808
40
0.4178709
50
89.6697524
51
99.2309573
0
ARC
8
DEFAULT_255_1_234
10
8.1101517
20
0.1338964
40
0.2713749
50
99.069534
51
113.7658566
0
ARC
8
DEFAULT_255_1_234
10
8.0827708
20
0.1984677
40
0.2012469
50
114.0401004
51
127.9850673
0
ARC
8
DEFAULT_255_1_234
10
8.0587272
20
0.228073
40
0.1631167
50
127.7287463
51
176.7105154
0
ARC
8
DEFAULT_255_1_234
10
8.126599
20
0.2179693
40
0.2315392
50
175.1779447
51
180.0581938
0
ARC
8
DEFAULT_255_1_234
10
8.0422836
20
0.2167428
40
0.1472271
50
179.6142195
51
228.1246017
0
ARC
8
DEFAULT_255_1_234
10
8.0864505
20
0.2576308
40
0.2072299
50
226.5779593
51
230.8800004
0
ARC
8
DEFAULT_255_1_234
10
8.1335584
20
0.3201636
40
0.2854818
50
231.4635071
51
241.9260842
0
ARC
8
DEFAULT_255_1_234
10
8.2532762
20
0.54048
40
0.53622
50
241.7178533
51
248.3259551
0
ARC
8
DEFAULT_255_1_234
10
8.3918134
20
0.8837064
40
0.9063478
50
248.2007737
51
252.4528373
0
ARC
8
DEFAULT_255_1_234
10
8.5121858
20
1.2558441
40
1.2974635
50
252.3391078
51
254.3469452
0
ARC
8
DEFAULT_255_1_234
10
7.7579561
20
-1.4418852
40
1.5037162
50
71.0197183
51
74.4087047
0
ARC
8
DEFAULT_255_1_234
10
7.9274246
20
-0.9526889
40
0.9859993
50
66.1847285
51
71.086374
0
ARC
8
DEFAULT_255_1_234
10
8.0830559
20
-0.60228
40
0.6025855
50
59.3536294
51
66.2691831
0
ARC
8
DEFAULT_255_1_234
10
8.1719211
20
-0.4519391
40
0.4279449
50
49.1020879
51
59.3293958
0
ARC
8
DEFAULT_255_1_234
10
8.2537951
20
-0.3586166
40
0.3038015
50
32.7919921
51
49.2505539
0
ARC
8
DEFAULT_255_1_234
10
8.2859041
20
-0.3357809
40
0.264448
50
31.1181161
51
32.4005348
0
ARC
8
DEFAULT_255_1_234
10
8.2770579
20
-0.3393221
40
0.2738556
50
8.1116974
51
30.7958831
0
ARC
8
DEFAULT_255_1_234
10
8.1960247
20
-0.3531247
40
0.3560327
50
359.8389159
51
8.4706516
0
ARC
8
DEFAULT_255_1_234
10
8.2586038
20
-0.3579863
40
0.2934776
50
337.4731098
51
0.7537279
0
ARC
8
DEFAULT_255_1_234
10
8.2764733
20
-0.3599613
40
0.2762607
50
307.5917067
51
336.4315538
0
ARC
8
DEFAULT_255_1_234
10
8.2304561
20
-0.3086898
40
0.3449979
50
307.6551545
51
308.4529766
0
ARC
8
DEFAULT_255_1_234
10
8.207428
20
-0.273175
40
0.3871988
50
284.3734338
51
307.1424381
0
ARC
8
DEFAULT_255_1_234
10
8.157911
20
-0.0910068
40
0.5759636
50
272.4382747
51
284.646547
0
ARC
8
DEFAULT_255_1_234
10
8.1452319
20
0.0889893
40
0.7563528
50
269.9708387
51
272.8178037
0
ARC
8
DEFAULT_255_1_234
10
8.1409358
20
-0.1148284
40
0.5525489
50
248.2707594
51
270.4055579
0
ARC
8
DEFAULT_255_1_234
10
8.13551
20
-0.1338808
40
0.5328452
50
246.1383403
51
248.0542782
0
ARC
8
DEFAULT_255_1_234
10
8.0936478
20
-0.2218157
40
0.4355005
50
233.1670131
51
246.4950969
0
ARC
8
DEFAULT_255_1_234
10
8.0382383
20
-0.2966188
40
0.3424126
50
215.3403242
51
233.0843104
0
ARC
8
DEFAULT_255_1_234
10
8.0109815
20
-0.3164451
40
0.3087104
50
179.2419209
51
215.2648451
0
ARC
8
DEFAULT_255_1_234
10
8.0877409
20
-0.3150334
40
0.2304457
50
179.335461
51
199.1045811
0
ARC
8
DEFAULT_255_1_234
10
8.0545085
20
-0.3237234
40
0.1962176
50
199.8828939
51
232.7063202
0
ARC
8
DEFAULT_255_1_234
10
8.1017353
20
-0.2643212
40
0.2720938
50
232.3738199
51
255.5136649
0
ARC
8
DEFAULT_255_1_234
10
8.135822
20
-0.1399165
40
0.4010747
50
255.2446292
51
267.5320849
0
ARC
8
DEFAULT_255_1_234
10
8.1445843
20
-0.0166298
40
0.5246356
50
267.1557994
51
270.0286766
0
ARC
8
DEFAULT_255_1_234
10
8.1473616
20
-0.061005
40
0.4802668
50
269.7000017
51
278.1660162
0
ARC
8
DEFAULT_255_1_234
10
8.172962
20
-0.2340485
40
0.3053425
50
278.0231263
51
290.625471
0
ARC
8
DEFAULT_255_1_234
10
8.2077308
20
-0.3267975
40
0.206291
50
290.6619762
51
307.0370976
0
ARC
8
DEFAULT_255_1_234
10
8.2377697
20
-0.3636496
40
0.1587906
50
306.3943566
51
355.3030547
0
ARC
8
DEFAULT_255_1_234
10
8.1865628
20
-0.3559887
40
0.2104809
50
354.3660432
51
0.0698737
0
ARC
8
DEFAULT_255_1_234
10
8.2007973
20
-0.3537383
40
0.1962563
50
359.417946
51
16.1971788
0
ARC
8
DEFAULT_255_1_234
10
8.2463284
20
-0.3412582
40
0.149053
50
16.4723299
51
52.6262157
0
ARC
8
DEFAULT_255_1_234
10
8.1642338
20
-0.4496567
40
0.2850296
50
52.7386432
51
62.4979148
0
ARC
8
DEFAULT_255_1_234
10
8.0257415
20
-0.7102717
40
0.5801521
50
62.2515216
51
68.1220564
0
ARC
8
DEFAULT_255_1_234
10
7.8537325
20
-1.1330128
40
1.0365451
50
68.0062803
51
71.8053402
0
ARC
8
DEFAULT_255_1_234
10
7.6741697
20
-1.6715242
40
1.6042013
50
71.7183119
51
73.9258742
0
LINE
8
DEFAULT_255_1_234
10
9.4660679
20
0.5181211
11
9.4660679
21
0.434591
0
LINE
8
DEFAULT_255_1_234
10
9.4660679
20
0.434591
11
8.9817541
21
-0.6513
0
LINE
8
DEFAULT_255_1_234
10
8.9817541
20
-0.6513
11
8.8259383
21
-0.6513
0
LINE
8
DEFAULT_255_1_234
10
8.8259383
20
-0.6513
11
9.3086458
21
0.3960387
0
LINE
8
DEFAULT_255_1_234
10
9.3086458
20
0.3960387
11
8.6757448
21
0.3960387
0
LINE
8
DEFAULT_255_1_234
10
8.6757448
20
0.3960387
11
8.6757448
21
0.5181211
0
LINE
8
DEFAULT_255_1_234
10
8.6757448
20
0.5181211
11
9.4660679
21
0.5181211
0
LINE
8
DEFAULT_255_1_234
10
9.8218739
20
-0.0955037
11
9.7030042
21
-0.0649831
0
LINE
8
DEFAULT_255_1_234
10
9.7030042
20
-0.0649831
11
9.762439
21
0.5181211
0
LINE
8
DEFAULT_255_1_234
10
9.762439
20
0.5181211
11
10.3616067
21
0.5181211
0
LINE
8
DEFAULT_255_1_234
10
10.3616067
20
0.5181211
11
10.3616067
21
0.3807784
0
LINE
8
DEFAULT_255_1_234
10
10.3616067
20
0.3807784
11
9.8885373
21
0.3807784
0
LINE
8
DEFAULT_255_1_234
10
9.8885373
20
0.3807784
11
9.8531977
21
0.0619184
0
LINE
8
DEFAULT_255_1_234
10
9.6612391
20
-0.3436844
11
9.8017945
21
-0.3436844
0
LINE
8
DEFAULT_255_1_234
10
9.8612294
20
-0.0633768
11
9.8218739
21
-0.0955037
0
ARC
8
DEFAULT_255_1_234
10
10.0386761
20
-0.256077
40
0.3681349
50
93.7182161
51
120.2538958
0
ARC
8
DEFAULT_255_1_234
10
10.0481023
20
-0.3368606
40
0.449379
50
89.9660152
51
94.2496022
0
ARC
8
DEFAULT_255_1_234
10
10.0521757
20
-0.2779451
40
0.390482
50
73.8043271
51
90.5585896
0
ARC
8
DEFAULT_255_1_234
10
10.0756654
20
-0.1921398
40
0.3015334
50
41.3071453
51
73.5430202
0
ARC
8
DEFAULT_255_1_234
10
10.0340482
20
-0.2279676
40
0.3564457
50
13.5075983
51
41.2174222
0
ARC
8
DEFAULT_255_1_234
10
9.8698685
20
-0.2709514
40
0.5261351
50
1.1331335
51
13.8829381
0
ARC
8
DEFAULT_255_1_234
10
9.7287054
20
-0.2785335
40
0.6674378
50
359.9919444
51
1.544251
0
ARC
8
DEFAULT_255_1_234
10
9.8563881
20
-0.282672
40
0.5397702
50
347.8572367
51
0.4293338
0
ARC
8
DEFAULT_255_1_234
10
10.0314198
20
-0.3223264
40
0.3603188
50
323.673004
51
348.1672506
0
ARC
8
DEFAULT_255_1_234
10
10.0608707
20
-0.3402832
40
0.3259678
50
316.8171152
51
323.1492751
0
ARC
8
DEFAULT_255_1_234
10
10.0669895
20
-0.343954
40
0.3189975
50
281.8396411
51
316.5457803
0
ARC
8
DEFAULT_255_1_234
10
10.0294159
20
-0.1884238
40
0.4789527
50
269.5770101
51
282.4214771
0
ARC
8
DEFAULT_255_1_234
10
10.0222971
20
-0.2097875
40
0.45759
50
256.2427136
51
270.4486331
0
ARC
8
DEFAULT_255_1_234
10
9.9923873
20
-0.3297771
40
0.3339303
50
228.9023911
51
256.3314342
0
ARC
8
DEFAULT_255_1_234
10
9.9850106
20
-0.3414254
40
0.32031
50
193.753695
51
228.5271154
0
ARC
8
DEFAULT_255_1_234
10
10.108806
20
-0.30512
40
0.4492253
50
184.924711
51
194.497588
0
ARC
8
DEFAULT_255_1_234
10
10.1280626
20
-0.3015409
40
0.3289787
50
187.3600538
51
198.6732863
0
ARC
8
DEFAULT_255_1_234
10
10.023092
20
-0.3379326
40
0.217884
50
198.4451669
51
217.794479
0
ARC
8
DEFAULT_255_1_234
10
9.9935096
20
-0.3588915
40
0.1816698
50
218.2887171
51
228.5612368
0
ARC
8
DEFAULT_255_1_234
10
10.0032883
20
-0.3457037
40
0.1980329
50
228.9654866
51
258.1234728
0
ARC
8
DEFAULT_255_1_234
10
10.0238593
20
-0.2576167
40
0.2884748
50
257.7258293
51
270.401361
0
ARC
8
DEFAULT_255_1_234
10
10.0283479
20
-0.3021179
40
0.2439788
50
269.4204404
51
286.4209037
0
ARC
8
DEFAULT_255_1_234
10
10.0431966
20
-0.3560343
40
0.1880666
50
286.7251356
51
320.600362
0
ARC
8
DEFAULT_255_1_234
10
10.0048791
20
-0.3249405
40
0.2374121
50
320.6712579
51
344.5441685
0
ARC
8
DEFAULT_255_1_234
10
9.8892118
20
-0.2909955
40
0.3579479
50
344.2412205
51
356.7357071
0
ARC
8
DEFAULT_255_1_234
10
9.7643266
20
-0.2806556
40
0.4832297
50
356.3548756
51
0.0500261
0
ARC
8
DEFAULT_255_1_234
10
9.8979775
20
-0.277535
40
0.3495889
50
359.5576869
51
12.953486
0
ARC
8
DEFAULT_255_1_234
10
10.0034673
20
-0.2519566
40
0.2410532
50
12.6490276
51
41.6081334
0
ARC
8
DEFAULT_255_1_234
10
10.0265044
20
-0.2323679
40
0.2108218
50
41.7850273
51
85.9892764
0
ARC
8
DEFAULT_255_1_234
10
10.014178
20
-0.3136538
40
0.2928454
50
84.6957577
51
90.0676183
0
ARC
8
DEFAULT_255_1_234
10
10.0118264
20
-0.3805284
40
0.3597255
50
89.6804936
51
99.1614436
0
ARC
8
DEFAULT_255_1_234
10
9.9912896
20
-0.2577869
40
0.235281
50
98.9830931
51
113.8908934
0
ARC
8
DEFAULT_255_1_234
10
9.9683306
20
-0.2036413
40
0.176479
50
114.1950727
51
127.3641004
0
LINE
8
DEFAULT_255_1_234
10
10.774438
20
-0.1155831
11
10.774438
21
0.0056962
0
LINE
8
DEFAULT_255_1_234
10
10.774438
20
0.0056962
11
10.8860792
21
0.0056962
0
LINE
8
DEFAULT_255_1_234
10
10.695727
20
0.2113087
11
10.5471398
21
0.2113087
0
LINE
8
DEFAULT_255_1_234
10
10.5366986
20
-0.3428812
11
10.6860889
21
-0.3428812
0
LINE
8
DEFAULT_255_1_234
10
10.8860792
20
-0.1155831
11
10.774438
21
-0.1155831
0
ARC
8
DEFAULT_255_1_234
10
10.8831658
20
0.3449713
40
0.3392876
50
270.4919872
51
281.8951556
0
ARC
8
DEFAULT_255_1_234
10
10.907292
20
0.2347702
40
0.2264817
50
281.6691735
51
301.2943132
0
ARC
8
DEFAULT_255_1_234
10
10.924313
20
0.2036304
40
0.1910381
50
301.7833094
51
311.7545298
0
ARC
8
DEFAULT_255_1_234
10
10.9334706
20
0.1934748
40
0.1773635
50
311.7323931
51
354.2802411
0
ARC
8
DEFAULT_255_1_234
10
10.8608331
20
0.2059722
40
0.2509385
50
353.0937916
51
0.1181479
0
ARC
8
DEFAULT_255_1_234
10
10.8147116
20
0.2107386
40
0.2970898
50
359.1805295
51
15.0453146
0
ARC
8
DEFAULT_255_1_234
10
10.9492953
20
0.2499992
40
0.1569564
50
13.9577229
51
77.6713066
0
ARC
8
DEFAULT_255_1_234
10
10.9106482
20
0.1114949
40
0.3006298
50
76.1116566
51
90.7026153
0
ARC
8
DEFAULT_255_1_234
10
10.9047321
20
0.1388545
40
0.2732568
50
89.5324876
51
103.531937
0
ARC
8
DEFAULT_255_1_234
10
10.8846765
20
0.2187884
40
0.1908508
50
103.2931773
51
133.5619022
0
ARC
8
DEFAULT_255_1_234
10
10.8802253
20
0.2247375
40
0.1834746
50
133.8349307
51
173.5344437
0
ARC
8
DEFAULT_255_1_234
10
10.9525296
20
0.2119213
40
0.2568033
50
172.5096846
51
180.1366907
0
ARC
8
DEFAULT_255_1_234
10
10.857419
20
0.2153622
40
0.3103056
50
155.3484492
51
180.7484736
0
ARC
8
DEFAULT_255_1_234
10
10.8525279
20
0.2124846
40
0.3070957
50
131.5744599
51
154.4798489
0
ARC
8
DEFAULT_255_1_234
10
10.8838427
20
0.180831
40
0.3515643
50
96.9875458
51
131.9690667
0
ARC
8
DEFAULT_255_1_234
10
10.9057906
20
0.0562636
40
0.4779224
50
89.8596053
51
97.7825159
0
ARC
8
DEFAULT_255_1_234
10
10.910597
20
0.0300616
40
0.5041361
50
78.3655447
51
90.4131539
0
ARC
8
DEFAULT_255_1_234
10
10.9463887
20
0.1959887
40
0.3344039
50
56.6229102
51
78.638727
0
ARC
8
DEFAULT_255_1_234
10
10.9678831
20
0.2335805
40
0.2912001
50
47.0253525
51
56.0854072
0
ARC
8
DEFAULT_255_1_234
10
10.9698611
20
0.2375223
40
0.2869704
50
10.9208013
51
46.7778124
0
ARC
8
DEFAULT_255_1_234
10
10.8334678
20
0.2059857
40
0.426899
50
359.6364486
51
11.6087304
0
ARC
8
DEFAULT_255_1_234
10
11.0169522
20
0.2044752
40
0.243409
50
332.3549906
51
359.7179418
0
ARC
8
DEFAULT_255_1_234
10
10.9519123
20
0.2353142
40
0.3153459
50
325.2333722
51
332.8745602
0
ARC
8
DEFAULT_255_1_234
10
10.9671747
20
0.2246828
40
0.2967456
50
292.9802137
51
325.2392345
0
ARC
8
DEFAULT_255_1_234
10
10.9397121
20
0.2780863
40
0.3566604
50
292.5402179
51
293.6924929
0
ARC
8
DEFAULT_255_1_234
10
10.9789717
20
-0.3673909
40
0.3307468
50
57.6435486
51
72.8625112
0
ARC
8
DEFAULT_255_1_234
10
11.0144216
20
-0.3099451
40
0.2632492
50
36.7248896
51
57.4697979
0
ARC
8
DEFAULT_255_1_234
10
11.0132849
20
-0.308678
40
0.2634081
50
8.0545065
51
36.356114
0
ARC
8
DEFAULT_255_1_234
10
10.9270034
20
-0.3241826
40
0.3510261
50
359.8320645
51
8.5869982
0
ARC
8
DEFAULT_255_1_234
10
10.8894811
20
-0.3289899
40
0.3885653
50
343.9829931
51
0.5571613
0
ARC
8
DEFAULT_255_1_234
10
10.9781008
20
-0.3532562
40
0.2966924
50
311.6359546
51
343.7651759
0
ARC
8
DEFAULT_255_1_234
10
10.9402577
20
-0.3105898
40
0.3537231
50
279.7829875
51
311.6255694
0
ARC
8
DEFAULT_255_1_234
10
10.9101353
20
-0.166872
40
0.5004971
50
269.7286406
51
280.3856417
0
ARC
8
DEFAULT_255_1_234
10
10.9039426
20
-0.1710004
40
0.4963778
50
256.6828919
51
270.4412052
0
ARC
8
DEFAULT_255_1_234
10
10.8700722
20
-0.3094606
40
0.3538406
50
229.4223008
51
256.8556159
0
ARC
8
DEFAULT_255_1_234
10
10.8286114
20
-0.3561264
40
0.2914296
50
181.818294
51
229.6455059
0
ARC
8
DEFAULT_255_1_234
10
10.9326071
20
-0.3430504
40
0.3959084
50
179.9755256
51
183.2323064
0
ARC
8
DEFAULT_255_1_234
10
10.9153816
20
-0.3450963
40
0.2293034
50
179.4465117
51
196.2869258
0
ARC
8
DEFAULT_255_1_234
10
10.8666224
20
-0.3584349
40
0.1787621
50
196.5661473
51
227.705904
0
ARC
8
DEFAULT_255_1_234
10
10.8830319
20
-0.3400845
40
0.2033784
50
227.7652068
51
257.8762805
0
ARC
8
DEFAULT_255_1_234
10
10.9055289
20
-0.2457844
40
0.3003081
50
257.4584385
51
270.426602
0
ARC
8
DEFAULT_255_1_234
10
10.9100856
20
-0.2168004
40
0.329292
50
269.5962073
51
280.8789248
0
ARC
8
DEFAULT_255_1_234
10
10.9330384
20
-0.3314315
40
0.2123908
50
280.6346389
51
299.8595945
0
ARC
8
DEFAULT_255_1_234
10
10.9521291
20
-0.3676788
40
0.171457
50
300.3576302
51
314.5517981
0
ARC
8
DEFAULT_255_1_234
10
10.9438351
20
-0.3616081
40
0.1816095
50
315.0728369
51
345.0431014
0
ARC
8
DEFAULT_255_1_234
10
10.8515166
20
-0.3347159
40
0.2777492
50
344.5986631
51
357.9269593
0
ARC
8
DEFAULT_255_1_234
10
10.7619492
20
-0.3285724
40
0.3674917
50
357.4748886
51
0.0231117
0
ARC
8
DEFAULT_255_1_234
10
10.8642601
20
-0.3261321
40
0.2651907
50
359.5047933
51
13.4239635
0
ARC
8
DEFAULT_255_1_234
10
10.9509245
20
-0.3039522
40
0.1757509
50
12.9498199
51
48.7551375
0
ARC
8
DEFAULT_255_1_234
10
10.9326979
20
-0.32886
40
0.2065134
50
49.5088623
51
72.1836453
0
ARC
8
DEFAULT_255_1_234
10
10.8969131
20
-0.4350709
40
0.3185836
50
71.9010081
51
84.3554254
0
ARC
8
DEFAULT_255_1_234
10
10.8807763
20
-0.5711674
40
0.4556151
50
84.0193428
51
89.333121
0
LINE
8
DEFAULT_255_1_234
10
11.9703639
20
0.5237433
11
11.9703639
21
-0.6513
0
LINE
8
DEFAULT_255_1_234
10
11.9703639
20
-0.6513
11
11.8209735
21
-0.6513
0
LINE
8
DEFAULT_255_1_234
10
11.8209735
20
-0.6513
11
11.8209735
21
0.3390133
0
LINE
8
DEFAULT_255_1_234
10
11.8209735
20
0.3390133
11
11.5213897
21
0.2289785
0
LINE
8
DEFAULT_255_1_234
10
11.5213897
20
0.2289785
11
11.5213897
21
0.3639117
0
LINE
8
DEFAULT_255_1_234
10
11.5213897
20
0.3639117
11
11.9470718
21
0.5237433
0
LINE
8
DEFAULT_255_1_234
10
11.9470718
20
0.5237433
11
11.9703639
21
0.5237433
0
LINE
8
DEFAULT_255_1_234
10
12.7301663
20
-0.0938974
11
12.7301663
21
-0.2151766
0
LINE
8
DEFAULT_255_1_234
10
12.7301663
20
-0.2151766
11
12.3382175
21
-0.2151766
0
LINE
8
DEFAULT_255_1_234
10
12.3382175
20
-0.2151766
11
12.3382175
21
-0.0938974
0
LINE
8
DEFAULT_255_1_234
10
12.3382175
20
-0.0938974
11
12.7301663
21
-0.0938974
0
LINE
8
DEFAULT_255_1_234
10
13.6144607
20
0.5181211
11
13.6144607
21
0.434591
0
LINE
8
DEFAULT_255_1_234
10
13.6144607
20
0.434591
11
13.1301469
21
-0.6513
0
LINE
8
DEFAULT_255_1_234
10
13.1301469
20
-0.6513
11
12.9743312
21
-0.6513
0
LINE
8
DEFAULT_255_1_234
10
12.9743312
20
-0.6513
11
13.4570386
21
0.3960387
0
LINE
8
DEFAULT_255_1_234
10
13.4570386
20
0.3960387
11
12.8241376
21
0.3960387
0
LINE
8
DEFAULT_255_1_234
10
12.8241376
20
0.3960387
11
12.8241376
21
0.5181211
0
LINE
8
DEFAULT_255_1_234
10
12.8241376
20
0.5181211
11
13.6144607
21
0.5181211
0
LINE
8
DEFAULT_255_1_234
10
13.8216795
20
0.5181211
11
14.0208667
21
0.5181211
0
LINE
8
DEFAULT_255_1_234
10
14.0208667
20
0.5181211
11
14.4031774
21
-0.4360494
0
LINE
8
DEFAULT_255_1_234
10
14.4031774
20
-0.4360494
11
14.7854881
21
0.5181211
0
LINE
8
DEFAULT_255_1_234
10
14.7854881
20
0.5181211
11
14.9854784
21
0.5181211
0
LINE
8
DEFAULT_255_1_234
10
14.9854784
20
0.5181211
11
14.9854784
21
-0.6513
0
LINE
8
DEFAULT_255_1_234
10
14.9854784
20
-0.6513
11
14.831269
21
-0.6513
0
LINE
8
DEFAULT_255_1_234
10
14.831269
20
-0.6513
11
14.831269
21
-0.1959004
0
LINE
8
DEFAULT_255_1_234
10
14.831269
20
-0.1959004
11
14.8457262
21
0.2956419
0
LINE
8
DEFAULT_255_1_234
10
14.8457262
20
0.2956419
11
14.4618091
21
-0.6513
0
LINE
8
DEFAULT_255_1_234
10
14.4618091
20
-0.6513
11
14.3437425
21
-0.6513
0
LINE
8
DEFAULT_255_1_234
10
14.3437425
20
-0.6513
11
13.9606286
21
0.2932324
0
LINE
8
DEFAULT_255_1_234
10
13.9606286
20
0.2932324
11
13.9758889
21
-0.1959004
0
LINE
8
DEFAULT_255_1_234
10
13.9758889
20
-0.1959004
11
13.9758889
21
-0.6513
0
LINE
8
DEFAULT_255_1_234
10
13.9758889
20
-0.6513
11
13.8216795
21
-0.6513
0
LINE
8
DEFAULT_255_1_234
10
13.8216795
20
-0.6513
11
13.8216795
21
0.5181211
0
LINE
8
DEFAULT_255_1_234
10
16.1565059
20
0.5181211
11
16.1565059
21
-0.6513
0
LINE
8
DEFAULT_255_1_234
10
16.1565059
20
-0.6513
11
16.0014933
21
-0.6513
0
LINE
8
DEFAULT_255_1_234
10
16.0014933
20
-0.6513
11
16.0014933
21
-0.110764
0
LINE
8
DEFAULT_255_1_234
10
16.0014933
20
-0.110764
11
15.4119637
21
-0.110764
0
LINE
8
DEFAULT_255_1_234
10
15.4119637
20
-0.110764
11
15.4119637
21
-0.6513
0
LINE
8
DEFAULT_255_1_234
10
15.4119637
20
-0.6513
11
15.2577543
21
-0.6513
0
LINE
8
DEFAULT_255_1_234
10
15.2577543
20
-0.6513
11
15.2577543
21
0.5181211
0
LINE
8
DEFAULT_255_1_234
10
15.2577543
20
0.5181211
11
15.4119637
21
0.5181211
0
LINE
8
DEFAULT_255_1_234
10
15.4119637
20
0.5181211
11
15.4119637
21
0.0153343
0
LINE
8
DEFAULT_255_1_234
10
15.4119637
20
0.0153343
11
16.0014933
21
0.0153343
0
LINE
8
DEFAULT_255_1_234
10
16.0014933
20
0.0153343
11
16.0014933
21
0.5181211
0
LINE
8
DEFAULT_255_1_234
10
16.0014933
20
0.5181211
11
16.1565059
21
0.5181211
0
LINE
8
DEFAULT_255_1_234
10
17.1251335
20
0.0402327
11
17.1251335
21
-0.1525291
0
LINE
8
DEFAULT_255_1_234
10
16.3870167
20
-0.1726084
11
16.3870167
21
0.0257755
0
LINE
8
DEFAULT_255_1_234
10
16.9765463
20
-0.1926877
11
16.9765463
21
0.0506739
0
LINE
8
DEFAULT_255_1_234
10
16.5356039
20
0.0619184
11
16.5356039
21
-0.1758211
0
ARC
8
DEFAULT_255_1_234
10
15.9004225
20
-0.1574195
40
1.2247208
50
353.8441951
51
0.2287902
0
ARC
8
DEFAULT_255_1_234
10
16.3643728
20
-0.2092194
40
0.7578929
50
344.4934747
51
353.9765454
0
ARC
8
DEFAULT_255_1_234
10
16.6636318
20
-0.2943019
40
0.4467846
50
329.2803592
51
344.7472793
0
ARC
8
DEFAULT_255_1_234
10
16.7629143
20
-0.3487982
40
0.3336173
50
324.9352394
51
328.6160465
0
ARC
8
DEFAULT_255_1_234
10
16.8006252
20
-0.3751573
40
0.2876076
50
280.580143
51
324.9173126
0
ARC
8
DEFAULT_255_1_234
10
16.7605045
20
-0.2080901
40
0.4592847
50
269.5977311
51
281.6734359
0
ARC
8
DEFAULT_255_1_234
10
16.753295
20
-0.2200827
40
0.4472986
50
256.6228859
51
270.51044
0
ARC
8
DEFAULT_255_1_234
10
16.7130928
20
-0.3749123
40
0.2873874
50
215.8618325
51
257.2788573
0
ARC
8
DEFAULT_255_1_234
10
16.815196
20
-0.3064023
40
0.4102928
50
197.9693508
51
215.2623606
0
ARC
8
DEFAULT_255_1_234
10
17.0637075
20
-0.2225291
40
0.6725652
50
187.8816417
51
198.2346507
0
ARC
8
DEFAULT_255_1_234
10
17.4595283
20
-0.1653921
40
1.0724845
50
180.8976217
51
188.0055519
0
ARC
8
DEFAULT_255_1_234
10
17.7395472
20
-0.1550223
40
1.3526448
50
180.7449369
51
181.1510016
0
ARC
8
DEFAULT_255_1_234
10
17.5818201
20
0.0306042
40
1.1948131
50
173.7675579
51
180.231553
0
ARC
8
DEFAULT_255_1_234
10
17.1300347
20
0.0816666
40
0.7401564
50
164.3058563
51
173.9002247
0
ARC
8
DEFAULT_255_1_234
10
16.8388416
20
0.1655656
40
0.4371288
50
148.7922025
51
164.568378
0
ARC
8
DEFAULT_255_1_234
10
16.7436868
20
0.2186929
40
0.3282386
50
144.5883898
51
148.1176286
0
ARC
8
DEFAULT_255_1_234
10
16.7093766
20
0.2426315
40
0.2864044
50
101.6440918
51
144.514236
0
ARC
8
DEFAULT_255_1_234
10
16.7518833
20
0.0737069
40
0.4604934
50
89.5284041
51
102.5819763
0
ARC
8
DEFAULT_255_1_234
10
16.7597921
20
0.0698018
40
0.464401
50
77.0437873
51
90.5081339
0
ARC
8
DEFAULT_255_1_234
10
16.7999922
20
0.2340615
40
0.2953195
50
48.2778575
51
77.4994676
0
ARC
8
DEFAULT_255_1_234
10
16.8072554
20
0.2469746
40
0.2808655
50
36.3142134
51
47.6305865
0
ARC
8
DEFAULT_255_1_234
10
16.7203861
20
0.1884515
40
0.3855453
50
18.2931786
51
35.6769206
0
ARC
8
DEFAULT_255_1_234
10
16.466062
20
0.1011593
40
0.654423
50
8.024666
51
18.5605216
0
ARC
8
DEFAULT_255_1_234
10
16.049754
20
0.0396792
40
1.0752407
50
1.1274072
51
8.1718305
0
ARC
8
DEFAULT_255_1_234
10
15.726173
20
0.0269885
40
1.3990231
50
0.5424119
51
1.3863029
0
ARC
8
DEFAULT_255_1_234
10
15.9083108
20
0.0542342
40
1.0682415
50
359.8090433
51
4.9407866
0
ARC
8
DEFAULT_255_1_234
10
16.3293122
20
0.0918113
40
0.6455691
50
4.8362157
51
12.2904523
0
ARC
8
DEFAULT_255_1_234
10
16.6048237
20
0.1531965
40
0.3633074
50
12.0805627
51
23.8173984
0
ARC
8
DEFAULT_255_1_234
10
16.7221942
20
0.2028919
40
0.2358723
50
24.2871213
51
31.3935614
0
ARC
8
DEFAULT_255_1_234
10
16.7746639
20
0.2372233
40
0.1732111
50
30.7407893
51
82.4657128
0
ARC
8
DEFAULT_255_1_234
10
16.7566774
20
0.1488691
40
0.263235
50
81.1060089
51
90.2184952
0
ARC
8
DEFAULT_255_1_234
10
16.7531073
20
0.1746924
40
0.2374236
50
89.3806855
51
105.6762551
0
ARC
8
DEFAULT_255_1_234
10
16.7347703
20
0.2413567
40
0.1682847
50
105.7981136
51
149.7388061
0
ARC
8
DEFAULT_255_1_234
10
16.8411782
20
0.177395
40
0.2924306
50
149.4208916
51
163.6286378
0
ARC
8
DEFAULT_255_1_234
10
17.050267
20
0.113625
40
0.5110213
50
163.3763315
51
172.1410975
0
ARC
8
DEFAULT_255_1_234
10
17.3803388
20
0.0663518
40
0.8444586
50
172.0259487
51
178.0703232
0
ARC
8
DEFAULT_255_1_234
10
17.6833478
20
0.0519906
40
1.1477868
50
177.8631668
51
179.5044149
0
ARC
8
DEFAULT_255_1_234
10
17.5760882
20
-0.1794611
40
1.0404907
50
179.7995573
51
185.2460446
0
ARC
8
DEFAULT_255_1_234
10
17.1717922
20
-0.2177487
40
0.6343885
50
185.1411642
51
193.0079639
0
ARC
8
DEFAULT_255_1_234
10
16.9074394
20
-0.2802359
40
0.3627568
50
192.7897626
51
205.2507664
0
ARC
8
DEFAULT_255_1_234
10
16.8027941
20
-0.3269585
40
0.2481908
50
205.8005384
51
211.2537509
0
ARC
8
DEFAULT_255_1_234
10
16.7504382
20
-0.362042
40
0.1852521
50
210.3789793
51
238.4008143
0
ARC
8
DEFAULT_255_1_234
10
16.7484904
20
-0.3573624
40
0.1882621
50
239.6520629
51
265.9793761
0
ARC
8
DEFAULT_255_1_234
10
16.7570104
20
-0.2901573
40
0.2559272
50
265.1315437
51
270.060332
0
ARC
8
DEFAULT_255_1_234
10
16.7598883
20
-0.3225466
40
0.2235528
50
269.3314664
51
287.2178029
0
ARC
8
DEFAULT_255_1_234
10
16.7736735
20
-0.3728721
40
0.1714108
50
287.7958004
51
329.080874
0
ARC
8
DEFAULT_255_1_234
10
16.6779191
20
-0.313107
40
0.2842745
50
328.6634704
51
343.3325132
0
ARC
8
DEFAULT_255_1_234
10
16.4606211
20
-0.2454137
40
0.5118644
50
343.0499468
51
351.9393422
0
ARC
8
DEFAULT_255_1_234
10
16.1139511
20
-0.1943051
40
0.8622784
50
351.8069023
51
357.7959224
0
ARC
8
DEFAULT_255_1_234
10
15.7904067
20
-0.1775279
40
1.1862365
50
357.5871873
51
359.2677531
0
LINE
8
DEFAULT_255_1_234
10
18.0487834
20
0.0402327
11
18.0487834
21
-0.1525291
0
LINE
8
DEFAULT_255_1_234
10
17.3106667
20
-0.1726084
11
17.3106667
21
0.0257755
0
LINE
8
DEFAULT_255_1_234
10
17.9001962
20
-0.1926877
11
17.9001962
21
0.0506739
0
LINE
8
DEFAULT_255_1_234
10
17.4592538
20
0.0619184
11
17.4592538
21
-0.1758211
0
ARC
8
DEFAULT_255_1_234
10
16.8240724
20
-0.1574195
40
1.2247208
50
353.8441951
51
0.2287902
0
ARC
8
DEFAULT_255_1_234
10
17.2880227
20
-0.2092194
40
0.7578929
50
344.4934747
51
353.9765454
0
ARC
8
DEFAULT_255_1_234
10
17.5872817
20
-0.2943019
40
0.4467846
50
329.2803592
51
344.7472793
0
ARC
8
DEFAULT_255_1_234
10
17.6865642
20
-0.3487982
40
0.3336173
50
324.9352394
51
328.6160465
0
ARC
8
DEFAULT_255_1_234
10
17.7242751
20
-0.3751573
40
0.2876076
50
280.580143
51
324.9173126
0
ARC
8
DEFAULT_255_1_234
10
17.6841544
20
-0.2080901
40
0.4592847
50
269.5977311
51
281.6734359
0
ARC
8
DEFAULT_255_1_234
10
17.6769449
20
-0.2200827
40
0.4472986
50
256.6228859
51
270.51044
0
ARC
8
DEFAULT_255_1_234
10
17.6367427
20
-0.3749123
40
0.2873874
50
215.8618325
51
257.2788573
0
ARC
8
DEFAULT_255_1_234
10
17.7388459
20
-0.3064023
40
0.4102928
50
197.9693508
51
215.2623606
0
ARC
8
DEFAULT_255_1_234
10
17.9873574
20
-0.2225291
40
0.6725652
50
187.8816417
51
198.2346507
0
ARC
8
DEFAULT_255_1_234
10
18.3831782
20
-0.1653921
40
1.0724845
50
180.8976217
51
188.0055519
0
ARC
8
DEFAULT_255_1_234
10
18.6631971
20
-0.1550223
40
1.3526448
50
180.7449369
51
181.1510016
0
ARC
8
DEFAULT_255_1_234
10
18.50547
20
0.0306042
40
1.1948131
50
173.7675579
51
180.231553
0
ARC
8
DEFAULT_255_1_234
10
18.0536846
20
0.0816666
40
0.7401564
50
164.3058563
51
173.9002247
0
ARC
8
DEFAULT_255_1_234
10
17.7624915
20
0.1655656
40
0.4371288
50
148.7922025
51
164.568378
0
ARC
8
DEFAULT_255_1_234
10
17.6673367
20
0.2186929
40
0.3282386
50
144.5883898
51
148.1176286
0
ARC
8
DEFAULT_255_1_234
10
17.6330265
20
0.2426315
40
0.2864044
50
101.6440918
51
144.514236
0
ARC
8
DEFAULT_255_1_234
10
17.6755332
20
0.0737069
40
0.4604934
50
89.5284041
51
102.5819763
0
ARC
8
DEFAULT_255_1_234
10
17.683442
20
0.0698018
40
0.464401
50
77.0437873
51
90.5081339
0
ARC
8
DEFAULT_255_1_234
10
17.7236421
20
0.2340615
40
0.2953195
50
48.2778575
51
77.4994676
0
ARC
8
DEFAULT_255_1_234
10
17.7309053
20
0.2469746
40
0.2808655
50
36.3142134
51
47.6305865
0
ARC
8
DEFAULT_255_1_234
10
17.644036
20
0.1884515
40
0.3855453
50
18.2931786
51
35.6769206
0
ARC
8
DEFAULT_255_1_234
10
17.3897119
20
0.1011593
40
0.654423
50
8.024666
51
18.5605216
0
ARC
8
DEFAULT_255_1_234
10
16.9734039
20
0.0396792
40
1.0752407
50
1.1274072
51
8.1718305
0
ARC
8
DEFAULT_255_1_234
10
16.6498229
20
0.0269885
40
1.3990231
50
0.5424119
51
1.3863029
0
ARC
8
DEFAULT_255_1_234
10
16.8319607
20
0.0542342
40
1.0682415
50
359.8090433
51
4.9407866
0
ARC
8
DEFAULT_255_1_234
10
17.2529621
20
0.0918113
40
0.6455691
50
4.8362157
51
12.2904523
0
ARC
8
DEFAULT_255_1_234
10
17.5284736
20
0.1531965
40
0.3633074
50
12.0805627
51
23.8173984
0
ARC
8
DEFAULT_255_1_234
10
17.6458441
20
0.2028919
40
0.2358723
50
24.2871213
51
31.3935614
0
ARC
8
DEFAULT_255_1_234
10
17.6983138
20
0.2372233
40
0.1732111
50
30.7407893
51
82.4657128
0
ARC
8
DEFAULT_255_1_234
10
17.6803273
20
0.1488691
40
0.263235
50
81.1060089
51
90.2184952
0
ARC
8
DEFAULT_255_1_234
10
17.6767572
20
0.1746924
40
0.2374236
50
89.3806855
51
105.6762551
0
ARC
8
DEFAULT_255_1_234
10
17.6584202
20
0.2413567
40
0.1682847
50
105.7981136
51
149.7388061
0
ARC
8
DEFAULT_255_1_234
10
17.7648281
20
0.177395
40
0.2924306
50
149.4208916
51
163.6286378
0
ARC
8
DEFAULT_255_1_234
10
17.9739169
20
0.113625
40
0.5110213
50
163.3763315
51
172.1410975
0
ARC
8
DEFAULT_255_1_234
10
18.3039888
20
0.0663518
40
0.8444586
50
172.0259487
51
178.0703232
0
ARC
8
DEFAULT_255_1_234
10
18.6069977
20
0.0519906
40
1.1477868
50
177.8631668
51
179.5044149
0
ARC
8
DEFAULT_255_1_234
10
18.4997381
20
-0.1794611
40
1.0404907
50
179.7995573
51
185.2460446
0
ARC
8
DEFAULT_255_1_234
10
18.0954421
20
-0.2177487
40
0.6343885
50
185.1411642
51
193.0079639
0
ARC
8
DEFAULT_255_1_234
10
17.8310893
20
-0.2802359
40
0.3627568
50
192.7897626
51
205.2507664
0
ARC
8
DEFAULT_255_1_234
10
17.726444
20
-0.3269585
40
0.2481908
50
205.8005384
51
211.2537509
0
ARC
8
DEFAULT_255_1_234
10
17.6740881
20
-0.362042
40
0.1852521
50
210.3789793
51
238.4008143
0
ARC
8
DEFAULT_255_1_234
10
17.6721403
20
-0.3573624
40
0.1882621
50
239.6520629
51
265.9793761
0
ARC
8
DEFAULT_255_1_234
10
17.6806603
20
-0.2901573
40
0.2559272
50
265.1315437
51
270.060332
0
ARC
8
DEFAULT_255_1_234
10
17.6835382
20
-0.3225466
40
0.2235528
50
269.3314664
51
287.2178029
0
ARC
8
DEFAULT_255_1_234
10
17.6973234
20
-0.3728721
40
0.1714108
50
287.7958004
51
329.080874
0
ARC
8
DEFAULT_255_1_234
10
17.601569
20
-0.313107
40
0.2842745
50
328.6634704
51
343.3325132
0
ARC
8
DEFAULT_255_1_234
10
17.384271
20
-0.2454137
40
0.5118644
50
343.0499468
51
351.9393422
0
ARC
8
DEFAULT_255_1_234
10
17.037601
20
-0.1943051
40
0.8622784
50
351.8069023
51
357.7959224
0
ARC
8
DEFAULT_255_1_234
10
16.7140566
20
-0.1775279
40
1.1862365
50
357.5871873
51
359.2677531
0
LINE
8
DEFAULT_255_1_234
10
18.5636178
20
-0.0938974
11
18.5636178
21
-0.2151766
0
LINE
8
DEFAULT_255_1_234
10
18.5636178
20
-0.2151766
11
18.171669
21
-0.2151766
0
LINE
8
DEFAULT_255_1_234
10
18.171669
20
-0.2151766
11
18.171669
21
-0.0938974
0
LINE
8
DEFAULT_255_1_234
10
18.171669
20
-0.0938974
11
18.5636178
21
-0.0938974
0
LINE
8
DEFAULT_255_1_234
10
19.4262265
20
0.0402327
11
19.4262265
21
-0.1525291
0
LINE
8
DEFAULT_255_1_234
10
18.6881098
20
-0.1726084
11
18.6881098
21
0.0257755
0
LINE
8
DEFAULT_255_1_234
10
19.2776394
20
-0.1926877
11
19.2776394
21
0.0506739
0
LINE
8
DEFAULT_255_1_234
10
18.8366969
20
0.0619184
11
18.8366969
21
-0.1758211
0
ARC
8
DEFAULT_255_1_234
10
18.2015155
20
-0.1574195
40
1.2247208
50
353.8441951
51
0.2287902
0
ARC
8
DEFAULT_255_1_234
10
18.6654658
20
-0.2092194
40
0.7578929
50
344.4934747
51
353.9765454
0
ARC
8
DEFAULT_255_1_234
10
18.9647249
20
-0.2943019
40
0.4467846
50
329.2803592
51
344.7472793
0
ARC
8
DEFAULT_255_1_234
10
19.0640073
20
-0.3487982
40
0.3336173
50
324.9352394
51
328.6160465
0
ARC
8
DEFAULT_255_1_234
10
19.1017182
20
-0.3751573
40
0.2876076
50
280.580143
51
324.9173126
0
ARC
8
DEFAULT_255_1_234
10
19.0615975
20
-0.2080901
40
0.4592847
50
269.5977311
51
281.6734359
0
ARC
8
DEFAULT_255_1_234
10
19.054388
20
-0.2200827
40
0.4472986
50
256.6228859
51
270.51044
0
ARC
8
DEFAULT_255_1_234
10
19.0141858
20
-0.3749123
40
0.2873874
50
215.8618325
51
257.2788573
0
ARC
8
DEFAULT_255_1_234
10
19.116289
20
-0.3064023
40
0.4102928
50
197.9693508
51
215.2623606
0
ARC
8
DEFAULT_255_1_234
10
19.3648005
20
-0.2225291
40
0.6725652
50
187.8816417
51
198.2346507
0
ARC
8
DEFAULT_255_1_234
10
19.7606214
20
-0.1653921
40
1.0724845
50
180.8976217
51
188.0055519
0
ARC
8
DEFAULT_255_1_234
10
20.0406402
20
-0.1550223
40
1.3526448
50
180.7449369
51
181.1510016
0
ARC
8
DEFAULT_255_1_234
10
19.8829131
20
0.0306042
40
1.1948131
50
173.7675579
51
180.231553
0
ARC
8
DEFAULT_255_1_234
10
19.4311277
20
0.0816666
40
0.7401564
50
164.3058563
51
173.9002247
0
ARC
8
DEFAULT_255_1_234
10
19.1399346
20
0.1655656
40
0.4371288
50
148.7922025
51
164.568378
0
ARC
8
DEFAULT_255_1_234
10
19.0447798
20
0.2186929
40
0.3282386
50
144.5883898
51
148.1176286
0
ARC
8
DEFAULT_255_1_234
10
19.0104696
20
0.2426315
40
0.2864044
50
101.6440918
51
144.514236
0
ARC
8
DEFAULT_255_1_234
10
19.0529763
20
0.0737069
40
0.4604934
50
89.5284041
51
102.5819763
0
ARC
8
DEFAULT_255_1_234
10
19.0608851
20
0.0698018
40
0.464401
50
77.0437873
51
90.5081339
0
ARC
8
DEFAULT_255_1_234
10
19.1010853
20
0.2340615
40
0.2953195
50
48.2778575
51
77.4994676
0
ARC
8
DEFAULT_255_1_234
10
19.1083484
20
0.2469746
40
0.2808655
50
36.3142134
51
47.6305865
0
ARC
8
DEFAULT_255_1_234
10
19.0214791
20
0.1884515
40
0.3855453
50
18.2931786
51
35.6769206
0
ARC
8
DEFAULT_255_1_234
10
18.767155
20
0.1011593
40
0.654423
50
8.024666
51
18.5605216
0
ARC
8
DEFAULT_255_1_234
10
18.350847
20
0.0396792
40
1.0752407
50
1.1274072
51
8.1718305
0
ARC
8
DEFAULT_255_1_234
10
18.027266
20
0.0269885
40
1.3990231
50
0.5424119
51
1.3863029
0
ARC
8
DEFAULT_255_1_234
10
18.2094038
20
0.0542342
40
1.0682415
50
359.8090433
51
4.9407866
0
ARC
8
DEFAULT_255_1_234
10
18.6304052
20
0.0918113
40
0.6455691
50
4.8362157
51
12.2904523
0
ARC
8
DEFAULT_255_1_234
10
18.9059167
20
0.1531965
40
0.3633074
50
12.0805627
51
23.8173984
0
ARC
8
DEFAULT_255_1_234
10
19.0232872
20
0.2028919
40
0.2358723
50
24.2871213
51
31.3935614
0
ARC
8
DEFAULT_255_1_234
10
19.075757
20
0.2372233
40
0.1732111
50
30.7407893
51
82.4657128
0
ARC
8
DEFAULT_255_1_234
10
19.0577704
20
0.1488691
40
0.263235
50
81.1060089
51
90.2184952
0
ARC
8
DEFAULT_255_1_234
10
19.0542003
20
0.1746924
40
0.2374236
50
89.3806855
51
105.6762551
0
ARC
8
DEFAULT_255_1_234
10
19.0358633
20
0.2413567
40
0.1682847
50
105.7981136
51
149.7388061
0
ARC
8
DEFAULT_255_1_234
10
19.1422712
20
0.177395
40
0.2924306
50
149.4208916
51
163.6286378
0
ARC
8
DEFAULT_255_1_234
10
19.35136
20
0.113625
40
0.5110213
50
163.3763315
51
172.1410975
0
ARC
8
DEFAULT_255_1_234
10
19.6814319
20
0.0663518
40
0.8444586
50
172.0259487
51
178.0703232
0
ARC
8
DEFAULT_255_1_234
10
19.9844408
20
0.0519906
40
1.1477868
50
177.8631668
51
179.5044149
0
ARC
8
DEFAULT_255_1_234
10
19.8771813
20
-0.1794611
40
1.0404907
50
179.7995573
51
185.2460446
0
ARC
8
DEFAULT_255_1_234
10
19.4728852
20
-0.2177487
40
0.6343885
50
185.1411642
51
193.0079639
0
ARC
8
DEFAULT_255_1_234
10
19.2085324
20
-0.2802359
40
0.3627568
50
192.7897626
51
205.2507664
0
ARC
8
DEFAULT_255_1_234
10
19.1038871
20
-0.3269585
40
0.2481908
50
205.8005384
51
211.2537509
0
ARC
8
DEFAULT_255_1_234
10
19.0515312
20
-0.362042
40
0.1852521
50
210.3789793
51
238.4008143
0
ARC
8
DEFAULT_255_1_234
10
19.0495834
20
-0.3573624
40
0.1882621
50
239.6520629
51
265.9793761
0
ARC
8
DEFAULT_255_1_234
10
19.0581034
20
-0.2901573
40
0.2559272
50
265.1315437
51
270.060332
0
ARC
8
DEFAULT_255_1_234
10
19.0609813
20
-0.3225466
40
0.2235528
50
269.3314664
51
287.2178029
0
ARC
8
DEFAULT_255_1_234
10
19.0747665
20
-0.3728721
40
0.1714108
50
287.7958004
51
329.080874
0
ARC
8
DEFAULT_255_1_234
10
18.9790122
20
-0.313107
40
0.2842745
50
328.6634704
51
343.3325132
0
ARC
8
DEFAULT_255_1_234
10
18.7617142
20
-0.2454137
40
0.5118644
50
343.0499468
51
351.9393422
0
ARC
8
DEFAULT_255_1_234
10
18.4150442
20
-0.1943051
40
0.8622784
50
351.8069023
51
357.7959224
0
ARC
8
DEFAULT_255_1_234
10
18.0914998
20
-0.1775279
40
1.1862365
50
357.5871873
51
359.2677531
0
LINE
8
DEFAULT_255_1_234
10
20.412524
20
-0.6513
11
20.3008828
21
-0.3460939
0
LINE
8
DEFAULT_255_1_234
10
20.3008828
20
-0.3460939
11
19.8109468
21
-0.3460939
0
LINE
8
DEFAULT_255_1_234
10
19.8109468
20
-0.3460939
11
19.700912
21
-0.6513
0
LINE
8
DEFAULT_255_1_234
10
19.700912
20
-0.6513
11
19.5418835
21
-0.6513
0
LINE
8
DEFAULT_255_1_234
10
19.5418835
20
-0.6513
11
19.9884482
21
0.5181211
0
LINE
8
DEFAULT_255_1_234
10
19.9884482
20
0.5181211
11
20.1233814
21
0.5181211
0
LINE
8
DEFAULT_255_1_234
10
20.1233814
20
0.5181211
11
20.5707492
21
-0.6513
0
LINE
8
DEFAULT_255_1_234
10
20.5707492
20
-0.6513
11
20.412524
21
-0.6513
0
LINE
8
DEFAULT_255_1_234
10
20.0559148
20
0.3277689
11
19.8575309
21
-0.2191925
0
LINE
8
DEFAULT_255_1_234
10
19.8575309
20
-0.2191925
11
20.2551019
21
-0.2191925
0
LINE
8
DEFAULT_255_1_234
10
20.2551019
20
-0.2191925
11
20.0559148
21
0.3277689
0
LINE
8
DEFAULT_255_1_234
10
21.1337741
20
-0.6513
11
20.7281713
21
-0.6513
0
LINE
8
DEFAULT_255_1_234
10
20.7281713
20
-0.6513
11
20.7281713
21
0.5181211
0
LINE
8
DEFAULT_255_1_234
10
20.7281713
20
0.5181211
11
21.110482
21
0.5181211
0
LINE
8
DEFAULT_255_1_234
10
21.1393963
20
-0.1043386
11
20.8823807
21
-0.1043386
0
LINE
8
DEFAULT_255_1_234
10
20.8823807
20
-0.1043386
11
20.8823807
21
-0.5252017
0
LINE
8
DEFAULT_255_1_234
10
20.8823807
20
-0.5252017
11
21.1369868
21
-0.5252017
0
LINE
8
DEFAULT_255_1_234
10
20.8823807
20
0.3912196
11
20.8823807
21
0.0193501
0
LINE
8
DEFAULT_255_1_234
10
20.8823807
20
0.0193501
11
21.1153011
21
0.0193501
0
LINE
8
DEFAULT_255_1_234
10
21.110482
20
0.3912196
11
20.8823807
21
0.3912196
0
ARC
8
DEFAULT_255_1_234
10
21.1142529
20
-0.2186099
40
0.7367406
50
82.1257326
51
90.2932599
0
ARC
8
DEFAULT_255_1_234
10
21.1531484
20
0.0532013
40
0.4621653
50
69.9044149
51
82.2857423
0
ARC
8
DEFAULT_255_1_234
10
21.2102162
20
0.2074637
40
0.2976871
50
51.1838526
51
70.0181538
0
ARC
8
DEFAULT_255_1_234
10
21.2357128
20
0.244524
40
0.2528517
50
12.1017251
51
50.4214761
0
ARC
8
DEFAULT_255_1_234
10
21.0973002
20
0.2097676
40
0.3955061
50
359.5251267
51
12.8211707
0
ARC
8
DEFAULT_255_1_234
10
21.2552928
20
0.2028344
40
0.2375281
50
323.4908128
51
0.8817314
0
ARC
8
DEFAULT_255_1_234
10
21.2134615
20
0.235155
40
0.2903817
50
298.6825083
51
323.2756573
0
ARC
8
DEFAULT_255_1_234
10
21.1772978
20
0.2952649
40
0.3604842
50
293.1999386
51
299.1396394
0
ARC
8
DEFAULT_255_1_234
10
21.2445951
20
-0.3132874
40
0.2871098
50
54.0011765
51
74.9167975
0
ARC
8
DEFAULT_255_1_234
10
21.256231
20
-0.2935668
40
0.2643248
50
36.3580696
51
53.5291921
0
ARC
8
DEFAULT_255_1_234
10
21.2435552
20
-0.3026002
40
0.2798884
50
4.8189881
51
36.3089977
0
ARC
8
DEFAULT_255_1_234
10
21.1656388
20
-0.313573
40
0.358478
50
359.9370252
51
5.5204067
0
ARC
8
DEFAULT_255_1_234
10
21.1331909
20
-0.3176333
40
0.3909429
50
344.7478609
51
0.5373281
0
ARC
8
DEFAULT_255_1_234
10
21.232288
20
-0.3443456
40
0.2883093
50
311.1786488
51
344.6886812
0
ARC
8
DEFAULT_255_1_234
10
21.2030927
20
-0.3080013
40
0.3348923
50
286.0418249
51
310.8441291
0
ARC
8
DEFAULT_255_1_234
10
21.1523759
20
-0.1433193
40
0.5071869
50
274.1042341
51
286.4071509
0
ARC
8
DEFAULT_255_1_234
10
21.1347015
20
0.0450229
40
0.6963234
50
269.9236873
51
274.445647
0
ARC
8
DEFAULT_255_1_234
10
21.1393016
20
-0.1889463
40
0.3362634
50
269.6055768
51
281.3740047
0
ARC
8
DEFAULT_255_1_234
10
21.1623654
20
-0.2982647
40
0.224546
50
281.1055983
51
302.5132223
0
ARC
8
DEFAULT_255_1_234
10
21.1770553
20
-0.3246177
40
0.1944357
50
303.0368945
51
311.8811219
0
ARC
8
DEFAULT_255_1_234
10
21.184196
20
-0.333111
40
0.1833454
50
311.9916004
51
351.7143462
0
ARC
8
DEFAULT_255_1_234
10
21.102519
20
-0.316607
40
0.2665871
50
350.7339597
51
0.2221581
0
ARC
8
DEFAULT_255_1_234
10
21.0917636
20
-0.3109533
40
0.2773789
50
359.0456241
51
17.2296242
0
ARC
8
DEFAULT_255_1_234
10
21.1956753
20
-0.2800837
40
0.1689915
50
17.6685481
51
78.9940892
0
ARC
8
DEFAULT_255_1_234
10
21.1439917
20
-0.4655776
40
0.3612658
50
76.5635957
51
90.6980921
0
LINE
8
DEFAULT_255_1_234
10
21.1395901
20
-0.1043387
11
21.1393963
21
-0.1043386
0
ARC
8
DEFAULT_255_1_234
10
21.1175577
20
0.3479036
40
0.3285612
50
269.6064736
51
281.4533503
0
ARC
8
DEFAULT_255_1_234
10
21.1398397
20
0.2427688
40
0.2210975
50
281.2041486
51
302.5148063
0
ARC
8
DEFAULT_255_1_234
10
21.1535247
20
0.2181241
40
0.1929674
50
303.021671
51
309.8369575
0
ARC
8
DEFAULT_255_1_234
10
21.1718709
20
0.1975488
40
0.1654181
50
309.5228395
51
356.9509836
0
ARC
8
DEFAULT_255_1_234
10
21.1055291
20
0.2070932
40
0.2322512
50
355.4701227
51
0.0492546
0
ARC
8
DEFAULT_255_1_234
10
21.0776382
20
0.2093094
40
0.2601498
50
359.5558597
51
11.2096359
0
ARC
8
DEFAULT_255_1_234
10
21.1733672
20
0.229123
40
0.1623975
50
10.9182341
51
31.3230275
0
ARC
8
DEFAULT_255_1_234
10
21.2019405
20
0.2450214
40
0.1297302
50
31.8852677
51
52.1412565
0
ARC
8
DEFAULT_255_1_234
10
21.1745138
20
0.206275
40
0.1771663
50
52.8285564
51
71.9850297
0
ARC
8
DEFAULT_255_1_234
10
21.1369314
20
0.0956664
40
0.2939794
50
71.6863486
51
82.8455995
0
ARC
8
DEFAULT_255_1_234
10
21.112985
20
-0.0852851
40
0.476506
50
82.6984714
51
90.1729175
0
ARC
8
DEFAULT_255_1_234
10
21.1107485
20
0.0370623
40
0.3541573
50
89.8708275
51
90.0431131
0
LINE
8
DEFAULT_255_1_234
10
22.4469633
20
0.0402327
11
22.4469633
21
-0.1525291
0
LINE
8
DEFAULT_255_1_234
10
21.7088465
20
-0.1726084
11
21.7088465
21
0.0257755
0
LINE
8
DEFAULT_255_1_234
10
22.2983761
20
-0.1926877
11
22.2983761
21
0.0506739
0
LINE
8
DEFAULT_255_1_234
10
21.8574337
20
0.0619184
11
21.8574337
21
-0.1758211
0
ARC
8
DEFAULT_255_1_234
10
21.2222522
20
-0.1574195
40
1.2247208
50
353.8441951
51
0.2287902
0
ARC
8
DEFAULT_255_1_234
10
21.6862026
20
-0.2092194
40
0.7578929
50
344.4934747
51
353.9765454
0
ARC
8
DEFAULT_255_1_234
10
21.9854616
20
-0.2943019
40
0.4467846
50
329.2803592
51
344.7472793
0
ARC
8
DEFAULT_255_1_234
10
22.0847441
20
-0.3487982
40
0.3336173
50
324.9352394
51
328.6160465
0
ARC
8
DEFAULT_255_1_234
10
22.122455
20
-0.3751573
40
0.2876076
50
280.580143
51
324.9173126
0
ARC
8
DEFAULT_255_1_234
10
22.0823342
20
-0.2080901
40
0.4592847
50
269.5977311
51
281.6734359
0
ARC
8
DEFAULT_255_1_234
10
22.0751248
20
-0.2200827
40
0.4472986
50
256.6228859
51
270.51044
0
ARC
8
DEFAULT_255_1_234
10
22.0349226
20
-0.3749123
40
0.2873874
50
215.8618325
51
257.2788573
0
ARC
8
DEFAULT_255_1_234
10
22.1370257
20
-0.3064023
40
0.4102928
50
197.9693508
51
215.2623606
0
ARC
8
DEFAULT_255_1_234
10
22.3855373
20
-0.2225291
40
0.6725652
50
187.8816417
51
198.2346507
0
ARC
8
DEFAULT_255_1_234
10
22.7813581
20
-0.1653921
40
1.0724845
50
180.8976217
51
188.0055519
0
ARC
8
DEFAULT_255_1_234
10
23.061377
20
-0.1550223
40
1.3526448
50
180.7449369
51
181.1510016
0
ARC
8
DEFAULT_255_1_234
10
22.9036499
20
0.0306042
40
1.1948131
50
173.7675579
51
180.231553
0
ARC
8
DEFAULT_255_1_234
10
22.4518645
20
0.0816666
40
0.7401564
50
164.3058563
51
173.9002247
0
ARC
8
DEFAULT_255_1_234
10
22.1606714
20
0.1655656
40
0.4371288
50
148.7922025
51
164.568378
0
ARC
8
DEFAULT_255_1_234
10
22.0655166
20
0.2186929
40
0.3282386
50
144.5883898
51
148.1176286
0
ARC
8
DEFAULT_255_1_234
10
22.0312064
20
0.2426315
40
0.2864044
50
101.6440918
51
144.514236
0
ARC
8
DEFAULT_255_1_234
10
22.0737131
20
0.0737069
40
0.4604934
50
89.5284041
51
102.5819763
0
ARC
8
DEFAULT_255_1_234
10
22.0816219
20
0.0698018
40
0.464401
50
77.0437873
51
90.5081339
0
ARC
8
DEFAULT_255_1_234
10
22.121822
20
0.2340615
40
0.2953195
50
48.2778575
51
77.4994676
0
ARC
8
DEFAULT_255_1_234
10
22.1290852
20
0.2469746
40
0.2808655
50
36.3142134
51
47.6305865
0
ARC
8
DEFAULT_255_1_234
10
22.0422159
20
0.1884515
40
0.3855453
50
18.2931786
51
35.6769206
0
ARC
8
DEFAULT_255_1_234
10
21.7878917
20
0.1011593
40
0.654423
50
8.024666
51
18.5605216
0
ARC
8
DEFAULT_255_1_234
10
21.3715837
20
0.0396792
40
1.0752407
50
1.1274072
51
8.1718305
0
ARC
8
DEFAULT_255_1_234
10
21.0480028
20
0.0269885
40
1.3990231
50
0.5424119
51
1.3863029
0
ARC
8
DEFAULT_255_1_234
10
21.2301406
20
0.0542342
40
1.0682415
50
359.8090433
51
4.9407866
0
ARC
8
DEFAULT_255_1_234
10
21.651142
20
0.0918113
40
0.6455691
50
4.8362157
51
12.2904523
0
ARC
8
DEFAULT_255_1_234
10
21.9266535
20
0.1531965
40
0.3633074
50
12.0805627
51
23.8173984
0
ARC
8
DEFAULT_255_1_234
10
22.044024
20
0.2028919
40
0.2358723
50
24.2871213
51
31.3935614
0
ARC
8
DEFAULT_255_1_234
10
22.0964937
20
0.2372233
40
0.1732111
50
30.7407893
51
82.4657128
0
ARC
8
DEFAULT_255_1_234
10
22.0785072
20
0.1488691
40
0.263235
50
81.1060089
51
90.2184952
0
ARC
8
DEFAULT_255_1_234
10
22.074937
20
0.1746924
40
0.2374236
50
89.3806855
51
105.6762551
0
ARC
8
DEFAULT_255_1_234
10
22.0566001
20
0.2413567
40
0.1682847
50
105.7981136
51
149.7388061
0
ARC
8
DEFAULT_255_1_234
10
22.1630079
20
0.177395
40
0.2924306
50
149.4208916
51
163.6286378
0
ARC
8
DEFAULT_255_1_234
10
22.3720967
20
0.113625
40
0.5110213
50
163.3763315
51
172.1410975
0
ARC
8
DEFAULT_255_1_234
10
22.7021686
20
0.0663518
40
0.8444586
50
172.0259487
51
178.0703232
0
ARC
8
DEFAULT_255_1_234
10
23.0051776
20
0.0519906
40
1.1477868
50
177.8631668
51
179.5044149
0
ARC
8
DEFAULT_255_1_234
10
22.897918
20
-0.1794611
40
1.0404907
50
179.7995573
51
185.2460446
0
ARC
8
DEFAULT_255_1_234
10
22.493622
20
-0.2177487
40
0.6343885
50
185.1411642
51
193.0079639
0
ARC
8
DEFAULT_255_1_234
10
22.2292692
20
-0.2802359
40
0.3627568
50
192.7897626
51
205.2507664
0
ARC
8
DEFAULT_255_1_234
10
22.1246239
20
-0.3269585
40
0.2481908
50
205.8005384
51
211.2537509
0
ARC
8
DEFAULT_255_1_234
10
22.072268
20
-0.362042
40
0.1852521
50
210.3789793
51
238.4008143
0
ARC
8
DEFAULT_255_1_234
10
22.0703202
20
-0.3573624
40
0.1882621
50
239.6520629
51
265.9793761
0
ARC
8
DEFAULT_255_1_234
10
22.0788402
20
-0.2901573
40
0.2559272
50
265.1315437
51
270.060332
0
ARC
8
DEFAULT_255_1_234
10
22.081718
20
-0.3225466
40
0.2235528
50
269.3314664
51
287.2178029
0
ARC
8
DEFAULT_255_1_234
10
22.0955032
20
-0.3728721
40
0.1714108
50
287.7958004
51
329.080874
0
ARC
8
DEFAULT_255_1_234
10
21.9997489
20
-0.313107
40
0.2842745
50
328.6634704
51
343.3325132
0
ARC
8
DEFAULT_255_1_234
10
21.7824509
20
-0.2454137
40
0.5118644
50
343.0499468
51
351.9393422
0
ARC
8
DEFAULT_255_1_234
10
21.4357809
20
-0.1943051
40
0.8622784
50
351.8069023
51
357.7959224
0
ARC
8
DEFAULT_255_1_234
10
21.1122365
20
-0.1775279
40
1.1862365
50
357.5871873
51
359.2677531
0
ARC
8
DEFAULT_255_2_778
10
7.7537338
20
139.6512992
40
3.0484709
50
251.6854144
51
258.6071955
0
ARC
8
DEFAULT_255_2_778
10
7.539521
20
138.5696738
40
1.9458471
50
258.4992492
51
268.3986479
0
ARC
8
DEFAULT_255_2_778
10
7.5172314
20
138.1394206
40
1.5151737
50
268.7865272
51
269.9950384
0
ARC
8
DEFAULT_255_2_778
10
7.5277432
20
137.6882355
40
1.0640417
50
269.426895
51
279.6711067
0
ARC
8
DEFAULT_255_2_778
10
7.6417753
20
137.0586746
40
0.4243233
50
278.7731084
51
300.3324923
0
ARC
8
DEFAULT_255_2_778
10
7.760746
20
136.8560552
40
0.1893587
50
300.2240287
51
1.9041213
0
ARC
8
DEFAULT_255_2_778
10
7.7452705
20
136.8652089
40
0.2047497
50
359.1991369
51
359.99965
0
ARC
8
DEFAULT_255_2_778
10
7.7523233
20
136.8660378
40
0.1976988
50
359.7594145
51
47.1793976
0
ARC
8
DEFAULT_255_2_778
10
7.6187277
20
136.717431
40
0.3975169
50
47.6144502
51
60.8366176
0
ARC
8
DEFAULT_255_2_778
10
7.0190958
20
135.7014865
40
1.5771337
50
59.799464
51
64.8885807
0
ARC
8
DEFAULT_255_2_778
10
6.0948833
20
133.7724682
40
3.7160912
50
64.6076081
51
66.8386974
0
ARC
8
DEFAULT_255_2_778
10
9.6419609
20
142.1355052
40
5.368109
50
244.3032309
51
247.1393781
0
ARC
8
DEFAULT_255_2_778
10
8.5507088
20
139.875518
40
2.8584574
50
240.2323579
51
244.3709759
0
ARC
8
DEFAULT_255_2_778
10
7.7800475
20
138.5386591
40
1.315392
50
233.2209971
51
240.4606284
0
ARC
8
DEFAULT_255_2_778
10
7.3561477
20
137.9675187
40
0.6041399
50
225.6990744
51
232.9899679
0
ARC
8
DEFAULT_255_2_778
10
7.3965073
20
137.9919214
40
0.6499005
50
178.2783416
51
224.6550883
0
ARC
8
DEFAULT_255_2_778
10
7.5059624
20
138.0252974
40
0.7591885
50
157.033673
51
181.0453383
0
ARC
8
DEFAULT_255_2_778
10
7.378439
20
138.0661396
40
0.6259551
50
124.9113017
51
155.9211516
0
ARC
8
DEFAULT_255_2_778
10
7.5960466
20
137.7575681
40
1.0035357
50
100.4079723
51
125.0168617
0
ARC
8
DEFAULT_255_2_778
10
7.6991199
20
137.2635046
40
1.5081396
50
89.6483922
51
100.8684975
0
ARC
8
DEFAULT_255_2_778
10
7.7083242
20
136.9112988
40
1.8603169
50
89.5079487
51
89.9984402
0
ARC
8
DEFAULT_255_2_778
10
7.7099573
20
136.8460694
40
1.9255311
50
83.9170631
51
89.5732113
0
ARC
8
DEFAULT_255_2_778
10
7.5071517
20
134.8384957
40
3.9433074
50
80.7325723
51
84.0779772
0
ARC
8
DEFAULT_255_2_778
10
7.0208457
20
131.815582
40
7.0050837
50
78.5086351
51
80.7886813
0
ARC
8
DEFAULT_255_2_778
10
7.6620177
20
136.4150544
40
1.9415426
50
67.135818
51
78.0934208
0
ARC
8
DEFAULT_255_2_778
10
7.7851814
20
136.9854809
40
1.3579807
50
78.2126325
51
89.7333975
0
ARC
8
DEFAULT_255_2_778
10
7.7793853
20
137.4006211
40
0.9429038
50
89.2638155
51
100.5666868
0
ARC
8
DEFAULT_255_2_778
10
7.6660949
20
137.9704419
40
0.362036
50
99.4784875
51
124.329414
0
ARC
8
DEFAULT_255_2_778
10
7.5705593
20
138.118551
40
0.1859067
50
125.7571195
51
182.2824883
0
ARC
8
DEFAULT_255_2_778
10
7.5493239
20
138.1118629
40
0.1645253
50
180.2492993
51
239.8144161
0
ARC
8
DEFAULT_255_2_778
10
7.932718
20
138.7119128
40
0.876484
50
237.8725734
51
242.8068846
0
ARC
8
DEFAULT_255_2_778
10
9.4175857
20
141.5284958
40
4.0604642
50
242.3328458
51
244.031083
0
ARC
8
DEFAULT_255_2_778
10
12.3804066
20
147.5769314
40
10.7955807
50
243.950624
51
244.8024316
0
ARC
8
DEFAULT_255_2_778
10
15.4009918
20
153.9609175
40
17.8580926
50
244.7535425
51
244.9563234
0
ARC
8
DEFAULT_255_2_778
10
5.8652927
20
133.4593264
40
4.7527588
50
62.2505456
51
65.4301556
0
ARC
8
DEFAULT_255_2_778
10
6.9275435
20
135.4674172
40
2.4810291
50
57.2951304
51
62.3684211
0
ARC
8
DEFAULT_255_2_778
10
7.6807233
20
136.6307235
40
1.0952081
50
48.7345704
51
57.5685367
0
ARC
8
DEFAULT_255_2_778
10
8.0117486
20
137.0182722
40
0.5856147
50
44.3236031
51
48.0704418
0
ARC
8
DEFAULT_255_2_778
10
7.9783002
20
136.9982468
40
0.6236013
50
1.3523843
51
43.4925744
0
ARC
8
DEFAULT_255_2_778
10
7.7103531
20
136.9653151
40
0.8926473
50
359.9763756
51
3.0599076
0
ARC
8
DEFAULT_255_2_778
10
7.8645343
20
136.9502407
40
0.7386124
50
333.0361889
51
1.1408766
0
ARC
8
DEFAULT_255_2_778
10
7.8947908
20
136.9571919
40
0.7150741
50
300.8430083
51
331.4403095
0
ARC
8
DEFAULT_255_2_778
10
7.694568
20
137.2707162
40
1.0869673
50
281.4258583
51
301.4316118
0
ARC
8
DEFAULT_255_2_778
10
7.5632666
20
137.8789414
40
1.7091691
50
270.2273513
51
281.7010805
0
ARC
8
DEFAULT_255_2_778
10
7.5453797
20
138.3556043
40
2.1859577
50
269.9983113
51
270.6466065
0
LINE
8
DEFAULT_255_2_778
10
7.5453153
20
136.1696465
11
7.5438002
21
136.169647
0
ARC
8
DEFAULT_255_2_778
10
7.5509161
20
139.3525969
40
3.1829579
50
256.2431122
51
269.871909
0
ARC
8
DEFAULT_255_2_778
10
21.7538511
20
139.5771629
40
2.9720345
50
251.5709223
51
258.7508181
0
ARC
8
DEFAULT_255_2_778
10
21.5538128
20
138.5539385
40
1.9294488
50
258.6495077
51
268.8281511
0
ARC
8
DEFAULT_255_2_778
10
21.5355488
20
138.1591193
40
1.5343723
50
269.2085037
51
269.9981866
0
ARC
8
DEFAULT_255_2_778
10
21.5473849
20
137.6907184
40
1.0660376
50
269.3612297
51
279.5899087
0
ARC
8
DEFAULT_255_2_778
10
21.6608439
20
137.0592324
40
0.424527
50
278.6895227
51
300.2363944
0
ARC
8
DEFAULT_255_2_778
10
21.7799083
20
136.8557793
40
0.188796
50
300.1108484
51
1.9024905
0
ARC
8
DEFAULT_255_2_778
10
21.7439577
20
136.8664221
40
0.2246851
50
358.8842611
51
0.0019649
0
ARC
8
DEFAULT_255_2_778
10
21.7769791
20
136.8703385
40
0.1917038
50
358.831716
51
47.0900458
0
ARC
8
DEFAULT_255_2_778
10
21.6364654
20
136.710984
40
0.4041259
50
47.8812665
51
61.174665
0
ARC
8
DEFAULT_255_2_778
10
21.0418848
20
135.6910117
40
1.5846568
50
60.1210877
51
65.1917015
0
ARC
8
DEFAULT_255_2_778
10
20.1415278
20
133.7854122
40
3.6922188
50
64.9168629
51
67.1565628
0
ARC
8
DEFAULT_255_2_778
10
23.6275467
20
142.0569888
40
5.2839333
50
244.2656926
51
247.1407051
0
ARC
8
DEFAULT_255_2_778
10
22.5594997
20
139.848765
40
2.8309849
50
240.1545061
51
244.3326325
0
ARC
8
DEFAULT_255_2_778
10
21.7856548
20
138.5127346
40
1.2870531
50
232.697515
51
240.4357497
0
ARC
8
DEFAULT_255_2_778
10
21.3705506
20
137.9617218
40
0.5972006
50
225.5850892
51
232.3393736
0
ARC
8
DEFAULT_255_2_778
10
21.4133941
20
137.9912933
40
0.6483829
50
178.7795739
51
224.7095916
0
ARC
8
DEFAULT_255_2_778
10
21.6669319
20
138.0153135
40
0.9018316
50
179.997867
51
180.6487041
0
ARC
8
DEFAULT_255_2_778
10
21.5167738
20
138.0291249
40
0.7517998
50
156.9195758
51
181.050088
0
ARC
8
DEFAULT_255_2_778
10
21.3928482
20
138.0685712
40
0.6224513
50
124.7111133
51
155.7879672
0
ARC
8
DEFAULT_255_2_778
10
21.6055459
20
137.7766942
40
0.9835402
50
101.7934503
51
125.2143527
0
ARC
8
DEFAULT_255_2_778
10
21.729848
20
137.2241326
40
1.5498677
50
89.5248728
51
102.1166783
0
ARC
8
DEFAULT_255_2_778
10
21.7283109
20
136.6705834
40
2.1034129
50
83.2889725
51
89.6080411
0
ARC
8
DEFAULT_255_2_778
10
21.529975
20
134.9027668
40
3.8823067
50
79.4764054
51
83.4308492
0
ARC
8
DEFAULT_255_2_778
10
21.2186357
20
133.1495673
40
5.6628977
50
78.2224868
51
79.6190915
0
ARC
8
DEFAULT_255_2_778
10
21.6838473
20
136.4270715
40
1.9311543
50
67.1323814
51
78.3148813
0
ARC
8
DEFAULT_255_2_778
10
21.801359
20
136.9785614
40
1.3672981
50
78.4565774
51
89.7552271
0
ARC
8
DEFAULT_255_2_778
10
21.7951366
20
137.409447
40
0.9364778
50
89.2619009
51
100.5950934
0
ARC
8
DEFAULT_255_2_778
10
21.6824182
20
137.9749169
40
0.3599879
50
99.5087086
51
124.406715
0
ARC
8
DEFAULT_255_2_778
10
21.5878565
20
138.121343
40
0.1858061
50
125.8630185
51
182.2986975
0
ARC
8
DEFAULT_255_2_778
10
21.5497296
20
138.1138047
40
0.1475296
50
179.9666559
51
180.100057
0
ARC
8
DEFAULT_255_2_778
10
21.566185
20
138.113793
40
0.163985
50
180.0859454
51
239.8819968
0
ARC
8
DEFAULT_255_2_778
10
21.9379018
20
138.7005619
40
0.8584853
50
238.072871
51
243.0442008
0
ARC
8
DEFAULT_255_2_778
10
23.4872034
20
141.6655845
40
4.2038426
50
242.5409111
51
244.1884903
0
ARC
8
DEFAULT_255_2_778
10
26.6463384
20
148.160196
40
11.4260319
50
244.1076525
51
244.9219574
0
ARC
8
DEFAULT_255_2_778
10
29.9038827
20
155.083855
40
19.0777309
50
244.8743531
51
245.066969
0
ARC
8
DEFAULT_255_2_778
10
19.8865272
20
133.4916274
40
4.7250654
50
62.0340028
51
65.293009
0
ARC
8
DEFAULT_255_2_778
10
20.9507744
20
135.4865758
40
2.464003
50
57.1127289
51
62.13736
0
ARC
8
DEFAULT_255_2_778
10
21.7037139
20
136.6402906
40
1.0863604
50
48.3695509
51
57.4197129
0
ARC
8
DEFAULT_255_2_778
10
22.0286268
20
137.0170419
40
0.5889589
50
44.472493
51
47.6467012
0
ARC
8
DEFAULT_255_2_778
10
21.9979457
20
136.9999032
40
0.6229283
50
1.2061613
51
43.6203607
0
ARC
8
DEFAULT_255_2_778
10
21.7312413
20
136.9674903
40
0.890659
50
359.9779196
51
2.9299178
0
ARC
8
DEFAULT_255_2_778
10
21.8802547
20
136.9523837
40
0.7417924
50
333.172934
51
1.140392
0
ARC
8
DEFAULT_255_2_778
10
21.9146167
20
136.9570736
40
0.7135172
50
300.9808035
51
331.5913995
0
ARC
8
DEFAULT_255_2_778
10
21.7182603
20
137.2669862
40
1.0803281
50
281.9040909
51
301.4483918
0
ARC
8
DEFAULT_255_2_778
10
21.5848425
20
137.8655518
40
1.6935565
50
270.5796874
51
282.1436175
0
ARC
8
DEFAULT_255_2_778
10
21.5636722
20
138.3604735
40
2.1887267
50
269.9959074
51
271.0027751
0
LINE
8
DEFAULT_255_2_778
10
21.5635158
20
136.1717468
11
21.5625002
21
136.171747
0
ARC
8
DEFAULT_255_2_778
10
21.5700221
20
139.3605174
40
3.1887792
50
256.2556596
51
269.8648469
0
LINE
8
DEFAULT_255_2_778
10
6.7958002
20
136.262547
11
6.7958002
21
136.757247
0
LINE
8
DEFAULT_255_2_778
10
8.4164002
20
138.680247
11
8.4164002
21
138.204047
0
LINE
8
DEFAULT_255_2_778
10
6.7940002
20
136.260947
11
6.7958002
21
136.262547
0
LINE
8
DEFAULT_255_2_778
10
8.9866002
20
138.729747
11
9.6629002
21
138.729747
0
LINE
8
DEFAULT_255_2_778
10
9.6629002
20
138.729747
11
9.6629002
21
136.222347
0
LINE
8
DEFAULT_255_2_778
10
9.6629002
20
136.222347
11
8.9866002
21
136.222347
0
LINE
8
DEFAULT_255_2_778
10
8.9866002
20
136.222347
11
8.9866002
21
138.729747
0
LINE
8
DEFAULT_255_2_778
10
10.2809002
20
136.222347
11
10.2809002
21
138.729747
0
LINE
8
DEFAULT_255_2_778
10
10.2809002
20
138.729747
11
12.0132002
21
138.729747
0
LINE
8
DEFAULT_255_2_778
10
12.0132002
20
138.729747
11
12.0132002
21
138.276047
0
LINE
8
DEFAULT_255_2_778
10
12.0132002
20
138.276047
11
10.9321002
21
138.276047
0
LINE
8
DEFAULT_255_2_778
10
10.9321002
20
138.276047
11
10.9321002
21
137.709747
0
LINE
8
DEFAULT_255_2_778
10
10.9321002
20
137.709747
11
11.8735002
21
137.709747
0
LINE
8
DEFAULT_255_2_778
10
11.8735002
20
137.709747
11
11.8735002
21
137.296247
0
LINE
8
DEFAULT_255_2_778
10
11.8735002
20
137.296247
11
10.9321002
21
137.296247
0
LINE
8
DEFAULT_255_2_778
10
10.9321002
20
137.296247
11
10.9321002
21
136.700947
0
LINE
8
DEFAULT_255_2_778
10
10.9321002
20
136.700947
11
12.0412002
21
136.700947
0
LINE
8
DEFAULT_255_2_778
10
12.0412002
20
136.700947
11
12.0412002
21
136.220747
0
LINE
8
DEFAULT_255_2_778
10
12.0412002
20
136.220747
11
10.2809002
21
136.222347
0
LINE
8
DEFAULT_255_2_778
10
12.4817002
20
136.222347
11
12.4817002
21
138.729747
0
LINE
8
DEFAULT_255_2_778
10
12.4817002
20
138.729747
11
13.3575002
21
138.729747
0
LINE
8
DEFAULT_255_2_778
10
13.3575002
20
138.729747
11
13.9671002
21
137.127447
0
LINE
8
DEFAULT_255_2_778
10
13.9671002
20
137.127447
11
14.5897002
21
138.729747
0
LINE
8
DEFAULT_255_2_778
10
14.5897002
20
138.729747
11
15.4215002
21
138.729747
0
LINE
8
DEFAULT_255_2_778
10
15.4215002
20
138.729747
11
15.4215002
21
136.222347
0
LINE
8
DEFAULT_255_2_778
10
15.4215002
20
136.222347
11
14.7812002
21
136.222347
0
LINE
8
DEFAULT_255_2_778
10
14.7812002
20
136.222347
11
14.7812002
21
137.998147
0
LINE
8
DEFAULT_255_2_778
10
14.7812002
20
137.998147
11
14.0724002
21
136.197947
0
LINE
8
DEFAULT_255_2_778
10
14.0724002
20
136.197947
11
13.6515002
21
136.197947
0
LINE
8
DEFAULT_255_2_778
10
13.6515002
20
136.197947
11
12.9559002
21
137.998147
0
LINE
8
DEFAULT_255_2_778
10
12.9559002
20
137.998147
11
12.9559002
21
136.222047
0
LINE
8
DEFAULT_255_2_778
10
12.9559002
20
136.222047
11
12.4817002
21
136.222347
0
LINE
8
DEFAULT_255_2_778
10
16.0409002
20
136.222347
11
16.0409002
21
138.729747
0
LINE
8
DEFAULT_255_2_778
10
16.0409002
20
138.729747
11
17.7731002
21
138.729747
0
LINE
8
DEFAULT_255_2_778
10
17.7731002
20
138.729747
11
17.7731002
21
138.276047
0
LINE
8
DEFAULT_255_2_778
10
17.7731002
20
138.276047
11
16.6921002
21
138.276047
0
LINE
8
DEFAULT_255_2_778
10
16.6921002
20
138.276047
11
16.6921002
21
137.709747
0
LINE
8
DEFAULT_255_2_778
10
16.6921002
20
137.709747
11
17.6334002
21
137.709747
0
LINE
8
DEFAULT_255_2_778
10
17.6334002
20
137.709747
11
17.6334002
21
137.296247
0
LINE
8
DEFAULT_255_2_778
10
17.6334002
20
137.296247
11
16.6921002
21
137.296247
0
LINE
8
DEFAULT_255_2_778
10
16.6921002
20
137.296247
11
16.6921002
21
136.700947
0
LINE
8
DEFAULT_255_2_778
10
16.6921002
20
136.700947
11
17.8030002
21
136.700947
0
LINE
8
DEFAULT_255_2_778
10
17.8030002
20
136.700947
11
17.8030002
21
136.220747
0
LINE
8
DEFAULT_255_2_778
10
17.8030002
20
136.220747
11
16.0409002
21
136.222347
0
LINE
8
DEFAULT_255_2_778
10
18.2454002
20
136.222347
11
18.2454002
21
138.729747
0
LINE
8
DEFAULT_255_2_778
10
18.2454002
20
138.729747
11
19.0283002
21
138.729747
0
LINE
8
DEFAULT_255_2_778
10
19.0283002
20
138.729747
11
19.8586002
21
137.050947
0
LINE
8
DEFAULT_255_2_778
10
19.8586002
20
137.050947
11
19.8586002
21
138.729747
0
LINE
8
DEFAULT_255_2_778
10
19.8586002
20
138.729747
11
20.3343002
21
138.729747
0
LINE
8
DEFAULT_255_2_778
10
20.3343002
20
138.729747
11
20.3343002
21
136.222347
0
LINE
8
DEFAULT_255_2_778
10
20.3343002
20
136.222347
11
19.5739002
21
136.222347
0
LINE
8
DEFAULT_255_2_778
10
19.5739002
20
136.222347
11
18.7214002
21
137.923547
0
LINE
8
DEFAULT_255_2_778
10
18.7214002
20
137.923547
11
18.7214002
21
136.222347
0
LINE
8
DEFAULT_255_2_778
10
18.7214002
20
136.222347
11
18.2454002
21
136.222347
0
LINE
8
DEFAULT_255_2_778
10
20.8143002
20
136.262747
11
20.8143002
21
136.757547
0
LINE
8
DEFAULT_255_2_778
10
22.3745002
20
138.693247
11
22.4343002
21
138.682647
0
LINE
8
DEFAULT_255_2_778
10
22.4343002
20
138.682647
11
22.4343002
21
138.206447
0
LINE
8
DEFAULT_255_2_778
10
20.8124002
20
136.263047
11
20.8143002
21
136.262747
0
LINE
8
DEFAULT_255_1_234
10
8.6700023
20
134.4559849
11
8.5149897
21
134.4559849
0
LINE
8
DEFAULT_255_1_234
10
7.8226539
20
133.9636394
11
7.9776665
21
133.9636394
0
ARC
8
DEFAULT_255_1_234
10
8.580871
20
135.3506768
40
1.252368
50
248.9199003
51
254.1439814
0
ARC
8
DEFAULT_255_1_234
10
8.4128205
20
134.9180234
40
0.788226
50
241.633709
51
249.0064503
0
ARC
8
DEFAULT_255_1_234
10
8.25996
20
134.6379317
40
0.4691427
50
230.498225
51
241.8087113
0
ARC
8
DEFAULT_255_1_234
10
8.1815174
20
134.5379906
40
0.3421437
50
227.4064532
51
229.9881192
0
ARC
8
DEFAULT_255_1_234
10
8.1327694
20
134.4904088
40
0.2741476
50
200.6781896
51
228.1763934
0
ARC
8
DEFAULT_255_1_234
10
8.1400005
20
134.4889077
40
0.2804109
50
179.5061581
51
199.8694617
0
ARC
8
DEFAULT_255_1_234
10
8.1390757
20
134.496321
40
0.2795204
50
132.4834203
51
181.0242172
0
ARC
8
DEFAULT_255_1_234
10
8.1986339
20
134.4400704
40
0.3612768
50
129.2532479
51
133.4242687
0
ARC
8
DEFAULT_255_1_234
10
8.2132789
20
134.4180965
40
0.3875675
50
101.98776
51
128.8742646
0
ARC
8
DEFAULT_255_1_234
10
8.2531399
20
134.2459741
40
0.5642249
50
89.5906553
51
102.3169264
0
ARC
8
DEFAULT_255_1_234
10
8.2601891
20
134.2778148
40
0.5323783
50
77.2360837
51
90.3248275
0
ARC
8
DEFAULT_255_1_234
10
8.2808971
20
134.37454
40
0.4334697
50
63.837784
51
77.0809408
0
ARC
8
DEFAULT_255_1_234
10
8.3086732
20
134.4262911
40
0.3747796
50
45.9864267
51
64.1607727
0
ARC
8
DEFAULT_255_1_234
10
8.3347614
20
134.4560866
40
0.3352302
50
32.2747395
51
45.6547121
0
ARC
8
DEFAULT_255_1_234
10
8.3414054
20
134.457988
40
0.328603
50
359.6507365
51
32.6130309
0
ARC
8
DEFAULT_255_1_234
10
8.247115
20
134.458466
40
0.2678863
50
359.469343
51
14.9832209
0
ARC
8
DEFAULT_255_1_234
10
8.3176212
20
134.4773539
40
0.1948938
50
14.9781179
51
48.2004265
0
ARC
8
DEFAULT_255_1_234
10
8.3011856
20
134.4566983
40
0.2212521
50
48.5927837
51
74.1241538
0
ARC
8
DEFAULT_255_1_234
10
8.2678346
20
134.3466248
40
0.3362561
50
73.7888341
51
86.6652678
0
ARC
8
DEFAULT_255_1_234
10
8.2575911
20
134.2258881
40
0.4573953
50
86.2640471
51
90.0526343
0
ARC
8
DEFAULT_255_1_234
10
8.2547624
20
134.2654192
40
0.4178709
50
89.6697524
51
99.2309573
0
ARC
8
DEFAULT_255_1_234
10
8.2305075
20
134.4098964
40
0.2713749
50
99.069534
51
113.7658566
0
ARC
8
DEFAULT_255_1_234
10
8.2031266
20
134.4744677
40
0.2012469
50
114.0401004
51
127.9850673
0
ARC
8
DEFAULT_255_1_234
10
8.179083
20
134.504073
40
0.1631167
50
127.7287463
51
176.7105154
0
ARC
8
DEFAULT_255_1_234
10
8.2469547
20
134.4939693
40
0.2315392
50
175.1779447
51
180.0581938
0
ARC
8
DEFAULT_255_1_234
10
8.1626394
20
134.4927428
40
0.1472271
50
179.6142195
51
228.1246017
0
ARC
8
DEFAULT_255_1_234
10
8.2068063
20
134.5336308
40
0.2072299
50
226.5779593
51
230.8800004
0
ARC
8
DEFAULT_255_1_234
10
8.2539141
20
134.5961636
40
0.2854818
50
231.4635071
51
241.9260842
0
ARC
8
DEFAULT_255_1_234
10
8.3736319
20
134.81648
40
0.53622
50
241.7178533
51
248.3259551
0
ARC
8
DEFAULT_255_1_234
10
8.5121691
20
135.1597064
40
0.9063478
50
248.2007737
51
252.4528373
0
ARC
8
DEFAULT_255_1_234
10
8.6325416
20
135.5318441
40
1.2974635
50
252.3391078
51
254.3469452
0
ARC
8
DEFAULT_255_1_234
10
7.8783119
20
132.8341148
40
1.5037162
50
71.0197183
51
74.4087047
0
ARC
8
DEFAULT_255_1_234
10
8.0477804
20
133.3233111
40
0.9859993
50
66.1847285
51
71.086374
0
ARC
8
DEFAULT_255_1_234
10
8.2034116
20
133.67372
40
0.6025855
50
59.3536294
51
66.2691831
0
ARC
8
DEFAULT_255_1_234
10
8.2922769
20
133.8240609
40
0.4279449
50
49.1020879
51
59.3293958
0
ARC
8
DEFAULT_255_1_234
10
8.3741509
20
133.9173834
40
0.3038015
50
32.7919921
51
49.2505539
0
ARC
8
DEFAULT_255_1_234
10
8.4062599
20
133.9402191
40
0.264448
50
31.1181161
51
32.4005348
0
ARC
8
DEFAULT_255_1_234
10
8.3974136
20
133.9366779
40
0.2738556
50
8.1116974
51
30.7958831
0
ARC
8
DEFAULT_255_1_234
10
8.3163804
20
133.9228753
40
0.3560327
50
359.8389159
51
8.4706516
0
ARC
8
DEFAULT_255_1_234
10
8.3789596
20
133.9180137
40
0.2934776
50
337.4731098
51
0.7537279
0
ARC
8
DEFAULT_255_1_234
10
8.3968291
20
133.9160387
40
0.2762607
50
307.5917067
51
336.4315538
0
ARC
8
DEFAULT_255_1_234
10
8.3508119
20
133.9673102
40
0.3449979
50
307.6551545
51
308.4529766
0
ARC
8
DEFAULT_255_1_234
10
8.3277838
20
134.002825
40
0.3871988
50
284.3734338
51
307.1424381
0
ARC
8
DEFAULT_255_1_234
10
8.2782668
20
134.1849932
40
0.5759636
50
272.4382747
51
284.646547
0
ARC
8
DEFAULT_255_1_234
10
8.2655876
20
134.3649893
40
0.7563528
50
269.9708387
51
272.8178037
0
ARC
8
DEFAULT_255_1_234
10
8.2612916
20
134.1611716
40
0.5525489
50
248.2707594
51
270.4055579
0
ARC
8
DEFAULT_255_1_234
10
8.2558657
20
134.1421192
40
0.5328452
50
246.1383403
51
248.0542782
0
ARC
8
DEFAULT_255_1_234
10
8.2140036
20
134.0541843
40
0.4355005
50
233.1670131
51
246.4950969
0
ARC
8
DEFAULT_255_1_234
10
8.1585941
20
133.9793812
40
0.3424126
50
215.3403242
51
233.0843104
0
ARC
8
DEFAULT_255_1_234
10
8.1313372
20
133.9595549
40
0.3087104
50
179.2419209
51
215.2648451
0
ARC
8
DEFAULT_255_1_234
10
8.2080966
20
133.9609666
40
0.2304457
50
179.335461
51
199.1045811
0
ARC
8
DEFAULT_255_1_234
10
8.1748643
20
133.9522766
40
0.1962176
50
199.8828939
51
232.7063202
0
ARC
8
DEFAULT_255_1_234
10
8.2220911
20
134.0116788
40
0.2720938
50
232.3738199
51
255.5136649
0
ARC
8
DEFAULT_255_1_234
10
8.2561778
20
134.1360835
40
0.4010747
50
255.2446292
51
267.5320849
0
ARC
8
DEFAULT_255_1_234
10
8.2649401
20
134.2593702
40
0.5246356
50
267.1557994
51
270.0286766
0
ARC
8
DEFAULT_255_1_234
10
8.2677173
20
134.214995
40
0.4802668
50
269.7000017
51
278.1660162
0
ARC
8
DEFAULT_255_1_234
10
8.2933178
20
134.0419515
40
0.3053425
50
278.0231263
51
290.625471
0
ARC
8
DEFAULT_255_1_234
10
8.3280865
20
133.9492025
40
0.206291
50
290.6619762
51
307.0370976
0
ARC
8
DEFAULT_255_1_234
10
8.3581254
20
133.9123504
40
0.1587906
50
306.3943566
51
355.3030547
0
ARC
8
DEFAULT_255_1_234
10
8.3069186
20
133.9200113
40
0.2104809
50
354.3660432
51
0.0698737
0
ARC
8
DEFAULT_255_1_234
10
8.3211531
20
133.9222617
40
0.1962563
50
359.417946
51
16.1971788
0
ARC
8
DEFAULT_255_1_234
10
8.3666841
20
133.9347418
40
0.149053
50
16.4723299
51
52.6262157
0
ARC
8
DEFAULT_255_1_234
10
8.2845895
20
133.8263433
40
0.2850296
50
52.7386432
51
62.4979148
0
ARC
8
DEFAULT_255_1_234
10
8.1460972
20
133.5657283
40
0.5801521
50
62.2515216
51
68.1220564
0
ARC
8
DEFAULT_255_1_234
10
7.9740883
20
133.1429872
40
1.0365451
50
68.0062803
51
71.8053402
0
ARC
8
DEFAULT_255_1_234
10
7.7945255
20
132.6044758
40
1.6042013
50
71.7183119
51
73.9258742
0
LINE
8
DEFAULT_255_1_234
10
9.0354464
20
134.7941211
11
9.0354464
21
133.6247
0
LINE
8
DEFAULT_255_1_234
10
9.0354464
20
133.6247
11
8.881237
21
133.6247
0
LINE
8
DEFAULT_255_1_234
10
8.881237
20
133.6247
11
8.881237
21
134.7941211
0
LINE
8
DEFAULT_255_1_234
10
8.881237
20
134.7941211
11
9.0354464
21
134.7941211
0
LINE
8
DEFAULT_255_1_234
10
9.3173604
20
134.7941211
11
9.5165475
21
134.7941211
0
LINE
8
DEFAULT_255_1_234
10
9.5165475
20
134.7941211
11
9.8988583
21
133.8399506
0
LINE
8
DEFAULT_255_1_234
10
9.8988583
20
133.8399506
11
10.281169
21
134.7941211
0
LINE
8
DEFAULT_255_1_234
10
10.281169
20
134.7941211
11
10.4811593
21
134.7941211
0
LINE
8
DEFAULT_255_1_234
10
10.4811593
20
134.7941211
11
10.4811593
21
133.6247
0
LINE
8
DEFAULT_255_1_234
10
10.4811593
20
133.6247
11
10.3269499
21
133.6247
0
LINE
8
DEFAULT_255_1_234
10
10.3269499
20
133.6247
11
10.3269499
21
134.0800996
0
LINE
8
DEFAULT_255_1_234
10
10.3269499
20
134.0800996
11
10.341407
21
134.5716419
0
LINE
8
DEFAULT_255_1_234
10
10.341407
20
134.5716419
11
9.9574899
21
133.6247
0
LINE
8
DEFAULT_255_1_234
10
9.9574899
20
133.6247
11
9.8394234
21
133.6247
0
LINE
8
DEFAULT_255_1_234
10
9.8394234
20
133.6247
11
9.4563095
21
134.5692324
0
LINE
8
DEFAULT_255_1_234
10
9.4563095
20
134.5692324
11
9.4715698
21
134.0800996
0
LINE
8
DEFAULT_255_1_234
10
9.4715698
20
134.0800996
11
9.4715698
21
133.6247
0
LINE
8
DEFAULT_255_1_234
10
9.4715698
20
133.6247
11
9.3173604
21
133.6247
0
LINE
8
DEFAULT_255_1_234
10
9.3173604
20
133.6247
11
9.3173604
21
134.7941211
0
LINE
8
DEFAULT_255_1_234
10
11.5252853
20
133.6247
11
11.4136441
21
133.9299061
0
LINE
8
DEFAULT_255_1_234
10
11.4136441
20
133.9299061
11
10.9237081
21
133.9299061
0
LINE
8
DEFAULT_255_1_234
10
10.9237081
20
133.9299061
11
10.8136732
21
133.6247
0
LINE
8
DEFAULT_255_1_234
10
10.8136732
20
133.6247
11
10.6546448
21
133.6247
0
LINE
8
DEFAULT_255_1_234
10
10.6546448
20
133.6247
11
11.1012095
21
134.7941211
0
LINE
8
DEFAULT_255_1_234
10
11.1012095
20
134.7941211
11
11.2361427
21
134.7941211
0
LINE
8
DEFAULT_255_1_234
10
11.2361427
20
134.7941211
11
11.6835105
21
133.6247
0
LINE
8
DEFAULT_255_1_234
10
11.6835105
20
133.6247
11
11.5252853
21
133.6247
0
LINE
8
DEFAULT_255_1_234
10
11.1686761
20
134.6037689
11
10.9702921
21
134.0568075
0
LINE
8
DEFAULT_255_1_234
10
10.9702921
20
134.0568075
11
11.3678632
21
134.0568075
0
LINE
8
DEFAULT_255_1_234
10
11.3678632
20
134.0568075
11
11.1686761
21
134.6037689
0
LINE
8
DEFAULT_255_1_234
10
12.545316
20
134.7941211
11
12.545316
21
134.6672196
0
LINE
8
DEFAULT_255_1_234
10
12.545316
20
134.6672196
11
12.1694307
21
134.6672196
0
LINE
8
DEFAULT_255_1_234
10
12.1694307
20
134.6672196
11
12.1694307
21
133.6247
0
LINE
8
DEFAULT_255_1_234
10
12.1694307
20
133.6247
11
12.0160245
21
133.6247
0
LINE
8
DEFAULT_255_1_234
10
12.0160245
20
133.6247
11
12.0160245
21
134.6672196
0
LINE
8
DEFAULT_255_1_234
10
12.0160245
20
134.6672196
11
11.6409423
21
134.6672196
0
LINE
8
DEFAULT_255_1_234
10
11.6409423
20
134.6672196
11
11.6409423
21
134.7941211
0
LINE
8
DEFAULT_255_1_234
10
11.6409423
20
134.7941211
11
12.545316
21
134.7941211
0
LINE
8
DEFAULT_255_1_234
10
12.8842554
20
134.7941211
11
12.8842554
21
133.6247
0
LINE
8
DEFAULT_255_1_234
10
12.8842554
20
133.6247
11
12.730046
21
133.6247
0
LINE
8
DEFAULT_255_1_234
10
12.730046
20
133.6247
11
12.730046
21
134.7941211
0
LINE
8
DEFAULT_255_1_234
10
12.730046
20
134.7941211
11
12.8842554
21
134.7941211
0
LINE
8
DEFAULT_255_1_234
10
13.871356
20
133.9957663
11
14.0263686
21
133.9957663
0
LINE
8
DEFAULT_255_1_234
10
13.1260107
20
134.1547947
11
13.1260107
21
134.2672391
0
LINE
8
DEFAULT_255_1_234
10
14.0263686
20
134.4182357
11
13.871356
21
134.4182357
0
LINE
8
DEFAULT_255_1_234
10
13.2810232
20
134.2632232
11
13.2810232
21
134.1499757
0
ARC
8
DEFAULT_255_1_234
10
13.4783072
20
134.0554846
40
0.5513052
50
340.1774281
51
353.7814284
0
ARC
8
DEFAULT_255_1_234
10
13.6354425
20
133.9969582
40
0.3836379
50
311.4558989
51
340.4421614
0
ARC
8
DEFAULT_255_1_234
10
13.6321093
20
134.0080528
40
0.3941894
50
282.4333181
51
310.7513653
0
ARC
8
DEFAULT_255_1_234
10
13.5881832
20
134.1895679
40
0.5809175
50
269.9358511
51
282.809604
0
ARC
8
DEFAULT_255_1_234
10
13.5829899
20
134.3353212
40
0.7266847
50
270.0021091
51
270.3581957
0
ARC
8
DEFAULT_255_1_234
10
13.5777315
20
134.0752585
40
0.4666519
50
250.7884749
51
270.6489167
0
ARC
8
DEFAULT_255_1_234
10
13.560915
20
134.0115319
40
0.4009729
50
219.3627325
51
250.0611886
0
ARC
8
DEFAULT_255_1_234
10
13.6438361
20
134.0820042
40
0.5097822
50
193.5479632
51
219.5756669
0
ARC
8
DEFAULT_255_1_234
10
13.8809982
20
134.1435919
40
0.7547848
50
181.1218675
51
193.87563
0
ARC
8
DEFAULT_255_1_234
10
14.0880163
20
134.154658
40
0.9620055
50
179.9918545
51
181.5394234
0
ARC
8
DEFAULT_255_1_234
10
13.9029265
20
134.2709788
40
0.7769248
50
169.5837241
51
180.2757934
0
ARC
8
DEFAULT_255_1_234
10
13.7192203
20
134.3049229
40
0.590109
50
155.0365899
51
169.6003176
0
ARC
8
DEFAULT_255_1_234
10
13.6056667
20
134.3596677
40
0.4640625
50
136.783148
51
155.2472683
0
ARC
8
DEFAULT_255_1_234
10
13.5667144
20
134.3927562
40
0.4130255
50
121.7633186
51
136.428115
0
ARC
8
DEFAULT_255_1_234
10
13.5802106
20
134.3678227
40
0.4413323
50
95.6459699
51
121.5490577
0
ARC
8
DEFAULT_255_1_234
10
13.5959388
20
134.2569949
40
0.55319
50
89.924208
51
96.1377933
0
ARC
8
DEFAULT_255_1_234
10
13.6009821
20
134.2688542
40
0.5413475
50
76.6779277
51
90.4563316
0
ARC
8
DEFAULT_255_1_234
10
13.6403444
20
134.4279114
40
0.3775041
50
47.485847
51
76.9287264
0
ARC
8
DEFAULT_255_1_234
10
13.6256417
20
134.4179159
40
0.3948286
50
16.5424086
51
46.8933463
0
ARC
8
DEFAULT_255_1_234
10
13.4648574
20
134.3650861
40
0.564021
50
5.4072051
51
17.0365086
0
ARC
8
DEFAULT_255_1_234
10
13.3209591
20
134.3419679
40
0.5556559
50
7.8891745
51
15.9239216
0
ARC
8
DEFAULT_255_1_234
10
13.5196605
20
134.3996631
40
0.3487515
50
15.7653144
51
27.9410532
0
ARC
8
DEFAULT_255_1_234
10
13.6300822
20
134.458779
40
0.2235026
50
27.8166557
51
46.4008329
0
ARC
8
DEFAULT_255_1_234
10
13.6350465
20
134.4582082
40
0.2205286
50
47.4371857
51
75.0698205
0
ARC
8
DEFAULT_255_1_234
10
13.604186
20
134.3507765
40
0.3322915
50
74.7008593
51
87.8124495
0
ARC
8
DEFAULT_255_1_234
10
13.5968547
20
134.2451844
40
0.4380987
50
87.3814673
51
90.0240855
0
ARC
8
DEFAULT_255_1_234
10
13.5930091
20
134.3629291
40
0.3203749
50
89.3451631
51
108.5745436
0
ARC
8
DEFAULT_255_1_234
10
13.5793196
20
134.4142908
40
0.2673494
50
109.2998449
51
143.3037509
0
ARC
8
DEFAULT_255_1_234
10
13.6555268
20
134.3556881
40
0.3634757
50
143.0753173
51
163.1916937
0
ARC
8
DEFAULT_255_1_234
10
13.8506996
20
134.2940967
40
0.5681262
50
162.9373603
51
174.6208611
0
ARC
8
DEFAULT_255_1_234
10
14.1133038
20
134.265301
40
0.8322832
50
174.3419979
51
180.1430411
0
ARC
8
DEFAULT_255_1_234
10
14.0202194
20
134.1458698
40
0.7392076
50
179.6817502
51
189.150529
0
ARC
8
DEFAULT_255_1_234
10
13.7701443
20
134.104219
40
0.4856932
50
188.9910863
51
203.5773039
0
ARC
8
DEFAULT_255_1_234
10
13.6621775
20
134.0594211
40
0.3688271
50
203.9077269
51
215.1312379
0
ARC
8
DEFAULT_255_1_234
10
13.5698869
20
133.9878941
40
0.2522457
50
213.9071664
51
263.8849284
0
ARC
8
DEFAULT_255_1_234
10
13.5824198
20
134.0663518
40
0.3316174
50
263.1758525
51
270.1031083
0
ARC
8
DEFAULT_255_1_234
10
13.585629
20
134.1910365
40
0.4563091
50
269.6719807
51
279.0609165
0
ARC
8
DEFAULT_255_1_234
10
13.6123058
20
134.0297907
40
0.2928759
50
278.8750225
51
293.6346586
0
ARC
8
DEFAULT_255_1_234
10
13.6443266
20
133.95459
40
0.2111472
50
293.8553404
51
310.0518804
0
ARC
8
DEFAULT_255_1_234
10
13.644812
20
133.9483516
40
0.2060917
50
311.0646779
51
332.0108348
0
ARC
8
DEFAULT_255_1_234
10
13.5255847
20
134.0140978
40
0.3422352
50
331.6588543
51
343.2878891
0
ARC
8
DEFAULT_255_1_234
10
13.3193362
20
134.0774798
40
0.5580003
50
343.1446044
51
351.010618
0
ARC
8
DEFAULT_255_1_234
10
13.1652008
20
134.1055871
40
0.7146438
50
350.7157277
51
351.1602153
0
LINE
8
DEFAULT_255_1_234
10
15.4198751
20
134.4559849
11
15.2648626
21
134.4559849
0
LINE
8
DEFAULT_255_1_234
10
14.5725268
20
133.9636394
11
14.7275393
21
133.9636394
0
ARC
8
DEFAULT_255_1_234
10
15.3307439
20
135.3506768
40
1.252368
50
248.9199003
51
254.1439814
0
ARC
8
DEFAULT_255_1_234
10
15.1626934
20
134.9180234
40
0.788226
50
241.633709
51
249.0064503
0
ARC
8
DEFAULT_255_1_234
10
15.0098328
20
134.6379317
40
0.4691427
50
230.498225
51
241.8087113
0
ARC
8
DEFAULT_255_1_234
10
14.9313902
20
134.5379906
40
0.3421437
50
227.4064532
51
229.9881192
0
ARC
8
DEFAULT_255_1_234
10
14.8826423
20
134.4904088
40
0.2741476
50
200.6781896
51
228.1763934
0
ARC
8
DEFAULT_255_1_234
10
14.8898734
20
134.4889077
40
0.2804109
50
179.5061581
51
199.8694617
0
ARC
8
DEFAULT_255_1_234
10
14.8889485
20
134.496321
40
0.2795204
50
132.4834203
51
181.0242172
0
ARC
8
DEFAULT_255_1_234
10
14.9485068
20
134.4400704
40
0.3612768
50
129.2532479
51
133.4242687
0
ARC
8
DEFAULT_255_1_234
10
14.9631517
20
134.4180965
40
0.3875675
50
101.98776
51
128.8742646
0
ARC
8
DEFAULT_255_1_234
10
15.0030128
20
134.2459741
40
0.5642249
50
89.5906553
51
102.3169264
0
ARC
8
DEFAULT_255_1_234
10
15.010062
20
134.2778148
40
0.5323783
50
77.2360837
51
90.3248275
0
ARC
8
DEFAULT_255_1_234
10
15.0307699
20
134.37454
40
0.4334697
50
63.837784
51
77.0809408
0
ARC
8
DEFAULT_255_1_234
10
15.0585461
20
134.4262911
40
0.3747796
50
45.9864267
51
64.1607727
0
ARC
8
DEFAULT_255_1_234
10
15.0846342
20
134.4560866
40
0.3352302
50
32.2747395
51
45.6547121
0
ARC
8
DEFAULT_255_1_234
10
15.0912783
20
134.457988
40
0.328603
50
359.6507365
51
32.6130309
0
ARC
8
DEFAULT_255_1_234
10
14.9969878
20
134.458466
40
0.2678863
50
359.469343
51
14.9832209
0
ARC
8
DEFAULT_255_1_234
10
15.0674941
20
134.4773539
40
0.1948938
50
14.9781179
51
48.2004265
0
ARC
8
DEFAULT_255_1_234
10
15.0510585
20
134.4566983
40
0.2212521
50
48.5927837
51
74.1241538
0
ARC
8
DEFAULT_255_1_234
10
15.0177074
20
134.3466248
40
0.3362561
50
73.7888341
51
86.6652678
0
ARC
8
DEFAULT_255_1_234
10
15.007464
20
134.2258881
40
0.4573953
50
86.2640471
51
90.0526343
0
ARC
8
DEFAULT_255_1_234
10
15.0046352
20
134.2654192
40
0.4178709
50
89.6697524
51
99.2309573
0
ARC
8
DEFAULT_255_1_234
10
14.9803803
20
134.4098964
40
0.2713749
50
99.069534
51
113.7658566
0
ARC
8
DEFAULT_255_1_234
10
14.9529994
20
134.4744677
40
0.2012469
50
114.0401004
51
127.9850673
0
ARC
8
DEFAULT_255_1_234
10
14.9289558
20
134.504073
40
0.1631167
50
127.7287463
51
176.7105154
0
ARC
8
DEFAULT_255_1_234
10
14.9968276
20
134.4939693
40
0.2315392
50
175.1779447
51
180.0581938
0
ARC
8
DEFAULT_255_1_234
10
14.9125123
20
134.4927428
40
0.1472271
50
179.6142195
51
228.1246017
0
ARC
8
DEFAULT_255_1_234
10
14.9566791
20
134.5336308
40
0.2072299
50
226.5779593
51
230.8800004
0
ARC
8
DEFAULT_255_1_234
10
15.003787
20
134.5961636
40
0.2854818
50
231.4635071
51
241.9260842
0
ARC
8
DEFAULT_255_1_234
10
15.1235048
20
134.81648
40
0.53622
50
241.7178533
51
248.3259551
0
ARC
8
DEFAULT_255_1_234
10
15.262042
20
135.1597064
40
0.9063478
50
248.2007737
51
252.4528373
0
ARC
8
DEFAULT_255_1_234
10
15.3824145
20
135.5318441
40
1.2974635
50
252.3391078
51
254.3469452
0
ARC
8
DEFAULT_255_1_234
10
14.6281847
20
132.8341148
40
1.5037162
50
71.0197183
51
74.4087047
0
ARC
8
DEFAULT_255_1_234
10
14.7976532
20
133.3233111
40
0.9859993
50
66.1847285
51
71.086374
0
ARC
8
DEFAULT_255_1_234
10
14.9532845
20
133.67372
40
0.6025855
50
59.3536294
51
66.2691831
0
ARC
8
DEFAULT_255_1_234
10
15.0421497
20
133.8240609
40
0.4279449
50
49.1020879
51
59.3293958
0
ARC
8
DEFAULT_255_1_234
10
15.1240237
20
133.9173834
40
0.3038015
50
32.7919921
51
49.2505539
0
ARC
8
DEFAULT_255_1_234
10
15.1561327
20
133.9402191
40
0.264448
50
31.1181161
51
32.4005348
0
ARC
8
DEFAULT_255_1_234
10
15.1472865
20
133.9366779
40
0.2738556
50
8.1116974
51
30.7958831
0
ARC
8
DEFAULT_255_1_234
10
15.0662533
20
133.9228753
40
0.3560327
50
359.8389159
51
8.4706516
0
ARC
8
DEFAULT_255_1_234
10
15.1288324
20
133.9180137
40
0.2934776
50
337.4731098
51
0.7537279
0
ARC
8
DEFAULT_255_1_234
10
15.1467019
20
133.9160387
40
0.2762607
50
307.5917067
51
336.4315538
0
ARC
8
DEFAULT_255_1_234
10
15.1006847
20
133.9673102
40
0.3449979
50
307.6551545
51
308.4529766
0
ARC
8
DEFAULT_255_1_234
10
15.0776566
20
134.002825
40
0.3871988
50
284.3734338
51
307.1424381
0
ARC
8
DEFAULT_255_1_234
10
15.0281396
20
134.1849932
40
0.5759636
50
272.4382747
51
284.646547
0
ARC
8
DEFAULT_255_1_234
10
15.0154605
20
134.3649893
40
0.7563528
50
269.9708387
51
272.8178037
0
ARC
8
DEFAULT_255_1_234
10
15.0111645
20
134.1611716
40
0.5525489
50
248.2707594
51
270.4055579
0
ARC
8
DEFAULT_255_1_234
10
15.0057386
20
134.1421192
40
0.5328452
50
246.1383403
51
248.0542782
0
ARC
8
DEFAULT_255_1_234
10
14.9638765
20
134.0541843
40
0.4355005
50
233.1670131
51
246.4950969
0
ARC
8
DEFAULT_255_1_234
10
14.908467
20
133.9793812
40
0.3424126
50
215.3403242
51
233.0843104
0
ARC
8
DEFAULT_255_1_234
10
14.8812101
20
133.9595549
40
0.3087104
50
179.2419209
51
215.2648451
0
ARC
8
DEFAULT_255_1_234
10
14.9579695
20
133.9609666
40
0.2304457
50
179.335461
51
199.1045811
0
ARC
8
DEFAULT_255_1_234
10
14.9247371
20
133.9522766
40
0.1962176
50
199.8828939
51
232.7063202
0
ARC
8
DEFAULT_255_1_234
10
14.971964
20
134.0116788
40
0.2720938
50
232.3738199
51
255.5136649
0
ARC
8
DEFAULT_255_1_234
10
15.0060506
20
134.1360835
40
0.4010747
50
255.2446292
51
267.5320849
0
ARC
8
DEFAULT_255_1_234
10
15.014813
20
134.2593702
40
0.5246356
50
267.1557994
51
270.0286766
0
ARC
8
DEFAULT_255_1_234
10
15.0175902
20
134.214995
40
0.4802668
50
269.7000017
51
278.1660162
0
ARC
8
DEFAULT_255_1_234
10
15.0431907
20
134.0419515
40
0.3053425
50
278.0231263
51
290.625471
0
ARC
8
DEFAULT_255_1_234
10
15.0779594
20
133.9492025
40
0.206291
50
290.6619762
51
307.0370976
0
ARC
8
DEFAULT_255_1_234
10
15.1079983
20
133.9123504
40
0.1587906
50
306.3943566
51
355.3030547
0
ARC
8
DEFAULT_255_1_234
10
15.0567914
20
133.9200113
40
0.2104809
50
354.3660432
51
0.0698737
0
ARC
8
DEFAULT_255_1_234
10
15.071026
20
133.9222617
40
0.1962563
50
359.417946
51
16.1971788
0
ARC
8
DEFAULT_255_1_234
10
15.116557
20
133.9347418
40
0.149053
50
16.4723299
51
52.6262157
0
ARC
8
DEFAULT_255_1_234
10
15.0344624
20
133.8263433
40
0.2850296
50
52.7386432
51
62.4979148
0
ARC
8
DEFAULT_255_1_234
10
14.8959701
20
133.5657283
40
0.5801521
50
62.2515216
51
68.1220564
0
ARC
8
DEFAULT_255_1_234
10
14.7239612
20
133.1429872
40
1.0365451
50
68.0062803
51
71.8053402
0
ARC
8
DEFAULT_255_1_234
10
14.5443983
20
132.6044758
40
1.6042013
50
71.7183119
51
73.9258742
0
LINE
8
DEFAULT_255_1_234
10
16.3362965
20
134.7941211
11
16.3362965
21
134.710591
0
LINE
8
DEFAULT_255_1_234
10
16.3362965
20
134.710591
11
15.8519827
21
133.6247
0
LINE
8
DEFAULT_255_1_234
10
15.8519827
20
133.6247
11
15.6961669
21
133.6247
0
LINE
8
DEFAULT_255_1_234
10
15.6961669
20
133.6247
11
16.1788744
21
134.6720387
0
LINE
8
DEFAULT_255_1_234
10
16.1788744
20
134.6720387
11
15.5459734
21
134.6720387
0
LINE
8
DEFAULT_255_1_234
10
15.5459734
20
134.6720387
11
15.5459734
21
134.7941211
0
LINE
8
DEFAULT_255_1_234
10
15.5459734
20
134.7941211
11
16.3362965
21
134.7941211
0
LINE
8
DEFAULT_255_1_234
10
16.8294452
20
134.1821026
11
16.8294452
21
134.0608234
0
LINE
8
DEFAULT_255_1_234
10
16.8294452
20
134.0608234
11
16.4374964
21
134.0608234
0
LINE
8
DEFAULT_255_1_234
10
16.4374964
20
134.0608234
11
16.4374964
21
134.1821026
0
LINE
8
DEFAULT_255_1_234
10
16.4374964
20
134.1821026
11
16.8294452
21
134.1821026
0
LINE
8
DEFAULT_255_1_234
10
17.4470859
20
134.7997433
11
17.4470859
21
133.6247
0
LINE
8
DEFAULT_255_1_234
10
17.4470859
20
133.6247
11
17.2976956
21
133.6247
0
LINE
8
DEFAULT_255_1_234
10
17.2976956
20
133.6247
11
17.2976956
21
134.6150133
0
LINE
8
DEFAULT_255_1_234
10
17.2976956
20
134.6150133
11
16.9981117
21
134.5049785
0
LINE
8
DEFAULT_255_1_234
10
16.9981117
20
134.5049785
11
16.9981117
21
134.6399117
0
LINE
8
DEFAULT_255_1_234
10
16.9981117
20
134.6399117
11
17.4237938
21
134.7997433
0
LINE
8
DEFAULT_255_1_234
10
17.4237938
20
134.7997433
11
17.4470859
21
134.7997433
0
LINE
8
DEFAULT_255_1_234
10
18.0695456
20
134.1804963
11
17.9506759
21
134.2110169
0
LINE
8
DEFAULT_255_1_234
10
17.9506759
20
134.2110169
11
18.0101107
21
134.7941211
0
LINE
8
DEFAULT_255_1_234
10
18.0101107
20
134.7941211
11
18.6092784
21
134.7941211
0
LINE
8
DEFAULT_255_1_234
10
18.6092784
20
134.7941211
11
18.6092784
21
134.6567784
0
LINE
8
DEFAULT_255_1_234
10
18.6092784
20
134.6567784
11
18.136209
21
134.6567784
0
LINE
8
DEFAULT_255_1_234
10
18.136209
20
134.6567784
11
18.1008694
21
134.3379184
0
LINE
8
DEFAULT_255_1_234
10
17.9089108
20
133.9323156
11
18.0494663
21
133.9323156
0
LINE
8
DEFAULT_255_1_234
10
18.1089011
20
134.2126232
11
18.0695456
21
134.1804963
0
ARC
8
DEFAULT_255_1_234
10
18.2863478
20
134.019923
40
0.3681349
50
93.7182161
51
120.2538958
0
ARC
8
DEFAULT_255_1_234
10
18.2957741
20
133.9391394
40
0.449379
50
89.9660152
51
94.2496022
0
ARC
8
DEFAULT_255_1_234
10
18.2998475
20
133.9980549
40
0.390482
50
73.8043271
51
90.5585896
0
ARC
8
DEFAULT_255_1_234
10
18.3233372
20
134.0838602
40
0.3015334
50
41.3071453
51
73.5430202
0
ARC
8
DEFAULT_255_1_234
10
18.2817199
20
134.0480324
40
0.3564457
50
13.5075983
51
41.2174222
0
ARC
8
DEFAULT_255_1_234
10
18.1175403
20
134.0050486
40
0.5261351
50
1.1331335
51
13.8829381
0
ARC
8
DEFAULT_255_1_234
10
17.9763772
20
133.9974665
40
0.6674378
50
359.9919444
51
1.544251
0
ARC
8
DEFAULT_255_1_234
10
18.1040598
20
133.993328
40
0.5397702
50
347.8572367
51
0.4293338
0
ARC
8
DEFAULT_255_1_234
10
18.2790916
20
133.9536736
40
0.3603188
50
323.673004
51
348.1672506
0
ARC
8
DEFAULT_255_1_234
10
18.3085424
20
133.9357168
40
0.3259678
50
316.8171152
51
323.1492751
0
ARC
8
DEFAULT_255_1_234
10
18.3146613
20
133.932046
40
0.3189975
50
281.8396411
51
316.5457803
0
ARC
8
DEFAULT_255_1_234
10
18.2770876
20
134.0875762
40
0.4789527
50
269.5770101
51
282.4214771
0
ARC
8
DEFAULT_255_1_234
10
18.2699688
20
134.0662125
40
0.45759
50
256.2427136
51
270.4486331
0
ARC
8
DEFAULT_255_1_234
10
18.240059
20
133.9462229
40
0.3339303
50
228.9023911
51
256.3314342
0
ARC
8
DEFAULT_255_1_234
10
18.2326823
20
133.9345746
40
0.32031
50
193.753695
51
228.5271154
0
ARC
8
DEFAULT_255_1_234
10
18.3564777
20
133.97088
40
0.4492253
50
184.924711
51
194.497588
0
ARC
8
DEFAULT_255_1_234
10
18.3757344
20
133.9744591
40
0.3289787
50
187.3600538
51
198.6732863
0
ARC
8
DEFAULT_255_1_234
10
18.2707638
20
133.9380674
40
0.217884
50
198.4451669
51
217.794479
0
ARC
8
DEFAULT_255_1_234
10
18.2411813
20
133.9171085
40
0.1816698
50
218.2887171
51
228.5612368
0
ARC
8
DEFAULT_255_1_234
10
18.25096
20
133.9302963
40
0.1980329
50
228.9654866
51
258.1234728
0
ARC
8
DEFAULT_255_1_234
10
18.271531
20
134.0183833
40
0.2884748
50
257.7258293
51
270.401361
0
ARC
8
DEFAULT_255_1_234
10
18.2760196
20
133.9738821
40
0.2439788
50
269.4204404
51
286.4209037
0
ARC
8
DEFAULT_255_1_234
10
18.2908684
20
133.9199657
40
0.1880666
50
286.7251356
51
320.600362
0
ARC
8
DEFAULT_255_1_234
10
18.2525509
20
133.9510595
40
0.2374121
50
320.6712579
51
344.5441685
0
ARC
8
DEFAULT_255_1_234
10
18.1368835
20
133.9850045
40
0.3579479
50
344.2412205
51
356.7357071
0
ARC
8
DEFAULT_255_1_234
10
18.0119983
20
133.9953444
40
0.4832297
50
356.3548756
51
0.0500261
0
ARC
8
DEFAULT_255_1_234
10
18.1456493
20
133.998465
40
0.3495889
50
359.5576869
51
12.953486
0
ARC
8
DEFAULT_255_1_234
10
18.251139
20
134.0240434
40
0.2410532
50
12.6490276
51
41.6081334
0
ARC
8
DEFAULT_255_1_234
10
18.2741761
20
134.0436321
40
0.2108218
50
41.7850273
51
85.9892764
0
ARC
8
DEFAULT_255_1_234
10
18.2618498
20
133.9623462
40
0.2928454
50
84.6957577
51
90.0676183
0
ARC
8
DEFAULT_255_1_234
10
18.2594982
20
133.8954716
40
0.3597255
50
89.6804936
51
99.1614436
0
ARC
8
DEFAULT_255_1_234
10
18.2389613
20
134.0182131
40
0.235281
50
98.9830931
51
113.8908934
0
ARC
8
DEFAULT_255_1_234
10
18.2160023
20
134.0723587
40
0.176479
50
114.1950727
51
127.3641004
0
LINE
8
DEFAULT_255_1_234
10
19.5393537
20
134.3162327
11
19.5393537
21
134.1234709
0
LINE
8
DEFAULT_255_1_234
10
18.801237
20
134.1033916
11
18.801237
21
134.3017755
0
LINE
8
DEFAULT_255_1_234
10
19.3907666
20
134.0833123
11
19.3907666
21
134.3266739
0
LINE
8
DEFAULT_255_1_234
10
18.9498241
20
134.3379184
11
18.9498241
21
134.1001789
0
ARC
8
DEFAULT_255_1_234
10
18.3146427
20
134.1185805
40
1.2247208
50
353.8441951
51
0.2287902
0
ARC
8
DEFAULT_255_1_234
10
18.778593
20
134.0667806
40
0.7578929
50
344.4934747
51
353.9765454
0
ARC
8
DEFAULT_255_1_234
10
19.0778521
20
133.9816981
40
0.4467846
50
329.2803592
51
344.7472793
0
ARC
8
DEFAULT_255_1_234
10
19.1771345
20
133.9272018
40
0.3336173
50
324.9352394
51
328.6160465
0
ARC
8
DEFAULT_255_1_234
10
19.2148454
20
133.9008427
40
0.2876076
50
280.580143
51
324.9173126
0
ARC
8
DEFAULT_255_1_234
10
19.1747247
20
134.0679099
40
0.4592847
50
269.5977311
51
281.6734359
0
ARC
8
DEFAULT_255_1_234
10
19.1675152
20
134.0559173
40
0.4472986
50
256.6228859
51
270.51044
0
ARC
8
DEFAULT_255_1_234
10
19.127313
20
133.9010877
40
0.2873874
50
215.8618325
51
257.2788573
0
ARC
8
DEFAULT_255_1_234
10
19.2294162
20
133.9695977
40
0.4102928
50
197.9693508
51
215.2623606
0
ARC
8
DEFAULT_255_1_234
10
19.4779277
20
134.0534709
40
0.6725652
50
187.8816417
51
198.2346507
0
ARC
8
DEFAULT_255_1_234
10
19.8737486
20
134.1106079
40
1.0724845
50
180.8976217
51
188.0055519
0
ARC
8
DEFAULT_255_1_234
10
20.1537674
20
134.1209777
40
1.3526448
50
180.7449369
51
181.1510016
0
ARC
8
DEFAULT_255_1_234
10
19.9960403
20
134.3066042
40
1.1948131
50
173.7675579
51
180.231553
0
ARC
8
DEFAULT_255_1_234
10
19.5442549
20
134.3576666
40
0.7401564
50
164.3058563
51
173.9002247
0
ARC
8
DEFAULT_255_1_234
10
19.2530618
20
134.4415656
40
0.4371288
50
148.7922025
51
164.568378
0
ARC
8
DEFAULT_255_1_234
10
19.157907
20
134.4946929
40
0.3282386
50
144.5883898
51
148.1176286
0
ARC
8
DEFAULT_255_1_234
10
19.1235968
20
134.5186315
40
0.2864044
50
101.6440918
51
144.514236
0
ARC
8
DEFAULT_255_1_234
10
19.1661035
20
134.3497069
40
0.4604934
50
89.5284041
51
102.5819763
0
ARC
8
DEFAULT_255_1_234
10
19.1740123
20
134.3458018
40
0.464401
50
77.0437873
51
90.5081339
0
ARC
8
DEFAULT_255_1_234
10
19.2142125
20
134.5100615
40
0.2953195
50
48.2778575
51
77.4994676
0
ARC
8
DEFAULT_255_1_234
10
19.2214756
20
134.5229746
40
0.2808655
50
36.3142134
51
47.6305865
0
ARC
8
DEFAULT_255_1_234
10
19.1346063
20
134.4644515
40
0.3855453
50
18.2931786
51
35.6769206
0
ARC
8
DEFAULT_255_1_234
10
18.8802822
20
134.3771593
40
0.654423
50
8.024666
51
18.5605216
0
ARC
8
DEFAULT_255_1_234
10
18.4639742
20
134.3156792
40
1.0752407
50
1.1274072
51
8.1718305
0
ARC
8
DEFAULT_255_1_234
10
18.1403932
20
134.3029885
40
1.3990231
50
0.5424119
51
1.3863029
0
ARC
8
DEFAULT_255_1_234
10
18.322531
20
134.3302342
40
1.0682415
50
359.8090433
51
4.9407866
0
ARC
8
DEFAULT_255_1_234
10
18.7435324
20
134.3678113
40
0.6455691
50
4.8362157
51
12.2904523
0
ARC
8
DEFAULT_255_1_234
10
19.0190439
20
134.4291965
40
0.3633074
50
12.0805627
51
23.8173984
0
ARC
8
DEFAULT_255_1_234
10
19.1364144
20
134.4788919
40
0.2358723
50
24.2871213
51
31.3935614
0
ARC
8
DEFAULT_255_1_234
10
19.1888841
20
134.5132233
40
0.1732111
50
30.7407893
51
82.4657128
0
ARC
8
DEFAULT_255_1_234
10
19.1708976
20
134.4248691
40
0.263235
50
81.1060089
51
90.2184952
0
ARC
8
DEFAULT_255_1_234
10
19.1673275
20
134.4506924
40
0.2374236
50
89.3806855
51
105.6762551
0
ARC
8
DEFAULT_255_1_234
10
19.1489905
20
134.5173567
40
0.1682847
50
105.7981136
51
149.7388061
0
ARC
8
DEFAULT_255_1_234
10
19.2553984
20
134.453395
40
0.2924306
50
149.4208916
51
163.6286378
0
ARC
8
DEFAULT_255_1_234
10
19.4644872
20
134.389625
40
0.5110213
50
163.3763315
51
172.1410975
0
ARC
8
DEFAULT_255_1_234
10
19.7945591
20
134.3423518
40
0.8444586
50
172.0259487
51
178.0703232
0
ARC
8
DEFAULT_255_1_234
10
20.097568
20
134.3279906
40
1.1477868
50
177.8631668
51
179.5044149
0
ARC
8
DEFAULT_255_1_234
10
19.9903085
20
134.0965389
40
1.0404907
50
179.7995573
51
185.2460446
0
ARC
8
DEFAULT_255_1_234
10
19.5860124
20
134.0582513
40
0.6343885
50
185.1411642
51
193.0079639
0
ARC
8
DEFAULT_255_1_234
10
19.3216596
20
133.9957641
40
0.3627568
50
192.7897626
51
205.2507664
0
ARC
8
DEFAULT_255_1_234
10
19.2170143
20
133.9490415
40
0.2481908
50
205.8005384
51
211.2537509
0
ARC
8
DEFAULT_255_1_234
10
19.1646584
20
133.913958
40
0.1852521
50
210.3789793
51
238.4008143
0
ARC
8
DEFAULT_255_1_234
10
19.1627106
20
133.9186376
40
0.1882621
50
239.6520629
51
265.9793761
0
ARC
8
DEFAULT_255_1_234
10
19.1712306
20
133.9858427
40
0.2559272
50
265.1315437
51
270.060332
0
ARC
8
DEFAULT_255_1_234
10
19.1741085
20
133.9534534
40
0.2235528
50
269.3314664
51
287.2178029
0
ARC
8
DEFAULT_255_1_234
10
19.1878937
20
133.9031279
40
0.1714108
50
287.7958004
51
329.080874
0
ARC
8
DEFAULT_255_1_234
10
19.0921394
20
133.962893
40
0.2842745
50
328.6634704
51
343.3325132
0
ARC
8
DEFAULT_255_1_234
10
18.8748414
20
134.0305863
40
0.5118644
50
343.0499468
51
351.9393422
0
ARC
8
DEFAULT_255_1_234
10
18.5281714
20
134.0816949
40
0.8622784
50
351.8069023
51
357.7959224
0
ARC
8
DEFAULT_255_1_234
10
18.204627
20
134.0984721
40
1.1862365
50
357.5871873
51
359.2677531
0
LINE
8
DEFAULT_255_1_234
10
20.4630036
20
134.3162327
11
20.4630036
21
134.1234709
0
LINE
8
DEFAULT_255_1_234
10
19.7248869
20
134.1033916
11
19.7248869
21
134.3017755
0
LINE
8
DEFAULT_255_1_234
10
20.3144165
20
134.0833123
11
20.3144165
21
134.3266739
0
LINE
8
DEFAULT_255_1_234
10
19.873474
20
134.3379184
11
19.873474
21
134.1001789
0
ARC
8
DEFAULT_255_1_234
10
19.2382926
20
134.1185805
40
1.2247208
50
353.8441951
51
0.2287902
0
ARC
8
DEFAULT_255_1_234
10
19.7022429
20
134.0667806
40
0.7578929
50
344.4934747
51
353.9765454
0
ARC
8
DEFAULT_255_1_234
10
20.001502
20
133.9816981
40
0.4467846
50
329.2803592
51
344.7472793
0
ARC
8
DEFAULT_255_1_234
10
20.1007844
20
133.9272018
40
0.3336173
50
324.9352394
51
328.6160465
0
ARC
8
DEFAULT_255_1_234
10
20.1384953
20
133.9008427
40
0.2876076
50
280.580143
51
324.9173126
0
ARC
8
DEFAULT_255_1_234
10
20.0983746
20
134.0679099
40
0.4592847
50
269.5977311
51
281.6734359
0
ARC
8
DEFAULT_255_1_234
10
20.0911651
20
134.0559173
40
0.4472986
50
256.6228859
51
270.51044
0
ARC
8
DEFAULT_255_1_234
10
20.0509629
20
133.9010877
40
0.2873874
50
215.8618325
51
257.2788573
0
ARC
8
DEFAULT_255_1_234
10
20.1530661
20
133.9695977
40
0.4102928
50
197.9693508
51
215.2623606
0
ARC
8
DEFAULT_255_1_234
10
20.4015776
20
134.0534709
40
0.6725652
50
187.8816417
51
198.2346507
0
ARC
8
DEFAULT_255_1_234
10
20.7973985
20
134.1106079
40
1.0724845
50
180.8976217
51
188.0055519
0
ARC
8
DEFAULT_255_1_234
10
21.0774173
20
134.1209777
40
1.3526448
50
180.7449369
51
181.1510016
0
ARC
8
DEFAULT_255_1_234
10
20.9196902
20
134.3066042
40
1.1948131
50
173.7675579
51
180.231553
0
ARC
8
DEFAULT_255_1_234
10
20.4679048
20
134.3576666
40
0.7401564
50
164.3058563
51
173.9002247
0
ARC
8
DEFAULT_255_1_234
10
20.1767117
20
134.4415656
40
0.4371288
50
148.7922025
51
164.568378
0
ARC
8
DEFAULT_255_1_234
10
20.0815569
20
134.4946929
40
0.3282386
50
144.5883898
51
148.1176286
0
ARC
8
DEFAULT_255_1_234
10
20.0472467
20
134.5186315
40
0.2864044
50
101.6440918
51
144.514236
0
ARC
8
DEFAULT_255_1_234
10
20.0897534
20
134.3497069
40
0.4604934
50
89.5284041
51
102.5819763
0
ARC
8
DEFAULT_255_1_234
10
20.0976622
20
134.3458018
40
0.464401
50
77.0437873
51
90.5081339
0
ARC
8
DEFAULT_255_1_234
10
20.1378624
20
134.5100615
40
0.2953195
50
48.2778575
51
77.4994676
0
ARC
8
DEFAULT_255_1_234
10
20.1451255
20
134.5229746
40
0.2808655
50
36.3142134
51
47.6305865
0
ARC
8
DEFAULT_255_1_234
10
20.0582562
20
134.4644515
40
0.3855453
50
18.2931786
51
35.6769206
0
ARC
8
DEFAULT_255_1_234
10
19.8039321
20
134.3771593
40
0.654423
50
8.024666
51
18.5605216
0
ARC
8
DEFAULT_255_1_234
10
19.3876241
20
134.3156792
40
1.0752407
50
1.1274072
51
8.1718305
0
ARC
8
DEFAULT_255_1_234
10
19.0640431
20
134.3029885
40
1.3990231
50
0.5424119
51
1.3863029
0
ARC
8
DEFAULT_255_1_234
10
19.2461809
20
134.3302342
40
1.0682415
50
359.8090433
51
4.9407866
0
ARC
8
DEFAULT_255_1_234
10
19.6671823
20
134.3678113
40
0.6455691
50
4.8362157
51
12.2904523
0
ARC
8
DEFAULT_255_1_234
10
19.9426938
20
134.4291965
40
0.3633074
50
12.0805627
51
23.8173984
0
ARC
8
DEFAULT_255_1_234
10
20.0600643
20
134.4788919
40
0.2358723
50
24.2871213
51
31.3935614
0
ARC
8
DEFAULT_255_1_234
10
20.112534
20
134.5132233
40
0.1732111
50
30.7407893
51
82.4657128
0
ARC
8
DEFAULT_255_1_234
10
20.0945475
20
134.4248691
40
0.263235
50
81.1060089
51
90.2184952
0
ARC
8
DEFAULT_255_1_234
10
20.0909774
20
134.4506924
40
0.2374236
50
89.3806855
51
105.6762551
0
ARC
8
DEFAULT_255_1_234
10
20.0726404
20
134.5173567
40
0.1682847
50
105.7981136
51
149.7388061
0
ARC
8
DEFAULT_255_1_234
10
20.1790483
20
134.453395
40
0.2924306
50
149.4208916
51
163.6286378
0
ARC
8
DEFAULT_255_1_234
10
20.3881371
20
134.389625
40
0.5110213
50
163.3763315
51
172.1410975
0
ARC
8
DEFAULT_255_1_234
10
20.718209
20
134.3423518
40
0.8444586
50
172.0259487
51
178.0703232
0
ARC
8
DEFAULT_255_1_234
10
21.0212179
20
134.3279906
40
1.1477868
50
177.8631668
51
179.5044149
0
ARC
8
DEFAULT_255_1_234
10
20.9139584
20
134.0965389
40
1.0404907
50
179.7995573
51
185.2460446
0
ARC
8
DEFAULT_255_1_234
10
20.5096623
20
134.0582513
40
0.6343885
50
185.1411642
51
193.0079639
0
ARC
8
DEFAULT_255_1_234
10
20.2453095
20
133.9957641
40
0.3627568
50
192.7897626
51
205.2507664
0
ARC
8
DEFAULT_255_1_234
10
20.1406642
20
133.9490415
40
0.2481908
50
205.8005384
51
211.2537509
0
ARC
8
DEFAULT_255_1_234
10
20.0883083
20
133.913958
40
0.1852521
50
210.3789793
51
238.4008143
0
ARC
8
DEFAULT_255_1_234
10
20.0863605
20
133.9186376
40
0.1882621
50
239.6520629
51
265.9793761
0
ARC
8
DEFAULT_255_1_234
10
20.0948805
20
133.9858427
40
0.2559272
50
265.1315437
51
270.060332
0
ARC
8
DEFAULT_255_1_234
10
20.0977584
20
133.9534534
40
0.2235528
50
269.3314664
51
287.2178029
0
ARC
8
DEFAULT_255_1_234
10
20.1115436
20
133.9031279
40
0.1714108
50
287.7958004
51
329.080874
0
ARC
8
DEFAULT_255_1_234
10
20.0157893
20
133.962893
40
0.2842745
50
328.6634704
51
343.3325132
0
ARC
8
DEFAULT_255_1_234
10
19.7984913
20
134.0305863
40
0.5118644
50
343.0499468
51
351.9393422
0
ARC
8
DEFAULT_255_1_234
10
19.4518213
20
134.0816949
40
0.8622784
50
351.8069023
51
357.7959224
0
ARC
8
DEFAULT_255_1_234
10
19.1282769
20
134.0984721
40
1.1862365
50
357.5871873
51
359.2677531
0
LINE
8
DEFAULT_255_2_778
10
9.3927417
20
116.2843326
11
10.7156417
21
116.2843326
0
LINE
8
DEFAULT_255_2_778
10
10.7156417
20
116.2843326
11
10.7156417
21
63.3676326
0
LINE
8
DEFAULT_255_2_778
10
9.3926834
20
63.3677333
11
12.0384834
21
63.3677333
0
LINE
8
DEFAULT_255_2_778
10
12.0384834
20
63.3677333
11
12.0384834
21
58.0760333
0
LINE
8
DEFAULT_255_2_778
10
12.0384834
20
58.0760333
11
9.3926834
21
58.0760333
0
LINE
8
DEFAULT_255_2_778
10
9.3926834
20
58.0760333
11
9.3926834
21
63.3677333
0
ARC
8
DEFAULT_255_2_778_1
10
13.1922591
20
58.178477
40
4.816461
50
120.9442904
51
122.351755
0
ARC
8
DEFAULT_255_2_778_1
10
12.7456523
20
58.8821039
40
3.9830657
50
122.3407904
51
124.1946752
0
ARC
8
DEFAULT_255_2_778_1
10
12.3057464
20
59.5286306
40
3.2010724
50
124.1855758
51
126.4338849
0
ARC
8
DEFAULT_255_2_778_1
10
11.9198129
20
60.0513611
40
2.5513094
50
126.4326926
51
128.8877368
0
ARC
8
DEFAULT_255_2_778_1
10
11.5849968
20
60.4657658
40
2.0185498
50
128.8749205
51
131.8726567
0
ARC
8
DEFAULT_255_2_778_1
10
11.2878677
20
60.7967854
40
1.5737356
50
131.8616166
51
135.4168838
0
ARC
8
DEFAULT_255_2_778_1
10
11.025068
20
61.0549765
40
1.2053256
50
135.3893975
51
139.9687014
0
ARC
8
DEFAULT_255_2_778_1
10
10.7921889
20
61.2498102
40
0.9016937
50
139.9301659
51
145.9260426
0
ARC
8
DEFAULT_255_2_778_1
10
10.596054
20
61.3818104
40
0.6652776
50
145.8787362
51
153.8146208
0
ARC
8
DEFAULT_255_2_778_1
10
10.4439553
20
61.4561797
40
0.4959714
50
153.770634
51
164.3484794
0
ARC
8
DEFAULT_255_2_778_1
10
10.3426387
20
61.4843786
40
0.3908039
50
164.3220276
51
179.8083066
0
ARC
8
DEFAULT_255_2_778_1
10
10.3636789
20
61.492515
40
0.4118985
50
180.9499449
51
213.8111542
0
ARC
8
DEFAULT_255_2_778_1
10
10.6395828
20
61.6620896
40
0.73561
50
212.8271214
51
224.258472
0
ARC
8
DEFAULT_255_2_778_1
10
11.0224335
20
62.0314236
40
1.267567
50
224.1376218
51
231.4508261
0
ARC
8
DEFAULT_255_2_778_1
10
11.6651195
20
62.8344168
40
2.2960809
50
231.3955893
51
236.1256478
0
ARC
8
DEFAULT_255_2_778_1
10
13.4974223
20
65.5809293
40
5.5976905
50
236.2233172
51
239.1314682
0
ARC
8
DEFAULT_255_2_778_1
10
25.447327
20
85.3086568
40
28.6623793
50
238.8606853
51
239.0711101
0
ARC
8
DEFAULT_255_2_778_1
10
6.2751281
20
53.2115653
40
8.7248518
50
57.2420924
51
59.4062964
0
ARC
8
DEFAULT_255_2_778_1
10
9.5028241
20
58.2425102
40
2.747542
50
52.8289294
51
57.079028
0
ARC
8
DEFAULT_255_2_778_1
10
10.2774783
20
59.2628488
40
1.466457
50
46.3041868
51
52.8596521
0
ARC
8
DEFAULT_255_2_778_1
10
10.7097073
20
59.7129842
40
0.8424061
50
36.2174211
51
46.4090895
0
ARC
8
DEFAULT_255_2_778_1
10
10.9942088
20
59.9178128
40
0.4918609
50
17.400375
51
36.5489745
0
ARC
8
DEFAULT_255_2_778_1
10
11.1082994
20
59.9576754
40
0.3710912
50
0.0676858
51
16.7951297
0
ARC
8
DEFAULT_255_2_778_1
10
11.0872613
20
59.9595428
40
0.3921317
50
343.8035191
51
359.7912046
0
ARC
8
DEFAULT_255_2_778_1
10
10.9809912
20
59.9900167
40
0.5026844
50
333.2506233
51
343.8465691
0
ARC
8
DEFAULT_255_2_778_1
10
10.8271757
20
60.0667313
40
0.6745679
50
325.6600948
51
333.3122657
0
ARC
8
DEFAULT_255_2_778_1
10
10.6317344
20
60.1995296
40
0.9108568
50
319.7560915
51
325.6976089
0
ARC
8
DEFAULT_255_2_778_1
10
10.403599
20
60.3913002
40
1.2088854
50
315.4577584
51
319.8037947
0
ARC
8
DEFAULT_255_2_778_1
10
10.1402127
20
60.6501507
40
1.5781764
50
311.7298824
51
315.4670864
0
ARC
8
DEFAULT_255_2_778_1
10
9.8311879
20
60.9957074
40
2.0417554
50
308.723055
51
311.7470879
0
ARC
8
DEFAULT_255_2_778_1
10
9.476989
20
61.4369492
40
2.6075745
50
306.1165163
51
308.7300151
0
ARC
8
DEFAULT_255_2_778_1
10
9.0740091
20
61.9882523
40
3.2904564
50
303.9559446
51
306.1266333
0
ARC
8
DEFAULT_255_2_778_1
10
8.6624432
20
62.597515
40
4.0257023
50
302.3733397
51
303.9712246
0
ARC
8
DEFAULT_255_2_778_1
10
8.2428347
20
63.2590058
40
4.8090549
50
300.9434827
51
302.3758078
0
LINE
8
DEFAULT_255_2_778
10
10.7156417
20
58.0760326
11
10.7156417
21
5.1593326
0
LINE
8
DEFAULT_255_2_778
10
10.7156417
20
5.1593326
11
9.3927417
21
5.1593326
0
LINE
8
DEFAULT_255_1_234
10
4.2454489
20
132.8098211
11
4.2454489
21
131.7664983
0
LINE
8
DEFAULT_255_1_234
10
4.2454489
20
131.7664983
11
4.7996389
21
131.7664983
0
LINE
8
DEFAULT_255_1_234
10
4.7996389
20
131.7664983
11
4.7996389
21
131.6404
0
LINE
8
DEFAULT_255_1_234
10
4.7996389
20
131.6404
11
4.0904364
21
131.6404
0
LINE
8
DEFAULT_255_1_234
10
4.0904364
20
131.6404
11
4.0904364
21
132.8098211
0
LINE
8
DEFAULT_255_1_234
10
4.0904364
20
132.8098211
11
4.2454489
21
132.8098211
0
LINE
8
DEFAULT_255_1_234
10
5.377924
20
132.6090276
11
5.377924
21
132.2676788
0
LINE
8
DEFAULT_255_1_234
10
5.377924
20
132.2676788
11
5.7040126
21
132.2676788
0
LINE
8
DEFAULT_255_1_234
10
5.7040126
20
132.2676788
11
5.7040126
21
132.1271233
0
LINE
8
DEFAULT_255_1_234
10
5.7040126
20
132.1271233
11
5.377924
21
132.1271233
0
LINE
8
DEFAULT_255_1_234
10
5.377924
20
132.1271233
11
5.377924
21
131.7576634
0
LINE
8
DEFAULT_255_1_234
10
5.377924
20
131.7576634
11
5.2285337
21
131.7576634
0
LINE
8
DEFAULT_255_1_234
10
5.2285337
20
131.7576634
11
5.2285337
21
132.1271233
0
LINE
8
DEFAULT_255_1_234
10
5.2285337
20
132.1271233
11
4.9024451
21
132.1271233
0
LINE
8
DEFAULT_255_1_234
10
4.9024451
20
132.1271233
11
4.9024451
21
132.2676788
0
LINE
8
DEFAULT_255_1_234
10
4.9024451
20
132.2676788
11
5.2285337
21
132.2676788
0
LINE
8
DEFAULT_255_1_234
10
5.2285337
20
132.2676788
11
5.2285337
21
132.6090276
0
LINE
8
DEFAULT_255_1_234
10
5.2285337
20
132.6090276
11
5.377924
21
132.6090276
0
LINE
8
DEFAULT_255_1_234
10
4.4487902
20
5.8098211
11
4.4487902
21
4.6404
0
LINE
8
DEFAULT_255_1_234
10
4.4487902
20
4.6404
11
4.2945808
21
4.6404
0
LINE
8
DEFAULT_255_1_234
10
4.2945808
20
4.6404
11
4.2945808
21
5.8098211
0
LINE
8
DEFAULT_255_1_234
10
4.2945808
20
5.8098211
11
4.4487902
21
5.8098211
0
LINE
8
DEFAULT_255_1_234
10
4.7981708
20
5.8098211
11
4.9829008
21
5.0090568
0
LINE
8
DEFAULT_255_1_234
10
4.9829008
20
5.0090568
11
5.0053896
21
4.8548474
0
LINE
8
DEFAULT_255_1_234
10
5.0053896
20
4.8548474
11
5.0383198
21
4.9937965
0
LINE
8
DEFAULT_255_1_234
10
5.0383198
20
4.9937965
11
5.2696338
21
5.8098211
0
LINE
8
DEFAULT_255_1_234
10
5.2696338
20
5.8098211
11
5.399748
21
5.8098211
0
LINE
8
DEFAULT_255_1_234
10
5.399748
20
5.8098211
11
5.6254398
21
4.9937965
0
LINE
8
DEFAULT_255_1_234
10
5.6254398
20
4.9937965
11
5.6575668
21
4.8524379
0
LINE
8
DEFAULT_255_1_234
10
5.6575668
20
4.8524379
11
5.6824652
21
5.00986
0
LINE
8
DEFAULT_255_1_234
10
5.6824652
20
5.00986
11
5.8639825
21
5.8098211
0
LINE
8
DEFAULT_255_1_234
10
5.8639825
20
5.8098211
11
6.018995
21
5.8098211
0
LINE
8
DEFAULT_255_1_234
10
6.018995
20
5.8098211
11
5.7354747
21
4.6404
0
LINE
8
DEFAULT_255_1_234
10
5.7354747
20
4.6404
11
5.5949192
21
4.6404
0
LINE
8
DEFAULT_255_1_234
10
5.5949192
20
4.6404
11
5.3539671
21
5.4925674
0
LINE
8
DEFAULT_255_1_234
10
5.3539671
20
5.4925674
11
5.3354941
21
5.5817197
0
LINE
8
DEFAULT_255_1_234
10
5.3354941
20
5.5817197
11
5.3170211
21
5.4925674
0
LINE
8
DEFAULT_255_1_234
10
5.3170211
20
5.4925674
11
5.067234
21
4.6404
0
LINE
8
DEFAULT_255_1_234
10
5.067234
20
4.6404
11
4.9266786
21
4.6404
0
LINE
8
DEFAULT_255_1_234
10
4.9266786
20
4.6404
11
4.6439614
21
5.8098211
0
LINE
8
DEFAULT_255_1_234
10
4.6439614
20
5.8098211
11
4.7981708
21
5.8098211
0
LINE
8
DEFAULT_255_1_234
10
6.2896646
20
5.8098211
11
6.5715786
21
5.3616501
0
LINE
8
DEFAULT_255_1_234
10
6.5715786
20
5.3616501
11
6.8518863
21
5.8098211
0
LINE
8
DEFAULT_255_1_234
10
6.8518863
20
5.8098211
11
7.0334036
21
5.8098211
0
LINE
8
DEFAULT_255_1_234
10
7.0334036
20
5.8098211
11
6.6639436
21
5.2299296
0
LINE
8
DEFAULT_255_1_234
10
6.6639436
20
5.2299296
11
7.0422385
21
4.6404
0
LINE
8
DEFAULT_255_1_234
10
7.0422385
20
4.6404
11
6.8591148
21
4.6404
0
LINE
8
DEFAULT_255_1_234
10
6.8591148
20
4.6404
11
6.5715786
21
5.0966027
0
LINE
8
DEFAULT_255_1_234
10
6.5715786
20
5.0966027
11
6.282436
21
4.6404
0
LINE
8
DEFAULT_255_1_234
10
6.282436
20
4.6404
11
6.1001156
21
4.6404
0
LINE
8
DEFAULT_255_1_234
10
6.1001156
20
4.6404
11
6.4792136
21
5.2299296
0
LINE
8
DEFAULT_255_1_234
10
6.4792136
20
5.2299296
11
6.1089505
21
5.8098211
0
LINE
8
DEFAULT_255_1_234
10
6.1089505
20
5.8098211
11
6.2896646
21
5.8098211
0
LINE
8
DEFAULT_255_1_234
10
7.3988477
20
5.1761169
11
7.3988477
21
5.2973962
0
LINE
8
DEFAULT_255_1_234
10
7.3988477
20
5.2973962
11
7.5104888
21
5.2973962
0
LINE
8
DEFAULT_255_1_234
10
7.3201366
20
5.5030087
11
7.1715495
21
5.5030087
0
LINE
8
DEFAULT_255_1_234
10
7.1611082
20
4.9488188
11
7.3104985
21
4.9488188
0
LINE
8
DEFAULT_255_1_234
10
7.5104888
20
5.1761169
11
7.3988477
21
5.1761169
0
ARC
8
DEFAULT_255_1_234
10
7.5075755
20
5.6366713
40
0.3392876
50
270.4919872
51
281.8951556
0
ARC
8
DEFAULT_255_1_234
10
7.5317016
20
5.5264702
40
0.2264817
50
281.6691735
51
301.2943132
0
ARC
8
DEFAULT_255_1_234
10
7.5487227
20
5.4953304
40
0.1910381
50
301.7833094
51
311.7545298
0
ARC
8
DEFAULT_255_1_234
10
7.5578802
20
5.4851748
40
0.1773635
50
311.7323931
51
354.2802411
0
ARC
8
DEFAULT_255_1_234
10
7.4852428
20
5.4976722
40
0.2509385
50
353.0937916
51
0.1181479
0
ARC
8
DEFAULT_255_1_234
10
7.4391212
20
5.5024386
40
0.2970898
50
359.1805295
51
15.0453146
0
ARC
8
DEFAULT_255_1_234
10
7.5737049
20
5.5416992
40
0.1569564
50
13.9577229
51
77.6713066
0
ARC
8
DEFAULT_255_1_234
10
7.5350579
20
5.4031949
40
0.3006298
50
76.1116566
51
90.7026153
0
ARC
8
DEFAULT_255_1_234
10
7.5291417
20
5.4305545
40
0.2732568
50
89.5324876
51
103.531937
0
ARC
8
DEFAULT_255_1_234
10
7.5090861
20
5.5104884
40
0.1908508
50
103.2931773
51
133.5619022
0
ARC
8
DEFAULT_255_1_234
10
7.5046349
20
5.5164375
40
0.1834746
50
133.8349307
51
173.5344437
0
ARC
8
DEFAULT_255_1_234
10
7.5769392
20
5.5036213
40
0.2568033
50
172.5096846
51
180.1366907
0
ARC
8
DEFAULT_255_1_234
10
7.4818286
20
5.5070622
40
0.3103056
50
155.3484492
51
180.7484736
0
ARC
8
DEFAULT_255_1_234
10
7.4769375
20
5.5041846
40
0.3070957
50
131.5744599
51
154.4798489
0
ARC
8
DEFAULT_255_1_234
10
7.5082523
20
5.472531
40
0.3515643
50
96.9875458
51
131.9690667
0
ARC
8
DEFAULT_255_1_234
10
7.5302003
20
5.3479636
40
0.4779224
50
89.8596053
51
97.7825159
0
ARC
8
DEFAULT_255_1_234
10
7.5350066
20
5.3217616
40
0.5041361
50
78.3655447
51
90.4131539
0
ARC
8
DEFAULT_255_1_234
10
7.5707984
20
5.4876887
40
0.3344039
50
56.6229102
51
78.638727
0
ARC
8
DEFAULT_255_1_234
10
7.5922927
20
5.5252805
40
0.2912001
50
47.0253525
51
56.0854072
0
ARC
8
DEFAULT_255_1_234
10
7.5942707
20
5.5292223
40
0.2869704
50
10.9208013
51
46.7778124
0
ARC
8
DEFAULT_255_1_234
10
7.4578774
20
5.4976857
40
0.426899
50
359.6364486
51
11.6087304
0
ARC
8
DEFAULT_255_1_234
10
7.6413618
20
5.4961752
40
0.243409
50
332.3549906
51
359.7179418
0
ARC
8
DEFAULT_255_1_234
10
7.5763219
20
5.5270142
40
0.3153459
50
325.2333722
51
332.8745602
0
ARC
8
DEFAULT_255_1_234
10
7.5915843
20
5.5163828
40
0.2967456
50
292.9802137
51
325.2392345
0
ARC
8
DEFAULT_255_1_234
10
7.5641217
20
5.5697863
40
0.3566604
50
292.5402179
51
293.6924929
0
ARC
8
DEFAULT_255_1_234
10
7.6033813
20
4.9243091
40
0.3307468
50
57.6435486
51
72.8625112
0
ARC
8
DEFAULT_255_1_234
10
7.6388313
20
4.9817549
40
0.2632492
50
36.7248896
51
57.4697979
0
ARC
8
DEFAULT_255_1_234
10
7.6376945
20
4.983022
40
0.2634081
50
8.0545065
51
36.356114
0
ARC
8
DEFAULT_255_1_234
10
7.551413
20
4.9675174
40
0.3510261
50
359.8320645
51
8.5869982
0
ARC
8
DEFAULT_255_1_234
10
7.5138907
20
4.9627101
40
0.3885653
50
343.9829931
51
0.5571613
0
ARC
8
DEFAULT_255_1_234
10
7.6025104
20
4.9384438
40
0.2966924
50
311.6359546
51
343.7651759
0
ARC
8
DEFAULT_255_1_234
10
7.5646673
20
4.9811102
40
0.3537231
50
279.7829875
51
311.6255694
0
ARC
8
DEFAULT_255_1_234
10
7.5345449
20
5.124828
40
0.5004971
50
269.7286406
51
280.3856417
0
ARC
8
DEFAULT_255_1_234
10
7.5283522
20
5.1206996
40
0.4963778
50
256.6828919
51
270.4412052
0
ARC
8
DEFAULT_255_1_234
10
7.4944818
20
4.9822394
40
0.3538406
50
229.4223008
51
256.8556159
0
ARC
8
DEFAULT_255_1_234
10
7.453021
20
4.9355736
40
0.2914296
50
181.818294
51
229.6455059
0
ARC
8
DEFAULT_255_1_234
10
7.5570167
20
4.9486496
40
0.3959084
50
179.9755256
51
183.2323064
0
ARC
8
DEFAULT_255_1_234
10
7.5397913
20
4.9466037
40
0.2293034
50
179.4465117
51
196.2869258
0
ARC
8
DEFAULT_255_1_234
10
7.4910321
20
4.9332651
40
0.1787621
50
196.5661473
51
227.705904
0
ARC
8
DEFAULT_255_1_234
10
7.5074415
20
4.9516155
40
0.2033784
50
227.7652068
51
257.8762805
0
ARC
8
DEFAULT_255_1_234
10
7.5299386
20
5.0459156
40
0.3003081
50
257.4584385
51
270.426602
0
ARC
8
DEFAULT_255_1_234
10
7.5344952
20
5.0748996
40
0.329292
50
269.5962073
51
280.8789248
0
ARC
8
DEFAULT_255_1_234
10
7.5574481
20
4.9602685
40
0.2123908
50
280.6346389
51
299.8595945
0
ARC
8
DEFAULT_255_1_234
10
7.5765387
20
4.9240212
40
0.171457
50
300.3576302
51
314.5517981
0
ARC
8
DEFAULT_255_1_234
10
7.5682447
20
4.9300919
40
0.1816095
50
315.0728369
51
345.0431014
0
ARC
8
DEFAULT_255_1_234
10
7.4759262
20
4.9569841
40
0.2777492
50
344.5986631
51
357.9269593
0
ARC
8
DEFAULT_255_1_234
10
7.3863588
20
4.9631276
40
0.3674917
50
357.4748886
51
0.0231117
0
ARC
8
DEFAULT_255_1_234
10
7.4886697
20
4.9655679
40
0.2651907
50
359.5047933
51
13.4239635
0
ARC
8
DEFAULT_255_1_234
10
7.5753341
20
4.9877478
40
0.1757509
50
12.9498199
51
48.7551375
0
ARC
8
DEFAULT_255_1_234
10
7.5571075
20
4.96284
40
0.2065134
50
49.5088623
51
72.1836453
0
ARC
8
DEFAULT_255_1_234
10
7.5213227
20
4.8566291
40
0.3185836
50
71.9010081
51
84.3554254
0
ARC
8
DEFAULT_255_1_234
10
7.5051859
20
4.7205326
40
0.4556151
50
84.0193428
51
89.333121
0
LINE
8
DEFAULT_255_1_234
10
8.8397415
20
5.3319327
11
8.8397415
21
5.1391709
0
LINE
8
DEFAULT_255_1_234
10
8.1016248
20
5.1190916
11
8.1016248
21
5.3174755
0
LINE
8
DEFAULT_255_1_234
10
8.6911543
20
5.0990123
11
8.6911543
21
5.3423739
0
LINE
8
DEFAULT_255_1_234
10
8.2502119
20
5.3536184
11
8.2502119
21
5.1158789
0
ARC
8
DEFAULT_255_1_234
10
7.6150305
20
5.1342805
40
1.2247208
50
353.8441951
51
0.2287902
0
ARC
8
DEFAULT_255_1_234
10
8.0789808
20
5.0824806
40
0.7578929
50
344.4934747
51
353.9765454
0
ARC
8
DEFAULT_255_1_234
10
8.3782398
20
4.9973981
40
0.4467846
50
329.2803592
51
344.7472793
0
ARC
8
DEFAULT_255_1_234
10
8.4775223
20
4.9429018
40
0.3336173
50
324.9352394
51
328.6160465
0
ARC
8
DEFAULT_255_1_234
10
8.5152332
20
4.9165427
40
0.2876076
50
280.580143
51
324.9173126
0
ARC
8
DEFAULT_255_1_234
10
8.4751125
20
5.0836099
40
0.4592847
50
269.5977311
51
281.6734359
0
ARC
8
DEFAULT_255_1_234
10
8.467903
20
5.0716173
40
0.4472986
50
256.6228859
51
270.51044
0
ARC
8
DEFAULT_255_1_234
10
8.4277008
20
4.9167877
40
0.2873874
50
215.8618325
51
257.2788573
0
ARC
8
DEFAULT_255_1_234
10
8.529804
20
4.9852977
40
0.4102928
50
197.9693508
51
215.2623606
0
ARC
8
DEFAULT_255_1_234
10
8.7783155
20
5.0691709
40
0.6725652
50
187.8816417
51
198.2346507
0
ARC
8
DEFAULT_255_1_234
10
9.1741364
20
5.1263079
40
1.0724845
50
180.8976217
51
188.0055519
0
ARC
8
DEFAULT_255_1_234
10
9.4541552
20
5.1366777
40
1.3526448
50
180.7449369
51
181.1510016
0
ARC
8
DEFAULT_255_1_234
10
9.2964281
20
5.3223042
40
1.1948131
50
173.7675579
51
180.231553
0
ARC
8
DEFAULT_255_1_234
10
8.8446427
20
5.3733666
40
0.7401564
50
164.3058563
51
173.9002247
0
ARC
8
DEFAULT_255_1_234
10
8.5534496
20
5.4572656
40
0.4371288
50
148.7922025
51
164.568378
0
ARC
8
DEFAULT_255_1_234
10
8.4582948
20
5.5103929
40
0.3282386
50
144.5883898
51
148.1176286
0
ARC
8
DEFAULT_255_1_234
10
8.4239846
20
5.5343315
40
0.2864044
50
101.6440918
51
144.514236
0
ARC
8
DEFAULT_255_1_234
10
8.4664913
20
5.3654069
40
0.4604934
50
89.5284041
51
102.5819763
0
ARC
8
DEFAULT_255_1_234
10
8.4744001
20
5.3615018
40
0.464401
50
77.0437873
51
90.5081339
0
ARC
8
DEFAULT_255_1_234
10
8.5146002
20
5.5257615
40
0.2953195
50
48.2778575
51
77.4994676
0
ARC
8
DEFAULT_255_1_234
10
8.5218634
20
5.5386746
40
0.2808655
50
36.3142134
51
47.6305865
0
ARC
8
DEFAULT_255_1_234
10
8.4349941
20
5.4801515
40
0.3855453
50
18.2931786
51
35.6769206
0
ARC
8
DEFAULT_255_1_234
10
8.18067
20
5.3928593
40
0.654423
50
8.024666
51
18.5605216
0
ARC
8
DEFAULT_255_1_234
10
7.764362
20
5.3313792
40
1.0752407
50
1.1274072
51
8.1718305
0
ARC
8
DEFAULT_255_1_234
10
7.440781
20
5.3186885
40
1.3990231
50
0.5424119
51
1.3863029
0
ARC
8
DEFAULT_255_1_234
10
7.6229188
20
5.3459342
40
1.0682415
50
359.8090433
51
4.9407866
0
ARC
8
DEFAULT_255_1_234
10
8.0439202
20
5.3835113
40
0.6455691
50
4.8362157
51
12.2904523
0
ARC
8
DEFAULT_255_1_234
10
8.3194317
20
5.4448965
40
0.3633074
50
12.0805627
51
23.8173984
0
ARC
8
DEFAULT_255_1_234
10
8.4368022
20
5.4945919
40
0.2358723
50
24.2871213
51
31.3935614
0
ARC
8
DEFAULT_255_1_234
10
8.4892719
20
5.5289233
40
0.1732111
50
30.7407893
51
82.4657128
0
ARC
8
DEFAULT_255_1_234
10
8.4712854
20
5.4405691
40
0.263235
50
81.1060089
51
90.2184952
0
ARC
8
DEFAULT_255_1_234
10
8.4677153
20
5.4663924
40
0.2374236
50
89.3806855
51
105.6762551
0
ARC
8
DEFAULT_255_1_234
10
8.4493783
20
5.5330567
40
0.1682847
50
105.7981136
51
149.7388061
0
ARC
8
DEFAULT_255_1_234
10
8.5557862
20
5.469095
40
0.2924306
50
149.4208916
51
163.6286378
0
ARC
8
DEFAULT_255_1_234
10
8.764875
20
5.405325
40
0.5110213
50
163.3763315
51
172.1410975
0
ARC
8
DEFAULT_255_1_234
10
9.0949469
20
5.3580518
40
0.8444586
50
172.0259487
51
178.0703232
0
ARC
8
DEFAULT_255_1_234
10
9.3979558
20
5.3436906
40
1.1477868
50
177.8631668
51
179.5044149
0
ARC
8
DEFAULT_255_1_234
10
9.2906962
20
5.1122389
40
1.0404907
50
179.7995573
51
185.2460446
0
ARC
8
DEFAULT_255_1_234
10
8.8864002
20
5.0739513
40
0.6343885
50
185.1411642
51
193.0079639
0
ARC
8
DEFAULT_255_1_234
10
8.6220474
20
5.0114641
40
0.3627568
50
192.7897626
51
205.2507664
0
ARC
8
DEFAULT_255_1_234
10
8.5174021
20
4.9647415
40
0.2481908
50
205.8005384
51
211.2537509
0
ARC
8
DEFAULT_255_1_234
10
8.4650462
20
4.929658
40
0.1852521
50
210.3789793
51
238.4008143
0
ARC
8
DEFAULT_255_1_234
10
8.4630984
20
4.9343376
40
0.1882621
50
239.6520629
51
265.9793761
0
ARC
8
DEFAULT_255_1_234
10
8.4716184
20
5.0015427
40
0.2559272
50
265.1315437
51
270.060332
0
ARC
8
DEFAULT_255_1_234
10
8.4744963
20
4.9691534
40
0.2235528
50
269.3314664
51
287.2178029
0
ARC
8
DEFAULT_255_1_234
10
8.4882815
20
4.9188279
40
0.1714108
50
287.7958004
51
329.080874
0
ARC
8
DEFAULT_255_1_234
10
8.3925271
20
4.978593
40
0.2842745
50
328.6634704
51
343.3325132
0
ARC
8
DEFAULT_255_1_234
10
8.1752291
20
5.0462863
40
0.5118644
50
343.0499468
51
351.9393422
0
ARC
8
DEFAULT_255_1_234
10
7.8285591
20
5.0973949
40
0.8622784
50
351.8069023
51
357.7959224
0
ARC
8
DEFAULT_255_1_234
10
7.5050147
20
5.1141721
40
1.1862365
50
357.5871873
51
359.2677531
0
LINE
8
DEFAULT_255_1_234
10
4.4487902
20
13.7473211
11
4.4487902
21
12.5779
0
LINE
8
DEFAULT_255_1_234
10
4.4487902
20
12.5779
11
4.2945808
21
12.5779
0
LINE
8
DEFAULT_255_1_234
10
4.2945808
20
12.5779
11
4.2945808
21
13.7473211
0
LINE
8
DEFAULT_255_1_234
10
4.2945808
20
13.7473211
11
4.4487902
21
13.7473211
0
LINE
8
DEFAULT_255_1_234
10
4.7981708
20
13.7473211
11
4.9829008
21
12.9465568
0
LINE
8
DEFAULT_255_1_234
10
4.9829008
20
12.9465568
11
5.0053896
21
12.7923474
0
LINE
8
DEFAULT_255_1_234
10
5.0053896
20
12.7923474
11
5.0383198
21
12.9312965
0
LINE
8
DEFAULT_255_1_234
10
5.0383198
20
12.9312965
11
5.2696338
21
13.7473211
0
LINE
8
DEFAULT_255_1_234
10
5.2696338
20
13.7473211
11
5.399748
21
13.7473211
0
LINE
8
DEFAULT_255_1_234
10
5.399748
20
13.7473211
11
5.6254398
21
12.9312965
0
LINE
8
DEFAULT_255_1_234
10
5.6254398
20
12.9312965
11
5.6575668
21
12.7899379
0
LINE
8
DEFAULT_255_1_234
10
5.6575668
20
12.7899379
11
5.6824652
21
12.94736
0
LINE
8
DEFAULT_255_1_234
10
5.6824652
20
12.94736
11
5.8639825
21
13.7473211
0
LINE
8
DEFAULT_255_1_234
10
5.8639825
20
13.7473211
11
6.018995
21
13.7473211
0
LINE
8
DEFAULT_255_1_234
10
6.018995
20
13.7473211
11
5.7354747
21
12.5779
0
LINE
8
DEFAULT_255_1_234
10
5.7354747
20
12.5779
11
5.5949192
21
12.5779
0
LINE
8
DEFAULT_255_1_234
10
5.5949192
20
12.5779
11
5.3539671
21
13.4300674
0
LINE
8
DEFAULT_255_1_234
10
5.3539671
20
13.4300674
11
5.3354941
21
13.5192197
0
LINE
8
DEFAULT_255_1_234
10
5.3354941
20
13.5192197
11
5.3170211
21
13.4300674
0
LINE
8
DEFAULT_255_1_234
10
5.3170211
20
13.4300674
11
5.067234
21
12.5779
0
LINE
8
DEFAULT_255_1_234
10
5.067234
20
12.5779
11
4.9266786
21
12.5779
0
LINE
8
DEFAULT_255_1_234
10
4.9266786
20
12.5779
11
4.6439614
21
13.7473211
0
LINE
8
DEFAULT_255_1_234
10
4.6439614
20
13.7473211
11
4.7981708
21
13.7473211
0
LINE
8
DEFAULT_255_1_234
10
6.2896646
20
13.7473211
11
6.5715786
21
13.2991501
0
LINE
8
DEFAULT_255_1_234
10
6.5715786
20
13.2991501
11
6.8518863
21
13.7473211
0
LINE
8
DEFAULT_255_1_234
10
6.8518863
20
13.7473211
11
7.0334036
21
13.7473211
0
LINE
8
DEFAULT_255_1_234
10
7.0334036
20
13.7473211
11
6.6639436
21
13.1674296
0
LINE
8
DEFAULT_255_1_234
10
6.6639436
20
13.1674296
11
7.0422385
21
12.5779
0
LINE
8
DEFAULT_255_1_234
10
7.0422385
20
12.5779
11
6.8591148
21
12.5779
0
LINE
8
DEFAULT_255_1_234
10
6.8591148
20
12.5779
11
6.5715786
21
13.0341027
0
LINE
8
DEFAULT_255_1_234
10
6.5715786
20
13.0341027
11
6.282436
21
12.5779
0
LINE
8
DEFAULT_255_1_234
10
6.282436
20
12.5779
11
6.1001156
21
12.5779
0
LINE
8
DEFAULT_255_1_234
10
6.1001156
20
12.5779
11
6.4792136
21
13.1674296
0
LINE
8
DEFAULT_255_1_234
10
6.4792136
20
13.1674296
11
6.1089505
21
13.7473211
0
LINE
8
DEFAULT_255_1_234
10
6.1089505
20
13.7473211
11
6.2896646
21
13.7473211
0
LINE
8
DEFAULT_255_1_234
10
7.9490217
20
12.6991792
11
7.9490217
21
12.5779
0
LINE
8
DEFAULT_255_1_234
10
7.9490217
20
12.5779
11
7.1827939
21
12.5779
0
LINE
8
DEFAULT_255_1_234
10
7.1827939
20
12.5779
11
7.1827939
21
12.6847221
0
LINE
8
DEFAULT_255_1_234
10
7.1827939
20
12.6847221
11
7.5875935
21
13.1344995
0
LINE
8
DEFAULT_255_1_234
10
7.3088922
20
13.4027595
11
7.160305
21
13.4027595
0
LINE
8
DEFAULT_255_1_234
10
7.6751395
20
13.0389218
11
7.3619017
21
12.6991792
0
LINE
8
DEFAULT_255_1_234
10
7.3619017
20
12.6991792
11
7.9490217
21
12.6991792
0
ARC
8
DEFAULT_255_1_234
10
6.2385768
20
14.3274527
40
1.8008286
50
318.5132453
51
320.7828378
0
ARC
8
DEFAULT_255_1_234
10
6.7672743
20
13.8971426
40
1.1191493
50
320.7372736
51
323.9737074
0
ARC
8
DEFAULT_255_1_234
10
7.1592599
20
13.6131361
40
0.6350923
50
323.8961724
51
328.6421089
0
ARC
8
DEFAULT_255_1_234
10
7.3639195
20
13.4869031
40
0.3946393
50
328.8299013
51
331.789948
0
ARC
8
DEFAULT_255_1_234
10
7.4636373
20
13.4354509
40
0.2824501
50
331.4255242
51
352.9364833
0
ARC
8
DEFAULT_255_1_234
10
7.4772874
20
13.4323976
40
0.2685315
50
353.2248685
51
0.0169286
0
ARC
8
DEFAULT_255_1_234
10
7.498275
20
13.434695
40
0.2475536
50
359.4866256
51
15.9339782
0
ARC
8
DEFAULT_255_1_234
10
7.5489736
20
13.4483286
40
0.1950618
50
16.1714718
51
43.5284424
0
ARC
8
DEFAULT_255_1_234
10
7.5567044
20
13.4560573
40
0.184134
50
43.4415429
51
83.1661404
0
ARC
8
DEFAULT_255_1_234
10
7.5432963
20
13.3823771
40
0.258926
50
82.160215
51
90.1505798
0
ARC
8
DEFAULT_255_1_234
10
7.540139
20
13.3286865
40
0.3126255
50
89.5460705
51
102.5418777
0
ARC
8
DEFAULT_255_1_234
10
7.5158476
20
13.4317665
40
0.2067346
50
102.1739365
51
129.2061916
0
ARC
8
DEFAULT_255_1_234
10
7.5079548
20
13.4442094
40
0.1921118
50
129.7279328
51
135.7542026
0
ARC
8
DEFAULT_255_1_234
10
7.5201075
20
13.4345045
40
0.2075944
50
136.175737
51
166.3674722
0
ARC
8
DEFAULT_255_1_234
10
7.6207995
20
13.4075182
40
0.3118201
50
165.9092917
51
178.8683903
0
ARC
8
DEFAULT_255_1_234
10
7.7072856
20
13.4028179
40
0.3983935
50
178.438168
51
180.0083905
0
ARC
8
DEFAULT_255_1_234
10
7.5671458
20
13.4067231
40
0.4068601
50
163.2878735
51
180.5581814
0
ARC
8
DEFAULT_255_1_234
10
7.4869719
20
13.428784
40
0.3237344
50
133.454115
51
162.9470031
0
ARC
8
DEFAULT_255_1_234
10
7.5048261
20
13.4098
40
0.349795
50
100.7869394
51
133.4384016
0
ARC
8
DEFAULT_255_1_234
10
7.5396032
20
13.2549319
40
0.5084616
50
89.6605301
51
101.3704185
0
ARC
8
DEFAULT_255_1_234
10
7.5462371
20
13.2610496
40
0.502348
50
78.2171172
51
90.4130393
0
ARC
8
DEFAULT_255_1_234
10
7.5817449
20
13.4234637
40
0.3361092
50
55.9268222
51
78.4888551
0
ARC
8
DEFAULT_255_1_234
10
7.601389
20
13.4573324
40
0.2970617
50
47.9292255
51
55.4054003
0
ARC
8
DEFAULT_255_1_234
10
7.611545
20
13.4676502
40
0.2825983
50
4.3347696
51
48.0560701
0
ARC
8
DEFAULT_255_1_234
10
7.5019844
20
13.4506601
40
0.393225
50
359.925209
51
5.5967654
0
ARC
8
DEFAULT_255_1_234
10
7.5448736
20
13.4562816
40
0.3503892
50
337.8914096
51
358.9967724
0
ARC
8
DEFAULT_255_1_234
10
7.2735148
20
13.5609706
40
0.6412172
50
326.9135351
51
338.3505194
0
ARC
8
DEFAULT_255_1_234
10
6.8749451
20
13.8164284
40
1.1146189
50
319.6472867
51
327.095818
0
ARC
8
DEFAULT_255_1_234
10
6.4916455
20
14.1326
40
1.6114559
50
317.2586784
51
319.9046139
0
ARC
8
DEFAULT_255_1_234
10
8.5334221
20
13.4395703
40
0.2822356
50
338.8763615
51
0.5166041
0
ARC
8
DEFAULT_255_1_234
10
8.5502876
20
13.4350208
40
0.2648703
50
325.8412414
51
338.4795939
0
ARC
8
DEFAULT_255_1_234
10
8.5112244
20
13.4621042
40
0.3124019
50
296.7586019
51
325.753654
0
ARC
8
DEFAULT_255_1_234
10
8.4824352
20
13.5105789
40
0.368668
50
296.0902311
51
297.3618122
0
ARC
8
DEFAULT_255_1_234
10
8.508181
20
12.8551041
40
0.3518806
50
47.9009248
51
67.1946869
0
ARC
8
DEFAULT_255_1_234
10
8.5278052
20
12.8797395
40
0.320451
50
35.236241
51
47.551371
0
ARC
8
DEFAULT_255_1_234
10
8.5539669
20
12.8971993
40
0.2890103
50
359.2759738
51
35.4014081
0
ARC
8
DEFAULT_255_1_234
10
8.4794701
20
12.8898826
40
0.3635026
50
343.1294516
51
0.5776525
0
ARC
8
DEFAULT_255_1_234
10
8.5519245
20
12.869933
40
0.2883832
50
310.8497458
51
342.744803
0
ARC
8
DEFAULT_255_1_234
10
8.5101359
20
12.9176294
40
0.3517954
50
281.5473923
51
310.9169905
0
ARC
8
DEFAULT_255_1_234
10
8.4744808
20
13.0729084
40
0.5110832
50
269.6192722
51
281.9789957
0
ARC
8
DEFAULT_255_1_234
10
8.4672597
20
13.0729828
40
0.5111606
50
257.4584469
51
270.4287458
0
ARC
8
DEFAULT_255_1_234
10
8.429174
20
12.9126344
40
0.3463762
50
228.7553743
51
257.8484423
0
ARC
8
DEFAULT_255_1_234
10
8.3981939
20
12.8753442
40
0.297916
50
184.0104442
51
228.5071787
0
ARC
8
DEFAULT_255_1_234
10
8.5144883
20
12.8930512
40
0.4152734
50
179.9315461
51
185.3254504
0
ARC
8
DEFAULT_255_1_234
10
8.3968528
20
12.8967992
40
0.2976554
50
145.6795913
51
180.6259649
0
ARC
8
DEFAULT_255_1_234
10
8.4131878
20
12.8853929
40
0.3175776
50
115.5537925
51
145.6416199
0
ARC
8
DEFAULT_255_1_234
10
8.4472808
20
12.8243028
40
0.3874232
50
113.2437915
51
116.2054627
0
ARC
8
DEFAULT_255_1_234
10
8.432002
20
13.464158
40
0.3154751
50
222.9548379
51
244.1372485
0
ARC
8
DEFAULT_255_1_234
10
8.4198096
20
13.4504834
40
0.2972382
50
213.3439227
51
222.6271327
0
ARC
8
DEFAULT_255_1_234
10
8.400603
20
13.4374308
40
0.274019
50
180.4316517
51
213.2713999
0
ARC
8
DEFAULT_255_1_234
10
8.4581032
20
13.442111
40
0.33158
50
179.9992944
51
181.1655061
0
ARC
8
DEFAULT_255_1_234
10
8.4990449
20
13.4455561
40
0.3725376
50
164.6186108
51
180.5292368
0
ARC
8
DEFAULT_255_1_234
10
8.4092311
20
13.4697101
40
0.2795349
50
132.2454369
51
164.5092287
0
ARC
8
DEFAULT_255_1_234
10
8.4379415
20
13.4372028
40
0.3229019
50
100.7052766
51
132.1387266
0
ARC
8
DEFAULT_255_1_234
10
8.4684388
20
13.2994086
40
0.4639835
50
89.6732617
51
101.2449487
0
ARC
8
DEFAULT_255_1_234
10
8.4746586
20
13.316899
40
0.4464999
50
76.2876631
51
90.4586123
0
ARC
8
DEFAULT_255_1_234
10
8.5052818
20
13.439122
40
0.3205023
50
47.8240157
51
76.4266918
0
ARC
8
DEFAULT_255_1_234
10
8.5275367
20
13.465159
40
0.2862661
50
6.9168658
51
47.6261438
0
ARC
8
DEFAULT_255_1_234
10
8.408877
20
13.443237
40
0.4067708
50
359.8419705
51
7.9694496
0
ARC
8
DEFAULT_255_1_234
10
8.4430667
20
12.8991925
40
0.2513121
50
359.4454068
51
16.9256425
0
ARC
8
DEFAULT_255_1_234
10
8.4899478
20
12.9121033
40
0.2027071
50
17.292259
51
45.462717
0
ARC
8
DEFAULT_255_1_234
10
8.4845415
20
12.9074434
40
0.2098212
50
45.3028762
51
83.1921472
0
ARC
8
DEFAULT_255_1_234
10
8.4702099
20
12.8272895
40
0.2911472
50
82.2614531
51
90.143954
0
ARC
8
DEFAULT_255_1_234
10
8.4671219
20
12.850595
40
0.2678513
50
89.4959189
51
104.8579811
0
ARC
8
DEFAULT_255_1_234
10
8.4494477
20
12.917589
40
0.1985654
50
104.8855873
51
135.2448349
0
ARC
8
DEFAULT_255_1_234
10
8.454425
20
12.9131336
40
0.2052373
50
135.3398955
51
172.104394
0
ARC
8
DEFAULT_255_1_234
10
8.5351308
20
12.8976925
40
0.2873299
50
171.2651929
51
180.1859362
0
ARC
8
DEFAULT_255_1_234
10
8.518201
20
12.8944733
40
0.2704083
50
179.515471
51
193.6466734
0
ARC
8
DEFAULT_255_1_234
10
8.4365779
20
12.8736777
40
0.1861855
50
193.3540587
51
225.8256931
0
ARC
8
DEFAULT_255_1_234
10
8.4406536
20
12.8807524
40
0.1941102
50
226.418029
51
255.8553723
0
ARC
8
DEFAULT_255_1_234
10
8.4662968
20
12.9743998
40
0.2911917
50
255.4655572
51
268.7985967
0
ARC
8
DEFAULT_255_1_234
10
8.4710161
20
13.0582491
40
0.3751331
50
268.3464808
51
270.0104874
0
ARC
8
DEFAULT_255_1_234
10
8.4733548
20
12.9898138
40
0.3067064
50
269.575914
51
282.0823146
0
ARC
8
DEFAULT_255_1_234
10
8.4958458
20
12.8903803
40
0.2047712
50
281.7522535
51
306.6056425
0
ARC
8
DEFAULT_255_1_234
10
8.5056884
20
12.8742487
40
0.1859604
50
307.1350025
51
314.0277951
0
ARC
8
DEFAULT_255_1_234
10
8.5020968
20
12.8768766
40
0.1903475
50
314.2553419
51
350.169324
0
ARC
8
DEFAULT_255_1_234
10
8.4169436
20
12.8953409
40
0.2774269
50
349.4145679
51
0.2930737
0
ARC
8
DEFAULT_255_1_234
10
8.468987
20
13.4112353
40
0.2300764
50
89.477591
51
105.729794
0
ARC
8
DEFAULT_255_1_234
10
8.4553783
20
13.4617637
40
0.1777519
50
105.922966
51
135.1662921
0
ARC
8
DEFAULT_255_1_234
10
8.4574286
20
13.4603419
40
0.1802087
50
135.3053131
51
168.9882338
0
ARC
8
DEFAULT_255_1_234
10
8.5401858
20
13.4413721
40
0.2650806
50
168.3802067
51
180.3602358
0
ARC
8
DEFAULT_255_1_234
10
8.5173437
20
13.4376041
40
0.2422425
50
179.5029707
51
194.9126783
0
ARC
8
DEFAULT_255_1_234
10
8.4588098
20
13.422211
40
0.1817188
50
194.9722181
51
224.1943972
0
ARC
8
DEFAULT_255_1_234
10
8.4559966
20
13.4199169
40
0.1781027
50
224.2961434
51
262.0157375
0
ARC
8
DEFAULT_255_1_234
10
8.4702209
20
13.4930661
40
0.2525492
50
261.1250369
51
270.1959853
0
ARC
8
DEFAULT_255_1_234
10
8.4731964
20
13.4743339
40
0.233825
50
269.4825617
51
285.0988277
0
ARC
8
DEFAULT_255_1_234
10
8.4886123
20
13.416499
40
0.1739712
50
285.1585659
51
315.9484648
0
ARC
8
DEFAULT_255_1_234
10
8.4797134
20
13.4246886
40
0.1860616
50
316.0412958
51
351.9162715
0
ARC
8
DEFAULT_255_1_234
10
8.4064089
20
13.4388245
40
0.2606517
50
351.1056823
51
0.1936567
0
ARC
8
DEFAULT_255_1_234
10
8.4326918
20
13.4418369
40
0.234377
50
359.4789506
51
16.0679113
0
ARC
8
DEFAULT_255_1_234
10
8.4802877
20
13.454681
40
0.1850875
50
16.3251951
51
44.791304
0
ARC
8
DEFAULT_255_1_234
10
8.4785159
20
13.4547339
40
0.186312
50
44.3958661
51
88.2498933
0
ARC
8
DEFAULT_255_1_234
10
8.4711712
20
13.3936154
40
0.2476868
50
86.9833827
51
90.0200148
0
LINE
8
DEFAULT_255_1_234
10
4.4487902
20
21.6848211
11
4.4487902
21
20.5154
0
LINE
8
DEFAULT_255_1_234
10
4.4487902
20
20.5154
11
4.2945808
21
20.5154
0
LINE
8
DEFAULT_255_1_234
10
4.2945808
20
20.5154
11
4.2945808
21
21.6848211
0
LINE
8
DEFAULT_255_1_234
10
4.2945808
20
21.6848211
11
4.4487902
21
21.6848211
0
LINE
8
DEFAULT_255_1_234
10
4.7981708
20
21.6848211
11
4.9829008
21
20.8840568
0
LINE
8
DEFAULT_255_1_234
10
4.9829008
20
20.8840568
11
5.0053896
21
20.7298474
0
LINE
8
DEFAULT_255_1_234
10
5.0053896
20
20.7298474
11
5.0383198
21
20.8687965
0
LINE
8
DEFAULT_255_1_234
10
5.0383198
20
20.8687965
11
5.2696338
21
21.6848211
0
LINE
8
DEFAULT_255_1_234
10
5.2696338
20
21.6848211
11
5.399748
21
21.6848211
0
LINE
8
DEFAULT_255_1_234
10
5.399748
20
21.6848211
11
5.6254398
21
20.8687965
0
LINE
8
DEFAULT_255_1_234
10
5.6254398
20
20.8687965
11
5.6575668
21
20.7274379
0
LINE
8
DEFAULT_255_1_234
10
5.6575668
20
20.7274379
11
5.6824652
21
20.88486
0
LINE
8
DEFAULT_255_1_234
10
5.6824652
20
20.88486
11
5.8639825
21
21.6848211
0
LINE
8
DEFAULT_255_1_234
10
5.8639825
20
21.6848211
11
6.018995
21
21.6848211
0
LINE
8
DEFAULT_255_1_234
10
6.018995
20
21.6848211
11
5.7354747
21
20.5154
0
LINE
8
DEFAULT_255_1_234
10
5.7354747
20
20.5154
11
5.5949192
21
20.5154
0
LINE
8
DEFAULT_255_1_234
10
5.5949192
20
20.5154
11
5.3539671
21
21.3675674
0
LINE
8
DEFAULT_255_1_234
10
5.3539671
20
21.3675674
11
5.3354941
21
21.4567197
0
LINE
8
DEFAULT_255_1_234
10
5.3354941
20
21.4567197
11
5.3170211
21
21.3675674
0
LINE
8
DEFAULT_255_1_234
10
5.3170211
20
21.3675674
11
5.067234
21
20.5154
0
LINE
8
DEFAULT_255_1_234
10
5.067234
20
20.5154
11
4.9266786
21
20.5154
0
LINE
8
DEFAULT_255_1_234
10
4.9266786
20
20.5154
11
4.6439614
21
21.6848211
0
LINE
8
DEFAULT_255_1_234
10
4.6439614
20
21.6848211
11
4.7981708
21
21.6848211
0
LINE
8
DEFAULT_255_1_234
10
6.2896646
20
21.6848211
11
6.5715786
21
21.2366501
0
LINE
8
DEFAULT_255_1_234
10
6.5715786
20
21.2366501
11
6.8518863
21
21.6848211
0
LINE
8
DEFAULT_255_1_234
10
6.8518863
20
21.6848211
11
7.0334036
21
21.6848211
0
LINE
8
DEFAULT_255_1_234
10
7.0334036
20
21.6848211
11
6.6639436
21
21.1049296
0
LINE
8
DEFAULT_255_1_234
10
6.6639436
20
21.1049296
11
7.0422385
21
20.5154
0
LINE
8
DEFAULT_255_1_234
10
7.0422385
20
20.5154
11
6.8591148
21
20.5154
0
LINE
8
DEFAULT_255_1_234
10
6.8591148
20
20.5154
11
6.5715786
21
20.9716027
0
LINE
8
DEFAULT_255_1_234
10
6.5715786
20
20.9716027
11
6.282436
21
20.5154
0
LINE
8
DEFAULT_255_1_234
10
6.282436
20
20.5154
11
6.1001156
21
20.5154
0
LINE
8
DEFAULT_255_1_234
10
6.1001156
20
20.5154
11
6.4792136
21
21.1049296
0
LINE
8
DEFAULT_255_1_234
10
6.4792136
20
21.1049296
11
6.1089505
21
21.6848211
0
LINE
8
DEFAULT_255_1_234
10
6.1089505
20
21.6848211
11
6.2896646
21
21.6848211
0
LINE
8
DEFAULT_255_1_234
10
7.9490217
20
20.6366792
11
7.9490217
21
20.5154
0
LINE
8
DEFAULT_255_1_234
10
7.9490217
20
20.5154
11
7.1827939
21
20.5154
0
LINE
8
DEFAULT_255_1_234
10
7.1827939
20
20.5154
11
7.1827939
21
20.6222221
0
LINE
8
DEFAULT_255_1_234
10
7.1827939
20
20.6222221
11
7.5875935
21
21.0719995
0
LINE
8
DEFAULT_255_1_234
10
7.3088922
20
21.3402595
11
7.160305
21
21.3402595
0
LINE
8
DEFAULT_255_1_234
10
7.6751395
20
20.9764218
11
7.3619017
21
20.6366792
0
LINE
8
DEFAULT_255_1_234
10
7.3619017
20
20.6366792
11
7.9490217
21
20.6366792
0
ARC
8
DEFAULT_255_1_234
10
6.2385768
20
22.2649527
40
1.8008286
50
318.5132453
51
320.7828378
0
ARC
8
DEFAULT_255_1_234
10
6.7672743
20
21.8346426
40
1.1191493
50
320.7372736
51
323.9737074
0
ARC
8
DEFAULT_255_1_234
10
7.1592599
20
21.5506361
40
0.6350923
50
323.8961724
51
328.6421089
0
ARC
8
DEFAULT_255_1_234
10
7.3639195
20
21.4244031
40
0.3946393
50
328.8299013
51
331.789948
0
ARC
8
DEFAULT_255_1_234
10
7.4636373
20
21.3729509
40
0.2824501
50
331.4255242
51
352.9364833
0
ARC
8
DEFAULT_255_1_234
10
7.4772874
20
21.3698976
40
0.2685315
50
353.2248685
51
0.0169286
0
ARC
8
DEFAULT_255_1_234
10
7.498275
20
21.372195
40
0.2475536
50
359.4866256
51
15.9339782
0
ARC
8
DEFAULT_255_1_234
10
7.5489736
20
21.3858286
40
0.1950618
50
16.1714718
51
43.5284424
0
ARC
8
DEFAULT_255_1_234
10
7.5567044
20
21.3935573
40
0.184134
50
43.4415429
51
83.1661404
0
ARC
8
DEFAULT_255_1_234
10
7.5432963
20
21.3198771
40
0.258926
50
82.160215
51
90.1505798
0
ARC
8
DEFAULT_255_1_234
10
7.540139
20
21.2661865
40
0.3126255
50
89.5460705
51
102.5418777
0
ARC
8
DEFAULT_255_1_234
10
7.5158476
20
21.3692665
40
0.2067346
50
102.1739365
51
129.2061916
0
ARC
8
DEFAULT_255_1_234
10
7.5079548
20
21.3817094
40
0.1921118
50
129.7279328
51
135.7542026
0
ARC
8
DEFAULT_255_1_234
10
7.5201075
20
21.3720045
40
0.2075944
50
136.175737
51
166.3674722
0
ARC
8
DEFAULT_255_1_234
10
7.6207995
20
21.3450182
40
0.3118201
50
165.9092917
51
178.8683903
0
ARC
8
DEFAULT_255_1_234
10
7.7072856
20
21.3403179
40
0.3983935
50
178.438168
51
180.0083905
0
ARC
8
DEFAULT_255_1_234
10
7.5671458
20
21.3442231
40
0.4068601
50
163.2878735
51
180.5581814
0
ARC
8
DEFAULT_255_1_234
10
7.4869719
20
21.366284
40
0.3237344
50
133.454115
51
162.9470031
0
ARC
8
DEFAULT_255_1_234
10
7.5048261
20
21.3473
40
0.349795
50
100.7869394
51
133.4384016
0
ARC
8
DEFAULT_255_1_234
10
7.5396032
20
21.1924319
40
0.5084616
50
89.6605301
51
101.3704185
0
ARC
8
DEFAULT_255_1_234
10
7.5462371
20
21.1985496
40
0.502348
50
78.2171172
51
90.4130393
0
ARC
8
DEFAULT_255_1_234
10
7.5817449
20
21.3609637
40
0.3361092
50
55.9268222
51
78.4888551
0
ARC
8
DEFAULT_255_1_234
10
7.601389
20
21.3948324
40
0.2970617
50
47.9292255
51
55.4054003
0
ARC
8
DEFAULT_255_1_234
10
7.611545
20
21.4051502
40
0.2825983
50
4.3347696
51
48.0560701
0
ARC
8
DEFAULT_255_1_234
10
7.5019844
20
21.3881601
40
0.393225
50
359.925209
51
5.5967654
0
ARC
8
DEFAULT_255_1_234
10
7.5448736
20
21.3937816
40
0.3503892
50
337.8914096
51
358.9967724
0
ARC
8
DEFAULT_255_1_234
10
7.2735148
20
21.4984706
40
0.6412172
50
326.9135351
51
338.3505194
0
ARC
8
DEFAULT_255_1_234
10
6.8749451
20
21.7539284
40
1.1146189
50
319.6472867
51
327.095818
0
ARC
8
DEFAULT_255_1_234
10
6.4916455
20
22.0701
40
1.6114559
50
317.2586784
51
319.9046139
0
LINE
8
DEFAULT_255_1_234
10
8.6630433
20
21.6856243
11
8.689548
21
21.6856243
0
LINE
8
DEFAULT_255_1_234
10
8.689548
20
21.6856243
11
8.689548
21
21.559526
0
LINE
8
DEFAULT_255_1_234
10
8.689548
20
21.559526
11
8.6622401
21
21.559526
0
LINE
8
DEFAULT_255_1_234
10
8.1152787
20
20.9603583
11
8.1152787
21
21.0173836
0
LINE
8
DEFAULT_255_1_234
10
8.264669
20
20.9981075
11
8.264669
21
20.9434917
0
ARC
8
DEFAULT_255_1_234
10
8.6674749
20
21.0597455
40
0.4998079
50
90.6001036
51
104.514704
0
ARC
8
DEFAULT_255_1_234
10
8.6286264
20
21.2042131
40
0.3502176
50
104.2855254
51
133.862935
0
ARC
8
DEFAULT_255_1_234
10
8.6450022
20
21.193383
40
0.3693984
50
134.5302688
51
161.6210873
0
ARC
8
DEFAULT_255_1_234
10
8.810321
20
21.1350895
40
0.5446739
50
161.2849839
51
174.2076652
0
ARC
8
DEFAULT_255_1_234
10
8.9510147
20
21.1156787
40
0.6866274
50
173.7810589
51
174.9254635
0
ARC
8
DEFAULT_255_1_234
10
8.4959979
20
20.9773839
40
0.3033419
50
95.8330959
51
138.9954921
0
ARC
8
DEFAULT_255_1_234
10
8.5183335
20
20.8495375
40
0.4328947
50
89.8753725
51
97.0544009
0
ARC
8
DEFAULT_255_1_234
10
8.5230801
20
20.9330748
40
0.3493769
50
71.6407809
51
90.6240094
0
ARC
8
DEFAULT_255_1_234
10
8.5381375
20
20.9885082
40
0.2920396
50
39.6367836
51
71.019018
0
ARC
8
DEFAULT_255_1_234
10
8.4744848
20
20.9334998
40
0.3761538
50
10.658731
51
39.9043955
0
ARC
8
DEFAULT_255_1_234
10
8.3196931
20
20.8998686
40
0.5345136
50
359.682601
51
11.132623
0
ARC
8
DEFAULT_255_1_234
10
8.3157062
20
20.892801
40
0.5385081
50
347.2486944
51
0.4369317
0
ARC
8
DEFAULT_255_1_234
10
8.4824539
20
20.8526807
40
0.3670249
50
318.1409698
51
347.6118597
0
ARC
8
DEFAULT_255_1_234
10
8.5149532
20
20.8259702
40
0.3250007
50
275.6342139
51
317.8248465
0
ARC
8
DEFAULT_255_1_234
10
8.4928643
20
20.9559219
40
0.4565864
50
269.8874292
51
276.7917694
0
ARC
8
DEFAULT_255_1_234
10
8.4873714
20
20.8533743
40
0.3540676
50
246.9140195
51
270.7437342
0
ARC
8
DEFAULT_255_1_234
10
8.4880104
20
20.8391384
40
0.3412781
50
218.1665114
51
245.878116
0
ARC
8
DEFAULT_255_1_234
10
8.5759565
20
20.9127279
40
0.455911
50
191.4115814
51
218.6077802
0
ARC
8
DEFAULT_255_1_234
10
8.7697654
20
20.9561833
40
0.6545001
50
179.6345085
51
191.7836486
0
ARC
8
DEFAULT_255_1_234
10
9.3279991
20
21.0240697
40
1.2127388
50
171.4525249
51
180.3158839
0
ARC
8
DEFAULT_255_1_234
10
8.8884866
20
21.0924608
40
0.7679464
50
157.9802646
51
171.6246686
0
ARC
8
DEFAULT_255_1_234
10
8.6670887
20
21.1807421
40
0.5296008
50
141.4298019
51
157.854097
0
ARC
8
DEFAULT_255_1_234
10
8.6029208
20
21.2261381
40
0.4511509
50
102.8715806
51
140.8564722
0
ARC
8
DEFAULT_255_1_234
10
8.6676823
20
20.9821552
40
0.7034845
50
90.3778349
51
103.5869322
0
ARC
8
DEFAULT_255_1_234
10
8.49386
20
20.921673
40
0.2370698
50
89.8751008
51
126.2071704
0
ARC
8
DEFAULT_255_1_234
10
8.4984389
20
20.9062303
40
0.2522934
50
124.9745049
51
144.895901
0
ARC
8
DEFAULT_255_1_234
10
8.480858
20
20.920556
40
0.2296779
50
145.2974905
51
160.2660252
0
ARC
8
DEFAULT_255_1_234
10
8.7881119
20
20.9403071
40
0.5234525
50
179.6514266
51
190.2855912
0
ARC
8
DEFAULT_255_1_234
10
8.6187256
20
20.9083786
40
0.3510893
50
190.0945431
51
207.5098196
0
ARC
8
DEFAULT_255_1_234
10
8.5621526
20
20.8814623
40
0.288489
50
207.9583163
51
216.3251085
0
ARC
8
DEFAULT_255_1_234
10
8.5281634
20
20.8535105
40
0.2445587
50
215.7661442
51
232.5456785
0
ARC
8
DEFAULT_255_1_234
10
8.4898616
20
20.8048482
40
0.1826382
50
232.8005391
51
270.6605633
0
ARC
8
DEFAULT_255_1_234
10
8.4944317
20
20.8412612
40
0.2190529
50
269.35537
51
288.4744281
0
ARC
8
DEFAULT_255_1_234
10
8.5037214
20
20.8063118
40
0.1829749
50
289.1833337
51
322.9683818
0
ARC
8
DEFAULT_255_1_234
10
8.4425737
20
20.8545391
40
0.2608399
50
322.6007884
51
346.5182367
0
ARC
8
DEFAULT_255_1_234
10
8.3268333
20
20.8840616
40
0.3802777
50
346.2582162
51
358.7741648
0
ARC
8
DEFAULT_255_1_234
10
8.2250002
20
20.8895965
40
0.4822176
50
358.3755224
51
0.0098023
0
ARC
8
DEFAULT_255_1_234
10
8.3006189
20
20.8923657
40
0.4066078
50
359.6214041
51
11.2839074
0
ARC
8
DEFAULT_255_1_234
10
8.4283336
20
20.9190066
40
0.2761514
50
11.0482309
51
31.8146458
0
ARC
8
DEFAULT_255_1_234
10
8.4592379
20
20.9357584
40
0.2410679
50
32.3035391
51
38.082671
0
ARC
8
DEFAULT_255_1_234
10
8.5013038
20
20.9738662
40
0.1844966
50
36.825067
51
85.7415724
0
ARC
8
DEFAULT_255_1_234
10
8.4945872
20
20.9238301
40
0.2349122
50
85.0140713
51
90.0513278
0
LINE
8
DEFAULT_255_1_234
10
4.5546902
20
29.6223211
11
4.5546902
21
28.4529
0
LINE
8
DEFAULT_255_1_234
10
4.5546902
20
28.4529
11
4.4004808
21
28.4529
0
LINE
8
DEFAULT_255_1_234
10
4.4004808
20
28.4529
11
4.4004808
21
29.6223211
0
LINE
8
DEFAULT_255_1_234
10
4.4004808
20
29.6223211
11
4.5546902
21
29.6223211
0
LINE
8
DEFAULT_255_1_234
10
4.9040708
20
29.6223211
11
5.0888008
21
28.8215568
0
LINE
8
DEFAULT_255_1_234
10
5.0888008
20
28.8215568
11
5.1112896
21
28.6673474
0
LINE
8
DEFAULT_255_1_234
10
5.1112896
20
28.6673474
11
5.1442198
21
28.8062965
0
LINE
8
DEFAULT_255_1_234
10
5.1442198
20
28.8062965
11
5.3755338
21
29.6223211
0
LINE
8
DEFAULT_255_1_234
10
5.3755338
20
29.6223211
11
5.505648
21
29.6223211
0
LINE
8
DEFAULT_255_1_234
10
5.505648
20
29.6223211
11
5.7313398
21
28.8062965
0
LINE
8
DEFAULT_255_1_234
10
5.7313398
20
28.8062965
11
5.7634668
21
28.6649379
0
LINE
8
DEFAULT_255_1_234
10
5.7634668
20
28.6649379
11
5.7883652
21
28.82236
0
LINE
8
DEFAULT_255_1_234
10
5.7883652
20
28.82236
11
5.9698825
21
29.6223211
0
LINE
8
DEFAULT_255_1_234
10
5.9698825
20
29.6223211
11
6.124895
21
29.6223211
0
LINE
8
DEFAULT_255_1_234
10
6.124895
20
29.6223211
11
5.8413747
21
28.4529
0
LINE
8
DEFAULT_255_1_234
10
5.8413747
20
28.4529
11
5.7008192
21
28.4529
0
LINE
8
DEFAULT_255_1_234
10
5.7008192
20
28.4529
11
5.4598671
21
29.3050674
0
LINE
8
DEFAULT_255_1_234
10
5.4598671
20
29.3050674
11
5.4413941
21
29.3942197
0
LINE
8
DEFAULT_255_1_234
10
5.4413941
20
29.3942197
11
5.4229211
21
29.3050674
0
LINE
8
DEFAULT_255_1_234
10
5.4229211
20
29.3050674
11
5.173134
21
28.4529
0
LINE
8
DEFAULT_255_1_234
10
5.173134
20
28.4529
11
5.0325786
21
28.4529
0
LINE
8
DEFAULT_255_1_234
10
5.0325786
20
28.4529
11
4.7498614
21
29.6223211
0
LINE
8
DEFAULT_255_1_234
10
4.7498614
20
29.6223211
11
4.9040708
21
29.6223211
0
LINE
8
DEFAULT_255_1_234
10
6.3955646
20
29.6223211
11
6.6774786
21
29.1741501
0
LINE
8
DEFAULT_255_1_234
10
6.6774786
20
29.1741501
11
6.9577863
21
29.6223211
0
LINE
8
DEFAULT_255_1_234
10
6.9577863
20
29.6223211
11
7.1393036
21
29.6223211
0
LINE
8
DEFAULT_255_1_234
10
7.1393036
20
29.6223211
11
6.7698436
21
29.0424296
0
LINE
8
DEFAULT_255_1_234
10
6.7698436
20
29.0424296
11
7.1481385
21
28.4529
0
LINE
8
DEFAULT_255_1_234
10
7.1481385
20
28.4529
11
6.9650148
21
28.4529
0
LINE
8
DEFAULT_255_1_234
10
6.9650148
20
28.4529
11
6.6774786
21
28.9091027
0
LINE
8
DEFAULT_255_1_234
10
6.6774786
20
28.9091027
11
6.388336
21
28.4529
0
LINE
8
DEFAULT_255_1_234
10
6.388336
20
28.4529
11
6.2060156
21
28.4529
0
LINE
8
DEFAULT_255_1_234
10
6.2060156
20
28.4529
11
6.5851136
21
29.0424296
0
LINE
8
DEFAULT_255_1_234
10
6.5851136
20
29.0424296
11
6.2148505
21
29.6223211
0
LINE
8
DEFAULT_255_1_234
10
6.2148505
20
29.6223211
11
6.3955646
21
29.6223211
0
LINE
8
DEFAULT_255_1_234
10
8.0549217
20
28.5741792
11
8.0549217
21
28.4529
0
LINE
8
DEFAULT_255_1_234
10
8.0549217
20
28.4529
11
7.2886939
21
28.4529
0
LINE
8
DEFAULT_255_1_234
10
7.2886939
20
28.4529
11
7.2886939
21
28.5597221
0
LINE
8
DEFAULT_255_1_234
10
7.2886939
20
28.5597221
11
7.6934935
21
29.0094995
0
LINE
8
DEFAULT_255_1_234
10
7.4147922
20
29.2777595
11
7.266205
21
29.2777595
0
LINE
8
DEFAULT_255_1_234
10
7.7810395
20
28.9139218
11
7.4678017
21
28.5741792
0
LINE
8
DEFAULT_255_1_234
10
7.4678017
20
28.5741792
11
8.0549217
21
28.5741792
0
ARC
8
DEFAULT_255_1_234
10
6.3444768
20
30.2024527
40
1.8008286
50
318.5132453
51
320.7828378
0
ARC
8
DEFAULT_255_1_234
10
6.8731743
20
29.7721426
40
1.1191493
50
320.7372736
51
323.9737074
0
ARC
8
DEFAULT_255_1_234
10
7.2651599
20
29.4881361
40
0.6350923
50
323.8961724
51
328.6421089
0
ARC
8
DEFAULT_255_1_234
10
7.4698195
20
29.3619031
40
0.3946393
50
328.8299013
51
331.789948
0
ARC
8
DEFAULT_255_1_234
10
7.5695373
20
29.3104509
40
0.2824501
50
331.4255242
51
352.9364833
0
ARC
8
DEFAULT_255_1_234
10
7.5831874
20
29.3073976
40
0.2685315
50
353.2248685
51
0.0169286
0
ARC
8
DEFAULT_255_1_234
10
7.604175
20
29.309695
40
0.2475536
50
359.4866256
51
15.9339782
0
ARC
8
DEFAULT_255_1_234
10
7.6548736
20
29.3233286
40
0.1950618
50
16.1714718
51
43.5284424
0
ARC
8
DEFAULT_255_1_234
10
7.6626044
20
29.3310573
40
0.184134
50
43.4415429
51
83.1661404
0
ARC
8
DEFAULT_255_1_234
10
7.6491963
20
29.2573771
40
0.258926
50
82.160215
51
90.1505798
0
ARC
8
DEFAULT_255_1_234
10
7.646039
20
29.2036865
40
0.3126255
50
89.5460705
51
102.5418777
0
ARC
8
DEFAULT_255_1_234
10
7.6217476
20
29.3067665
40
0.2067346
50
102.1739365
51
129.2061916
0
ARC
8
DEFAULT_255_1_234
10
7.6138548
20
29.3192094
40
0.1921118
50
129.7279328
51
135.7542026
0
ARC
8
DEFAULT_255_1_234
10
7.6260075
20
29.3095045
40
0.2075944
50
136.175737
51
166.3674722
0
ARC
8
DEFAULT_255_1_234
10
7.7266995
20
29.2825182
40
0.3118201
50
165.9092917
51
178.8683903
0
ARC
8
DEFAULT_255_1_234
10
7.8131856
20
29.2778179
40
0.3983935
50
178.438168
51
180.0083905
0
ARC
8
DEFAULT_255_1_234
10
7.6730458
20
29.2817231
40
0.4068601
50
163.2878735
51
180.5581814
0
ARC
8
DEFAULT_255_1_234
10
7.5928719
20
29.303784
40
0.3237344
50
133.454115
51
162.9470031
0
ARC
8
DEFAULT_255_1_234
10
7.6107261
20
29.2848
40
0.349795
50
100.7869394
51
133.4384016
0
ARC
8
DEFAULT_255_1_234
10
7.6455032
20
29.1299319
40
0.5084616
50
89.6605301
51
101.3704185
0
ARC
8
DEFAULT_255_1_234
10
7.6521371
20
29.1360496
40
0.502348
50
78.2171172
51
90.4130393
0
ARC
8
DEFAULT_255_1_234
10
7.6876449
20
29.2984637
40
0.3361092
50
55.9268222
51
78.4888551
0
ARC
8
DEFAULT_255_1_234
10
7.707289
20
29.3323324
40
0.2970617
50
47.9292255
51
55.4054003
0
ARC
8
DEFAULT_255_1_234
10
7.717445
20
29.3426502
40
0.2825983
50
4.3347696
51
48.0560701
0
ARC
8
DEFAULT_255_1_234
10
7.6078844
20
29.3256601
40
0.393225
50
359.925209
51
5.5967654
0
ARC
8
DEFAULT_255_1_234
10
7.6507736
20
29.3312816
40
0.3503892
50
337.8914096
51
358.9967724
0
ARC
8
DEFAULT_255_1_234
10
7.3794148
20
29.4359706
40
0.6412172
50
326.9135351
51
338.3505194
0
ARC
8
DEFAULT_255_1_234
10
6.9808451
20
29.6914284
40
1.1146189
50
319.6472867
51
327.095818
0
ARC
8
DEFAULT_255_1_234
10
6.5975455
20
30.0076
40
1.6114559
50
317.2586784
51
319.9046139
0
LINE
8
DEFAULT_255_1_234
10
8.8396226
20
29.6223211
11
8.8396226
21
28.845652
0
LINE
8
DEFAULT_255_1_234
10
8.8396226
20
28.845652
11
9.0018637
21
28.845652
0
LINE
8
DEFAULT_255_1_234
10
9.0018637
20
28.845652
11
9.0018637
21
28.7243728
0
LINE
8
DEFAULT_255_1_234
10
9.0018637
20
28.7243728
11
8.8396226
21
28.7243728
0
LINE
8
DEFAULT_255_1_234
10
8.8396226
20
28.7243728
11
8.8396226
21
28.4529
0
LINE
8
DEFAULT_255_1_234
10
8.8396226
20
28.4529
11
8.6902322
21
28.4529
0
LINE
8
DEFAULT_255_1_234
10
8.6902322
20
28.4529
11
8.6902322
21
28.7243728
0
LINE
8
DEFAULT_255_1_234
10
8.6902322
20
28.7243728
11
8.157728
21
28.7243728
0
LINE
8
DEFAULT_255_1_234
10
8.157728
20
28.7243728
11
8.157728
21
28.8119187
0
LINE
8
DEFAULT_255_1_234
10
8.157728
20
28.8119187
11
8.6813973
21
29.6223211
0
LINE
8
DEFAULT_255_1_234
10
8.6813973
20
29.6223211
11
8.8396226
21
29.6223211
0
LINE
8
DEFAULT_255_1_234
10
8.6725624
20
29.3869912
11
8.3263945
21
28.845652
0
LINE
8
DEFAULT_255_1_234
10
8.3263945
20
28.845652
11
8.6902322
21
28.845652
0
LINE
8
DEFAULT_255_1_234
10
8.6902322
20
28.845652
11
8.6902322
21
29.4191181
0
LINE
8
DEFAULT_255_1_234
10
8.6902322
20
29.4191181
11
8.6725624
21
29.3869912
0
LINE
8
DEFAULT_255_1_234
10
4.4487902
20
37.5598211
11
4.4487902
21
36.3904
0
LINE
8
DEFAULT_255_1_234
10
4.4487902
20
36.3904
11
4.2945808
21
36.3904
0
LINE
8
DEFAULT_255_1_234
10
4.2945808
20
36.3904
11
4.2945808
21
37.5598211
0
LINE
8
DEFAULT_255_1_234
10
4.2945808
20
37.5598211
11
4.4487902
21
37.5598211
0
LINE
8
DEFAULT_255_1_234
10
4.7981708
20
37.5598211
11
4.9829008
21
36.7590568
0
LINE
8
DEFAULT_255_1_234
10
4.9829008
20
36.7590568
11
5.0053896
21
36.6048474
0
LINE
8
DEFAULT_255_1_234
10
5.0053896
20
36.6048474
11
5.0383198
21
36.7437965
0
LINE
8
DEFAULT_255_1_234
10
5.0383198
20
36.7437965
11
5.2696338
21
37.5598211
0
LINE
8
DEFAULT_255_1_234
10
5.2696338
20
37.5598211
11
5.399748
21
37.5598211
0
LINE
8
DEFAULT_255_1_234
10
5.399748
20
37.5598211
11
5.6254398
21
36.7437965
0
LINE
8
DEFAULT_255_1_234
10
5.6254398
20
36.7437965
11
5.6575668
21
36.6024379
0
LINE
8
DEFAULT_255_1_234
10
5.6575668
20
36.6024379
11
5.6824652
21
36.75986
0
LINE
8
DEFAULT_255_1_234
10
5.6824652
20
36.75986
11
5.8639825
21
37.5598211
0
LINE
8
DEFAULT_255_1_234
10
5.8639825
20
37.5598211
11
6.018995
21
37.5598211
0
LINE
8
DEFAULT_255_1_234
10
6.018995
20
37.5598211
11
5.7354747
21
36.3904
0
LINE
8
DEFAULT_255_1_234
10
5.7354747
20
36.3904
11
5.5949192
21
36.3904
0
LINE
8
DEFAULT_255_1_234
10
5.5949192
20
36.3904
11
5.3539671
21
37.2425674
0
LINE
8
DEFAULT_255_1_234
10
5.3539671
20
37.2425674
11
5.3354941
21
37.3317197
0
LINE
8
DEFAULT_255_1_234
10
5.3354941
20
37.3317197
11
5.3170211
21
37.2425674
0
LINE
8
DEFAULT_255_1_234
10
5.3170211
20
37.2425674
11
5.067234
21
36.3904
0
LINE
8
DEFAULT_255_1_234
10
5.067234
20
36.3904
11
4.9266786
21
36.3904
0
LINE
8
DEFAULT_255_1_234
10
4.9266786
20
36.3904
11
4.6439614
21
37.5598211
0
LINE
8
DEFAULT_255_1_234
10
4.6439614
20
37.5598211
11
4.7981708
21
37.5598211
0
LINE
8
DEFAULT_255_1_234
10
6.2896646
20
37.5598211
11
6.5715786
21
37.1116501
0
LINE
8
DEFAULT_255_1_234
10
6.5715786
20
37.1116501
11
6.8518863
21
37.5598211
0
LINE
8
DEFAULT_255_1_234
10
6.8518863
20
37.5598211
11
7.0334036
21
37.5598211
0
LINE
8
DEFAULT_255_1_234
10
7.0334036
20
37.5598211
11
6.6639436
21
36.9799296
0
LINE
8
DEFAULT_255_1_234
10
6.6639436
20
36.9799296
11
7.0422385
21
36.3904
0
LINE
8
DEFAULT_255_1_234
10
7.0422385
20
36.3904
11
6.8591148
21
36.3904
0
LINE
8
DEFAULT_255_1_234
10
6.8591148
20
36.3904
11
6.5715786
21
36.8466027
0
LINE
8
DEFAULT_255_1_234
10
6.5715786
20
36.8466027
11
6.282436
21
36.3904
0
LINE
8
DEFAULT_255_1_234
10
6.282436
20
36.3904
11
6.1001156
21
36.3904
0
LINE
8
DEFAULT_255_1_234
10
6.1001156
20
36.3904
11
6.4792136
21
36.9799296
0
LINE
8
DEFAULT_255_1_234
10
6.4792136
20
36.9799296
11
6.1089505
21
37.5598211
0
LINE
8
DEFAULT_255_1_234
10
6.1089505
20
37.5598211
11
6.2896646
21
37.5598211
0
LINE
8
DEFAULT_255_1_234
10
7.9490217
20
36.5116792
11
7.9490217
21
36.3904
0
LINE
8
DEFAULT_255_1_234
10
7.9490217
20
36.3904
11
7.1827939
21
36.3904
0
LINE
8
DEFAULT_255_1_234
10
7.1827939
20
36.3904
11
7.1827939
21
36.4972221
0
LINE
8
DEFAULT_255_1_234
10
7.1827939
20
36.4972221
11
7.5875935
21
36.9469995
0
LINE
8
DEFAULT_255_1_234
10
7.3088922
20
37.2152595
11
7.160305
21
37.2152595
0
LINE
8
DEFAULT_255_1_234
10
7.6751395
20
36.8514218
11
7.3619017
21
36.5116792
0
LINE
8
DEFAULT_255_1_234
10
7.3619017
20
36.5116792
11
7.9490217
21
36.5116792
0
ARC
8
DEFAULT_255_1_234
10
6.2385768
20
38.1399527
40
1.8008286
50
318.5132453
51
320.7828378
0
ARC
8
DEFAULT_255_1_234
10
6.7672743
20
37.7096426
40
1.1191493
50
320.7372736
51
323.9737074
0
ARC
8
DEFAULT_255_1_234
10
7.1592599
20
37.4256361
40
0.6350923
50
323.8961724
51
328.6421089
0
ARC
8
DEFAULT_255_1_234
10
7.3639195
20
37.2994031
40
0.3946393
50
328.8299013
51
331.789948
0
ARC
8
DEFAULT_255_1_234
10
7.4636373
20
37.2479509
40
0.2824501
50
331.4255242
51
352.9364833
0
ARC
8
DEFAULT_255_1_234
10
7.4772874
20
37.2448976
40
0.2685315
50
353.2248685
51
0.0169286
0
ARC
8
DEFAULT_255_1_234
10
7.498275
20
37.247195
40
0.2475536
50
359.4866256
51
15.9339782
0
ARC
8
DEFAULT_255_1_234
10
7.5489736
20
37.2608286
40
0.1950618
50
16.1714718
51
43.5284424
0
ARC
8
DEFAULT_255_1_234
10
7.5567044
20
37.2685573
40
0.184134
50
43.4415429
51
83.1661404
0
ARC
8
DEFAULT_255_1_234
10
7.5432963
20
37.1948771
40
0.258926
50
82.160215
51
90.1505798
0
ARC
8
DEFAULT_255_1_234
10
7.540139
20
37.1411865
40
0.3126255
50
89.5460705
51
102.5418777
0
ARC
8
DEFAULT_255_1_234
10
7.5158476
20
37.2442665
40
0.2067346
50
102.1739365
51
129.2061916
0
ARC
8
DEFAULT_255_1_234
10
7.5079548
20
37.2567094
40
0.1921118
50
129.7279328
51
135.7542026
0
ARC
8
DEFAULT_255_1_234
10
7.5201075
20
37.2470045
40
0.2075944
50
136.175737
51
166.3674722
0
ARC
8
DEFAULT_255_1_234
10
7.6207995
20
37.2200182
40
0.3118201
50
165.9092917
51
178.8683903
0
ARC
8
DEFAULT_255_1_234
10
7.7072856
20
37.2153179
40
0.3983935
50
178.438168
51
180.0083905
0
ARC
8
DEFAULT_255_1_234
10
7.5671458
20
37.2192231
40
0.4068601
50
163.2878735
51
180.5581814
0
ARC
8
DEFAULT_255_1_234
10
7.4869719
20
37.241284
40
0.3237344
50
133.454115
51
162.9470031
0
ARC
8
DEFAULT_255_1_234
10
7.5048261
20
37.2223
40
0.349795
50
100.7869394
51
133.4384016
0
ARC
8
DEFAULT_255_1_234
10
7.5396032
20
37.0674319
40
0.5084616
50
89.6605301
51
101.3704185
0
ARC
8
DEFAULT_255_1_234
10
7.5462371
20
37.0735496
40
0.502348
50
78.2171172
51
90.4130393
0
ARC
8
DEFAULT_255_1_234
10
7.5817449
20
37.2359637
40
0.3361092
50
55.9268222
51
78.4888551
0
ARC
8
DEFAULT_255_1_234
10
7.601389
20
37.2698324
40
0.2970617
50
47.9292255
51
55.4054003
0
ARC
8
DEFAULT_255_1_234
10
7.611545
20
37.2801502
40
0.2825983
50
4.3347696
51
48.0560701
0
ARC
8
DEFAULT_255_1_234
10
7.5019844
20
37.2631601
40
0.393225
50
359.925209
51
5.5967654
0
ARC
8
DEFAULT_255_1_234
10
7.5448736
20
37.2687816
40
0.3503892
50
337.8914096
51
358.9967724
0
ARC
8
DEFAULT_255_1_234
10
7.2735148
20
37.3734706
40
0.6412172
50
326.9135351
51
338.3505194
0
ARC
8
DEFAULT_255_1_234
10
6.8749451
20
37.6289284
40
1.1146189
50
319.6472867
51
327.095818
0
ARC
8
DEFAULT_255_1_234
10
6.4916455
20
37.9451
40
1.6114559
50
317.2586784
51
319.9046139
0
LINE
8
DEFAULT_255_1_234
10
8.8726716
20
36.5116792
11
8.8726716
21
36.3904
0
LINE
8
DEFAULT_255_1_234
10
8.8726716
20
36.3904
11
8.1064438
21
36.3904
0
LINE
8
DEFAULT_255_1_234
10
8.1064438
20
36.3904
11
8.1064438
21
36.4972221
0
LINE
8
DEFAULT_255_1_234
10
8.1064438
20
36.4972221
11
8.5112434
21
36.9469995
0
LINE
8
DEFAULT_255_1_234
10
8.2325421
20
37.2152595
11
8.0839549
21
37.2152595
0
LINE
8
DEFAULT_255_1_234
10
8.5987894
20
36.8514218
11
8.2855516
21
36.5116792
0
LINE
8
DEFAULT_255_1_234
10
8.2855516
20
36.5116792
11
8.8726716
21
36.5116792
0
ARC
8
DEFAULT_255_1_234
10
7.1622267
20
38.1399527
40
1.8008286
50
318.5132453
51
320.7828378
0
ARC
8
DEFAULT_255_1_234
10
7.6909242
20
37.7096426
40
1.1191493
50
320.7372736
51
323.9737074
0
ARC
8
DEFAULT_255_1_234
10
8.0829098
20
37.4256361
40
0.6350923
50
323.8961724
51
328.6421089
0
ARC
8
DEFAULT_255_1_234
10
8.2875694
20
37.2994031
40
0.3946393
50
328.8299013
51
331.789948
0
ARC
8
DEFAULT_255_1_234
10
8.3872872
20
37.2479509
40
0.2824501
50
331.4255242
51
352.9364833
0
ARC
8
DEFAULT_255_1_234
10
8.4009373
20
37.2448976
40
0.2685315
50
353.2248685
51
0.0169286
0
ARC
8
DEFAULT_255_1_234
10
8.4219249
20
37.247195
40
0.2475536
50
359.4866256
51
15.9339782
0
ARC
8
DEFAULT_255_1_234
10
8.4726235
20
37.2608286
40
0.1950618
50
16.1714718
51
43.5284424
0
ARC
8
DEFAULT_255_1_234
10
8.4803543
20
37.2685573
40
0.184134
50
43.4415429
51
83.1661404
0
ARC
8
DEFAULT_255_1_234
10
8.4669462
20
37.1948771
40
0.258926
50
82.160215
51
90.1505798
0
ARC
8
DEFAULT_255_1_234
10
8.4637889
20
37.1411865
40
0.3126255
50
89.5460705
51
102.5418777
0
ARC
8
DEFAULT_255_1_234
10
8.4394975
20
37.2442665
40
0.2067346
50
102.1739365
51
129.2061916
0
ARC
8
DEFAULT_255_1_234
10
8.4316047
20
37.2567094
40
0.1921118
50
129.7279328
51
135.7542026
0
ARC
8
DEFAULT_255_1_234
10
8.4437574
20
37.2470045
40
0.2075944
50
136.175737
51
166.3674722
0
ARC
8
DEFAULT_255_1_234
10
8.5444494
20
37.2200182
40
0.3118201
50
165.9092917
51
178.8683903
0
ARC
8
DEFAULT_255_1_234
10
8.6309355
20
37.2153179
40
0.3983935
50
178.438168
51
180.0083905
0
ARC
8
DEFAULT_255_1_234
10
8.4907957
20
37.2192231
40
0.4068601
50
163.2878735
51
180.5581814
0
ARC
8
DEFAULT_255_1_234
10
8.4106218
20
37.241284
40
0.3237344
50
133.454115
51
162.9470031
0
ARC
8
DEFAULT_255_1_234
10
8.428476
20
37.2223
40
0.349795
50
100.7869394
51
133.4384016
0
ARC
8
DEFAULT_255_1_234
10
8.4632531
20
37.0674319
40
0.5084616
50
89.6605301
51
101.3704185
0
ARC
8
DEFAULT_255_1_234
10
8.469887
20
37.0735496
40
0.502348
50
78.2171172
51
90.4130393
0
ARC
8
DEFAULT_255_1_234
10
8.5053948
20
37.2359637
40
0.3361092
50
55.9268222
51
78.4888551
0
ARC
8
DEFAULT_255_1_234
10
8.5250389
20
37.2698324
40
0.2970617
50
47.9292255
51
55.4054003
0
ARC
8
DEFAULT_255_1_234
10
8.5351949
20
37.2801502
40
0.2825983
50
4.3347696
51
48.0560701
0
ARC
8
DEFAULT_255_1_234
10
8.4256343
20
37.2631601
40
0.393225
50
359.925209
51
5.5967654
0
ARC
8
DEFAULT_255_1_234
10
8.4685235
20
37.2687816
40
0.3503892
50
337.8914096
51
358.9967724
0
ARC
8
DEFAULT_255_1_234
10
8.1971647
20
37.3734706
40
0.6412172
50
326.9135351
51
338.3505194
0
ARC
8
DEFAULT_255_1_234
10
7.798595
20
37.6289284
40
1.1146189
50
319.6472867
51
327.095818
0
ARC
8
DEFAULT_255_1_234
10
7.4152954
20
37.9451
40
1.6114559
50
317.2586784
51
319.9046139
0
LINE
8
DEFAULT_255_1_234
10
4.4487902
20
45.4973211
11
4.4487902
21
44.3279
0
LINE
8
DEFAULT_255_1_234
10
4.4487902
20
44.3279
11
4.2945808
21
44.3279
0
LINE
8
DEFAULT_255_1_234
10
4.2945808
20
44.3279
11
4.2945808
21
45.4973211
0
LINE
8
DEFAULT_255_1_234
10
4.2945808
20
45.4973211
11
4.4487902
21
45.4973211
0
LINE
8
DEFAULT_255_1_234
10
4.7981708
20
45.4973211
11
4.9829008
21
44.6965568
0
LINE
8
DEFAULT_255_1_234
10
4.9829008
20
44.6965568
11
5.0053896
21
44.5423474
0
LINE
8
DEFAULT_255_1_234
10
5.0053896
20
44.5423474
11
5.0383198
21
44.6812965
0
LINE
8
DEFAULT_255_1_234
10
5.0383198
20
44.6812965
11
5.2696338
21
45.4973211
0
LINE
8
DEFAULT_255_1_234
10
5.2696338
20
45.4973211
11
5.399748
21
45.4973211
0
LINE
8
DEFAULT_255_1_234
10
5.399748
20
45.4973211
11
5.6254398
21
44.6812965
0
LINE
8
DEFAULT_255_1_234
10
5.6254398
20
44.6812965
11
5.6575668
21
44.5399379
0
LINE
8
DEFAULT_255_1_234
10
5.6575668
20
44.5399379
11
5.6824652
21
44.69736
0
LINE
8
DEFAULT_255_1_234
10
5.6824652
20
44.69736
11
5.8639825
21
45.4973211
0
LINE
8
DEFAULT_255_1_234
10
5.8639825
20
45.4973211
11
6.018995
21
45.4973211
0
LINE
8
DEFAULT_255_1_234
10
6.018995
20
45.4973211
11
5.7354747
21
44.3279
0
LINE
8
DEFAULT_255_1_234
10
5.7354747
20
44.3279
11
5.5949192
21
44.3279
0
LINE
8
DEFAULT_255_1_234
10
5.5949192
20
44.3279
11
5.3539671
21
45.1800674
0
LINE
8
DEFAULT_255_1_234
10
5.3539671
20
45.1800674
11
5.3354941
21
45.2692197
0
LINE
8
DEFAULT_255_1_234
10
5.3354941
20
45.2692197
11
5.3170211
21
45.1800674
0
LINE
8
DEFAULT_255_1_234
10
5.3170211
20
45.1800674
11
5.067234
21
44.3279
0
LINE
8
DEFAULT_255_1_234
10
5.067234
20
44.3279
11
4.9266786
21
44.3279
0
LINE
8
DEFAULT_255_1_234
10
4.9266786
20
44.3279
11
4.6439614
21
45.4973211
0
LINE
8
DEFAULT_255_1_234
10
4.6439614
20
45.4973211
11
4.7981708
21
45.4973211
0
LINE
8
DEFAULT_255_1_234
10
6.2896646
20
45.4973211
11
6.5715786
21
45.0491501
0
LINE
8
DEFAULT_255_1_234
10
6.5715786
20
45.0491501
11
6.8518863
21
45.4973211
0
LINE
8
DEFAULT_255_1_234
10
6.8518863
20
45.4973211
11
7.0334036
21
45.4973211
0
LINE
8
DEFAULT_255_1_234
10
7.0334036
20
45.4973211
11
6.6639436
21
44.9174296
0
LINE
8
DEFAULT_255_1_234
10
6.6639436
20
44.9174296
11
7.0422385
21
44.3279
0
LINE
8
DEFAULT_255_1_234
10
7.0422385
20
44.3279
11
6.8591148
21
44.3279
0
LINE
8
DEFAULT_255_1_234
10
6.8591148
20
44.3279
11
6.5715786
21
44.7841027
0
LINE
8
DEFAULT_255_1_234
10
6.5715786
20
44.7841027
11
6.282436
21
44.3279
0
LINE
8
DEFAULT_255_1_234
10
6.282436
20
44.3279
11
6.1001156
21
44.3279
0
LINE
8
DEFAULT_255_1_234
10
6.1001156
20
44.3279
11
6.4792136
21
44.9174296
0
LINE
8
DEFAULT_255_1_234
10
6.4792136
20
44.9174296
11
6.1089505
21
45.4973211
0
LINE
8
DEFAULT_255_1_234
10
6.1089505
20
45.4973211
11
6.2896646
21
45.4973211
0
LINE
8
DEFAULT_255_1_234
10
7.9490217
20
44.4491792
11
7.9490217
21
44.3279
0
LINE
8
DEFAULT_255_1_234
10
7.9490217
20
44.3279
11
7.1827939
21
44.3279
0
LINE
8
DEFAULT_255_1_234
10
7.1827939
20
44.3279
11
7.1827939
21
44.4347221
0
LINE
8
DEFAULT_255_1_234
10
7.1827939
20
44.4347221
11
7.5875935
21
44.8844995
0
LINE
8
DEFAULT_255_1_234
10
7.3088922
20
45.1527595
11
7.160305
21
45.1527595
0
LINE
8
DEFAULT_255_1_234
10
7.6751395
20
44.7889218
11
7.3619017
21
44.4491792
0
LINE
8
DEFAULT_255_1_234
10
7.3619017
20
44.4491792
11
7.9490217
21
44.4491792
0
ARC
8
DEFAULT_255_1_234
10
6.2385768
20
46.0774527
40
1.8008286
50
318.5132453
51
320.7828378
0
ARC
8
DEFAULT_255_1_234
10
6.7672743
20
45.6471426
40
1.1191493
50
320.7372736
51
323.9737074
0
ARC
8
DEFAULT_255_1_234
10
7.1592599
20
45.3631361
40
0.6350923
50
323.8961724
51
328.6421089
0
ARC
8
DEFAULT_255_1_234
10
7.3639195
20
45.2369031
40
0.3946393
50
328.8299013
51
331.789948
0
ARC
8
DEFAULT_255_1_234
10
7.4636373
20
45.1854509
40
0.2824501
50
331.4255242
51
352.9364833
0
ARC
8
DEFAULT_255_1_234
10
7.4772874
20
45.1823976
40
0.2685315
50
353.2248685
51
0.0169286
0
ARC
8
DEFAULT_255_1_234
10
7.498275
20
45.184695
40
0.2475536
50
359.4866256
51
15.9339782
0
ARC
8
DEFAULT_255_1_234
10
7.5489736
20
45.1983286
40
0.1950618
50
16.1714718
51
43.5284424
0
ARC
8
DEFAULT_255_1_234
10
7.5567044
20
45.2060573
40
0.184134
50
43.4415429
51
83.1661404
0
ARC
8
DEFAULT_255_1_234
10
7.5432963
20
45.1323771
40
0.258926
50
82.160215
51
90.1505798
0
ARC
8
DEFAULT_255_1_234
10
7.540139
20
45.0786865
40
0.3126255
50
89.5460705
51
102.5418777
0
ARC
8
DEFAULT_255_1_234
10
7.5158476
20
45.1817665
40
0.2067346
50
102.1739365
51
129.2061916
0
ARC
8
DEFAULT_255_1_234
10
7.5079548
20
45.1942094
40
0.1921118
50
129.7279328
51
135.7542026
0
ARC
8
DEFAULT_255_1_234
10
7.5201075
20
45.1845045
40
0.2075944
50
136.175737
51
166.3674722
0
ARC
8
DEFAULT_255_1_234
10
7.6207995
20
45.1575182
40
0.3118201
50
165.9092917
51
178.8683903
0
ARC
8
DEFAULT_255_1_234
10
7.7072856
20
45.1528179
40
0.3983935
50
178.438168
51
180.0083905
0
ARC
8
DEFAULT_255_1_234
10
7.5671458
20
45.1567231
40
0.4068601
50
163.2878735
51
180.5581814
0
ARC
8
DEFAULT_255_1_234
10
7.4869719
20
45.178784
40
0.3237344
50
133.454115
51
162.9470031
0
ARC
8
DEFAULT_255_1_234
10
7.5048261
20
45.1598
40
0.349795
50
100.7869394
51
133.4384016
0
ARC
8
DEFAULT_255_1_234
10
7.5396032
20
45.0049319
40
0.5084616
50
89.6605301
51
101.3704185
0
ARC
8
DEFAULT_255_1_234
10
7.5462371
20
45.0110496
40
0.502348
50
78.2171172
51
90.4130393
0
ARC
8
DEFAULT_255_1_234
10
7.5817449
20
45.1734637
40
0.3361092
50
55.9268222
51
78.4888551
0
ARC
8
DEFAULT_255_1_234
10
7.601389
20
45.2073324
40
0.2970617
50
47.9292255
51
55.4054003
0
ARC
8
DEFAULT_255_1_234
10
7.611545
20
45.2176502
40
0.2825983
50
4.3347696
51
48.0560701
0
ARC
8
DEFAULT_255_1_234
10
7.5019844
20
45.2006601
40
0.393225
50
359.925209
51
5.5967654
0
ARC
8
DEFAULT_255_1_234
10
7.5448736
20
45.2062816
40
0.3503892
50
337.8914096
51
358.9967724
0
ARC
8
DEFAULT_255_1_234
10
7.2735148
20
45.3109706
40
0.6412172
50
326.9135351
51
338.3505194
0
ARC
8
DEFAULT_255_1_234
10
6.8749451
20
45.5664284
40
1.1146189
50
319.6472867
51
327.095818
0
ARC
8
DEFAULT_255_1_234
10
6.4916455
20
45.8826
40
1.6114559
50
317.2586784
51
319.9046139
0
LINE
8
DEFAULT_255_1_234
10
8.8397415
20
45.0194327
11
8.8397415
21
44.8266709
0
LINE
8
DEFAULT_255_1_234
10
8.1016248
20
44.8065916
11
8.1016248
21
45.0049755
0
LINE
8
DEFAULT_255_1_234
10
8.6911543
20
44.7865123
11
8.6911543
21
45.0298739
0
LINE
8
DEFAULT_255_1_234
10
8.2502119
20
45.0411184
11
8.2502119
21
44.8033789
0
ARC
8
DEFAULT_255_1_234
10
7.6150305
20
44.8217805
40
1.2247208
50
353.8441951
51
0.2287902
0
ARC
8
DEFAULT_255_1_234
10
8.0789808
20
44.7699806
40
0.7578929
50
344.4934747
51
353.9765454
0
ARC
8
DEFAULT_255_1_234
10
8.3782398
20
44.6848981
40
0.4467846
50
329.2803592
51
344.7472793
0
ARC
8
DEFAULT_255_1_234
10
8.4775223
20
44.6304018
40
0.3336173
50
324.9352394
51
328.6160465
0
ARC
8
DEFAULT_255_1_234
10
8.5152332
20
44.6040427
40
0.2876076
50
280.580143
51
324.9173126
0
ARC
8
DEFAULT_255_1_234
10
8.4751125
20
44.7711099
40
0.4592847
50
269.5977311
51
281.6734359
0
ARC
8
DEFAULT_255_1_234
10
8.467903
20
44.7591173
40
0.4472986
50
256.6228859
51
270.51044
0
ARC
8
DEFAULT_255_1_234
10
8.4277008
20
44.6042877
40
0.2873874
50
215.8618325
51
257.2788573
0
ARC
8
DEFAULT_255_1_234
10
8.529804
20
44.6727977
40
0.4102928
50
197.9693508
51
215.2623606
0
ARC
8
DEFAULT_255_1_234
10
8.7783155
20
44.7566709
40
0.6725652
50
187.8816417
51
198.2346507
0
ARC
8
DEFAULT_255_1_234
10
9.1741364
20
44.8138079
40
1.0724845
50
180.8976217
51
188.0055519
0
ARC
8
DEFAULT_255_1_234
10
9.4541552
20
44.8241777
40
1.3526448
50
180.7449369
51
181.1510016
0
ARC
8
DEFAULT_255_1_234
10
9.2964281
20
45.0098042
40
1.1948131
50
173.7675579
51
180.231553
0
ARC
8
DEFAULT_255_1_234
10
8.8446427
20
45.0608666
40
0.7401564
50
164.3058563
51
173.9002247
0
ARC
8
DEFAULT_255_1_234
10
8.5534496
20
45.1447656
40
0.4371288
50
148.7922025
51
164.568378
0
ARC
8
DEFAULT_255_1_234
10
8.4582948
20
45.1978929
40
0.3282386
50
144.5883898
51
148.1176286
0
ARC
8
DEFAULT_255_1_234
10
8.4239846
20
45.2218315
40
0.2864044
50
101.6440918
51
144.514236
0
ARC
8
DEFAULT_255_1_234
10
8.4664913
20
45.0529069
40
0.4604934
50
89.5284041
51
102.5819763
0
ARC
8
DEFAULT_255_1_234
10
8.4744001
20
45.0490018
40
0.464401
50
77.0437873
51
90.5081339
0
ARC
8
DEFAULT_255_1_234
10
8.5146002
20
45.2132615
40
0.2953195
50
48.2778575
51
77.4994676
0
ARC
8
DEFAULT_255_1_234
10
8.5218634
20
45.2261746
40
0.2808655
50
36.3142134
51
47.6305865
0
ARC
8
DEFAULT_255_1_234
10
8.4349941
20
45.1676515
40
0.3855453
50
18.2931786
51
35.6769206
0
ARC
8
DEFAULT_255_1_234
10
8.18067
20
45.0803593
40
0.654423
50
8.024666
51
18.5605216
0
ARC
8
DEFAULT_255_1_234
10
7.764362
20
45.0188792
40
1.0752407
50
1.1274072
51
8.1718305
0
ARC
8
DEFAULT_255_1_234
10
7.440781
20
45.0061885
40
1.3990231
50
0.5424119
51
1.3863029
0
ARC
8
DEFAULT_255_1_234
10
7.6229188
20
45.0334342
40
1.0682415
50
359.8090433
51
4.9407866
0
ARC
8
DEFAULT_255_1_234
10
8.0439202
20
45.0710113
40
0.6455691
50
4.8362157
51
12.2904523
0
ARC
8
DEFAULT_255_1_234
10
8.3194317
20
45.1323965
40
0.3633074
50
12.0805627
51
23.8173984
0
ARC
8
DEFAULT_255_1_234
10
8.4368022
20
45.1820919
40
0.2358723
50
24.2871213
51
31.3935614
0
ARC
8
DEFAULT_255_1_234
10
8.4892719
20
45.2164233
40
0.1732111
50
30.7407893
51
82.4657128
0
ARC
8
DEFAULT_255_1_234
10
8.4712854
20
45.1280691
40
0.263235
50
81.1060089
51
90.2184952
0
ARC
8
DEFAULT_255_1_234
10
8.4677153
20
45.1538924
40
0.2374236
50
89.3806855
51
105.6762551
0
ARC
8
DEFAULT_255_1_234
10
8.4493783
20
45.2205567
40
0.1682847
50
105.7981136
51
149.7388061
0
ARC
8
DEFAULT_255_1_234
10
8.5557862
20
45.156595
40
0.2924306
50
149.4208916
51
163.6286378
0
ARC
8
DEFAULT_255_1_234
10
8.764875
20
45.092825
40
0.5110213
50
163.3763315
51
172.1410975
0
ARC
8
DEFAULT_255_1_234
10
9.0949469
20
45.0455518
40
0.8444586
50
172.0259487
51
178.0703232
0
ARC
8
DEFAULT_255_1_234
10
9.3979558
20
45.0311906
40
1.1477868
50
177.8631668
51
179.5044149
0
ARC
8
DEFAULT_255_1_234
10
9.2906962
20
44.7997389
40
1.0404907
50
179.7995573
51
185.2460446
0
ARC
8
DEFAULT_255_1_234
10
8.8864002
20
44.7614513
40
0.6343885
50
185.1411642
51
193.0079639
0
ARC
8
DEFAULT_255_1_234
10
8.6220474
20
44.6989641
40
0.3627568
50
192.7897626
51
205.2507664
0
ARC
8
DEFAULT_255_1_234
10
8.5174021
20
44.6522415
40
0.2481908
50
205.8005384
51
211.2537509
0
ARC
8
DEFAULT_255_1_234
10
8.4650462
20
44.617158
40
0.1852521
50
210.3789793
51
238.4008143
0
ARC
8
DEFAULT_255_1_234
10
8.4630984
20
44.6218376
40
0.1882621
50
239.6520629
51
265.9793761
0
ARC
8
DEFAULT_255_1_234
10
8.4716184
20
44.6890427
40
0.2559272
50
265.1315437
51
270.060332
0
ARC
8
DEFAULT_255_1_234
10
8.4744963
20
44.6566534
40
0.2235528
50
269.3314664
51
287.2178029
0
ARC
8
DEFAULT_255_1_234
10
8.4882815
20
44.6063279
40
0.1714108
50
287.7958004
51
329.080874
0
ARC
8
DEFAULT_255_1_234
10
8.3925271
20
44.666093
40
0.2842745
50
328.6634704
51
343.3325132
0
ARC
8
DEFAULT_255_1_234
10
8.1752291
20
44.7337863
40
0.5118644
50
343.0499468
51
351.9393422
0
ARC
8
DEFAULT_255_1_234
10
7.8285591
20
44.7848949
40
0.8622784
50
351.8069023
51
357.7959224
0
ARC
8
DEFAULT_255_1_234
10
7.5050147
20
44.8016721
40
1.1862365
50
357.5871873
51
359.2677531
0
LINE
8
DEFAULT_255_1_234
10
4.4487902
20
53.4348211
11
4.4487902
21
52.2654
0
LINE
8
DEFAULT_255_1_234
10
4.4487902
20
52.2654
11
4.2945808
21
52.2654
0
LINE
8
DEFAULT_255_1_234
10
4.2945808
20
52.2654
11
4.2945808
21
53.4348211
0
LINE
8
DEFAULT_255_1_234
10
4.2945808
20
53.4348211
11
4.4487902
21
53.4348211
0
LINE
8
DEFAULT_255_1_234
10
4.7981708
20
53.4348211
11
4.9829008
21
52.6340568
0
LINE
8
DEFAULT_255_1_234
10
4.9829008
20
52.6340568
11
5.0053896
21
52.4798474
0
LINE
8
DEFAULT_255_1_234
10
5.0053896
20
52.4798474
11
5.0383198
21
52.6187965
0
LINE
8
DEFAULT_255_1_234
10
5.0383198
20
52.6187965
11
5.2696338
21
53.4348211
0
LINE
8
DEFAULT_255_1_234
10
5.2696338
20
53.4348211
11
5.399748
21
53.4348211
0
LINE
8
DEFAULT_255_1_234
10
5.399748
20
53.4348211
11
5.6254398
21
52.6187965
0
LINE
8
DEFAULT_255_1_234
10
5.6254398
20
52.6187965
11
5.6575668
21
52.4774379
0
LINE
8
DEFAULT_255_1_234
10
5.6575668
20
52.4774379
11
5.6824652
21
52.63486
0
LINE
8
DEFAULT_255_1_234
10
5.6824652
20
52.63486
11
5.8639825
21
53.4348211
0
LINE
8
DEFAULT_255_1_234
10
5.8639825
20
53.4348211
11
6.018995
21
53.4348211
0
LINE
8
DEFAULT_255_1_234
10
6.018995
20
53.4348211
11
5.7354747
21
52.2654
0
LINE
8
DEFAULT_255_1_234
10
5.7354747
20
52.2654
11
5.5949192
21
52.2654
0
LINE
8
DEFAULT_255_1_234
10
5.5949192
20
52.2654
11
5.3539671
21
53.1175674
0
LINE
8
DEFAULT_255_1_234
10
5.3539671
20
53.1175674
11
5.3354941
21
53.2067197
0
LINE
8
DEFAULT_255_1_234
10
5.3354941
20
53.2067197
11
5.3170211
21
53.1175674
0
LINE
8
DEFAULT_255_1_234
10
5.3170211
20
53.1175674
11
5.067234
21
52.2654
0
LINE
8
DEFAULT_255_1_234
10
5.067234
20
52.2654
11
4.9266786
21
52.2654
0
LINE
8
DEFAULT_255_1_234
10
4.9266786
20
52.2654
11
4.6439614
21
53.4348211
0
LINE
8
DEFAULT_255_1_234
10
4.6439614
20
53.4348211
11
4.7981708
21
53.4348211
0
LINE
8
DEFAULT_255_1_234
10
6.2896646
20
53.4348211
11
6.5715786
21
52.9866501
0
LINE
8
DEFAULT_255_1_234
10
6.5715786
20
52.9866501
11
6.8518863
21
53.4348211
0
LINE
8
DEFAULT_255_1_234
10
6.8518863
20
53.4348211
11
7.0334036
21
53.4348211
0
LINE
8
DEFAULT_255_1_234
10
7.0334036
20
53.4348211
11
6.6639436
21
52.8549296
0
LINE
8
DEFAULT_255_1_234
10
6.6639436
20
52.8549296
11
7.0422385
21
52.2654
0
LINE
8
DEFAULT_255_1_234
10
7.0422385
20
52.2654
11
6.8591148
21
52.2654
0
LINE
8
DEFAULT_255_1_234
10
6.8591148
20
52.2654
11
6.5715786
21
52.7216027
0
LINE
8
DEFAULT_255_1_234
10
6.5715786
20
52.7216027
11
6.282436
21
52.2654
0
LINE
8
DEFAULT_255_1_234
10
6.282436
20
52.2654
11
6.1001156
21
52.2654
0
LINE
8
DEFAULT_255_1_234
10
6.1001156
20
52.2654
11
6.4792136
21
52.8549296
0
LINE
8
DEFAULT_255_1_234
10
6.4792136
20
52.8549296
11
6.1089505
21
53.4348211
0
LINE
8
DEFAULT_255_1_234
10
6.1089505
20
53.4348211
11
6.2896646
21
53.4348211
0
LINE
8
DEFAULT_255_1_234
10
7.6711236
20
53.4404433
11
7.6711236
21
52.2654
0
LINE
8
DEFAULT_255_1_234
10
7.6711236
20
52.2654
11
7.5217333
21
52.2654
0
LINE
8
DEFAULT_255_1_234
10
7.5217333
20
52.2654
11
7.5217333
21
53.2557133
0
LINE
8
DEFAULT_255_1_234
10
7.5217333
20
53.2557133
11
7.2221494
21
53.1456785
0
LINE
8
DEFAULT_255_1_234
10
7.2221494
20
53.1456785
11
7.2221494
21
53.2806117
0
LINE
8
DEFAULT_255_1_234
10
7.2221494
20
53.2806117
11
7.6478315
21
53.4404433
0
LINE
8
DEFAULT_255_1_234
10
7.6478315
20
53.4404433
11
7.6711236
21
53.4404433
0
ARC
8
DEFAULT_255_1_234
10
8.5334221
20
53.1270703
40
0.2822356
50
338.8763615
51
0.5166041
0
ARC
8
DEFAULT_255_1_234
10
8.5502876
20
53.1225208
40
0.2648703
50
325.8412414
51
338.4795939
0
ARC
8
DEFAULT_255_1_234
10
8.5112244
20
53.1496042
40
0.3124019
50
296.7586019
51
325.753654
0
ARC
8
DEFAULT_255_1_234
10
8.4824352
20
53.1980789
40
0.368668
50
296.0902311
51
297.3618122
0
ARC
8
DEFAULT_255_1_234
10
8.508181
20
52.5426041
40
0.3518806
50
47.9009248
51
67.1946869
0
ARC
8
DEFAULT_255_1_234
10
8.5278052
20
52.5672395
40
0.320451
50
35.236241
51
47.551371
0
ARC
8
DEFAULT_255_1_234
10
8.5539669
20
52.5846993
40
0.2890103
50
359.2759738
51
35.4014081
0
ARC
8
DEFAULT_255_1_234
10
8.4794701
20
52.5773826
40
0.3635026
50
343.1294516
51
0.5776525
0
ARC
8
DEFAULT_255_1_234
10
8.5519245
20
52.557433
40
0.2883832
50
310.8497458
51
342.744803
0
ARC
8
DEFAULT_255_1_234
10
8.5101359
20
52.6051294
40
0.3517954
50
281.5473923
51
310.9169905
0
ARC
8
DEFAULT_255_1_234
10
8.4744808
20
52.7604084
40
0.5110832
50
269.6192722
51
281.9789957
0
ARC
8
DEFAULT_255_1_234
10
8.4672597
20
52.7604828
40
0.5111606
50
257.4584469
51
270.4287458
0
ARC
8
DEFAULT_255_1_234
10
8.429174
20
52.6001344
40
0.3463762
50
228.7553743
51
257.8484423
0
ARC
8
DEFAULT_255_1_234
10
8.3981939
20
52.5628442
40
0.297916
50
184.0104442
51
228.5071787
0
ARC
8
DEFAULT_255_1_234
10
8.5144883
20
52.5805512
40
0.4152734
50
179.9315461
51
185.3254504
0
ARC
8
DEFAULT_255_1_234
10
8.3968528
20
52.5842992
40
0.2976554
50
145.6795913
51
180.6259649
0
ARC
8
DEFAULT_255_1_234
10
8.4131878
20
52.5728929
40
0.3175776
50
115.5537925
51
145.6416199
0
ARC
8
DEFAULT_255_1_234
10
8.4472808
20
52.5118028
40
0.3874232
50
113.2437915
51
116.2054627
0
ARC
8
DEFAULT_255_1_234
10
8.432002
20
53.151658
40
0.3154751
50
222.9548379
51
244.1372485
0
ARC
8
DEFAULT_255_1_234
10
8.4198096
20
53.1379834
40
0.2972382
50
213.3439227
51
222.6271327
0
ARC
8
DEFAULT_255_1_234
10
8.400603
20
53.1249308
40
0.274019
50
180.4316517
51
213.2713999
0
ARC
8
DEFAULT_255_1_234
10
8.4581032
20
53.129611
40
0.33158
50
179.9992944
51
181.1655061
0
ARC
8
DEFAULT_255_1_234
10
8.4990449
20
53.1330561
40
0.3725376
50
164.6186108
51
180.5292368
0
ARC
8
DEFAULT_255_1_234
10
8.4092311
20
53.1572101
40
0.2795349
50
132.2454369
51
164.5092287
0
ARC
8
DEFAULT_255_1_234
10
8.4379415
20
53.1247028
40
0.3229019
50
100.7052766
51
132.1387266
0
ARC
8
DEFAULT_255_1_234
10
8.4684388
20
52.9869086
40
0.4639835
50
89.6732617
51
101.2449487
0
ARC
8
DEFAULT_255_1_234
10
8.4746586
20
53.004399
40
0.4464999
50
76.2876631
51
90.4586123
0
ARC
8
DEFAULT_255_1_234
10
8.5052818
20
53.126622
40
0.3205023
50
47.8240157
51
76.4266918
0
ARC
8
DEFAULT_255_1_234
10
8.5275367
20
53.152659
40
0.2862661
50
6.9168658
51
47.6261438
0
ARC
8
DEFAULT_255_1_234
10
8.408877
20
53.130737
40
0.4067708
50
359.8419705
51
7.9694496
0
ARC
8
DEFAULT_255_1_234
10
8.4430667
20
52.5866925
40
0.2513121
50
359.4454068
51
16.9256425
0
ARC
8
DEFAULT_255_1_234
10
8.4899478
20
52.5996033
40
0.2027071
50
17.292259
51
45.462717
0
ARC
8
DEFAULT_255_1_234
10
8.4845415
20
52.5949434
40
0.2098212
50
45.3028762
51
83.1921472
0
ARC
8
DEFAULT_255_1_234
10
8.4702099
20
52.5147895
40
0.2911472
50
82.2614531
51
90.143954
0
ARC
8
DEFAULT_255_1_234
10
8.4671219
20
52.538095
40
0.2678513
50
89.4959189
51
104.8579811
0
ARC
8
DEFAULT_255_1_234
10
8.4494477
20
52.605089
40
0.1985654
50
104.8855873
51
135.2448349
0
ARC
8
DEFAULT_255_1_234
10
8.454425
20
52.6006336
40
0.2052373
50
135.3398955
51
172.104394
0
ARC
8
DEFAULT_255_1_234
10
8.5351308
20
52.5851925
40
0.2873299
50
171.2651929
51
180.1859362
0
ARC
8
DEFAULT_255_1_234
10
8.518201
20
52.5819733
40
0.2704083
50
179.515471
51
193.6466734
0
ARC
8
DEFAULT_255_1_234
10
8.4365779
20
52.5611777
40
0.1861855
50
193.3540587
51
225.8256931
0
ARC
8
DEFAULT_255_1_234
10
8.4406536
20
52.5682524
40
0.1941102
50
226.418029
51
255.8553723
0
ARC
8
DEFAULT_255_1_234
10
8.4662968
20
52.6618998
40
0.2911917
50
255.4655572
51
268.7985967
0
ARC
8
DEFAULT_255_1_234
10
8.4710161
20
52.7457491
40
0.3751331
50
268.3464808
51
270.0104874
0
ARC
8
DEFAULT_255_1_234
10
8.4733548
20
52.6773138
40
0.3067064
50
269.575914
51
282.0823146
0
ARC
8
DEFAULT_255_1_234
10
8.4958458
20
52.5778803
40
0.2047712
50
281.7522535
51
306.6056425
0
ARC
8
DEFAULT_255_1_234
10
8.5056884
20
52.5617487
40
0.1859604
50
307.1350025
51
314.0277951
0
ARC
8
DEFAULT_255_1_234
10
8.5020968
20
52.5643766
40
0.1903475
50
314.2553419
51
350.169324
0
ARC
8
DEFAULT_255_1_234
10
8.4169436
20
52.5828409
40
0.2774269
50
349.4145679
51
0.2930737
0
ARC
8
DEFAULT_255_1_234
10
8.468987
20
53.0987353
40
0.2300764
50
89.477591
51
105.729794
0
ARC
8
DEFAULT_255_1_234
10
8.4553783
20
53.1492637
40
0.1777519
50
105.922966
51
135.1662921
0
ARC
8
DEFAULT_255_1_234
10
8.4574286
20
53.1478419
40
0.1802087
50
135.3053131
51
168.9882338
0
ARC
8
DEFAULT_255_1_234
10
8.5401858
20
53.1288721
40
0.2650806
50
168.3802067
51
180.3602358
0
ARC
8
DEFAULT_255_1_234
10
8.5173437
20
53.1251041
40
0.2422425
50
179.5029707
51
194.9126783
0
ARC
8
DEFAULT_255_1_234
10
8.4588098
20
53.109711
40
0.1817188
50
194.9722181
51
224.1943972
0
ARC
8
DEFAULT_255_1_234
10
8.4559966
20
53.1074169
40
0.1781027
50
224.2961434
51
262.0157375
0
ARC
8
DEFAULT_255_1_234
10
8.4702209
20
53.1805661
40
0.2525492
50
261.1250369
51
270.1959853
0
ARC
8
DEFAULT_255_1_234
10
8.4731964
20
53.1618339
40
0.233825
50
269.4825617
51
285.0988277
0
ARC
8
DEFAULT_255_1_234
10
8.4886123
20
53.103999
40
0.1739712
50
285.1585659
51
315.9484648
0
ARC
8
DEFAULT_255_1_234
10
8.4797134
20
53.1121886
40
0.1860616
50
316.0412958
51
351.9162715
0
ARC
8
DEFAULT_255_1_234
10
8.4064089
20
53.1263245
40
0.2606517
50
351.1056823
51
0.1936567
0
ARC
8
DEFAULT_255_1_234
10
8.4326918
20
53.1293369
40
0.234377
50
359.4789506
51
16.0679113
0
ARC
8
DEFAULT_255_1_234
10
8.4802877
20
53.142181
40
0.1850875
50
16.3251951
51
44.791304
0
ARC
8
DEFAULT_255_1_234
10
8.4785159
20
53.1422339
40
0.186312
50
44.3958661
51
88.2498933
0
ARC
8
DEFAULT_255_1_234
10
8.4711712
20
53.0811154
40
0.2476868
50
86.9833827
51
90.0200148
0
LINE
8
DEFAULT_255_1_234
10
4.4487902
20
61.3723211
11
4.4487902
21
60.2029
0
LINE
8
DEFAULT_255_1_234
10
4.4487902
20
60.2029
11
4.2945808
21
60.2029
0
LINE
8
DEFAULT_255_1_234
10
4.2945808
20
60.2029
11
4.2945808
21
61.3723211
0
LINE
8
DEFAULT_255_1_234
10
4.2945808
20
61.3723211
11
4.4487902
21
61.3723211
0
LINE
8
DEFAULT_255_1_234
10
4.7981708
20
61.3723211
11
4.9829008
21
60.5715568
0
LINE
8
DEFAULT_255_1_234
10
4.9829008
20
60.5715568
11
5.0053896
21
60.4173474
0
LINE
8
DEFAULT_255_1_234
10
5.0053896
20
60.4173474
11
5.0383198
21
60.5562965
0
LINE
8
DEFAULT_255_1_234
10
5.0383198
20
60.5562965
11
5.2696338
21
61.3723211
0
LINE
8
DEFAULT_255_1_234
10
5.2696338
20
61.3723211
11
5.399748
21
61.3723211
0
LINE
8
DEFAULT_255_1_234
10
5.399748
20
61.3723211
11
5.6254398
21
60.5562965
0
LINE
8
DEFAULT_255_1_234
10
5.6254398
20
60.5562965
11
5.6575668
21
60.4149379
0
LINE
8
DEFAULT_255_1_234
10
5.6575668
20
60.4149379
11
5.6824652
21
60.57236
0
LINE
8
DEFAULT_255_1_234
10
5.6824652
20
60.57236
11
5.8639825
21
61.3723211
0
LINE
8
DEFAULT_255_1_234
10
5.8639825
20
61.3723211
11
6.018995
21
61.3723211
0
LINE
8
DEFAULT_255_1_234
10
6.018995
20
61.3723211
11
5.7354747
21
60.2029
0
LINE
8
DEFAULT_255_1_234
10
5.7354747
20
60.2029
11
5.5949192
21
60.2029
0
LINE
8
DEFAULT_255_1_234
10
5.5949192
20
60.2029
11
5.3539671
21
61.0550674
0
LINE
8
DEFAULT_255_1_234
10
5.3539671
20
61.0550674
11
5.3354941
21
61.1442197
0
LINE
8
DEFAULT_255_1_234
10
5.3354941
20
61.1442197
11
5.3170211
21
61.0550674
0
LINE
8
DEFAULT_255_1_234
10
5.3170211
20
61.0550674
11
5.067234
21
60.2029
0
LINE
8
DEFAULT_255_1_234
10
5.067234
20
60.2029
11
4.9266786
21
60.2029
0
LINE
8
DEFAULT_255_1_234
10
4.9266786
20
60.2029
11
4.6439614
21
61.3723211
0
LINE
8
DEFAULT_255_1_234
10
4.6439614
20
61.3723211
11
4.7981708
21
61.3723211
0
LINE
8
DEFAULT_255_1_234
10
6.2896646
20
61.3723211
11
6.5715786
21
60.9241501
0
LINE
8
DEFAULT_255_1_234
10
6.5715786
20
60.9241501
11
6.8518863
21
61.3723211
0
LINE
8
DEFAULT_255_1_234
10
6.8518863
20
61.3723211
11
7.0334036
21
61.3723211
0
LINE
8
DEFAULT_255_1_234
10
7.0334036
20
61.3723211
11
6.6639436
21
60.7924296
0
LINE
8
DEFAULT_255_1_234
10
6.6639436
20
60.7924296
11
7.0422385
21
60.2029
0
LINE
8
DEFAULT_255_1_234
10
7.0422385
20
60.2029
11
6.8591148
21
60.2029
0
LINE
8
DEFAULT_255_1_234
10
6.8591148
20
60.2029
11
6.5715786
21
60.6591027
0
LINE
8
DEFAULT_255_1_234
10
6.5715786
20
60.6591027
11
6.282436
21
60.2029
0
LINE
8
DEFAULT_255_1_234
10
6.282436
20
60.2029
11
6.1001156
21
60.2029
0
LINE
8
DEFAULT_255_1_234
10
6.1001156
20
60.2029
11
6.4792136
21
60.7924296
0
LINE
8
DEFAULT_255_1_234
10
6.4792136
20
60.7924296
11
6.1089505
21
61.3723211
0
LINE
8
DEFAULT_255_1_234
10
6.1089505
20
61.3723211
11
6.2896646
21
61.3723211
0
LINE
8
DEFAULT_255_1_234
10
7.6711236
20
61.3779433
11
7.6711236
21
60.2029
0
LINE
8
DEFAULT_255_1_234
10
7.6711236
20
60.2029
11
7.5217333
21
60.2029
0
LINE
8
DEFAULT_255_1_234
10
7.5217333
20
60.2029
11
7.5217333
21
61.1932133
0
LINE
8
DEFAULT_255_1_234
10
7.5217333
20
61.1932133
11
7.2221494
21
61.0831785
0
LINE
8
DEFAULT_255_1_234
10
7.2221494
20
61.0831785
11
7.2221494
21
61.2181117
0
LINE
8
DEFAULT_255_1_234
10
7.2221494
20
61.2181117
11
7.6478315
21
61.3779433
0
LINE
8
DEFAULT_255_1_234
10
7.6478315
20
61.3779433
11
7.6711236
21
61.3779433
0
LINE
8
DEFAULT_255_1_234
10
8.6630433
20
61.3731243
11
8.689548
21
61.3731243
0
LINE
8
DEFAULT_255_1_234
10
8.689548
20
61.3731243
11
8.689548
21
61.247026
0
LINE
8
DEFAULT_255_1_234
10
8.689548
20
61.247026
11
8.6622401
21
61.247026
0
LINE
8
DEFAULT_255_1_234
10
8.1152787
20
60.6478583
11
8.1152787
21
60.7048836
0
LINE
8
DEFAULT_255_1_234
10
8.264669
20
60.6856075
11
8.264669
21
60.6309917
0
ARC
8
DEFAULT_255_1_234
10
8.6674749
20
60.7472455
40
0.4998079
50
90.6001036
51
104.514704
0
ARC
8
DEFAULT_255_1_234
10
8.6286264
20
60.8917131
40
0.3502176
50
104.2855254
51
133.862935
0
ARC
8
DEFAULT_255_1_234
10
8.6450022
20
60.880883
40
0.3693984
50
134.5302688
51
161.6210873
0
ARC
8
DEFAULT_255_1_234
10
8.810321
20
60.8225895
40
0.5446739
50
161.2849839
51
174.2076652
0
ARC
8
DEFAULT_255_1_234
10
8.9510147
20
60.8031787
40
0.6866274
50
173.7810589
51
174.9254635
0
ARC
8
DEFAULT_255_1_234
10
8.4959979
20
60.6648839
40
0.3033419
50
95.8330959
51
138.9954921
0
ARC
8
DEFAULT_255_1_234
10
8.5183335
20
60.5370375
40
0.4328947
50
89.8753725
51
97.0544009
0
ARC
8
DEFAULT_255_1_234
10
8.5230801
20
60.6205748
40
0.3493769
50
71.6407809
51
90.6240094
0
ARC
8
DEFAULT_255_1_234
10
8.5381375
20
60.6760082
40
0.2920396
50
39.6367836
51
71.019018
0
ARC
8
DEFAULT_255_1_234
10
8.4744848
20
60.6209998
40
0.3761538
50
10.658731
51
39.9043955
0
ARC
8
DEFAULT_255_1_234
10
8.3196931
20
60.5873686
40
0.5345136
50
359.682601
51
11.132623
0
ARC
8
DEFAULT_255_1_234
10
8.3157062
20
60.580301
40
0.5385081
50
347.2486944
51
0.4369317
0
ARC
8
DEFAULT_255_1_234
10
8.4824539
20
60.5401807
40
0.3670249
50
318.1409698
51
347.6118597
0
ARC
8
DEFAULT_255_1_234
10
8.5149532
20
60.5134702
40
0.3250007
50
275.6342139
51
317.8248465
0
ARC
8
DEFAULT_255_1_234
10
8.4928643
20
60.6434219
40
0.4565864
50
269.8874292
51
276.7917694
0
ARC
8
DEFAULT_255_1_234
10
8.4873714
20
60.5408743
40
0.3540676
50
246.9140195
51
270.7437342
0
ARC
8
DEFAULT_255_1_234
10
8.4880104
20
60.5266384
40
0.3412781
50
218.1665114
51
245.878116
0
ARC
8
DEFAULT_255_1_234
10
8.5759565
20
60.6002279
40
0.455911
50
191.4115814
51
218.6077802
0
ARC
8
DEFAULT_255_1_234
10
8.7697654
20
60.6436833
40
0.6545001
50
179.6345085
51
191.7836486
0
ARC
8
DEFAULT_255_1_234
10
9.3279991
20
60.7115697
40
1.2127388
50
171.4525249
51
180.3158839
0
ARC
8
DEFAULT_255_1_234
10
8.8884866
20
60.7799608
40
0.7679464
50
157.9802646
51
171.6246686
0
ARC
8
DEFAULT_255_1_234
10
8.6670887
20
60.8682421
40
0.5296008
50
141.4298019
51
157.854097
0
ARC
8
DEFAULT_255_1_234
10
8.6029208
20
60.9136381
40
0.4511509
50
102.8715806
51
140.8564722
0
ARC
8
DEFAULT_255_1_234
10
8.6676823
20
60.6696552
40
0.7034845
50
90.3778349
51
103.5869322
0
ARC
8
DEFAULT_255_1_234
10
8.49386
20
60.609173
40
0.2370698
50
89.8751008
51
126.2071704
0
ARC
8
DEFAULT_255_1_234
10
8.4984389
20
60.5937303
40
0.2522934
50
124.9745049
51
144.895901
0
ARC
8
DEFAULT_255_1_234
10
8.480858
20
60.608056
40
0.2296779
50
145.2974905
51
160.2660252
0
ARC
8
DEFAULT_255_1_234
10
8.7881119
20
60.6278071
40
0.5234525
50
179.6514266
51
190.2855912
0
ARC
8
DEFAULT_255_1_234
10
8.6187256
20
60.5958786
40
0.3510893
50
190.0945431
51
207.5098196
0
ARC
8
DEFAULT_255_1_234
10
8.5621526
20
60.5689623
40
0.288489
50
207.9583163
51
216.3251085
0
ARC
8
DEFAULT_255_1_234
10
8.5281634
20
60.5410105
40
0.2445587
50
215.7661442
51
232.5456785
0
ARC
8
DEFAULT_255_1_234
10
8.4898616
20
60.4923482
40
0.1826382
50
232.8005391
51
270.6605633
0
ARC
8
DEFAULT_255_1_234
10
8.4944317
20
60.5287612
40
0.2190529
50
269.35537
51
288.4744281
0
ARC
8
DEFAULT_255_1_234
10
8.5037214
20
60.4938118
40
0.1829749
50
289.1833337
51
322.9683818
0
ARC
8
DEFAULT_255_1_234
10
8.4425737
20
60.5420391
40
0.2608399
50
322.6007884
51
346.5182367
0
ARC
8
DEFAULT_255_1_234
10
8.3268333
20
60.5715616
40
0.3802777
50
346.2582162
51
358.7741648
0
ARC
8
DEFAULT_255_1_234
10
8.2250002
20
60.5770965
40
0.4822176
50
358.3755224
51
0.0098023
0
ARC
8
DEFAULT_255_1_234
10
8.3006189
20
60.5798657
40
0.4066078
50
359.6214041
51
11.2839074
0
ARC
8
DEFAULT_255_1_234
10
8.4283336
20
60.6065066
40
0.2761514
50
11.0482309
51
31.8146458
0
ARC
8
DEFAULT_255_1_234
10
8.4592379
20
60.6232584
40
0.2410679
50
32.3035391
51
38.082671
0
ARC
8
DEFAULT_255_1_234
10
8.5013038
20
60.6613662
40
0.1844966
50
36.825067
51
85.7415724
0
ARC
8
DEFAULT_255_1_234
10
8.4945872
20
60.6113301
40
0.2349122
50
85.0140713
51
90.0513278
0
LINE
8
DEFAULT_255_1_234
10
4.4487902
20
69.3098211
11
4.4487902
21
68.1404
0
LINE
8
DEFAULT_255_1_234
10
4.4487902
20
68.1404
11
4.2945808
21
68.1404
0
LINE
8
DEFAULT_255_1_234
10
4.2945808
20
68.1404
11
4.2945808
21
69.3098211
0
LINE
8
DEFAULT_255_1_234
10
4.2945808
20
69.3098211
11
4.4487902
21
69.3098211
0
LINE
8
DEFAULT_255_1_234
10
4.7981708
20
69.3098211
11
4.9829008
21
68.5090568
0
LINE
8
DEFAULT_255_1_234
10
4.9829008
20
68.5090568
11
5.0053896
21
68.3548474
0
LINE
8
DEFAULT_255_1_234
10
5.0053896
20
68.3548474
11
5.0383198
21
68.4937965
0
LINE
8
DEFAULT_255_1_234
10
5.0383198
20
68.4937965
11
5.2696338
21
69.3098211
0
LINE
8
DEFAULT_255_1_234
10
5.2696338
20
69.3098211
11
5.399748
21
69.3098211
0
LINE
8
DEFAULT_255_1_234
10
5.399748
20
69.3098211
11
5.6254398
21
68.4937965
0
LINE
8
DEFAULT_255_1_234
10
5.6254398
20
68.4937965
11
5.6575668
21
68.3524379
0
LINE
8
DEFAULT_255_1_234
10
5.6575668
20
68.3524379
11
5.6824652
21
68.50986
0
LINE
8
DEFAULT_255_1_234
10
5.6824652
20
68.50986
11
5.8639825
21
69.3098211
0
LINE
8
DEFAULT_255_1_234
10
5.8639825
20
69.3098211
11
6.018995
21
69.3098211
0
LINE
8
DEFAULT_255_1_234
10
6.018995
20
69.3098211
11
5.7354747
21
68.1404
0
LINE
8
DEFAULT_255_1_234
10
5.7354747
20
68.1404
11
5.5949192
21
68.1404
0
LINE
8
DEFAULT_255_1_234
10
5.5949192
20
68.1404
11
5.3539671
21
68.9925674
0
LINE
8
DEFAULT_255_1_234
10
5.3539671
20
68.9925674
11
5.3354941
21
69.0817197
0
LINE
8
DEFAULT_255_1_234
10
5.3354941
20
69.0817197
11
5.3170211
21
68.9925674
0
LINE
8
DEFAULT_255_1_234
10
5.3170211
20
68.9925674
11
5.067234
21
68.1404
0
LINE
8
DEFAULT_255_1_234
10
5.067234
20
68.1404
11
4.9266786
21
68.1404
0
LINE
8
DEFAULT_255_1_234
10
4.9266786
20
68.1404
11
4.6439614
21
69.3098211
0
LINE
8
DEFAULT_255_1_234
10
4.6439614
20
69.3098211
11
4.7981708
21
69.3098211
0
LINE
8
DEFAULT_255_1_234
10
6.2896646
20
69.3098211
11
6.5715786
21
68.8616501
0
LINE
8
DEFAULT_255_1_234
10
6.5715786
20
68.8616501
11
6.8518863
21
69.3098211
0
LINE
8
DEFAULT_255_1_234
10
6.8518863
20
69.3098211
11
7.0334036
21
69.3098211
0
LINE
8
DEFAULT_255_1_234
10
7.0334036
20
69.3098211
11
6.6639436
21
68.7299296
0
LINE
8
DEFAULT_255_1_234
10
6.6639436
20
68.7299296
11
7.0422385
21
68.1404
0
LINE
8
DEFAULT_255_1_234
10
7.0422385
20
68.1404
11
6.8591148
21
68.1404
0
LINE
8
DEFAULT_255_1_234
10
6.8591148
20
68.1404
11
6.5715786
21
68.5966027
0
LINE
8
DEFAULT_255_1_234
10
6.5715786
20
68.5966027
11
6.282436
21
68.1404
0
LINE
8
DEFAULT_255_1_234
10
6.282436
20
68.1404
11
6.1001156
21
68.1404
0
LINE
8
DEFAULT_255_1_234
10
6.1001156
20
68.1404
11
6.4792136
21
68.7299296
0
LINE
8
DEFAULT_255_1_234
10
6.4792136
20
68.7299296
11
6.1089505
21
69.3098211
0
LINE
8
DEFAULT_255_1_234
10
6.1089505
20
69.3098211
11
6.2896646
21
69.3098211
0
LINE
8
DEFAULT_255_1_234
10
7.6711236
20
69.3154433
11
7.6711236
21
68.1404
0
LINE
8
DEFAULT_255_1_234
10
7.6711236
20
68.1404
11
7.5217333
21
68.1404
0
LINE
8
DEFAULT_255_1_234
10
7.5217333
20
68.1404
11
7.5217333
21
69.1307133
0
LINE
8
DEFAULT_255_1_234
10
7.5217333
20
69.1307133
11
7.2221494
21
69.0206785
0
LINE
8
DEFAULT_255_1_234
10
7.2221494
20
69.0206785
11
7.2221494
21
69.1556117
0
LINE
8
DEFAULT_255_1_234
10
7.2221494
20
69.1556117
11
7.6478315
21
69.3154433
0
LINE
8
DEFAULT_255_1_234
10
7.6478315
20
69.3154433
11
7.6711236
21
69.3154433
0
LINE
8
DEFAULT_255_1_234
10
8.8726716
20
68.2616792
11
8.8726716
21
68.1404
0
LINE
8
DEFAULT_255_1_234
10
8.8726716
20
68.1404
11
8.1064438
21
68.1404
0
LINE
8
DEFAULT_255_1_234
10
8.1064438
20
68.1404
11
8.1064438
21
68.2472221
0
LINE
8
DEFAULT_255_1_234
10
8.1064438
20
68.2472221
11
8.5112434
21
68.6969995
0
LINE
8
DEFAULT_255_1_234
10
8.2325421
20
68.9652595
11
8.0839549
21
68.9652595
0
LINE
8
DEFAULT_255_1_234
10
8.5987894
20
68.6014218
11
8.2855516
21
68.2616792
0
LINE
8
DEFAULT_255_1_234
10
8.2855516
20
68.2616792
11
8.8726716
21
68.2616792
0
ARC
8
DEFAULT_255_1_234
10
7.1622267
20
69.8899527
40
1.8008286
50
318.5132453
51
320.7828378
0
ARC
8
DEFAULT_255_1_234
10
7.6909242
20
69.4596426
40
1.1191493
50
320.7372736
51
323.9737074
0
ARC
8
DEFAULT_255_1_234
10
8.0829098
20
69.1756361
40
0.6350923
50
323.8961724
51
328.6421089
0
ARC
8
DEFAULT_255_1_234
10
8.2875694
20
69.0494031
40
0.3946393
50
328.8299013
51
331.789948
0
ARC
8
DEFAULT_255_1_234
10
8.3872872
20
68.9979509
40
0.2824501
50
331.4255242
51
352.9364833
0
ARC
8
DEFAULT_255_1_234
10
8.4009373
20
68.9948976
40
0.2685315
50
353.2248685
51
0.0169286
0
ARC
8
DEFAULT_255_1_234
10
8.4219249
20
68.997195
40
0.2475536
50
359.4866256
51
15.9339782
0
ARC
8
DEFAULT_255_1_234
10
8.4726235
20
69.0108286
40
0.1950618
50
16.1714718
51
43.5284424
0
ARC
8
DEFAULT_255_1_234
10
8.4803543
20
69.0185573
40
0.184134
50
43.4415429
51
83.1661404
0
ARC
8
DEFAULT_255_1_234
10
8.4669462
20
68.9448771
40
0.258926
50
82.160215
51
90.1505798
0
ARC
8
DEFAULT_255_1_234
10
8.4637889
20
68.8911865
40
0.3126255
50
89.5460705
51
102.5418777
0
ARC
8
DEFAULT_255_1_234
10
8.4394975
20
68.9942665
40
0.2067346
50
102.1739365
51
129.2061916
0
ARC
8
DEFAULT_255_1_234
10
8.4316047
20
69.0067094
40
0.1921118
50
129.7279328
51
135.7542026
0
ARC
8
DEFAULT_255_1_234
10
8.4437574
20
68.9970045
40
0.2075944
50
136.175737
51
166.3674722
0
ARC
8
DEFAULT_255_1_234
10
8.5444494
20
68.9700182
40
0.3118201
50
165.9092917
51
178.8683903
0
ARC
8
DEFAULT_255_1_234
10
8.6309355
20
68.9653179
40
0.3983935
50
178.438168
51
180.0083905
0
ARC
8
DEFAULT_255_1_234
10
8.4907957
20
68.9692231
40
0.4068601
50
163.2878735
51
180.5581814
0
ARC
8
DEFAULT_255_1_234
10
8.4106218
20
68.991284
40
0.3237344
50
133.454115
51
162.9470031
0
ARC
8
DEFAULT_255_1_234
10
8.428476
20
68.9723
40
0.349795
50
100.7869394
51
133.4384016
0
ARC
8
DEFAULT_255_1_234
10
8.4632531
20
68.8174319
40
0.5084616
50
89.6605301
51
101.3704185
0
ARC
8
DEFAULT_255_1_234
10
8.469887
20
68.8235496
40
0.502348
50
78.2171172
51
90.4130393
0
ARC
8
DEFAULT_255_1_234
10
8.5053948
20
68.9859637
40
0.3361092
50
55.9268222
51
78.4888551
0
ARC
8
DEFAULT_255_1_234
10
8.5250389
20
69.0198324
40
0.2970617
50
47.9292255
51
55.4054003
0
ARC
8
DEFAULT_255_1_234
10
8.5351949
20
69.0301502
40
0.2825983
50
4.3347696
51
48.0560701
0
ARC
8
DEFAULT_255_1_234
10
8.4256343
20
69.0131601
40
0.393225
50
359.925209
51
5.5967654
0
ARC
8
DEFAULT_255_1_234
10
8.4685235
20
69.0187816
40
0.3503892
50
337.8914096
51
358.9967724
0
ARC
8
DEFAULT_255_1_234
10
8.1971647
20
69.1234706
40
0.6412172
50
326.9135351
51
338.3505194
0
ARC
8
DEFAULT_255_1_234
10
7.798595
20
69.3789284
40
1.1146189
50
319.6472867
51
327.095818
0
ARC
8
DEFAULT_255_1_234
10
7.4152954
20
69.6951
40
1.6114559
50
317.2586784
51
319.9046139
0
LINE
8
DEFAULT_255_1_234
10
4.4487902
20
77.2473211
11
4.4487902
21
76.0779
0
LINE
8
DEFAULT_255_1_234
10
4.4487902
20
76.0779
11
4.2945808
21
76.0779
0
LINE
8
DEFAULT_255_1_234
10
4.2945808
20
76.0779
11
4.2945808
21
77.2473211
0
LINE
8
DEFAULT_255_1_234
10
4.2945808
20
77.2473211
11
4.4487902
21
77.2473211
0
LINE
8
DEFAULT_255_1_234
10
4.7981708
20
77.2473211
11
4.9829008
21
76.4465568
0
LINE
8
DEFAULT_255_1_234
10
4.9829008
20
76.4465568
11
5.0053896
21
76.2923474
0
LINE
8
DEFAULT_255_1_234
10
5.0053896
20
76.2923474
11
5.0383198
21
76.4312965
0
LINE
8
DEFAULT_255_1_234
10
5.0383198
20
76.4312965
11
5.2696338
21
77.2473211
0
LINE
8
DEFAULT_255_1_234
10
5.2696338
20
77.2473211
11
5.399748
21
77.2473211
0
LINE
8
DEFAULT_255_1_234
10
5.399748
20
77.2473211
11
5.6254398
21
76.4312965
0
LINE
8
DEFAULT_255_1_234
10
5.6254398
20
76.4312965
11
5.6575668
21
76.2899379
0
LINE
8
DEFAULT_255_1_234
10
5.6575668
20
76.2899379
11
5.6824652
21
76.44736
0
LINE
8
DEFAULT_255_1_234
10
5.6824652
20
76.44736
11
5.8639825
21
77.2473211
0
LINE
8
DEFAULT_255_1_234
10
5.8639825
20
77.2473211
11
6.018995
21
77.2473211
0
LINE
8
DEFAULT_255_1_234
10
6.018995
20
77.2473211
11
5.7354747
21
76.0779
0
LINE
8
DEFAULT_255_1_234
10
5.7354747
20
76.0779
11
5.5949192
21
76.0779
0
LINE
8
DEFAULT_255_1_234
10
5.5949192
20
76.0779
11
5.3539671
21
76.9300674
0
LINE
8
DEFAULT_255_1_234
10
5.3539671
20
76.9300674
11
5.3354941
21
77.0192197
0
LINE
8
DEFAULT_255_1_234
10
5.3354941
20
77.0192197
11
5.3170211
21
76.9300674
0
LINE
8
DEFAULT_255_1_234
10
5.3170211
20
76.9300674
11
5.067234
21
76.0779
0
LINE
8
DEFAULT_255_1_234
10
5.067234
20
76.0779
11
4.9266786
21
76.0779
0
LINE
8
DEFAULT_255_1_234
10
4.9266786
20
76.0779
11
4.6439614
21
77.2473211
0
LINE
8
DEFAULT_255_1_234
10
4.6439614
20
77.2473211
11
4.7981708
21
77.2473211
0
LINE
8
DEFAULT_255_1_234
10
6.2896646
20
77.2473211
11
6.5715786
21
76.7991501
0
LINE
8
DEFAULT_255_1_234
10
6.5715786
20
76.7991501
11
6.8518863
21
77.2473211
0
LINE
8
DEFAULT_255_1_234
10
6.8518863
20
77.2473211
11
7.0334036
21
77.2473211
0
LINE
8
DEFAULT_255_1_234
10
7.0334036
20
77.2473211
11
6.6639436
21
76.6674296
0
LINE
8
DEFAULT_255_1_234
10
6.6639436
20
76.6674296
11
7.0422385
21
76.0779
0
LINE
8
DEFAULT_255_1_234
10
7.0422385
20
76.0779
11
6.8591148
21
76.0779
0
LINE
8
DEFAULT_255_1_234
10
6.8591148
20
76.0779
11
6.5715786
21
76.5341027
0
LINE
8
DEFAULT_255_1_234
10
6.5715786
20
76.5341027
11
6.282436
21
76.0779
0
LINE
8
DEFAULT_255_1_234
10
6.282436
20
76.0779
11
6.1001156
21
76.0779
0
LINE
8
DEFAULT_255_1_234
10
6.1001156
20
76.0779
11
6.4792136
21
76.6674296
0
LINE
8
DEFAULT_255_1_234
10
6.4792136
20
76.6674296
11
6.1089505
21
77.2473211
0
LINE
8
DEFAULT_255_1_234
10
6.1089505
20
77.2473211
11
6.2896646
21
77.2473211
0
LINE
8
DEFAULT_255_1_234
10
7.6711236
20
77.2529433
11
7.6711236
21
76.0779
0
LINE
8
DEFAULT_255_1_234
10
7.6711236
20
76.0779
11
7.5217333
21
76.0779
0
LINE
8
DEFAULT_255_1_234
10
7.5217333
20
76.0779
11
7.5217333
21
77.0682133
0
LINE
8
DEFAULT_255_1_234
10
7.5217333
20
77.0682133
11
7.2221494
21
76.9581785
0
LINE
8
DEFAULT_255_1_234
10
7.2221494
20
76.9581785
11
7.2221494
21
77.0931117
0
LINE
8
DEFAULT_255_1_234
10
7.2221494
20
77.0931117
11
7.6478315
21
77.2529433
0
LINE
8
DEFAULT_255_1_234
10
7.6478315
20
77.2529433
11
7.6711236
21
77.2529433
0
LINE
8
DEFAULT_255_1_234
10
8.8397415
20
76.7694327
11
8.8397415
21
76.5766709
0
LINE
8
DEFAULT_255_1_234
10
8.1016248
20
76.5565916
11
8.1016248
21
76.7549755
0
LINE
8
DEFAULT_255_1_234
10
8.6911543
20
76.5365123
11
8.6911543
21
76.7798739
0
LINE
8
DEFAULT_255_1_234
10
8.2502119
20
76.7911184
11
8.2502119
21
76.5533789
0
ARC
8
DEFAULT_255_1_234
10
7.6150305
20
76.5717805
40
1.2247208
50
353.8441951
51
0.2287902
0
ARC
8
DEFAULT_255_1_234
10
8.0789808
20
76.5199806
40
0.7578929
50
344.4934747
51
353.9765454
0
ARC
8
DEFAULT_255_1_234
10
8.3782398
20
76.4348981
40
0.4467846
50
329.2803592
51
344.7472793
0
ARC
8
DEFAULT_255_1_234
10
8.4775223
20
76.3804018
40
0.3336173
50
324.9352394
51
328.6160465
0
ARC
8
DEFAULT_255_1_234
10
8.5152332
20
76.3540427
40
0.2876076
50
280.580143
51
324.9173126
0
ARC
8
DEFAULT_255_1_234
10
8.4751125
20
76.5211099
40
0.4592847
50
269.5977311
51
281.6734359
0
ARC
8
DEFAULT_255_1_234
10
8.467903
20
76.5091173
40
0.4472986
50
256.6228859
51
270.51044
0
ARC
8
DEFAULT_255_1_234
10
8.4277008
20
76.3542877
40
0.2873874
50
215.8618325
51
257.2788573
0
ARC
8
DEFAULT_255_1_234
10
8.529804
20
76.4227977
40
0.4102928
50
197.9693508
51
215.2623606
0
ARC
8
DEFAULT_255_1_234
10
8.7783155
20
76.5066709
40
0.6725652
50
187.8816417
51
198.2346507
0
ARC
8
DEFAULT_255_1_234
10
9.1741364
20
76.5638079
40
1.0724845
50
180.8976217
51
188.0055519
0
ARC
8
DEFAULT_255_1_234
10
9.4541552
20
76.5741777
40
1.3526448
50
180.7449369
51
181.1510016
0
ARC
8
DEFAULT_255_1_234
10
9.2964281
20
76.7598042
40
1.1948131
50
173.7675579
51
180.231553
0
ARC
8
DEFAULT_255_1_234
10
8.8446427
20
76.8108666
40
0.7401564
50
164.3058563
51
173.9002247
0
ARC
8
DEFAULT_255_1_234
10
8.5534496
20
76.8947656
40
0.4371288
50
148.7922025
51
164.568378
0
ARC
8
DEFAULT_255_1_234
10
8.4582948
20
76.9478929
40
0.3282386
50
144.5883898
51
148.1176286
0
ARC
8
DEFAULT_255_1_234
10
8.4239846
20
76.9718315
40
0.2864044
50
101.6440918
51
144.514236
0
ARC
8
DEFAULT_255_1_234
10
8.4664913
20
76.8029069
40
0.4604934
50
89.5284041
51
102.5819763
0
ARC
8
DEFAULT_255_1_234
10
8.4744001
20
76.7990018
40
0.464401
50
77.0437873
51
90.5081339
0
ARC
8
DEFAULT_255_1_234
10
8.5146002
20
76.9632615
40
0.2953195
50
48.2778575
51
77.4994676
0
ARC
8
DEFAULT_255_1_234
10
8.5218634
20
76.9761746
40
0.2808655
50
36.3142134
51
47.6305865
0
ARC
8
DEFAULT_255_1_234
10
8.4349941
20
76.9176515
40
0.3855453
50
18.2931786
51
35.6769206
0
ARC
8
DEFAULT_255_1_234
10
8.18067
20
76.8303593
40
0.654423
50
8.024666
51
18.5605216
0
ARC
8
DEFAULT_255_1_234
10
7.764362
20
76.7688792
40
1.0752407
50
1.1274072
51
8.1718305
0
ARC
8
DEFAULT_255_1_234
10
7.440781
20
76.7561885
40
1.3990231
50
0.5424119
51
1.3863029
0
ARC
8
DEFAULT_255_1_234
10
7.6229188
20
76.7834342
40
1.0682415
50
359.8090433
51
4.9407866
0
ARC
8
DEFAULT_255_1_234
10
8.0439202
20
76.8210113
40
0.6455691
50
4.8362157
51
12.2904523
0
ARC
8
DEFAULT_255_1_234
10
8.3194317
20
76.8823965
40
0.3633074
50
12.0805627
51
23.8173984
0
ARC
8
DEFAULT_255_1_234
10
8.4368022
20
76.9320919
40
0.2358723
50
24.2871213
51
31.3935614
0
ARC
8
DEFAULT_255_1_234
10
8.4892719
20
76.9664233
40
0.1732111
50
30.7407893
51
82.4657128
0
ARC
8
DEFAULT_255_1_234
10
8.4712854
20
76.8780691
40
0.263235
50
81.1060089
51
90.2184952
0
ARC
8
DEFAULT_255_1_234
10
8.4677153
20
76.9038924
40
0.2374236
50
89.3806855
51
105.6762551
0
ARC
8
DEFAULT_255_1_234
10
8.4493783
20
76.9705567
40
0.1682847
50
105.7981136
51
149.7388061
0
ARC
8
DEFAULT_255_1_234
10
8.5557862
20
76.906595
40
0.2924306
50
149.4208916
51
163.6286378
0
ARC
8
DEFAULT_255_1_234
10
8.764875
20
76.842825
40
0.5110213
50
163.3763315
51
172.1410975
0
ARC
8
DEFAULT_255_1_234
10
9.0949469
20
76.7955518
40
0.8444586
50
172.0259487
51
178.0703232
0
ARC
8
DEFAULT_255_1_234
10
9.3979558
20
76.7811906
40
1.1477868
50
177.8631668
51
179.5044149
0
ARC
8
DEFAULT_255_1_234
10
9.2906962
20
76.5497389
40
1.0404907
50
179.7995573
51
185.2460446
0
ARC
8
DEFAULT_255_1_234
10
8.8864002
20
76.5114513
40
0.6343885
50
185.1411642
51
193.0079639
0
ARC
8
DEFAULT_255_1_234
10
8.6220474
20
76.4489641
40
0.3627568
50
192.7897626
51
205.2507664
0
ARC
8
DEFAULT_255_1_234
10
8.5174021
20
76.4022415
40
0.2481908
50
205.8005384
51
211.2537509
0
ARC
8
DEFAULT_255_1_234
10
8.4650462
20
76.367158
40
0.1852521
50
210.3789793
51
238.4008143
0
ARC
8
DEFAULT_255_1_234
10
8.4630984
20
76.3718376
40
0.1882621
50
239.6520629
51
265.9793761
0
ARC
8
DEFAULT_255_1_234
10
8.4716184
20
76.4390427
40
0.2559272
50
265.1315437
51
270.060332
0
ARC
8
DEFAULT_255_1_234
10
8.4744963
20
76.4066534
40
0.2235528
50
269.3314664
51
287.2178029
0
ARC
8
DEFAULT_255_1_234
10
8.4882815
20
76.3563279
40
0.1714108
50
287.7958004
51
329.080874
0
ARC
8
DEFAULT_255_1_234
10
8.3925271
20
76.416093
40
0.2842745
50
328.6634704
51
343.3325132
0
ARC
8
DEFAULT_255_1_234
10
8.1752291
20
76.4837863
40
0.5118644
50
343.0499468
51
351.9393422
0
ARC
8
DEFAULT_255_1_234
10
7.8285591
20
76.5348949
40
0.8622784
50
351.8069023
51
357.7959224
0
ARC
8
DEFAULT_255_1_234
10
7.5050147
20
76.5516721
40
1.1862365
50
357.5871873
51
359.2677531
0
LINE
8
DEFAULT_255_1_234
10
4.3890902
20
85.1848211
11
4.3890902
21
84.0154
0
LINE
8
DEFAULT_255_1_234
10
4.3890902
20
84.0154
11
4.2348808
21
84.0154
0
LINE
8
DEFAULT_255_1_234
10
4.2348808
20
84.0154
11
4.2348808
21
85.1848211
0
LINE
8
DEFAULT_255_1_234
10
4.2348808
20
85.1848211
11
4.3890902
21
85.1848211
0
LINE
8
DEFAULT_255_1_234
10
4.7384708
20
85.1848211
11
4.9232008
21
84.3840568
0
LINE
8
DEFAULT_255_1_234
10
4.9232008
20
84.3840568
11
4.9456896
21
84.2298474
0
LINE
8
DEFAULT_255_1_234
10
4.9456896
20
84.2298474
11
4.9786198
21
84.3687965
0
LINE
8
DEFAULT_255_1_234
10
4.9786198
20
84.3687965
11
5.2099338
21
85.1848211
0
LINE
8
DEFAULT_255_1_234
10
5.2099338
20
85.1848211
11
5.340048
21
85.1848211
0
LINE
8
DEFAULT_255_1_234
10
5.340048
20
85.1848211
11
5.5657398
21
84.3687965
0
LINE
8
DEFAULT_255_1_234
10
5.5657398
20
84.3687965
11
5.5978668
21
84.2274379
0
LINE
8
DEFAULT_255_1_234
10
5.5978668
20
84.2274379
11
5.6227652
21
84.38486
0
LINE
8
DEFAULT_255_1_234
10
5.6227652
20
84.38486
11
5.8042825
21
85.1848211
0
LINE
8
DEFAULT_255_1_234
10
5.8042825
20
85.1848211
11
5.959295
21
85.1848211
0
LINE
8
DEFAULT_255_1_234
10
5.959295
20
85.1848211
11
5.6757747
21
84.0154
0
LINE
8
DEFAULT_255_1_234
10
5.6757747
20
84.0154
11
5.5352192
21
84.0154
0
LINE
8
DEFAULT_255_1_234
10
5.5352192
20
84.0154
11
5.2942671
21
84.8675674
0
LINE
8
DEFAULT_255_1_234
10
5.2942671
20
84.8675674
11
5.2757941
21
84.9567197
0
LINE
8
DEFAULT_255_1_234
10
5.2757941
20
84.9567197
11
5.2573211
21
84.8675674
0
LINE
8
DEFAULT_255_1_234
10
5.2573211
20
84.8675674
11
5.007534
21
84.0154
0
LINE
8
DEFAULT_255_1_234
10
5.007534
20
84.0154
11
4.8669786
21
84.0154
0
LINE
8
DEFAULT_255_1_234
10
4.8669786
20
84.0154
11
4.5842614
21
85.1848211
0
LINE
8
DEFAULT_255_1_234
10
4.5842614
20
85.1848211
11
4.7384708
21
85.1848211
0
LINE
8
DEFAULT_255_1_234
10
6.2299646
20
85.1848211
11
6.5118786
21
84.7366501
0
LINE
8
DEFAULT_255_1_234
10
6.5118786
20
84.7366501
11
6.7921863
21
85.1848211
0
LINE
8
DEFAULT_255_1_234
10
6.7921863
20
85.1848211
11
6.9737036
21
85.1848211
0
LINE
8
DEFAULT_255_1_234
10
6.9737036
20
85.1848211
11
6.6042436
21
84.6049296
0
LINE
8
DEFAULT_255_1_234
10
6.6042436
20
84.6049296
11
6.9825385
21
84.0154
0
LINE
8
DEFAULT_255_1_234
10
6.9825385
20
84.0154
11
6.7994148
21
84.0154
0
LINE
8
DEFAULT_255_1_234
10
6.7994148
20
84.0154
11
6.5118786
21
84.4716027
0
LINE
8
DEFAULT_255_1_234
10
6.5118786
20
84.4716027
11
6.222736
21
84.0154
0
LINE
8
DEFAULT_255_1_234
10
6.222736
20
84.0154
11
6.0404156
21
84.0154
0
LINE
8
DEFAULT_255_1_234
10
6.0404156
20
84.0154
11
6.4195136
21
84.6049296
0
LINE
8
DEFAULT_255_1_234
10
6.4195136
20
84.6049296
11
6.0492505
21
85.1848211
0
LINE
8
DEFAULT_255_1_234
10
6.0492505
20
85.1848211
11
6.2299646
21
85.1848211
0
ARC
8
DEFAULT_255_1_234
10
7.5500722
20
84.8770703
40
0.2822356
50
338.8763615
51
0.5166041
0
ARC
8
DEFAULT_255_1_234
10
7.5669377
20
84.8725208
40
0.2648703
50
325.8412414
51
338.4795939
0
ARC
8
DEFAULT_255_1_234
10
7.5278745
20
84.8996042
40
0.3124019
50
296.7586019
51
325.753654
0
ARC
8
DEFAULT_255_1_234
10
7.4990853
20
84.9480789
40
0.368668
50
296.0902311
51
297.3618122
0
ARC
8
DEFAULT_255_1_234
10
7.5248311
20
84.2926041
40
0.3518806
50
47.9009248
51
67.1946869
0
ARC
8
DEFAULT_255_1_234
10
7.5444553
20
84.3172395
40
0.320451
50
35.236241
51
47.551371
0
ARC
8
DEFAULT_255_1_234
10
7.570617
20
84.3346993
40
0.2890103
50
359.2759738
51
35.4014081
0
ARC
8
DEFAULT_255_1_234
10
7.4961202
20
84.3273826
40
0.3635026
50
343.1294516
51
0.5776525
0
ARC
8
DEFAULT_255_1_234
10
7.5685746
20
84.307433
40
0.2883832
50
310.8497458
51
342.744803
0
ARC
8
DEFAULT_255_1_234
10
7.526786
20
84.3551294
40
0.3517954
50
281.5473923
51
310.9169905
0
ARC
8
DEFAULT_255_1_234
10
7.4911309
20
84.5104084
40
0.5110832
50
269.6192722
51
281.9789957
0
ARC
8
DEFAULT_255_1_234
10
7.4839098
20
84.5104828
40
0.5111606
50
257.4584469
51
270.4287458
0
ARC
8
DEFAULT_255_1_234
10
7.4458241
20
84.3501344
40
0.3463762
50
228.7553743
51
257.8484423
0
ARC
8
DEFAULT_255_1_234
10
7.414844
20
84.3128442
40
0.297916
50
184.0104442
51
228.5071787
0
ARC
8
DEFAULT_255_1_234
10
7.5311384
20
84.3305512
40
0.4152734
50
179.9315461
51
185.3254504
0
ARC
8
DEFAULT_255_1_234
10
7.4135029
20
84.3342992
40
0.2976554
50
145.6795913
51
180.6259649
0
ARC
8
DEFAULT_255_1_234
10
7.4298379
20
84.3228929
40
0.3175776
50
115.5537925
51
145.6416199
0
ARC
8
DEFAULT_255_1_234
10
7.4639309
20
84.2618028
40
0.3874232
50
113.2437915
51
116.2054627
0
ARC
8
DEFAULT_255_1_234
10
7.4486521
20
84.901658
40
0.3154751
50
222.9548379
51
244.1372485
0
ARC
8
DEFAULT_255_1_234
10
7.4364597
20
84.8879834
40
0.2972382
50
213.3439227
51
222.6271327
0
ARC
8
DEFAULT_255_1_234
10
7.4172531
20
84.8749308
40
0.274019
50
180.4316517
51
213.2713999
0
ARC
8
DEFAULT_255_1_234
10
7.4747533
20
84.879611
40
0.33158
50
179.9992944
51
181.1655061
0
ARC
8
DEFAULT_255_1_234
10
7.515695
20
84.8830561
40
0.3725376
50
164.6186108
51
180.5292368
0
ARC
8
DEFAULT_255_1_234
10
7.4258812
20
84.9072101
40
0.2795349
50
132.2454369
51
164.5092287
0
ARC
8
DEFAULT_255_1_234
10
7.4545916
20
84.8747028
40
0.3229019
50
100.7052766
51
132.1387266
0
ARC
8
DEFAULT_255_1_234
10
7.4850889
20
84.7369086
40
0.4639835
50
89.6732617
51
101.2449487
0
ARC
8
DEFAULT_255_1_234
10
7.4913087
20
84.754399
40
0.4464999
50
76.2876631
51
90.4586123
0
ARC
8
DEFAULT_255_1_234
10
7.5219319
20
84.876622
40
0.3205023
50
47.8240157
51
76.4266918
0
ARC
8
DEFAULT_255_1_234
10
7.5441868
20
84.902659
40
0.2862661
50
6.9168658
51
47.6261438
0
ARC
8
DEFAULT_255_1_234
10
7.4255271
20
84.880737
40
0.4067708
50
359.8419705
51
7.9694496
0
ARC
8
DEFAULT_255_1_234
10
7.4597168
20
84.3366925
40
0.2513121
50
359.4454068
51
16.9256425
0
ARC
8
DEFAULT_255_1_234
10
7.5065979
20
84.3496033
40
0.2027071
50
17.292259
51
45.462717
0
ARC
8
DEFAULT_255_1_234
10
7.5011916
20
84.3449434
40
0.2098212
50
45.3028762
51
83.1921472
0
ARC
8
DEFAULT_255_1_234
10
7.48686
20
84.2647895
40
0.2911472
50
82.2614531
51
90.143954
0
ARC
8
DEFAULT_255_1_234
10
7.483772
20
84.288095
40
0.2678513
50
89.4959189
51
104.8579811
0
ARC
8
DEFAULT_255_1_234
10
7.4660978
20
84.355089
40
0.1985654
50
104.8855873
51
135.2448349
0
ARC
8
DEFAULT_255_1_234
10
7.4710751
20
84.3506336
40
0.2052373
50
135.3398955
51
172.104394
0
ARC
8
DEFAULT_255_1_234
10
7.5517809
20
84.3351925
40
0.2873299
50
171.2651929
51
180.1859362
0
ARC
8
DEFAULT_255_1_234
10
7.5348511
20
84.3319733
40
0.2704083
50
179.515471
51
193.6466734
0
ARC
8
DEFAULT_255_1_234
10
7.453228
20
84.3111777
40
0.1861855
50
193.3540587
51
225.8256931
0
ARC
8
DEFAULT_255_1_234
10
7.4573037
20
84.3182524
40
0.1941102
50
226.418029
51
255.8553723
0
ARC
8
DEFAULT_255_1_234
10
7.4829469
20
84.4118998
40
0.2911917
50
255.4655572
51
268.7985967
0
ARC
8
DEFAULT_255_1_234
10
7.4876661
20
84.4957491
40
0.3751331
50
268.3464808
51
270.0104874
0
ARC
8
DEFAULT_255_1_234
10
7.4900049
20
84.4273138
40
0.3067064
50
269.575914
51
282.0823146
0
ARC
8
DEFAULT_255_1_234
10
7.5124959
20
84.3278803
40
0.2047712
50
281.7522535
51
306.6056425
0
ARC
8
DEFAULT_255_1_234
10
7.5223385
20
84.3117487
40
0.1859604
50
307.1350025
51
314.0277951
0
ARC
8
DEFAULT_255_1_234
10
7.5187469
20
84.3143766
40
0.1903475
50
314.2553419
51
350.169324
0
ARC
8
DEFAULT_255_1_234
10
7.4335937
20
84.3328409
40
0.2774269
50
349.4145679
51
0.2930737
0
ARC
8
DEFAULT_255_1_234
10
7.4856371
20
84.8487353
40
0.2300764
50
89.477591
51
105.729794
0
ARC
8
DEFAULT_255_1_234
10
7.4720284
20
84.8992637
40
0.1777519
50
105.922966
51
135.1662921
0
ARC
8
DEFAULT_255_1_234
10
7.4740787
20
84.8978419
40
0.1802087
50
135.3053131
51
168.9882338
0
ARC
8
DEFAULT_255_1_234
10
7.5568359
20
84.8788721
40
0.2650806
50
168.3802067
51
180.3602358
0
ARC
8
DEFAULT_255_1_234
10
7.5339938
20
84.8751041
40
0.2422425
50
179.5029707
51
194.9126783
0
ARC
8
DEFAULT_255_1_234
10
7.4754599
20
84.859711
40
0.1817188
50
194.9722181
51
224.1943972
0
ARC
8
DEFAULT_255_1_234
10
7.4726467
20
84.8574169
40
0.1781027
50
224.2961434
51
262.0157375
0
ARC
8
DEFAULT_255_1_234
10
7.4868709
20
84.9305661
40
0.2525492
50
261.1250369
51
270.1959853
0
ARC
8
DEFAULT_255_1_234
10
7.4898465
20
84.9118339
40
0.233825
50
269.4825617
51
285.0988277
0
ARC
8
DEFAULT_255_1_234
10
7.5052624
20
84.853999
40
0.1739712
50
285.1585659
51
315.9484648
0
ARC
8
DEFAULT_255_1_234
10
7.4963635
20
84.8621886
40
0.1860616
50
316.0412958
51
351.9162715
0
ARC
8
DEFAULT_255_1_234
10
7.423059
20
84.8763245
40
0.2606517
50
351.1056823
51
0.1936567
0
ARC
8
DEFAULT_255_1_234
10
7.4493419
20
84.8793369
40
0.234377
50
359.4789506
51
16.0679113
0
ARC
8
DEFAULT_255_1_234
10
7.4969378
20
84.892181
40
0.1850875
50
16.3251951
51
44.791304
0
ARC
8
DEFAULT_255_1_234
10
7.495166
20
84.8922339
40
0.186312
50
44.3958661
51
88.2498933
0
ARC
8
DEFAULT_255_1_234
10
7.4878213
20
84.8311154
40
0.2476868
50
86.9833827
51
90.0200148
0
LINE
8
DEFAULT_255_1_234
10
4.3890902
20
93.1223211
11
4.3890902
21
91.9529
0
LINE
8
DEFAULT_255_1_234
10
4.3890902
20
91.9529
11
4.2348808
21
91.9529
0
LINE
8
DEFAULT_255_1_234
10
4.2348808
20
91.9529
11
4.2348808
21
93.1223211
0
LINE
8
DEFAULT_255_1_234
10
4.2348808
20
93.1223211
11
4.3890902
21
93.1223211
0
LINE
8
DEFAULT_255_1_234
10
4.7384708
20
93.1223211
11
4.9232008
21
92.3215568
0
LINE
8
DEFAULT_255_1_234
10
4.9232008
20
92.3215568
11
4.9456896
21
92.1673474
0
LINE
8
DEFAULT_255_1_234
10
4.9456896
20
92.1673474
11
4.9786198
21
92.3062965
0
LINE
8
DEFAULT_255_1_234
10
4.9786198
20
92.3062965
11
5.2099338
21
93.1223211
0
LINE
8
DEFAULT_255_1_234
10
5.2099338
20
93.1223211
11
5.340048
21
93.1223211
0
LINE
8
DEFAULT_255_1_234
10
5.340048
20
93.1223211
11
5.5657398
21
92.3062965
0
LINE
8
DEFAULT_255_1_234
10
5.5657398
20
92.3062965
11
5.5978668
21
92.1649379
0
LINE
8
DEFAULT_255_1_234
10
5.5978668
20
92.1649379
11
5.6227652
21
92.32236
0
LINE
8
DEFAULT_255_1_234
10
5.6227652
20
92.32236
11
5.8042825
21
93.1223211
0
LINE
8
DEFAULT_255_1_234
10
5.8042825
20
93.1223211
11
5.959295
21
93.1223211
0
LINE
8
DEFAULT_255_1_234
10
5.959295
20
93.1223211
11
5.6757747
21
91.9529
0
LINE
8
DEFAULT_255_1_234
10
5.6757747
20
91.9529
11
5.5352192
21
91.9529
0
LINE
8
DEFAULT_255_1_234
10
5.5352192
20
91.9529
11
5.2942671
21
92.8050674
0
LINE
8
DEFAULT_255_1_234
10
5.2942671
20
92.8050674
11
5.2757941
21
92.8942197
0
LINE
8
DEFAULT_255_1_234
10
5.2757941
20
92.8942197
11
5.2573211
21
92.8050674
0
LINE
8
DEFAULT_255_1_234
10
5.2573211
20
92.8050674
11
5.007534
21
91.9529
0
LINE
8
DEFAULT_255_1_234
10
5.007534
20
91.9529
11
4.8669786
21
91.9529
0
LINE
8
DEFAULT_255_1_234
10
4.8669786
20
91.9529
11
4.5842614
21
93.1223211
0
LINE
8
DEFAULT_255_1_234
10
4.5842614
20
93.1223211
11
4.7384708
21
93.1223211
0
LINE
8
DEFAULT_255_1_234
10
6.2299646
20
93.1223211
11
6.5118786
21
92.6741501
0
LINE
8
DEFAULT_255_1_234
10
6.5118786
20
92.6741501
11
6.7921863
21
93.1223211
0
LINE
8
DEFAULT_255_1_234
10
6.7921863
20
93.1223211
11
6.9737036
21
93.1223211
0
LINE
8
DEFAULT_255_1_234
10
6.9737036
20
93.1223211
11
6.6042436
21
92.5424296
0
LINE
8
DEFAULT_255_1_234
10
6.6042436
20
92.5424296
11
6.9825385
21
91.9529
0
LINE
8
DEFAULT_255_1_234
10
6.9825385
20
91.9529
11
6.7994148
21
91.9529
0
LINE
8
DEFAULT_255_1_234
10
6.7994148
20
91.9529
11
6.5118786
21
92.4091027
0
LINE
8
DEFAULT_255_1_234
10
6.5118786
20
92.4091027
11
6.222736
21
91.9529
0
LINE
8
DEFAULT_255_1_234
10
6.222736
20
91.9529
11
6.0404156
21
91.9529
0
LINE
8
DEFAULT_255_1_234
10
6.0404156
20
91.9529
11
6.4195136
21
92.5424296
0
LINE
8
DEFAULT_255_1_234
10
6.4195136
20
92.5424296
11
6.0492505
21
93.1223211
0
LINE
8
DEFAULT_255_1_234
10
6.0492505
20
93.1223211
11
6.2299646
21
93.1223211
0
LINE
8
DEFAULT_255_1_234
10
7.6796934
20
93.1231243
11
7.7061981
21
93.1231243
0
LINE
8
DEFAULT_255_1_234
10
7.7061981
20
93.1231243
11
7.7061981
21
92.997026
0
LINE
8
DEFAULT_255_1_234
10
7.7061981
20
92.997026
11
7.6788902
21
92.997026
0
LINE
8
DEFAULT_255_1_234
10
7.1319288
20
92.3978583
11
7.1319288
21
92.4548836
0
LINE
8
DEFAULT_255_1_234
10
7.2813191
20
92.4356075
11
7.2813191
21
92.3809917
0
ARC
8
DEFAULT_255_1_234
10
7.684125
20
92.4972455
40
0.4998079
50
90.6001036
51
104.514704
0
ARC
8
DEFAULT_255_1_234
10
7.6452765
20
92.6417131
40
0.3502176
50
104.2855254
51
133.862935
0
ARC
8
DEFAULT_255_1_234
10
7.6616523
20
92.630883
40
0.3693984
50
134.5302688
51
161.6210873
0
ARC
8
DEFAULT_255_1_234
10
7.8269711
20
92.5725895
40
0.5446739
50
161.2849839
51
174.2076652
0
ARC
8
DEFAULT_255_1_234
10
7.9676648
20
92.5531787
40
0.6866274
50
173.7810589
51
174.9254635
0
ARC
8
DEFAULT_255_1_234
10
7.512648
20
92.4148839
40
0.3033419
50
95.8330959
51
138.9954921
0
ARC
8
DEFAULT_255_1_234
10
7.5349836
20
92.2870375
40
0.4328947
50
89.8753725
51
97.0544009
0
ARC
8
DEFAULT_255_1_234
10
7.5397302
20
92.3705748
40
0.3493769
50
71.6407809
51
90.6240094
0
ARC
8
DEFAULT_255_1_234
10
7.5547876
20
92.4260082
40
0.2920396
50
39.6367836
51
71.019018
0
ARC
8
DEFAULT_255_1_234
10
7.4911349
20
92.3709998
40
0.3761538
50
10.658731
51
39.9043955
0
ARC
8
DEFAULT_255_1_234
10
7.3363432
20
92.3373686
40
0.5345136
50
359.682601
51
11.132623
0
ARC
8
DEFAULT_255_1_234
10
7.3323563
20
92.330301
40
0.5385081
50
347.2486944
51
0.4369317
0
ARC
8
DEFAULT_255_1_234
10
7.499104
20
92.2901807
40
0.3670249
50
318.1409698
51
347.6118597
0
ARC
8
DEFAULT_255_1_234
10
7.5316033
20
92.2634702
40
0.3250007
50
275.6342139
51
317.8248465
0
ARC
8
DEFAULT_255_1_234
10
7.5095144
20
92.3934219
40
0.4565864
50
269.8874292
51
276.7917694
0
ARC
8
DEFAULT_255_1_234
10
7.5040214
20
92.2908743
40
0.3540676
50
246.9140195
51
270.7437342
0
ARC
8
DEFAULT_255_1_234
10
7.5046605
20
92.2766384
40
0.3412781
50
218.1665114
51
245.878116
0
ARC
8
DEFAULT_255_1_234
10
7.5926066
20
92.3502279
40
0.455911
50
191.4115814
51
218.6077802
0
ARC
8
DEFAULT_255_1_234
10
7.7864155
20
92.3936833
40
0.6545001
50
179.6345085
51
191.7836486
0
ARC
8
DEFAULT_255_1_234
10
8.3446492
20
92.4615697
40
1.2127388
50
171.4525249
51
180.3158839
0
ARC
8
DEFAULT_255_1_234
10
7.9051367
20
92.5299608
40
0.7679464
50
157.9802646
51
171.6246686
0
ARC
8
DEFAULT_255_1_234
10
7.6837388
20
92.6182421
40
0.5296008
50
141.4298019
51
157.854097
0
ARC
8
DEFAULT_255_1_234
10
7.6195709
20
92.6636381
40
0.4511509
50
102.8715806
51
140.8564722
0
ARC
8
DEFAULT_255_1_234
10
7.6843324
20
92.4196552
40
0.7034845
50
90.3778349
51
103.5869322
0
ARC
8
DEFAULT_255_1_234
10
7.5105101
20
92.359173
40
0.2370698
50
89.8751008
51
126.2071704
0
ARC
8
DEFAULT_255_1_234
10
7.515089
20
92.3437303
40
0.2522934
50
124.9745049
51
144.895901
0
ARC
8
DEFAULT_255_1_234
10
7.4975081
20
92.358056
40
0.2296779
50
145.2974905
51
160.2660252
0
ARC
8
DEFAULT_255_1_234
10
7.804762
20
92.3778071
40
0.5234525
50
179.6514266
51
190.2855912
0
ARC
8
DEFAULT_255_1_234
10
7.6353757
20
92.3458786
40
0.3510893
50
190.0945431
51
207.5098196
0
ARC
8
DEFAULT_255_1_234
10
7.5788027
20
92.3189623
40
0.288489
50
207.9583163
51
216.3251085
0
ARC
8
DEFAULT_255_1_234
10
7.5448135
20
92.2910105
40
0.2445587
50
215.7661442
51
232.5456785
0
ARC
8
DEFAULT_255_1_234
10
7.5065117
20
92.2423482
40
0.1826382
50
232.8005391
51
270.6605633
0
ARC
8
DEFAULT_255_1_234
10
7.5110818
20
92.2787612
40
0.2190529
50
269.35537
51
288.4744281
0
ARC
8
DEFAULT_255_1_234
10
7.5203715
20
92.2438118
40
0.1829749
50
289.1833337
51
322.9683818
0
ARC
8
DEFAULT_255_1_234
10
7.4592238
20
92.2920391
40
0.2608399
50
322.6007884
51
346.5182367
0
ARC
8
DEFAULT_255_1_234
10
7.3434834
20
92.3215616
40
0.3802777
50
346.2582162
51
358.7741648
0
ARC
8
DEFAULT_255_1_234
10
7.2416503
20
92.3270965
40
0.4822176
50
358.3755224
51
0.0098023
0
ARC
8
DEFAULT_255_1_234
10
7.317269
20
92.3298657
40
0.4066078
50
359.6214041
51
11.2839074
0
ARC
8
DEFAULT_255_1_234
10
7.4449837
20
92.3565066
40
0.2761514
50
11.0482309
51
31.8146458
0
ARC
8
DEFAULT_255_1_234
10
7.475888
20
92.3732584
40
0.2410679
50
32.3035391
51
38.082671
0
ARC
8
DEFAULT_255_1_234
10
7.5179539
20
92.4113662
40
0.1844966
50
36.825067
51
85.7415724
0
ARC
8
DEFAULT_255_1_234
10
7.5112373
20
92.3613301
40
0.2349122
50
85.0140713
51
90.0513278
0
LINE
8
DEFAULT_255_1_234
10
4.4949902
20
101.0598211
11
4.4949902
21
99.8904
0
LINE
8
DEFAULT_255_1_234
10
4.4949902
20
99.8904
11
4.3407808
21
99.8904
0
LINE
8
DEFAULT_255_1_234
10
4.3407808
20
99.8904
11
4.3407808
21
101.0598211
0
LINE
8
DEFAULT_255_1_234
10
4.3407808
20
101.0598211
11
4.4949902
21
101.0598211
0
LINE
8
DEFAULT_255_1_234
10
4.8443708
20
101.0598211
11
5.0291008
21
100.2590568
0
LINE
8
DEFAULT_255_1_234
10
5.0291008
20
100.2590568
11
5.0515896
21
100.1048474
0
LINE
8
DEFAULT_255_1_234
10
5.0515896
20
100.1048474
11
5.0845198
21
100.2437965
0
LINE
8
DEFAULT_255_1_234
10
5.0845198
20
100.2437965
11
5.3158338
21
101.0598211
0
LINE
8
DEFAULT_255_1_234
10
5.3158338
20
101.0598211
11
5.445948
21
101.0598211
0
LINE
8
DEFAULT_255_1_234
10
5.445948
20
101.0598211
11
5.6716398
21
100.2437965
0
LINE
8
DEFAULT_255_1_234
10
5.6716398
20
100.2437965
11
5.7037668
21
100.1024379
0
LINE
8
DEFAULT_255_1_234
10
5.7037668
20
100.1024379
11
5.7286652
21
100.25986
0
LINE
8
DEFAULT_255_1_234
10
5.7286652
20
100.25986
11
5.9101825
21
101.0598211
0
LINE
8
DEFAULT_255_1_234
10
5.9101825
20
101.0598211
11
6.065195
21
101.0598211
0
LINE
8
DEFAULT_255_1_234
10
6.065195
20
101.0598211
11
5.7816747
21
99.8904
0
LINE
8
DEFAULT_255_1_234
10
5.7816747
20
99.8904
11
5.6411192
21
99.8904
0
LINE
8
DEFAULT_255_1_234
10
5.6411192
20
99.8904
11
5.4001671
21
100.7425674
0
LINE
8
DEFAULT_255_1_234
10
5.4001671
20
100.7425674
11
5.3816941
21
100.8317197
0
LINE
8
DEFAULT_255_1_234
10
5.3816941
20
100.8317197
11
5.3632211
21
100.7425674
0
LINE
8
DEFAULT_255_1_234
10
5.3632211
20
100.7425674
11
5.113434
21
99.8904
0
LINE
8
DEFAULT_255_1_234
10
5.113434
20
99.8904
11
4.9728786
21
99.8904
0
LINE
8
DEFAULT_255_1_234
10
4.9728786
20
99.8904
11
4.6901614
21
101.0598211
0
LINE
8
DEFAULT_255_1_234
10
4.6901614
20
101.0598211
11
4.8443708
21
101.0598211
0
LINE
8
DEFAULT_255_1_234
10
6.3358646
20
101.0598211
11
6.6177786
21
100.6116501
0
LINE
8
DEFAULT_255_1_234
10
6.6177786
20
100.6116501
11
6.8980863
21
101.0598211
0
LINE
8
DEFAULT_255_1_234
10
6.8980863
20
101.0598211
11
7.0796036
21
101.0598211
0
LINE
8
DEFAULT_255_1_234
10
7.0796036
20
101.0598211
11
6.7101436
21
100.4799296
0
LINE
8
DEFAULT_255_1_234
10
6.7101436
20
100.4799296
11
7.0884385
21
99.8904
0
LINE
8
DEFAULT_255_1_234
10
7.0884385
20
99.8904
11
6.9053148
21
99.8904
0
LINE
8
DEFAULT_255_1_234
10
6.9053148
20
99.8904
11
6.6177786
21
100.3466027
0
LINE
8
DEFAULT_255_1_234
10
6.6177786
20
100.3466027
11
6.328636
21
99.8904
0
LINE
8
DEFAULT_255_1_234
10
6.328636
20
99.8904
11
6.1463156
21
99.8904
0
LINE
8
DEFAULT_255_1_234
10
6.1463156
20
99.8904
11
6.5254136
21
100.4799296
0
LINE
8
DEFAULT_255_1_234
10
6.5254136
20
100.4799296
11
6.1551505
21
101.0598211
0
LINE
8
DEFAULT_255_1_234
10
6.1551505
20
101.0598211
11
6.3358646
21
101.0598211
0
LINE
8
DEFAULT_255_1_234
10
7.8562727
20
101.0598211
11
7.8562727
21
100.283152
0
LINE
8
DEFAULT_255_1_234
10
7.8562727
20
100.283152
11
8.0185138
21
100.283152
0
LINE
8
DEFAULT_255_1_234
10
8.0185138
20
100.283152
11
8.0185138
21
100.1618728
0
LINE
8
DEFAULT_255_1_234
10
8.0185138
20
100.1618728
11
7.8562727
21
100.1618728
0
LINE
8
DEFAULT_255_1_234
10
7.8562727
20
100.1618728
11
7.8562727
21
99.8904
0
LINE
8
DEFAULT_255_1_234
10
7.8562727
20
99.8904
11
7.7068823
21
99.8904
0
LINE
8
DEFAULT_255_1_234
10
7.7068823
20
99.8904
11
7.7068823
21
100.1618728
0
LINE
8
DEFAULT_255_1_234
10
7.7068823
20
100.1618728
11
7.1743781
21
100.1618728
0
LINE
8
DEFAULT_255_1_234
10
7.1743781
20
100.1618728
11
7.1743781
21
100.2494187
0
LINE
8
DEFAULT_255_1_234
10
7.1743781
20
100.2494187
11
7.6980474
21
101.0598211
0
LINE
8
DEFAULT_255_1_234
10
7.6980474
20
101.0598211
11
7.8562727
21
101.0598211
0
LINE
8
DEFAULT_255_1_234
10
7.6892125
20
100.8244912
11
7.3430446
21
100.283152
0
LINE
8
DEFAULT_255_1_234
10
7.3430446
20
100.283152
11
7.7068823
21
100.283152
0
LINE
8
DEFAULT_255_1_234
10
7.7068823
20
100.283152
11
7.7068823
21
100.8566181
0
LINE
8
DEFAULT_255_1_234
10
7.7068823
20
100.8566181
11
7.6892125
21
100.8244912
0
LINE
8
DEFAULT_255_1_234
10
4.3890902
20
108.9973211
11
4.3890902
21
107.8279
0
LINE
8
DEFAULT_255_1_234
10
4.3890902
20
107.8279
11
4.2348808
21
107.8279
0
LINE
8
DEFAULT_255_1_234
10
4.2348808
20
107.8279
11
4.2348808
21
108.9973211
0
LINE
8
DEFAULT_255_1_234
10
4.2348808
20
108.9973211
11
4.3890902
21
108.9973211
0
LINE
8
DEFAULT_255_1_234
10
4.7384708
20
108.9973211
11
4.9232008
21
108.1965568
0
LINE
8
DEFAULT_255_1_234
10
4.9232008
20
108.1965568
11
4.9456896
21
108.0423474
0
LINE
8
DEFAULT_255_1_234
10
4.9456896
20
108.0423474
11
4.9786198
21
108.1812965
0
LINE
8
DEFAULT_255_1_234
10
4.9786198
20
108.1812965
11
5.2099338
21
108.9973211
0
LINE
8
DEFAULT_255_1_234
10
5.2099338
20
108.9973211
11
5.340048
21
108.9973211
0
LINE
8
DEFAULT_255_1_234
10
5.340048
20
108.9973211
11
5.5657398
21
108.1812965
0
LINE
8
DEFAULT_255_1_234
10
5.5657398
20
108.1812965
11
5.5978668
21
108.0399379
0
LINE
8
DEFAULT_255_1_234
10
5.5978668
20
108.0399379
11
5.6227652
21
108.19736
0
LINE
8
DEFAULT_255_1_234
10
5.6227652
20
108.19736
11
5.8042825
21
108.9973211
0
LINE
8
DEFAULT_255_1_234
10
5.8042825
20
108.9973211
11
5.959295
21
108.9973211
0
LINE
8
DEFAULT_255_1_234
10
5.959295
20
108.9973211
11
5.6757747
21
107.8279
0
LINE
8
DEFAULT_255_1_234
10
5.6757747
20
107.8279
11
5.5352192
21
107.8279
0
LINE
8
DEFAULT_255_1_234
10
5.5352192
20
107.8279
11
5.2942671
21
108.6800674
0
LINE
8
DEFAULT_255_1_234
10
5.2942671
20
108.6800674
11
5.2757941
21
108.7692197
0
LINE
8
DEFAULT_255_1_234
10
5.2757941
20
108.7692197
11
5.2573211
21
108.6800674
0
LINE
8
DEFAULT_255_1_234
10
5.2573211
20
108.6800674
11
5.007534
21
107.8279
0
LINE
8
DEFAULT_255_1_234
10
5.007534
20
107.8279
11
4.8669786
21
107.8279
0
LINE
8
DEFAULT_255_1_234
10
4.8669786
20
107.8279
11
4.5842614
21
108.9973211
0
LINE
8
DEFAULT_255_1_234
10
4.5842614
20
108.9973211
11
4.7384708
21
108.9973211
0
LINE
8
DEFAULT_255_1_234
10
6.2299646
20
108.9973211
11
6.5118786
21
108.5491501
0
LINE
8
DEFAULT_255_1_234
10
6.5118786
20
108.5491501
11
6.7921863
21
108.9973211
0
LINE
8
DEFAULT_255_1_234
10
6.7921863
20
108.9973211
11
6.9737036
21
108.9973211
0
LINE
8
DEFAULT_255_1_234
10
6.9737036
20
108.9973211
11
6.6042436
21
108.4174296
0
LINE
8
DEFAULT_255_1_234
10
6.6042436
20
108.4174296
11
6.9825385
21
107.8279
0
LINE
8
DEFAULT_255_1_234
10
6.9825385
20
107.8279
11
6.7994148
21
107.8279
0
LINE
8
DEFAULT_255_1_234
10
6.7994148
20
107.8279
11
6.5118786
21
108.2841027
0
LINE
8
DEFAULT_255_1_234
10
6.5118786
20
108.2841027
11
6.222736
21
107.8279
0
LINE
8
DEFAULT_255_1_234
10
6.222736
20
107.8279
11
6.0404156
21
107.8279
0
LINE
8
DEFAULT_255_1_234
10
6.0404156
20
107.8279
11
6.4195136
21
108.4174296
0
LINE
8
DEFAULT_255_1_234
10
6.4195136
20
108.4174296
11
6.0492505
21
108.9973211
0
LINE
8
DEFAULT_255_1_234
10
6.0492505
20
108.9973211
11
6.2299646
21
108.9973211
0
LINE
8
DEFAULT_255_1_234
10
7.8893217
20
107.9491792
11
7.8893217
21
107.8279
0
LINE
8
DEFAULT_255_1_234
10
7.8893217
20
107.8279
11
7.1230939
21
107.8279
0
LINE
8
DEFAULT_255_1_234
10
7.1230939
20
107.8279
11
7.1230939
21
107.9347221
0
LINE
8
DEFAULT_255_1_234
10
7.1230939
20
107.9347221
11
7.5278935
21
108.3844995
0
LINE
8
DEFAULT_255_1_234
10
7.2491922
20
108.6527595
11
7.100605
21
108.6527595
0
LINE
8
DEFAULT_255_1_234
10
7.6154395
20
108.2889218
11
7.3022017
21
107.9491792
0
LINE
8
DEFAULT_255_1_234
10
7.3022017
20
107.9491792
11
7.8893217
21
107.9491792
0
ARC
8
DEFAULT_255_1_234
10
6.1788768
20
109.5774527
40
1.8008286
50
318.5132453
51
320.7828378
0
ARC
8
DEFAULT_255_1_234
10
6.7075743
20
109.1471426
40
1.1191493
50
320.7372736
51
323.9737074
0
ARC
8
DEFAULT_255_1_234
10
7.0995599
20
108.8631361
40
0.6350923
50
323.8961724
51
328.6421089
0
ARC
8
DEFAULT_255_1_234
10
7.3042195
20
108.7369031
40
0.3946393
50
328.8299013
51
331.789948
0
ARC
8
DEFAULT_255_1_234
10
7.4039373
20
108.6854509
40
0.2824501
50
331.4255242
51
352.9364833
0
ARC
8
DEFAULT_255_1_234
10
7.4175874
20
108.6823976
40
0.2685315
50
353.2248685
51
0.0169286
0
ARC
8
DEFAULT_255_1_234
10
7.438575
20
108.684695
40
0.2475536
50
359.4866256
51
15.9339782
0
ARC
8
DEFAULT_255_1_234
10
7.4892736
20
108.6983286
40
0.1950618
50
16.1714718
51
43.5284424
0
ARC
8
DEFAULT_255_1_234
10
7.4970044
20
108.7060573
40
0.184134
50
43.4415429
51
83.1661404
0
ARC
8
DEFAULT_255_1_234
10
7.4835963
20
108.6323771
40
0.258926
50
82.160215
51
90.1505798
0
ARC
8
DEFAULT_255_1_234
10
7.480439
20
108.5786865
40
0.3126255
50
89.5460705
51
102.5418777
0
ARC
8
DEFAULT_255_1_234
10
7.4561476
20
108.6817665
40
0.2067346
50
102.1739365
51
129.2061916
0
ARC
8
DEFAULT_255_1_234
10
7.4482548
20
108.6942094
40
0.1921118
50
129.7279328
51
135.7542026
0
ARC
8
DEFAULT_255_1_234
10
7.4604075
20
108.6845045
40
0.2075944
50
136.175737
51
166.3674722
0
ARC
8
DEFAULT_255_1_234
10
7.5610995
20
108.6575182
40
0.3118201
50
165.9092917
51
178.8683903
0
ARC
8
DEFAULT_255_1_234
10
7.6475856
20
108.6528179
40
0.3983935
50
178.438168
51
180.0083905
0
ARC
8
DEFAULT_255_1_234
10
7.5074458
20
108.6567231
40
0.4068601
50
163.2878735
51
180.5581814
0
ARC
8
DEFAULT_255_1_234
10
7.4272719
20
108.678784
40
0.3237344
50
133.454115
51
162.9470031
0
ARC
8
DEFAULT_255_1_234
10
7.4451261
20
108.6598
40
0.349795
50
100.7869394
51
133.4384016
0
ARC
8
DEFAULT_255_1_234
10
7.4799032
20
108.5049319
40
0.5084616
50
89.6605301
51
101.3704185
0
ARC
8
DEFAULT_255_1_234
10
7.4865371
20
108.5110496
40
0.502348
50
78.2171172
51
90.4130393
0
ARC
8
DEFAULT_255_1_234
10
7.5220449
20
108.6734637
40
0.3361092
50
55.9268222
51
78.4888551
0
ARC
8
DEFAULT_255_1_234
10
7.541689
20
108.7073324
40
0.2970617
50
47.9292255
51
55.4054003
0
ARC
8
DEFAULT_255_1_234
10
7.551845
20
108.7176502
40
0.2825983
50
4.3347696
51
48.0560701
0
ARC
8
DEFAULT_255_1_234
10
7.4422844
20
108.7006601
40
0.393225
50
359.925209
51
5.5967654
0
ARC
8
DEFAULT_255_1_234
10
7.4851736
20
108.7062816
40
0.3503892
50
337.8914096
51
358.9967724
0
ARC
8
DEFAULT_255_1_234
10
7.2138148
20
108.8109706
40
0.6412172
50
326.9135351
51
338.3505194
0
ARC
8
DEFAULT_255_1_234
10
6.8152451
20
109.0664284
40
1.1146189
50
319.6472867
51
327.095818
0
ARC
8
DEFAULT_255_1_234
10
6.4319455
20
109.3826
40
1.6114559
50
317.2586784
51
319.9046139
0
LINE
8
DEFAULT_255_1_234
10
4.3773902
20
116.9348211
11
4.3773902
21
115.7654
0
LINE
8
DEFAULT_255_1_234
10
4.3773902
20
115.7654
11
4.2231808
21
115.7654
0
LINE
8
DEFAULT_255_1_234
10
4.2231808
20
115.7654
11
4.2231808
21
116.9348211
0
LINE
8
DEFAULT_255_1_234
10
4.2231808
20
116.9348211
11
4.3773902
21
116.9348211
0
LINE
8
DEFAULT_255_1_234
10
4.7267708
20
116.9348211
11
4.9115008
21
116.1340568
0
LINE
8
DEFAULT_255_1_234
10
4.9115008
20
116.1340568
11
4.9339896
21
115.9798474
0
LINE
8
DEFAULT_255_1_234
10
4.9339896
20
115.9798474
11
4.9669198
21
116.1187965
0
LINE
8
DEFAULT_255_1_234
10
4.9669198
20
116.1187965
11
5.1982338
21
116.9348211
0
LINE
8
DEFAULT_255_1_234
10
5.1982338
20
116.9348211
11
5.328348
21
116.9348211
0
LINE
8
DEFAULT_255_1_234
10
5.328348
20
116.9348211
11
5.5540398
21
116.1187965
0
LINE
8
DEFAULT_255_1_234
10
5.5540398
20
116.1187965
11
5.5861668
21
115.9774379
0
LINE
8
DEFAULT_255_1_234
10
5.5861668
20
115.9774379
11
5.6110652
21
116.13486
0
LINE
8
DEFAULT_255_1_234
10
5.6110652
20
116.13486
11
5.7925825
21
116.9348211
0
LINE
8
DEFAULT_255_1_234
10
5.7925825
20
116.9348211
11
5.947595
21
116.9348211
0
LINE
8
DEFAULT_255_1_234
10
5.947595
20
116.9348211
11
5.6640747
21
115.7654
0
LINE
8
DEFAULT_255_1_234
10
5.6640747
20
115.7654
11
5.5235192
21
115.7654
0
LINE
8
DEFAULT_255_1_234
10
5.5235192
20
115.7654
11
5.2825671
21
116.6175674
0
LINE
8
DEFAULT_255_1_234
10
5.2825671
20
116.6175674
11
5.2640941
21
116.7067197
0
LINE
8
DEFAULT_255_1_234
10
5.2640941
20
116.7067197
11
5.2456211
21
116.6175674
0
LINE
8
DEFAULT_255_1_234
10
5.2456211
20
116.6175674
11
4.995834
21
115.7654
0
LINE
8
DEFAULT_255_1_234
10
4.995834
20
115.7654
11
4.8552786
21
115.7654
0
LINE
8
DEFAULT_255_1_234
10
4.8552786
20
115.7654
11
4.5725614
21
116.9348211
0
LINE
8
DEFAULT_255_1_234
10
4.5725614
20
116.9348211
11
4.7267708
21
116.9348211
0
LINE
8
DEFAULT_255_1_234
10
6.2182646
20
116.9348211
11
6.5001786
21
116.4866501
0
LINE
8
DEFAULT_255_1_234
10
6.5001786
20
116.4866501
11
6.7804863
21
116.9348211
0
LINE
8
DEFAULT_255_1_234
10
6.7804863
20
116.9348211
11
6.9620036
21
116.9348211
0
LINE
8
DEFAULT_255_1_234
10
6.9620036
20
116.9348211
11
6.5925436
21
116.3549296
0
LINE
8
DEFAULT_255_1_234
10
6.5925436
20
116.3549296
11
6.9708385
21
115.7654
0
LINE
8
DEFAULT_255_1_234
10
6.9708385
20
115.7654
11
6.7877148
21
115.7654
0
LINE
8
DEFAULT_255_1_234
10
6.7877148
20
115.7654
11
6.5001786
21
116.2216027
0
LINE
8
DEFAULT_255_1_234
10
6.5001786
20
116.2216027
11
6.211036
21
115.7654
0
LINE
8
DEFAULT_255_1_234
10
6.211036
20
115.7654
11
6.0287156
21
115.7654
0
LINE
8
DEFAULT_255_1_234
10
6.0287156
20
115.7654
11
6.4078136
21
116.3549296
0
LINE
8
DEFAULT_255_1_234
10
6.4078136
20
116.3549296
11
6.0375505
21
116.9348211
0
LINE
8
DEFAULT_255_1_234
10
6.0375505
20
116.9348211
11
6.2182646
21
116.9348211
0
LINE
8
DEFAULT_255_1_234
10
4.2454489
20
124.8723211
11
4.2454489
21
123.8289983
0
LINE
8
DEFAULT_255_1_234
10
4.2454489
20
123.8289983
11
4.7996389
21
123.8289983
0
LINE
8
DEFAULT_255_1_234
10
4.7996389
20
123.8289983
11
4.7996389
21
123.7029
0
LINE
8
DEFAULT_255_1_234
10
4.7996389
20
123.7029
11
4.0904364
21
123.7029
0
LINE
8
DEFAULT_255_1_234
10
4.0904364
20
123.7029
11
4.0904364
21
124.8723211
0
LINE
8
DEFAULT_255_1_234
10
4.0904364
20
124.8723211
11
4.2454489
21
124.8723211
0
LINE
8
DEFAULT_255_1_234
10
5.377924
20
124.6715276
11
5.377924
21
124.3301788
0
LINE
8
DEFAULT_255_1_234
10
5.377924
20
124.3301788
11
5.7040126
21
124.3301788
0
LINE
8
DEFAULT_255_1_234
10
5.7040126
20
124.3301788
11
5.7040126
21
124.1896233
0
LINE
8
DEFAULT_255_1_234
10
5.7040126
20
124.1896233
11
5.377924
21
124.1896233
0
LINE
8
DEFAULT_255_1_234
10
5.377924
20
124.1896233
11
5.377924
21
123.8201634
0
LINE
8
DEFAULT_255_1_234
10
5.377924
20
123.8201634
11
5.2285337
21
123.8201634
0
LINE
8
DEFAULT_255_1_234
10
5.2285337
20
123.8201634
11
5.2285337
21
124.1896233
0
LINE
8
DEFAULT_255_1_234
10
5.2285337
20
124.1896233
11
4.9024451
21
124.1896233
0
LINE
8
DEFAULT_255_1_234
10
4.9024451
20
124.1896233
11
4.9024451
21
124.3301788
0
LINE
8
DEFAULT_255_1_234
10
4.9024451
20
124.3301788
11
5.2285337
21
124.3301788
0
LINE
8
DEFAULT_255_1_234
10
5.2285337
20
124.3301788
11
5.2285337
21
124.6715276
0
LINE
8
DEFAULT_255_1_234
10
5.2285337
20
124.6715276
11
5.377924
21
124.6715276
0
LINE
8
DEFAULT_255_1_234
10
23.0434364
20
132.8098211
11
23.2426235
21
132.8098211
0
LINE
8
DEFAULT_255_1_234
10
23.2426235
20
132.8098211
11
23.6249342
21
131.8556506
0
LINE
8
DEFAULT_255_1_234
10
23.6249342
20
131.8556506
11
24.007245
21
132.8098211
0
LINE
8
DEFAULT_255_1_234
10
24.007245
20
132.8098211
11
24.2072353
21
132.8098211
0
LINE
8
DEFAULT_255_1_234
10
24.2072353
20
132.8098211
11
24.2072353
21
131.6404
0
LINE
8
DEFAULT_255_1_234
10
24.2072353
20
131.6404
11
24.0530259
21
131.6404
0
LINE
8
DEFAULT_255_1_234
10
24.0530259
20
131.6404
11
24.0530259
21
132.0957996
0
LINE
8
DEFAULT_255_1_234
10
24.0530259
20
132.0957996
11
24.067483
21
132.5873419
0
LINE
8
DEFAULT_255_1_234
10
24.067483
20
132.5873419
11
23.6835659
21
131.6404
0
LINE
8
DEFAULT_255_1_234
10
23.6835659
20
131.6404
11
23.5654994
21
131.6404
0
LINE
8
DEFAULT_255_1_234
10
23.5654994
20
131.6404
11
23.1823854
21
132.5849324
0
LINE
8
DEFAULT_255_1_234
10
23.1823854
20
132.5849324
11
23.1976458
21
132.0957996
0
LINE
8
DEFAULT_255_1_234
10
23.1976458
20
132.0957996
11
23.1976458
21
131.6404
0
LINE
8
DEFAULT_255_1_234
10
23.1976458
20
131.6404
11
23.0434364
21
131.6404
0
LINE
8
DEFAULT_255_1_234
10
23.0434364
20
131.6404
11
23.0434364
21
132.8098211
0
LINE
8
DEFAULT_255_1_234
10
23.0434364
20
124.8723211
11
23.2426235
21
124.8723211
0
LINE
8
DEFAULT_255_1_234
10
23.2426235
20
124.8723211
11
23.6249342
21
123.9181506
0
LINE
8
DEFAULT_255_1_234
10
23.6249342
20
123.9181506
11
24.007245
21
124.8723211
0
LINE
8
DEFAULT_255_1_234
10
24.007245
20
124.8723211
11
24.2072353
21
124.8723211
0
LINE
8
DEFAULT_255_1_234
10
24.2072353
20
124.8723211
11
24.2072353
21
123.7029
0
LINE
8
DEFAULT_255_1_234
10
24.2072353
20
123.7029
11
24.0530259
21
123.7029
0
LINE
8
DEFAULT_255_1_234
10
24.0530259
20
123.7029
11
24.0530259
21
124.1582996
0
LINE
8
DEFAULT_255_1_234
10
24.0530259
20
124.1582996
11
24.067483
21
124.6498419
0
LINE
8
DEFAULT_255_1_234
10
24.067483
20
124.6498419
11
23.6835659
21
123.7029
0
LINE
8
DEFAULT_255_1_234
10
23.6835659
20
123.7029
11
23.5654994
21
123.7029
0
LINE
8
DEFAULT_255_1_234
10
23.5654994
20
123.7029
11
23.1823854
21
124.6474324
0
LINE
8
DEFAULT_255_1_234
10
23.1823854
20
124.6474324
11
23.1976458
21
124.1582996
0
LINE
8
DEFAULT_255_1_234
10
23.1976458
20
124.1582996
11
23.1976458
21
123.7029
0
LINE
8
DEFAULT_255_1_234
10
23.1976458
20
123.7029
11
23.0434364
21
123.7029
0
LINE
8
DEFAULT_255_1_234
10
23.0434364
20
123.7029
11
23.0434364
21
124.8723211
0
ENDSEC
0
EOF