0
SECTION
2
HEADER
9
$MEASUREMENT
70
1
0
ENDSEC
0
SECTION
2
TABLES
0
TABLE
2
LTYPE
0
LTYPE
72
65
70
64
2
CONTINUOUS
3
______
73
0
40
0
0
ENDTAB
0
TABLE
2
LAYER
0
LAYER
2
DEFAULT_255_2_778
70
0
62
255
6
CONTINUOUS
0
LAYER
2
DEFAULT_255_1_234
70
0
62
255
6
CONTINUOUS
0
ENDTAB
0
ENDSEC
0
SECTION
2
ENTITIES
0
ARC
8
DEFAULT_255_2_778
10
4.0984002
20
170.5269944
40
1.3202532
50
148.7968675
51
180.1300552
0
ARC
8
DEFAULT_255_2_778
10
4.0975406
20
170.5274278
40
1.3192936
50
97.5665172
51
148.7936255
0
ARC
8
DEFAULT_255_2_778
10
4.100646
20
170.5007068
40
1.3461909
50
89.9827905
51
97.547783
0
ARC
8
DEFAULT_255_2_778
10
25.2707472
20
170.5266477
40
1.3202532
50
58.7968675
51
90.1300552
0
ARC
8
DEFAULT_255_2_778
10
25.2711805
20
170.5275073
40
1.3192936
50
7.5665172
51
58.7936255
0
ARC
8
DEFAULT_255_2_778
10
25.2444595
20
170.5244019
40
1.3461909
50
359.9827905
51
7.547783
0
ARC
8
DEFAULT_255_2_778
10
25.2704005
20
-1.4581993
40
1.3202532
50
328.7968675
51
0.1300552
0
ARC
8
DEFAULT_255_2_778
10
25.2712601
20
-1.4586326
40
1.3192936
50
277.5665172
51
328.7936255
0
ARC
8
DEFAULT_255_2_778
10
25.2681547
20
-1.4319116
40
1.3461909
50
269.9827905
51
277.547783
0
ARC
8
DEFAULT_255_2_778
10
4.0980535
20
-1.4578526
40
1.3202532
50
238.7968675
51
270.1300552
0
ARC
8
DEFAULT_255_2_778
10
4.0976201
20
-1.4587122
40
1.3192936
50
187.5665172
51
238.7936255
0
ARC
8
DEFAULT_255_2_778
10
4.1243411
20
-1.4556068
40
1.3461909
50
179.9827905
51
187.547783
0
LINE
8
DEFAULT_255_2_778
10
4.1010503
20
171.8468976
11
25.2677503
21
171.8468976
0
LINE
8
DEFAULT_255_2_778
10
26.5906503
20
170.5239976
11
26.5906503
21
-1.4552024
0
LINE
8
DEFAULT_255_2_778
10
25.2677503
20
-2.7781024
11
4.1010503
21
-2.7781024
0
LINE
8
DEFAULT_255_2_778
10
2.7781503
20
-1.4552024
11
2.7781503
21
170.5239976
0
LINE
8
DEFAULT_255_1_234
10
4.7836628
20
164.5598211
11
4.7836628
21
163.783152
0
LINE
8
DEFAULT_255_1_234
10
4.7836628
20
163.783152
11
4.9459039
21
163.783152
0
LINE
8
DEFAULT_255_1_234
10
4.9459039
20
163.783152
11
4.9459039
21
163.6618728
0
LINE
8
DEFAULT_255_1_234
10
4.9459039
20
163.6618728
11
4.7836628
21
163.6618728
0
LINE
8
DEFAULT_255_1_234
10
4.7836628
20
163.6618728
11
4.7836628
21
163.3904
0
LINE
8
DEFAULT_255_1_234
10
4.7836628
20
163.3904
11
4.6342725
21
163.3904
0
LINE
8
DEFAULT_255_1_234
10
4.6342725
20
163.3904
11
4.6342725
21
163.6618728
0
LINE
8
DEFAULT_255_1_234
10
4.6342725
20
163.6618728
11
4.1017682
21
163.6618728
0
LINE
8
DEFAULT_255_1_234
10
4.1017682
20
163.6618728
11
4.1017682
21
163.7494187
0
LINE
8
DEFAULT_255_1_234
10
4.1017682
20
163.7494187
11
4.6254375
21
164.5598211
0
LINE
8
DEFAULT_255_1_234
10
4.6254375
20
164.5598211
11
4.7836628
21
164.5598211
0
LINE
8
DEFAULT_255_1_234
10
4.6166026
20
164.3244912
11
4.2704347
21
163.783152
0
LINE
8
DEFAULT_255_1_234
10
4.2704347
20
163.783152
11
4.6342725
21
163.783152
0
LINE
8
DEFAULT_255_1_234
10
4.6342725
20
163.783152
11
4.6342725
21
164.3566181
0
LINE
8
DEFAULT_255_1_234
10
4.6342725
20
164.3566181
11
4.6166026
21
164.3244912
0
LINE
8
DEFAULT_255_1_234
10
5.5683636
20
164.5654433
11
5.5683636
21
163.3904
0
LINE
8
DEFAULT_255_1_234
10
5.5683636
20
163.3904
11
5.4189733
21
163.3904
0
LINE
8
DEFAULT_255_1_234
10
5.4189733
20
163.3904
11
5.4189733
21
164.3807133
0
LINE
8
DEFAULT_255_1_234
10
5.4189733
20
164.3807133
11
5.1193895
21
164.2706785
0
LINE
8
DEFAULT_255_1_234
10
5.1193895
20
164.2706785
11
5.1193895
21
164.4056117
0
LINE
8
DEFAULT_255_1_234
10
5.1193895
20
164.4056117
11
5.5450716
21
164.5654433
0
LINE
8
DEFAULT_255_1_234
10
5.5450716
20
164.5654433
11
5.5683636
21
164.5654433
0
LINE
8
DEFAULT_255_1_234
10
4.8257119
20
4.7616792
11
4.8257119
21
4.6404
0
LINE
8
DEFAULT_255_1_234
10
4.8257119
20
4.6404
11
4.059484
21
4.6404
0
LINE
8
DEFAULT_255_1_234
10
4.059484
20
4.6404
11
4.059484
21
4.7472221
0
LINE
8
DEFAULT_255_1_234
10
4.059484
20
4.7472221
11
4.4642836
21
5.1969995
0
LINE
8
DEFAULT_255_1_234
10
4.1855823
20
5.4652595
11
4.0369952
21
5.4652595
0
LINE
8
DEFAULT_255_1_234
10
4.5518296
20
5.1014218
11
4.2385918
21
4.7616792
0
LINE
8
DEFAULT_255_1_234
10
4.2385918
20
4.7616792
11
4.8257119
21
4.7616792
0
ARC
8
DEFAULT_255_1_234
10
3.115267
20
6.3899527
40
1.8008286
50
318.5132453
51
320.7828378
0
ARC
8
DEFAULT_255_1_234
10
3.6439644
20
5.9596426
40
1.1191493
50
320.7372736
51
323.9737074
0
ARC
8
DEFAULT_255_1_234
10
4.0359501
20
5.6756361
40
0.6350923
50
323.8961724
51
328.6421089
0
ARC
8
DEFAULT_255_1_234
10
4.2406096
20
5.5494031
40
0.3946393
50
328.8299013
51
331.789948
0
ARC
8
DEFAULT_255_1_234
10
4.3403274
20
5.4979509
40
0.2824501
50
331.4255242
51
352.9364833
0
ARC
8
DEFAULT_255_1_234
10
4.3539775
20
5.4948976
40
0.2685315
50
353.2248685
51
0.0169286
0
ARC
8
DEFAULT_255_1_234
10
4.3749652
20
5.497195
40
0.2475536
50
359.4866256
51
15.9339782
0
ARC
8
DEFAULT_255_1_234
10
4.4256637
20
5.5108286
40
0.1950618
50
16.1714718
51
43.5284424
0
ARC
8
DEFAULT_255_1_234
10
4.4333946
20
5.5185573
40
0.184134
50
43.4415429
51
83.1661404
0
ARC
8
DEFAULT_255_1_234
10
4.4199864
20
5.4448771
40
0.258926
50
82.160215
51
90.1505798
0
ARC
8
DEFAULT_255_1_234
10
4.4168291
20
5.3911865
40
0.3126255
50
89.5460705
51
102.5418777
0
ARC
8
DEFAULT_255_1_234
10
4.3925377
20
5.4942665
40
0.2067346
50
102.1739365
51
129.2061916
0
ARC
8
DEFAULT_255_1_234
10
4.3846449
20
5.5067094
40
0.1921118
50
129.7279328
51
135.7542026
0
ARC
8
DEFAULT_255_1_234
10
4.3967977
20
5.4970045
40
0.2075944
50
136.175737
51
166.3674722
0
ARC
8
DEFAULT_255_1_234
10
4.4974896
20
5.4700182
40
0.3118201
50
165.9092917
51
178.8683903
0
ARC
8
DEFAULT_255_1_234
10
4.5839757
20
5.4653179
40
0.3983935
50
178.438168
51
180.0083905
0
ARC
8
DEFAULT_255_1_234
10
4.4438359
20
5.4692231
40
0.4068601
50
163.2878735
51
180.5581814
0
ARC
8
DEFAULT_255_1_234
10
4.3636621
20
5.491284
40
0.3237344
50
133.454115
51
162.9470031
0
ARC
8
DEFAULT_255_1_234
10
4.3815162
20
5.4723
40
0.349795
50
100.7869394
51
133.4384016
0
ARC
8
DEFAULT_255_1_234
10
4.4162934
20
5.3174319
40
0.5084616
50
89.6605301
51
101.3704185
0
ARC
8
DEFAULT_255_1_234
10
4.4229273
20
5.3235496
40
0.502348
50
78.2171172
51
90.4130393
0
ARC
8
DEFAULT_255_1_234
10
4.4584351
20
5.4859637
40
0.3361092
50
55.9268222
51
78.4888551
0
ARC
8
DEFAULT_255_1_234
10
4.4780791
20
5.5198324
40
0.2970617
50
47.9292255
51
55.4054003
0
ARC
8
DEFAULT_255_1_234
10
4.4882352
20
5.5301502
40
0.2825983
50
4.3347696
51
48.0560701
0
ARC
8
DEFAULT_255_1_234
10
4.3786745
20
5.5131601
40
0.393225
50
359.925209
51
5.5967654
0
ARC
8
DEFAULT_255_1_234
10
4.4215637
20
5.5187816
40
0.3503892
50
337.8914096
51
358.9967724
0
ARC
8
DEFAULT_255_1_234
10
4.1502049
20
5.6234706
40
0.6412172
50
326.9135351
51
338.3505194
0
ARC
8
DEFAULT_255_1_234
10
3.7516353
20
5.8789284
40
1.1146189
50
319.6472867
51
327.095818
0
ARC
8
DEFAULT_255_1_234
10
3.3683356
20
6.1951
40
1.6114559
50
317.2586784
51
319.9046139
0
LINE
8
DEFAULT_255_1_234
10
5.7164316
20
5.3319327
11
5.7164316
21
5.1391709
0
LINE
8
DEFAULT_255_1_234
10
4.9783149
20
5.1190916
11
4.9783149
21
5.3174755
0
LINE
8
DEFAULT_255_1_234
10
5.5678445
20
5.0990123
11
5.5678445
21
5.3423739
0
LINE
8
DEFAULT_255_1_234
10
5.1269021
20
5.3536184
11
5.1269021
21
5.1158789
0
ARC
8
DEFAULT_255_1_234
10
4.4917206
20
5.1342805
40
1.2247208
50
353.8441951
51
0.2287902
0
ARC
8
DEFAULT_255_1_234
10
4.955671
20
5.0824806
40
0.7578929
50
344.4934747
51
353.9765454
0
ARC
8
DEFAULT_255_1_234
10
5.25493
20
4.9973981
40
0.4467846
50
329.2803592
51
344.7472793
0
ARC
8
DEFAULT_255_1_234
10
5.3542125
20
4.9429018
40
0.3336173
50
324.9352394
51
328.6160465
0
ARC
8
DEFAULT_255_1_234
10
5.3919233
20
4.9165427
40
0.2876076
50
280.580143
51
324.9173126
0
ARC
8
DEFAULT_255_1_234
10
5.3518026
20
5.0836099
40
0.4592847
50
269.5977311
51
281.6734359
0
ARC
8
DEFAULT_255_1_234
10
5.3445932
20
5.0716173
40
0.4472986
50
256.6228859
51
270.51044
0
ARC
8
DEFAULT_255_1_234
10
5.3043909
20
4.9167877
40
0.2873874
50
215.8618325
51
257.2788573
0
ARC
8
DEFAULT_255_1_234
10
5.4064941
20
4.9852977
40
0.4102928
50
197.9693508
51
215.2623606
0
ARC
8
DEFAULT_255_1_234
10
5.6550057
20
5.0691709
40
0.6725652
50
187.8816417
51
198.2346507
0
ARC
8
DEFAULT_255_1_234
10
6.0508265
20
5.1263079
40
1.0724845
50
180.8976217
51
188.0055519
0
ARC
8
DEFAULT_255_1_234
10
6.3308453
20
5.1366777
40
1.3526448
50
180.7449369
51
181.1510016
0
ARC
8
DEFAULT_255_1_234
10
6.1731182
20
5.3223042
40
1.1948131
50
173.7675579
51
180.231553
0
ARC
8
DEFAULT_255_1_234
10
5.7213329
20
5.3733666
40
0.7401564
50
164.3058563
51
173.9002247
0
ARC
8
DEFAULT_255_1_234
10
5.4301398
20
5.4572656
40
0.4371288
50
148.7922025
51
164.568378
0
ARC
8
DEFAULT_255_1_234
10
5.334985
20
5.5103929
40
0.3282386
50
144.5883898
51
148.1176286
0
ARC
8
DEFAULT_255_1_234
10
5.3006748
20
5.5343315
40
0.2864044
50
101.6440918
51
144.514236
0
ARC
8
DEFAULT_255_1_234
10
5.3431814
20
5.3654069
40
0.4604934
50
89.5284041
51
102.5819763
0
ARC
8
DEFAULT_255_1_234
10
5.3510902
20
5.3615018
40
0.464401
50
77.0437873
51
90.5081339
0
ARC
8
DEFAULT_255_1_234
10
5.3912904
20
5.5257615
40
0.2953195
50
48.2778575
51
77.4994676
0
ARC
8
DEFAULT_255_1_234
10
5.3985535
20
5.5386746
40
0.2808655
50
36.3142134
51
47.6305865
0
ARC
8
DEFAULT_255_1_234
10
5.3116842
20
5.4801515
40
0.3855453
50
18.2931786
51
35.6769206
0
ARC
8
DEFAULT_255_1_234
10
5.0573601
20
5.3928593
40
0.654423
50
8.024666
51
18.5605216
0
ARC
8
DEFAULT_255_1_234
10
4.6410521
20
5.3313792
40
1.0752407
50
1.1274072
51
8.1718305
0
ARC
8
DEFAULT_255_1_234
10
4.3174712
20
5.3186885
40
1.3990231
50
0.5424119
51
1.3863029
0
ARC
8
DEFAULT_255_1_234
10
4.4996089
20
5.3459342
40
1.0682415
50
359.8090433
51
4.9407866
0
ARC
8
DEFAULT_255_1_234
10
4.9206103
20
5.3835113
40
0.6455691
50
4.8362157
51
12.2904523
0
ARC
8
DEFAULT_255_1_234
10
5.1961218
20
5.4448965
40
0.3633074
50
12.0805627
51
23.8173984
0
ARC
8
DEFAULT_255_1_234
10
5.3134924
20
5.4945919
40
0.2358723
50
24.2871213
51
31.3935614
0
ARC
8
DEFAULT_255_1_234
10
5.3659621
20
5.5289233
40
0.1732111
50
30.7407893
51
82.4657128
0
ARC
8
DEFAULT_255_1_234
10
5.3479755
20
5.4405691
40
0.263235
50
81.1060089
51
90.2184952
0
ARC
8
DEFAULT_255_1_234
10
5.3444054
20
5.4663924
40
0.2374236
50
89.3806855
51
105.6762551
0
ARC
8
DEFAULT_255_1_234
10
5.3260685
20
5.5330567
40
0.1682847
50
105.7981136
51
149.7388061
0
ARC
8
DEFAULT_255_1_234
10
5.4324763
20
5.469095
40
0.2924306
50
149.4208916
51
163.6286378
0
ARC
8
DEFAULT_255_1_234
10
5.6415651
20
5.405325
40
0.5110213
50
163.3763315
51
172.1410975
0
ARC
8
DEFAULT_255_1_234
10
5.971637
20
5.3580518
40
0.8444586
50
172.0259487
51
178.0703232
0
ARC
8
DEFAULT_255_1_234
10
6.274646
20
5.3436906
40
1.1477868
50
177.8631668
51
179.5044149
0
ARC
8
DEFAULT_255_1_234
10
6.1673864
20
5.1122389
40
1.0404907
50
179.7995573
51
185.2460446
0
ARC
8
DEFAULT_255_1_234
10
5.7630903
20
5.0739513
40
0.6343885
50
185.1411642
51
193.0079639
0
ARC
8
DEFAULT_255_1_234
10
5.4987376
20
5.0114641
40
0.3627568
50
192.7897626
51
205.2507664
0
ARC
8
DEFAULT_255_1_234
10
5.3940923
20
4.9647415
40
0.2481908
50
205.8005384
51
211.2537509
0
ARC
8
DEFAULT_255_1_234
10
5.3417363
20
4.929658
40
0.1852521
50
210.3789793
51
238.4008143
0
ARC
8
DEFAULT_255_1_234
10
5.3397885
20
4.9343376
40
0.1882621
50
239.6520629
51
265.9793761
0
ARC
8
DEFAULT_255_1_234
10
5.3483085
20
5.0015427
40
0.2559272
50
265.1315437
51
270.060332
0
ARC
8
DEFAULT_255_1_234
10
5.3511864
20
4.9691534
40
0.2235528
50
269.3314664
51
287.2178029
0
ARC
8
DEFAULT_255_1_234
10
5.3649716
20
4.9188279
40
0.1714108
50
287.7958004
51
329.080874
0
ARC
8
DEFAULT_255_1_234
10
5.2692173
20
4.978593
40
0.2842745
50
328.6634704
51
343.3325132
0
ARC
8
DEFAULT_255_1_234
10
5.0519193
20
5.0462863
40
0.5118644
50
343.0499468
51
351.9393422
0
ARC
8
DEFAULT_255_1_234
10
4.7052493
20
5.0973949
40
0.8622784
50
351.8069023
51
357.7959224
0
ARC
8
DEFAULT_255_1_234
10
4.3817049
20
5.1141721
40
1.1862365
50
357.5871873
51
359.2677531
0
LINE
8
DEFAULT_255_1_234
10
4.5478137
20
13.7529433
11
4.5478137
21
12.5779
0
LINE
8
DEFAULT_255_1_234
10
4.5478137
20
12.5779
11
4.3984234
21
12.5779
0
LINE
8
DEFAULT_255_1_234
10
4.3984234
20
12.5779
11
4.3984234
21
13.5682133
0
LINE
8
DEFAULT_255_1_234
10
4.3984234
20
13.5682133
11
4.0988396
21
13.4581785
0
LINE
8
DEFAULT_255_1_234
10
4.0988396
20
13.4581785
11
4.0988396
21
13.5931117
0
LINE
8
DEFAULT_255_1_234
10
4.0988396
20
13.5931117
11
4.5245217
21
13.7529433
0
LINE
8
DEFAULT_255_1_234
10
4.5245217
20
13.7529433
11
4.5478137
21
13.7529433
0
LINE
8
DEFAULT_255_1_234
10
5.7019745
20
13.2798739
11
5.7019745
21
13.2365025
0
LINE
8
DEFAULT_255_1_234
10
5.1598322
20
12.5770968
11
5.1309179
21
12.5770968
0
LINE
8
DEFAULT_255_1_234
10
5.1309179
20
12.5770968
11
5.1309179
21
12.7023919
0
LINE
8
DEFAULT_255_1_234
10
5.1309179
20
12.7023919
11
5.1622417
21
12.7023919
0
LINE
8
DEFAULT_255_1_234
10
5.5533874
20
13.2509597
11
5.5533874
21
13.3103945
0
ARC
8
DEFAULT_255_1_234
10
5.2740143
20
13.3255403
40
0.3635579
50
297.4037347
51
320.016758
0
ARC
8
DEFAULT_255_1_234
10
5.3030092
20
13.269824
40
0.3007486
50
270.2633101
51
297.3851877
0
ARC
8
DEFAULT_255_1_234
10
5.2996048
20
13.3161904
40
0.3471448
50
269.9966443
51
270.7900392
0
ARC
8
DEFAULT_255_1_234
10
5.2970529
20
13.3160143
40
0.3469779
50
254.5999133
51
270.4180344
0
ARC
8
DEFAULT_255_1_234
10
5.2827888
20
13.2595647
40
0.2887697
50
236.4717942
51
254.3541279
0
ARC
8
DEFAULT_255_1_234
10
5.2984106
20
13.2805711
40
0.3149125
50
208.4727207
51
236.2134933
0
ARC
8
DEFAULT_255_1_234
10
5.3622881
20
13.3196455
40
0.3897115
50
204.3447514
51
209.0453999
0
ARC
8
DEFAULT_255_1_234
10
5.4302457
20
13.3484656
40
0.4635101
50
183.9375985
51
204.1276318
0
ARC
8
DEFAULT_255_1_234
10
5.5210708
20
13.3582482
40
0.5548037
50
179.9652252
51
184.3013875
0
ARC
8
DEFAULT_255_1_234
10
5.4970754
20
13.3615507
40
0.5308164
50
166.7585989
51
180.3201225
0
ARC
8
DEFAULT_255_1_234
10
5.4124368
20
13.3799488
40
0.4442163
50
154.6955053
51
166.5679793
0
ARC
8
DEFAULT_255_1_234
10
5.3271238
20
13.422921
40
0.3487299
50
136.3324195
51
155.0871442
0
ARC
8
DEFAULT_255_1_234
10
5.2990311
20
13.4469954
40
0.3117924
50
121.236733
51
135.9680508
0
ARC
8
DEFAULT_255_1_234
10
5.3130809
20
13.4209743
40
0.3413302
50
96.845628
51
120.9881519
0
ARC
8
DEFAULT_255_1_234
10
5.3276391
20
13.3274515
40
0.4359341
50
89.8870174
51
97.2802754
0
ARC
8
DEFAULT_255_1_234
10
5.3328829
20
13.3912095
40
0.3722009
50
70.6505584
51
90.6749113
0
ARC
8
DEFAULT_255_1_234
10
5.3460108
20
13.4425361
40
0.3194571
50
36.7492984
51
69.8219918
0
ARC
8
DEFAULT_255_1_234
10
5.2461273
20
13.3646993
40
0.4460685
50
15.39587
51
37.0840084
0
ARC
8
DEFAULT_255_1_234
10
5.0331706
20
13.3026242
40
0.6678714
50
3.9488873
51
15.6798563
0
ARC
8
DEFAULT_255_1_234
10
4.7930334
20
13.2809964
40
0.9089418
50
359.929245
51
4.2665314
0
ARC
8
DEFAULT_255_1_234
10
4.3324771
20
13.2298513
40
1.3695135
50
352.8366322
51
0.2782669
0
ARC
8
DEFAULT_255_1_234
10
4.861245
20
13.1611629
40
0.8363105
50
341.8359505
51
352.9884176
0
ARC
8
DEFAULT_255_1_234
10
5.1831169
20
13.05267
40
0.4966642
50
322.8578092
51
342.1527901
0
ARC
8
DEFAULT_255_1_234
10
5.2695125
20
12.9937384
40
0.3922466
50
319.334325
51
322.0998941
0
ARC
8
DEFAULT_255_1_234
10
5.2385462
20
13.0248209
40
0.4360033
50
285.9541367
51
318.8878087
0
ARC
8
DEFAULT_255_1_234
10
5.1658723
20
13.25586
40
0.678149
50
272.9281676
51
286.4922826
0
ARC
8
DEFAULT_255_1_234
10
5.1468841
20
13.4809587
40
0.9039547
50
270.8207226
51
273.4012994
0
ARC
8
DEFAULT_255_1_234
10
5.1557692
20
13.2990666
40
0.5967098
50
270.6214993
51
281.4062806
0
ARC
8
DEFAULT_255_1_234
10
5.1987673
20
13.0934833
40
0.3866861
50
281.1852553
51
299.0621114
0
ARC
8
DEFAULT_255_1_234
10
5.2361244
20
13.0213798
40
0.3055236
50
299.5067782
51
313.1200873
0
ARC
8
DEFAULT_255_1_234
10
5.2383211
20
13.0134554
40
0.2982623
50
313.8526205
51
338.5989322
0
ARC
8
DEFAULT_255_1_234
10
5.0759285
20
13.0801781
40
0.4738131
50
338.2523585
51
351.2430902
0
ARC
8
DEFAULT_255_1_234
10
4.8348581
20
13.1211447
40
0.7183203
50
350.9409515
51
357.6691871
0
ARC
8
DEFAULT_255_1_234
10
5.3239011
20
13.3213764
40
0.2294452
50
269.9447023
51
306.8248917
0
ARC
8
DEFAULT_255_1_234
10
5.3001926
20
13.3636898
40
0.2775994
50
305.5072438
51
327.0773448
0
ARC
8
DEFAULT_255_1_234
10
5.3120367
20
13.3542025
40
0.2625056
50
327.4104943
51
336.840169
0
ARC
8
DEFAULT_255_1_234
10
5.0026432
20
13.3136302
40
0.5507537
50
359.6633817
51
10.117533
0
ARC
8
DEFAULT_255_1_234
10
5.178023
20
13.3460777
40
0.372403
50
9.9430141
51
26.7700076
0
ARC
8
DEFAULT_255_1_234
10
5.2377442
20
13.3736187
40
0.3066865
50
27.2015464
51
34.6829435
0
ARC
8
DEFAULT_255_1_234
10
5.2866922
20
13.4103977
40
0.245519
50
34.1250343
51
50.3070065
0
ARC
8
DEFAULT_255_1_234
10
5.3313602
20
13.4638385
40
0.1758693
50
50.3851167
51
90.6705993
0
ARC
8
DEFAULT_255_1_234
10
5.3266835
20
13.4333799
40
0.2063326
50
89.272901
51
111.9140407
0
ARC
8
DEFAULT_255_1_234
10
5.3247363
20
13.447444
40
0.1925887
50
112.9382311
51
142.5320782
0
ARC
8
DEFAULT_255_1_234
10
5.3793543
20
13.4030969
40
0.2629232
50
142.1021256
51
166.3835592
0
ARC
8
DEFAULT_255_1_234
10
5.4974848
20
13.3725915
40
0.3849193
50
166.1100289
51
178.665427
0
ARC
8
DEFAULT_255_1_234
10
5.6022437
20
13.3667117
40
0.4897989
50
178.2632126
51
180.0111093
0
ARC
8
DEFAULT_255_1_234
10
5.5220558
20
13.3638728
40
0.40962
50
179.6161962
51
191.8787166
0
ARC
8
DEFAULT_255_1_234
10
5.4000397
20
13.3368896
40
0.2846655
50
191.6191692
51
215.2972286
0
ARC
8
DEFAULT_255_1_234
10
5.3803588
20
13.3253918
40
0.2619665
50
215.7320102
51
216.5355409
0
ARC
8
DEFAULT_255_1_234
10
5.3264674
20
13.2821647
40
0.1929497
50
215.7486685
51
239.9727502
0
ARC
8
DEFAULT_255_1_234
10
5.319459
20
13.2770894
40
0.1850822
50
241.0650169
51
269.2810483
0
ARC
8
DEFAULT_255_1_234
10
5.3236505
20
13.3261371
40
0.2342059
50
268.4062526
51
270.0071348
0
LINE
8
DEFAULT_255_1_234
10
4.5478137
20
21.6904433
11
4.5478137
21
20.5154
0
LINE
8
DEFAULT_255_1_234
10
4.5478137
20
20.5154
11
4.3984234
21
20.5154
0
LINE
8
DEFAULT_255_1_234
10
4.3984234
20
20.5154
11
4.3984234
21
21.5057133
0
LINE
8
DEFAULT_255_1_234
10
4.3984234
20
21.5057133
11
4.0988396
21
21.3956785
0
LINE
8
DEFAULT_255_1_234
10
4.0988396
20
21.3956785
11
4.0988396
21
21.5306117
0
LINE
8
DEFAULT_255_1_234
10
4.0988396
20
21.5306117
11
4.5245217
21
21.6904433
0
LINE
8
DEFAULT_255_1_234
10
4.5245217
20
21.6904433
11
4.5478137
21
21.6904433
0
ARC
8
DEFAULT_255_1_234
10
5.4101123
20
21.3770703
40
0.2822356
50
338.8763615
51
0.5166041
0
ARC
8
DEFAULT_255_1_234
10
5.4269777
20
21.3725208
40
0.2648703
50
325.8412414
51
338.4795939
0
ARC
8
DEFAULT_255_1_234
10
5.3879145
20
21.3996042
40
0.3124019
50
296.7586019
51
325.753654
0
ARC
8
DEFAULT_255_1_234
10
5.3591253
20
21.4480789
40
0.368668
50
296.0902311
51
297.3618122
0
ARC
8
DEFAULT_255_1_234
10
5.3848711
20
20.7926041
40
0.3518806
50
47.9009248
51
67.1946869
0
ARC
8
DEFAULT_255_1_234
10
5.4044953
20
20.8172395
40
0.320451
50
35.236241
51
47.551371
0
ARC
8
DEFAULT_255_1_234
10
5.4306571
20
20.8346993
40
0.2890103
50
359.2759738
51
35.4014081
0
ARC
8
DEFAULT_255_1_234
10
5.3561602
20
20.8273826
40
0.3635026
50
343.1294516
51
0.5776525
0
ARC
8
DEFAULT_255_1_234
10
5.4286147
20
20.807433
40
0.2883832
50
310.8497458
51
342.744803
0
ARC
8
DEFAULT_255_1_234
10
5.386826
20
20.8551294
40
0.3517954
50
281.5473923
51
310.9169905
0
ARC
8
DEFAULT_255_1_234
10
5.351171
20
21.0104084
40
0.5110832
50
269.6192722
51
281.9789957
0
ARC
8
DEFAULT_255_1_234
10
5.3439499
20
21.0104828
40
0.5111606
50
257.4584469
51
270.4287458
0
ARC
8
DEFAULT_255_1_234
10
5.3058642
20
20.8501344
40
0.3463762
50
228.7553743
51
257.8484423
0
ARC
8
DEFAULT_255_1_234
10
5.274884
20
20.8128442
40
0.297916
50
184.0104442
51
228.5071787
0
ARC
8
DEFAULT_255_1_234
10
5.3911784
20
20.8305512
40
0.4152734
50
179.9315461
51
185.3254504
0
ARC
8
DEFAULT_255_1_234
10
5.273543
20
20.8342992
40
0.2976554
50
145.6795913
51
180.6259649
0
ARC
8
DEFAULT_255_1_234
10
5.2898779
20
20.8228929
40
0.3175776
50
115.5537925
51
145.6416199
0
ARC
8
DEFAULT_255_1_234
10
5.3239709
20
20.7618028
40
0.3874232
50
113.2437915
51
116.2054627
0
ARC
8
DEFAULT_255_1_234
10
5.3086922
20
21.401658
40
0.3154751
50
222.9548379
51
244.1372485
0
ARC
8
DEFAULT_255_1_234
10
5.2964997
20
21.3879834
40
0.2972382
50
213.3439227
51
222.6271327
0
ARC
8
DEFAULT_255_1_234
10
5.2772932
20
21.3749308
40
0.274019
50
180.4316517
51
213.2713999
0
ARC
8
DEFAULT_255_1_234
10
5.3347933
20
21.379611
40
0.33158
50
179.9992944
51
181.1655061
0
ARC
8
DEFAULT_255_1_234
10
5.375735
20
21.3830561
40
0.3725376
50
164.6186108
51
180.5292368
0
ARC
8
DEFAULT_255_1_234
10
5.2859213
20
21.4072101
40
0.2795349
50
132.2454369
51
164.5092287
0
ARC
8
DEFAULT_255_1_234
10
5.3146317
20
21.3747028
40
0.3229019
50
100.7052766
51
132.1387266
0
ARC
8
DEFAULT_255_1_234
10
5.3451289
20
21.2369086
40
0.4639835
50
89.6732617
51
101.2449487
0
ARC
8
DEFAULT_255_1_234
10
5.3513487
20
21.254399
40
0.4464999
50
76.2876631
51
90.4586123
0
ARC
8
DEFAULT_255_1_234
10
5.3819719
20
21.376622
40
0.3205023
50
47.8240157
51
76.4266918
0
ARC
8
DEFAULT_255_1_234
10
5.4042269
20
21.402659
40
0.2862661
50
6.9168658
51
47.6261438
0
ARC
8
DEFAULT_255_1_234
10
5.2855672
20
21.380737
40
0.4067708
50
359.8419705
51
7.9694496
0
ARC
8
DEFAULT_255_1_234
10
5.3197569
20
20.8366925
40
0.2513121
50
359.4454068
51
16.9256425
0
ARC
8
DEFAULT_255_1_234
10
5.366638
20
20.8496033
40
0.2027071
50
17.292259
51
45.462717
0
ARC
8
DEFAULT_255_1_234
10
5.3612316
20
20.8449434
40
0.2098212
50
45.3028762
51
83.1921472
0
ARC
8
DEFAULT_255_1_234
10
5.3469
20
20.7647895
40
0.2911472
50
82.2614531
51
90.143954
0
ARC
8
DEFAULT_255_1_234
10
5.343812
20
20.788095
40
0.2678513
50
89.4959189
51
104.8579811
0
ARC
8
DEFAULT_255_1_234
10
5.3261379
20
20.855089
40
0.1985654
50
104.8855873
51
135.2448349
0
ARC
8
DEFAULT_255_1_234
10
5.3311152
20
20.8506336
40
0.2052373
50
135.3398955
51
172.104394
0
ARC
8
DEFAULT_255_1_234
10
5.411821
20
20.8351925
40
0.2873299
50
171.2651929
51
180.1859362
0
ARC
8
DEFAULT_255_1_234
10
5.3948911
20
20.8319733
40
0.2704083
50
179.515471
51
193.6466734
0
ARC
8
DEFAULT_255_1_234
10
5.313268
20
20.8111777
40
0.1861855
50
193.3540587
51
225.8256931
0
ARC
8
DEFAULT_255_1_234
10
5.3173437
20
20.8182524
40
0.1941102
50
226.418029
51
255.8553723
0
ARC
8
DEFAULT_255_1_234
10
5.342987
20
20.9118998
40
0.2911917
50
255.4655572
51
268.7985967
0
ARC
8
DEFAULT_255_1_234
10
5.3477062
20
20.9957491
40
0.3751331
50
268.3464808
51
270.0104874
0
ARC
8
DEFAULT_255_1_234
10
5.350045
20
20.9273138
40
0.3067064
50
269.575914
51
282.0823146
0
ARC
8
DEFAULT_255_1_234
10
5.3725359
20
20.8278803
40
0.2047712
50
281.7522535
51
306.6056425
0
ARC
8
DEFAULT_255_1_234
10
5.3823785
20
20.8117487
40
0.1859604
50
307.1350025
51
314.0277951
0
ARC
8
DEFAULT_255_1_234
10
5.3787869
20
20.8143766
40
0.1903475
50
314.2553419
51
350.169324
0
ARC
8
DEFAULT_255_1_234
10
5.2936338
20
20.8328409
40
0.2774269
50
349.4145679
51
0.2930737
0
ARC
8
DEFAULT_255_1_234
10
5.3456771
20
21.3487353
40
0.2300764
50
89.477591
51
105.729794
0
ARC
8
DEFAULT_255_1_234
10
5.3320684
20
21.3992637
40
0.1777519
50
105.922966
51
135.1662921
0
ARC
8
DEFAULT_255_1_234
10
5.3341187
20
21.3978419
40
0.1802087
50
135.3053131
51
168.9882338
0
ARC
8
DEFAULT_255_1_234
10
5.4168759
20
21.3788721
40
0.2650806
50
168.3802067
51
180.3602358
0
ARC
8
DEFAULT_255_1_234
10
5.3940339
20
21.3751041
40
0.2422425
50
179.5029707
51
194.9126783
0
ARC
8
DEFAULT_255_1_234
10
5.3355
20
21.359711
40
0.1817188
50
194.9722181
51
224.1943972
0
ARC
8
DEFAULT_255_1_234
10
5.3326867
20
21.3574169
40
0.1781027
50
224.2961434
51
262.0157375
0
ARC
8
DEFAULT_255_1_234
10
5.346911
20
21.4305661
40
0.2525492
50
261.1250369
51
270.1959853
0
ARC
8
DEFAULT_255_1_234
10
5.3498865
20
21.4118339
40
0.233825
50
269.4825617
51
285.0988277
0
ARC
8
DEFAULT_255_1_234
10
5.3653024
20
21.353999
40
0.1739712
50
285.1585659
51
315.9484648
0
ARC
8
DEFAULT_255_1_234
10
5.3564036
20
21.3621886
40
0.1860616
50
316.0412958
51
351.9162715
0
ARC
8
DEFAULT_255_1_234
10
5.2830991
20
21.3763245
40
0.2606517
50
351.1056823
51
0.1936567
0
ARC
8
DEFAULT_255_1_234
10
5.309382
20
21.3793369
40
0.234377
50
359.4789506
51
16.0679113
0
ARC
8
DEFAULT_255_1_234
10
5.3569779
20
21.392181
40
0.1850875
50
16.3251951
51
44.791304
0
ARC
8
DEFAULT_255_1_234
10
5.355206
20
21.3922339
40
0.186312
50
44.3958661
51
88.2498933
0
ARC
8
DEFAULT_255_1_234
10
5.3478614
20
21.3311154
40
0.2476868
50
86.9833827
51
90.0200148
0
LINE
8
DEFAULT_255_1_234
10
4.5478137
20
29.6279433
11
4.5478137
21
28.4529
0
LINE
8
DEFAULT_255_1_234
10
4.5478137
20
28.4529
11
4.3984234
21
28.4529
0
LINE
8
DEFAULT_255_1_234
10
4.3984234
20
28.4529
11
4.3984234
21
29.4432133
0
LINE
8
DEFAULT_255_1_234
10
4.3984234
20
29.4432133
11
4.0988396
21
29.3331785
0
LINE
8
DEFAULT_255_1_234
10
4.0988396
20
29.3331785
11
4.0988396
21
29.4681117
0
LINE
8
DEFAULT_255_1_234
10
4.0988396
20
29.4681117
11
4.5245217
21
29.6279433
0
LINE
8
DEFAULT_255_1_234
10
4.5245217
20
29.6279433
11
4.5478137
21
29.6279433
0
LINE
8
DEFAULT_255_1_234
10
5.7381173
20
29.6223211
11
5.7381173
21
29.538791
0
LINE
8
DEFAULT_255_1_234
10
5.7381173
20
29.538791
11
5.2538035
21
28.4529
0
LINE
8
DEFAULT_255_1_234
10
5.2538035
20
28.4529
11
5.0979878
21
28.4529
0
LINE
8
DEFAULT_255_1_234
10
5.0979878
20
28.4529
11
5.5806953
21
29.5002387
0
LINE
8
DEFAULT_255_1_234
10
5.5806953
20
29.5002387
11
4.9477943
21
29.5002387
0
LINE
8
DEFAULT_255_1_234
10
4.9477943
20
29.5002387
11
4.9477943
21
29.6223211
0
LINE
8
DEFAULT_255_1_234
10
4.9477943
20
29.6223211
11
5.7381173
21
29.6223211
0
LINE
8
DEFAULT_255_1_234
10
4.5478137
20
37.5654433
11
4.5478137
21
36.3904
0
LINE
8
DEFAULT_255_1_234
10
4.5478137
20
36.3904
11
4.3984234
21
36.3904
0
LINE
8
DEFAULT_255_1_234
10
4.3984234
20
36.3904
11
4.3984234
21
37.3807133
0
LINE
8
DEFAULT_255_1_234
10
4.3984234
20
37.3807133
11
4.0988396
21
37.2706785
0
LINE
8
DEFAULT_255_1_234
10
4.0988396
20
37.2706785
11
4.0988396
21
37.4056117
0
LINE
8
DEFAULT_255_1_234
10
4.0988396
20
37.4056117
11
4.5245217
21
37.5654433
0
LINE
8
DEFAULT_255_1_234
10
4.5245217
20
37.5654433
11
4.5478137
21
37.5654433
0
LINE
8
DEFAULT_255_1_234
10
5.5397334
20
37.5606243
11
5.5662381
21
37.5606243
0
LINE
8
DEFAULT_255_1_234
10
5.5662381
20
37.5606243
11
5.5662381
21
37.434526
0
LINE
8
DEFAULT_255_1_234
10
5.5662381
20
37.434526
11
5.5389302
21
37.434526
0
LINE
8
DEFAULT_255_1_234
10
4.9919688
20
36.8353583
11
4.9919688
21
36.8923836
0
LINE
8
DEFAULT_255_1_234
10
5.1413592
20
36.8731075
11
5.1413592
21
36.8184917
0
ARC
8
DEFAULT_255_1_234
10
5.544165
20
36.9347455
40
0.4998079
50
90.6001036
51
104.514704
0
ARC
8
DEFAULT_255_1_234
10
5.5053166
20
37.0792131
40
0.3502176
50
104.2855254
51
133.862935
0
ARC
8
DEFAULT_255_1_234
10
5.5216923
20
37.068383
40
0.3693984
50
134.5302688
51
161.6210873
0
ARC
8
DEFAULT_255_1_234
10
5.6870112
20
37.0100895
40
0.5446739
50
161.2849839
51
174.2076652
0
ARC
8
DEFAULT_255_1_234
10
5.8277049
20
36.9906787
40
0.6866274
50
173.7810589
51
174.9254635
0
ARC
8
DEFAULT_255_1_234
10
5.3726881
20
36.8523839
40
0.3033419
50
95.8330959
51
138.9954921
0
ARC
8
DEFAULT_255_1_234
10
5.3950237
20
36.7245375
40
0.4328947
50
89.8753725
51
97.0544009
0
ARC
8
DEFAULT_255_1_234
10
5.3997703
20
36.8080748
40
0.3493769
50
71.6407809
51
90.6240094
0
ARC
8
DEFAULT_255_1_234
10
5.4148276
20
36.8635082
40
0.2920396
50
39.6367836
51
71.019018
0
ARC
8
DEFAULT_255_1_234
10
5.3511749
20
36.8084998
40
0.3761538
50
10.658731
51
39.9043955
0
ARC
8
DEFAULT_255_1_234
10
5.1963832
20
36.7748686
40
0.5345136
50
359.682601
51
11.132623
0
ARC
8
DEFAULT_255_1_234
10
5.1923963
20
36.767801
40
0.5385081
50
347.2486944
51
0.4369317
0
ARC
8
DEFAULT_255_1_234
10
5.359144
20
36.7276807
40
0.3670249
50
318.1409698
51
347.6118597
0
ARC
8
DEFAULT_255_1_234
10
5.3916433
20
36.7009702
40
0.3250007
50
275.6342139
51
317.8248465
0
ARC
8
DEFAULT_255_1_234
10
5.3695544
20
36.8309219
40
0.4565864
50
269.8874292
51
276.7917694
0
ARC
8
DEFAULT_255_1_234
10
5.3640615
20
36.7283743
40
0.3540676
50
246.9140195
51
270.7437342
0
ARC
8
DEFAULT_255_1_234
10
5.3647005
20
36.7141384
40
0.3412781
50
218.1665114
51
245.878116
0
ARC
8
DEFAULT_255_1_234
10
5.4526466
20
36.7877279
40
0.455911
50
191.4115814
51
218.6077802
0
ARC
8
DEFAULT_255_1_234
10
5.6464555
20
36.8311833
40
0.6545001
50
179.6345085
51
191.7836486
0
ARC
8
DEFAULT_255_1_234
10
6.2046892
20
36.8990697
40
1.2127388
50
171.4525249
51
180.3158839
0
ARC
8
DEFAULT_255_1_234
10
5.7651768
20
36.9674608
40
0.7679464
50
157.9802646
51
171.6246686
0
ARC
8
DEFAULT_255_1_234
10
5.5437789
20
37.0557421
40
0.5296008
50
141.4298019
51
157.854097
0
ARC
8
DEFAULT_255_1_234
10
5.4796109
20
37.1011381
40
0.4511509
50
102.8715806
51
140.8564722
0
ARC
8
DEFAULT_255_1_234
10
5.5443725
20
36.8571552
40
0.7034845
50
90.3778349
51
103.5869322
0
ARC
8
DEFAULT_255_1_234
10
5.3705501
20
36.796673
40
0.2370698
50
89.8751008
51
126.2071704
0
ARC
8
DEFAULT_255_1_234
10
5.3751291
20
36.7812303
40
0.2522934
50
124.9745049
51
144.895901
0
ARC
8
DEFAULT_255_1_234
10
5.3575481
20
36.795556
40
0.2296779
50
145.2974905
51
160.2660252
0
ARC
8
DEFAULT_255_1_234
10
5.664802
20
36.8153071
40
0.5234525
50
179.6514266
51
190.2855912
0
ARC
8
DEFAULT_255_1_234
10
5.4954157
20
36.7833786
40
0.3510893
50
190.0945431
51
207.5098196
0
ARC
8
DEFAULT_255_1_234
10
5.4388427
20
36.7564623
40
0.288489
50
207.9583163
51
216.3251085
0
ARC
8
DEFAULT_255_1_234
10
5.4048535
20
36.7285105
40
0.2445587
50
215.7661442
51
232.5456785
0
ARC
8
DEFAULT_255_1_234
10
5.3665518
20
36.6798482
40
0.1826382
50
232.8005391
51
270.6605633
0
ARC
8
DEFAULT_255_1_234
10
5.3711219
20
36.7162612
40
0.2190529
50
269.35537
51
288.4744281
0
ARC
8
DEFAULT_255_1_234
10
5.3804116
20
36.6813118
40
0.1829749
50
289.1833337
51
322.9683818
0
ARC
8
DEFAULT_255_1_234
10
5.3192638
20
36.7295391
40
0.2608399
50
322.6007884
51
346.5182367
0
ARC
8
DEFAULT_255_1_234
10
5.2035234
20
36.7590616
40
0.3802777
50
346.2582162
51
358.7741648
0
ARC
8
DEFAULT_255_1_234
10
5.1016903
20
36.7645965
40
0.4822176
50
358.3755224
51
0.0098023
0
ARC
8
DEFAULT_255_1_234
10
5.177309
20
36.7673657
40
0.4066078
50
359.6214041
51
11.2839074
0
ARC
8
DEFAULT_255_1_234
10
5.3050237
20
36.7940066
40
0.2761514
50
11.0482309
51
31.8146458
0
ARC
8
DEFAULT_255_1_234
10
5.335928
20
36.8107584
40
0.2410679
50
32.3035391
51
38.082671
0
ARC
8
DEFAULT_255_1_234
10
5.377994
20
36.8488662
40
0.1844966
50
36.825067
51
85.7415724
0
ARC
8
DEFAULT_255_1_234
10
5.3712773
20
36.7988301
40
0.2349122
50
85.0140713
51
90.0513278
0
LINE
8
DEFAULT_255_1_234
10
4.5478137
20
45.5029433
11
4.5478137
21
44.3279
0
LINE
8
DEFAULT_255_1_234
10
4.5478137
20
44.3279
11
4.3984234
21
44.3279
0
LINE
8
DEFAULT_255_1_234
10
4.3984234
20
44.3279
11
4.3984234
21
45.3182133
0
LINE
8
DEFAULT_255_1_234
10
4.3984234
20
45.3182133
11
4.0988396
21
45.2081785
0
LINE
8
DEFAULT_255_1_234
10
4.0988396
20
45.2081785
11
4.0988396
21
45.3431117
0
LINE
8
DEFAULT_255_1_234
10
4.0988396
20
45.3431117
11
4.5245217
21
45.5029433
0
LINE
8
DEFAULT_255_1_234
10
4.5245217
20
45.5029433
11
4.5478137
21
45.5029433
0
LINE
8
DEFAULT_255_1_234
10
5.1702734
20
44.8836963
11
5.0514037
21
44.9142169
0
LINE
8
DEFAULT_255_1_234
10
5.0514037
20
44.9142169
11
5.1108386
21
45.4973211
0
LINE
8
DEFAULT_255_1_234
10
5.1108386
20
45.4973211
11
5.7100063
21
45.4973211
0
LINE
8
DEFAULT_255_1_234
10
5.7100063
20
45.4973211
11
5.7100063
21
45.3599784
0
LINE
8
DEFAULT_255_1_234
10
5.7100063
20
45.3599784
11
5.2369369
21
45.3599784
0
LINE
8
DEFAULT_255_1_234
10
5.2369369
20
45.3599784
11
5.2015972
21
45.0411184
0
LINE
8
DEFAULT_255_1_234
10
5.0096387
20
44.6355156
11
5.1501941
21
44.6355156
0
LINE
8
DEFAULT_255_1_234
10
5.209629
20
44.9158232
11
5.1702734
21
44.8836963
0
ARC
8
DEFAULT_255_1_234
10
5.3870756
20
44.723123
40
0.3681349
50
93.7182161
51
120.2538958
0
ARC
8
DEFAULT_255_1_234
10
5.3965019
20
44.6423394
40
0.449379
50
89.9660152
51
94.2496022
0
ARC
8
DEFAULT_255_1_234
10
5.4005753
20
44.7012549
40
0.390482
50
73.8043271
51
90.5585896
0
ARC
8
DEFAULT_255_1_234
10
5.424065
20
44.7870602
40
0.3015334
50
41.3071453
51
73.5430202
0
ARC
8
DEFAULT_255_1_234
10
5.3824477
20
44.7512324
40
0.3564457
50
13.5075983
51
41.2174222
0
ARC
8
DEFAULT_255_1_234
10
5.2182681
20
44.7082486
40
0.5261351
50
1.1331335
51
13.8829381
0
ARC
8
DEFAULT_255_1_234
10
5.077105
20
44.7006665
40
0.6674378
50
359.9919444
51
1.544251
0
ARC
8
DEFAULT_255_1_234
10
5.2047876
20
44.696528
40
0.5397702
50
347.8572367
51
0.4293338
0
ARC
8
DEFAULT_255_1_234
10
5.3798194
20
44.6568736
40
0.3603188
50
323.673004
51
348.1672506
0
ARC
8
DEFAULT_255_1_234
10
5.4092702
20
44.6389168
40
0.3259678
50
316.8171152
51
323.1492751
0
ARC
8
DEFAULT_255_1_234
10
5.4153891
20
44.635246
40
0.3189975
50
281.8396411
51
316.5457803
0
ARC
8
DEFAULT_255_1_234
10
5.3778155
20
44.7907762
40
0.4789527
50
269.5770101
51
282.4214771
0
ARC
8
DEFAULT_255_1_234
10
5.3706966
20
44.7694125
40
0.45759
50
256.2427136
51
270.4486331
0
ARC
8
DEFAULT_255_1_234
10
5.3407869
20
44.6494229
40
0.3339303
50
228.9023911
51
256.3314342
0
ARC
8
DEFAULT_255_1_234
10
5.3334101
20
44.6377746
40
0.32031
50
193.753695
51
228.5271154
0
ARC
8
DEFAULT_255_1_234
10
5.4572055
20
44.67408
40
0.4492253
50
184.924711
51
194.497588
0
ARC
8
DEFAULT_255_1_234
10
5.4764622
20
44.6776591
40
0.3289787
50
187.3600538
51
198.6732863
0
ARC
8
DEFAULT_255_1_234
10
5.3714916
20
44.6412674
40
0.217884
50
198.4451669
51
217.794479
0
ARC
8
DEFAULT_255_1_234
10
5.3419091
20
44.6203085
40
0.1816698
50
218.2887171
51
228.5612368
0
ARC
8
DEFAULT_255_1_234
10
5.3516878
20
44.6334963
40
0.1980329
50
228.9654866
51
258.1234728
0
ARC
8
DEFAULT_255_1_234
10
5.3722588
20
44.7215833
40
0.2884748
50
257.7258293
51
270.401361
0
ARC
8
DEFAULT_255_1_234
10
5.3767474
20
44.6770821
40
0.2439788
50
269.4204404
51
286.4209037
0
ARC
8
DEFAULT_255_1_234
10
5.3915962
20
44.6231657
40
0.1880666
50
286.7251356
51
320.600362
0
ARC
8
DEFAULT_255_1_234
10
5.3532787
20
44.6542595
40
0.2374121
50
320.6712579
51
344.5441685
0
ARC
8
DEFAULT_255_1_234
10
5.2376113
20
44.6882045
40
0.3579479
50
344.2412205
51
356.7357071
0
ARC
8
DEFAULT_255_1_234
10
5.1127262
20
44.6985444
40
0.4832297
50
356.3548756
51
0.0500261
0
ARC
8
DEFAULT_255_1_234
10
5.2463771
20
44.701665
40
0.3495889
50
359.5576869
51
12.953486
0
ARC
8
DEFAULT_255_1_234
10
5.3518668
20
44.7272434
40
0.2410532
50
12.6490276
51
41.6081334
0
ARC
8
DEFAULT_255_1_234
10
5.3749039
20
44.7468321
40
0.2108218
50
41.7850273
51
85.9892764
0
ARC
8
DEFAULT_255_1_234
10
5.3625776
20
44.6655462
40
0.2928454
50
84.6957577
51
90.0676183
0
ARC
8
DEFAULT_255_1_234
10
5.360226
20
44.5986716
40
0.3597255
50
89.6804936
51
99.1614436
0
ARC
8
DEFAULT_255_1_234
10
5.3396891
20
44.7214131
40
0.235281
50
98.9830931
51
113.8908934
0
ARC
8
DEFAULT_255_1_234
10
5.3167301
20
44.7755587
40
0.176479
50
114.1950727
51
127.3641004
0
LINE
8
DEFAULT_255_1_234
10
4.6537137
20
53.4404433
11
4.6537137
21
52.2654
0
LINE
8
DEFAULT_255_1_234
10
4.6537137
20
52.2654
11
4.5043234
21
52.2654
0
LINE
8
DEFAULT_255_1_234
10
4.5043234
20
52.2654
11
4.5043234
21
53.2557133
0
LINE
8
DEFAULT_255_1_234
10
4.5043234
20
53.2557133
11
4.2047396
21
53.1456785
0
LINE
8
DEFAULT_255_1_234
10
4.2047396
20
53.1456785
11
4.2047396
21
53.2806117
0
LINE
8
DEFAULT_255_1_234
10
4.2047396
20
53.2806117
11
4.6304217
21
53.4404433
0
LINE
8
DEFAULT_255_1_234
10
4.6304217
20
53.4404433
11
4.6537137
21
53.4404433
0
LINE
8
DEFAULT_255_1_234
10
5.7163127
20
53.4348211
11
5.7163127
21
52.658152
0
LINE
8
DEFAULT_255_1_234
10
5.7163127
20
52.658152
11
5.8785538
21
52.658152
0
LINE
8
DEFAULT_255_1_234
10
5.8785538
20
52.658152
11
5.8785538
21
52.5368728
0
LINE
8
DEFAULT_255_1_234
10
5.8785538
20
52.5368728
11
5.7163127
21
52.5368728
0
LINE
8
DEFAULT_255_1_234
10
5.7163127
20
52.5368728
11
5.7163127
21
52.2654
0
LINE
8
DEFAULT_255_1_234
10
5.7163127
20
52.2654
11
5.5669224
21
52.2654
0
LINE
8
DEFAULT_255_1_234
10
5.5669224
20
52.2654
11
5.5669224
21
52.5368728
0
LINE
8
DEFAULT_255_1_234
10
5.5669224
20
52.5368728
11
5.0344181
21
52.5368728
0
LINE
8
DEFAULT_255_1_234
10
5.0344181
20
52.5368728
11
5.0344181
21
52.6244187
0
LINE
8
DEFAULT_255_1_234
10
5.0344181
20
52.6244187
11
5.5580875
21
53.4348211
0
LINE
8
DEFAULT_255_1_234
10
5.5580875
20
53.4348211
11
5.7163127
21
53.4348211
0
LINE
8
DEFAULT_255_1_234
10
5.5492525
20
53.1994912
11
5.2030846
21
52.658152
0
LINE
8
DEFAULT_255_1_234
10
5.2030846
20
52.658152
11
5.5669224
21
52.658152
0
LINE
8
DEFAULT_255_1_234
10
5.5669224
20
52.658152
11
5.5669224
21
53.2316181
0
LINE
8
DEFAULT_255_1_234
10
5.5669224
20
53.2316181
11
5.5492525
21
53.1994912
0
LINE
8
DEFAULT_255_1_234
10
4.5478137
20
61.3779433
11
4.5478137
21
60.2029
0
LINE
8
DEFAULT_255_1_234
10
4.5478137
20
60.2029
11
4.3984234
21
60.2029
0
LINE
8
DEFAULT_255_1_234
10
4.3984234
20
60.2029
11
4.3984234
21
61.1932133
0
LINE
8
DEFAULT_255_1_234
10
4.3984234
20
61.1932133
11
4.0988396
21
61.0831785
0
LINE
8
DEFAULT_255_1_234
10
4.0988396
20
61.0831785
11
4.0988396
21
61.2181117
0
LINE
8
DEFAULT_255_1_234
10
4.0988396
20
61.2181117
11
4.5245217
21
61.3779433
0
LINE
8
DEFAULT_255_1_234
10
4.5245217
20
61.3779433
11
4.5478137
21
61.3779433
0
LINE
8
DEFAULT_255_1_234
10
5.1991877
20
60.7386169
11
5.1991877
21
60.8598962
0
LINE
8
DEFAULT_255_1_234
10
5.1991877
20
60.8598962
11
5.3108289
21
60.8598962
0
LINE
8
DEFAULT_255_1_234
10
5.1204767
20
61.0655087
11
4.9718895
21
61.0655087
0
LINE
8
DEFAULT_255_1_234
10
4.9614482
20
60.5113188
11
5.1108386
21
60.5113188
0
LINE
8
DEFAULT_255_1_234
10
5.3108289
20
60.7386169
11
5.1991877
21
60.7386169
0
ARC
8
DEFAULT_255_1_234
10
5.3079155
20
61.1991713
40
0.3392876
50
270.4919872
51
281.8951556
0
ARC
8
DEFAULT_255_1_234
10
5.3320417
20
61.0889702
40
0.2264817
50
281.6691735
51
301.2943132
0
ARC
8
DEFAULT_255_1_234
10
5.3490627
20
61.0578304
40
0.1910381
50
301.7833094
51
311.7545298
0
ARC
8
DEFAULT_255_1_234
10
5.3582203
20
61.0476748
40
0.1773635
50
311.7323931
51
354.2802411
0
ARC
8
DEFAULT_255_1_234
10
5.2855828
20
61.0601722
40
0.2509385
50
353.0937916
51
0.1181479
0
ARC
8
DEFAULT_255_1_234
10
5.2394613
20
61.0649386
40
0.2970898
50
359.1805295
51
15.0453146
0
ARC
8
DEFAULT_255_1_234
10
5.374045
20
61.1041992
40
0.1569564
50
13.9577229
51
77.6713066
0
ARC
8
DEFAULT_255_1_234
10
5.3353979
20
60.9656949
40
0.3006298
50
76.1116566
51
90.7026153
0
ARC
8
DEFAULT_255_1_234
10
5.3294817
20
60.9930545
40
0.2732568
50
89.5324876
51
103.531937
0
ARC
8
DEFAULT_255_1_234
10
5.3094261
20
61.0729884
40
0.1908508
50
103.2931773
51
133.5619022
0
ARC
8
DEFAULT_255_1_234
10
5.304975
20
61.0789375
40
0.1834746
50
133.8349307
51
173.5344437
0
ARC
8
DEFAULT_255_1_234
10
5.3772793
20
61.0661213
40
0.2568033
50
172.5096846
51
180.1366907
0
ARC
8
DEFAULT_255_1_234
10
5.2821687
20
61.0695622
40
0.3103056
50
155.3484492
51
180.7484736
0
ARC
8
DEFAULT_255_1_234
10
5.2772776
20
61.0666846
40
0.3070957
50
131.5744599
51
154.4798489
0
ARC
8
DEFAULT_255_1_234
10
5.3085923
20
61.035031
40
0.3515643
50
96.9875458
51
131.9690667
0
ARC
8
DEFAULT_255_1_234
10
5.3305403
20
60.9104636
40
0.4779224
50
89.8596053
51
97.7825159
0
ARC
8
DEFAULT_255_1_234
10
5.3353466
20
60.8842616
40
0.5041361
50
78.3655447
51
90.4131539
0
ARC
8
DEFAULT_255_1_234
10
5.3711384
20
61.0501887
40
0.3344039
50
56.6229102
51
78.638727
0
ARC
8
DEFAULT_255_1_234
10
5.3926328
20
61.0877805
40
0.2912001
50
47.0253525
51
56.0854072
0
ARC
8
DEFAULT_255_1_234
10
5.3946108
20
61.0917223
40
0.2869704
50
10.9208013
51
46.7778124
0
ARC
8
DEFAULT_255_1_234
10
5.2582174
20
61.0601857
40
0.426899
50
359.6364486
51
11.6087304
0
ARC
8
DEFAULT_255_1_234
10
5.4417018
20
61.0586752
40
0.243409
50
332.3549906
51
359.7179418
0
ARC
8
DEFAULT_255_1_234
10
5.376662
20
61.0895142
40
0.3153459
50
325.2333722
51
332.8745602
0
ARC
8
DEFAULT_255_1_234
10
5.3919244
20
61.0788828
40
0.2967456
50
292.9802137
51
325.2392345
0
ARC
8
DEFAULT_255_1_234
10
5.3644617
20
61.1322863
40
0.3566604
50
292.5402179
51
293.6924929
0
ARC
8
DEFAULT_255_1_234
10
5.4037213
20
60.4868091
40
0.3307468
50
57.6435486
51
72.8625112
0
ARC
8
DEFAULT_255_1_234
10
5.4391713
20
60.5442549
40
0.2632492
50
36.7248896
51
57.4697979
0
ARC
8
DEFAULT_255_1_234
10
5.4380346
20
60.545522
40
0.2634081
50
8.0545065
51
36.356114
0
ARC
8
DEFAULT_255_1_234
10
5.3517531
20
60.5300174
40
0.3510261
50
359.8320645
51
8.5869982
0
ARC
8
DEFAULT_255_1_234
10
5.3142307
20
60.5252101
40
0.3885653
50
343.9829931
51
0.5571613
0
ARC
8
DEFAULT_255_1_234
10
5.4028504
20
60.5009438
40
0.2966924
50
311.6359546
51
343.7651759
0
ARC
8
DEFAULT_255_1_234
10
5.3650074
20
60.5436102
40
0.3537231
50
279.7829875
51
311.6255694
0
ARC
8
DEFAULT_255_1_234
10
5.334885
20
60.687328
40
0.5004971
50
269.7286406
51
280.3856417
0
ARC
8
DEFAULT_255_1_234
10
5.3286922
20
60.6831996
40
0.4963778
50
256.6828919
51
270.4412052
0
ARC
8
DEFAULT_255_1_234
10
5.2948218
20
60.5447394
40
0.3538406
50
229.4223008
51
256.8556159
0
ARC
8
DEFAULT_255_1_234
10
5.2533611
20
60.4980736
40
0.2914296
50
181.818294
51
229.6455059
0
ARC
8
DEFAULT_255_1_234
10
5.3573567
20
60.5111496
40
0.3959084
50
179.9755256
51
183.2323064
0
ARC
8
DEFAULT_255_1_234
10
5.3401313
20
60.5091037
40
0.2293034
50
179.4465117
51
196.2869258
0
ARC
8
DEFAULT_255_1_234
10
5.2913721
20
60.4957651
40
0.1787621
50
196.5661473
51
227.705904
0
ARC
8
DEFAULT_255_1_234
10
5.3077816
20
60.5141155
40
0.2033784
50
227.7652068
51
257.8762805
0
ARC
8
DEFAULT_255_1_234
10
5.3302786
20
60.6084156
40
0.3003081
50
257.4584385
51
270.426602
0
ARC
8
DEFAULT_255_1_234
10
5.3348352
20
60.6373996
40
0.329292
50
269.5962073
51
280.8789248
0
ARC
8
DEFAULT_255_1_234
10
5.3577881
20
60.5227685
40
0.2123908
50
280.6346389
51
299.8595945
0
ARC
8
DEFAULT_255_1_234
10
5.3768788
20
60.4865212
40
0.171457
50
300.3576302
51
314.5517981
0
ARC
8
DEFAULT_255_1_234
10
5.3685848
20
60.4925919
40
0.1816095
50
315.0728369
51
345.0431014
0
ARC
8
DEFAULT_255_1_234
10
5.2762662
20
60.5194841
40
0.2777492
50
344.5986631
51
357.9269593
0
ARC
8
DEFAULT_255_1_234
10
5.1866989
20
60.5256276
40
0.3674917
50
357.4748886
51
0.0231117
0
ARC
8
DEFAULT_255_1_234
10
5.2890098
20
60.5280679
40
0.2651907
50
359.5047933
51
13.4239635
0
ARC
8
DEFAULT_255_1_234
10
5.3756741
20
60.5502478
40
0.1757509
50
12.9498199
51
48.7551375
0
ARC
8
DEFAULT_255_1_234
10
5.3574475
20
60.52534
40
0.2065134
50
49.5088623
51
72.1836453
0
ARC
8
DEFAULT_255_1_234
10
5.3216628
20
60.4191291
40
0.3185836
50
71.9010081
51
84.3554254
0
ARC
8
DEFAULT_255_1_234
10
5.305526
20
60.2830326
40
0.4556151
50
84.0193428
51
89.333121
0
LINE
8
DEFAULT_255_1_234
10
4.5478137
20
69.3154433
11
4.5478137
21
68.1404
0
LINE
8
DEFAULT_255_1_234
10
4.5478137
20
68.1404
11
4.3984234
21
68.1404
0
LINE
8
DEFAULT_255_1_234
10
4.3984234
20
68.1404
11
4.3984234
21
69.1307133
0
LINE
8
DEFAULT_255_1_234
10
4.3984234
20
69.1307133
11
4.0988396
21
69.0206785
0
LINE
8
DEFAULT_255_1_234
10
4.0988396
20
69.0206785
11
4.0988396
21
69.1556117
0
LINE
8
DEFAULT_255_1_234
10
4.0988396
20
69.1556117
11
4.5245217
21
69.3154433
0
LINE
8
DEFAULT_255_1_234
10
4.5245217
20
69.3154433
11
4.5478137
21
69.3154433
0
LINE
8
DEFAULT_255_1_234
10
5.7493618
20
68.2616792
11
5.7493618
21
68.1404
0
LINE
8
DEFAULT_255_1_234
10
5.7493618
20
68.1404
11
4.9831339
21
68.1404
0
LINE
8
DEFAULT_255_1_234
10
4.9831339
20
68.1404
11
4.9831339
21
68.2472221
0
LINE
8
DEFAULT_255_1_234
10
4.9831339
20
68.2472221
11
5.3879335
21
68.6969995
0
LINE
8
DEFAULT_255_1_234
10
5.1092322
20
68.9652595
11
4.9606451
21
68.9652595
0
LINE
8
DEFAULT_255_1_234
10
5.4754795
20
68.6014218
11
5.1622417
21
68.2616792
0
LINE
8
DEFAULT_255_1_234
10
5.1622417
20
68.2616792
11
5.7493618
21
68.2616792
0
ARC
8
DEFAULT_255_1_234
10
4.0389169
20
69.8899527
40
1.8008286
50
318.5132453
51
320.7828378
0
ARC
8
DEFAULT_255_1_234
10
4.5676143
20
69.4596426
40
1.1191493
50
320.7372736
51
323.9737074
0
ARC
8
DEFAULT_255_1_234
10
4.9596
20
69.1756361
40
0.6350923
50
323.8961724
51
328.6421089
0
ARC
8
DEFAULT_255_1_234
10
5.1642595
20
69.0494031
40
0.3946393
50
328.8299013
51
331.789948
0
ARC
8
DEFAULT_255_1_234
10
5.2639774
20
68.9979509
40
0.2824501
50
331.4255242
51
352.9364833
0
ARC
8
DEFAULT_255_1_234
10
5.2776274
20
68.9948976
40
0.2685315
50
353.2248685
51
0.0169286
0
ARC
8
DEFAULT_255_1_234
10
5.2986151
20
68.997195
40
0.2475536
50
359.4866256
51
15.9339782
0
ARC
8
DEFAULT_255_1_234
10
5.3493136
20
69.0108286
40
0.1950618
50
16.1714718
51
43.5284424
0
ARC
8
DEFAULT_255_1_234
10
5.3570445
20
69.0185573
40
0.184134
50
43.4415429
51
83.1661404
0
ARC
8
DEFAULT_255_1_234
10
5.3436363
20
68.9448771
40
0.258926
50
82.160215
51
90.1505798
0
ARC
8
DEFAULT_255_1_234
10
5.340479
20
68.8911865
40
0.3126255
50
89.5460705
51
102.5418777
0
ARC
8
DEFAULT_255_1_234
10
5.3161876
20
68.9942665
40
0.2067346
50
102.1739365
51
129.2061916
0
ARC
8
DEFAULT_255_1_234
10
5.3082948
20
69.0067094
40
0.1921118
50
129.7279328
51
135.7542026
0
ARC
8
DEFAULT_255_1_234
10
5.3204476
20
68.9970045
40
0.2075944
50
136.175737
51
166.3674722
0
ARC
8
DEFAULT_255_1_234
10
5.4211395
20
68.9700182
40
0.3118201
50
165.9092917
51
178.8683903
0
ARC
8
DEFAULT_255_1_234
10
5.5076256
20
68.9653179
40
0.3983935
50
178.438168
51
180.0083905
0
ARC
8
DEFAULT_255_1_234
10
5.3674859
20
68.9692231
40
0.4068601
50
163.2878735
51
180.5581814
0
ARC
8
DEFAULT_255_1_234
10
5.287312
20
68.991284
40
0.3237344
50
133.454115
51
162.9470031
0
ARC
8
DEFAULT_255_1_234
10
5.3051661
20
68.9723
40
0.349795
50
100.7869394
51
133.4384016
0
ARC
8
DEFAULT_255_1_234
10
5.3399433
20
68.8174319
40
0.5084616
50
89.6605301
51
101.3704185
0
ARC
8
DEFAULT_255_1_234
10
5.3465772
20
68.8235496
40
0.502348
50
78.2171172
51
90.4130393
0
ARC
8
DEFAULT_255_1_234
10
5.382085
20
68.9859637
40
0.3361092
50
55.9268222
51
78.4888551
0
ARC
8
DEFAULT_255_1_234
10
5.401729
20
69.0198324
40
0.2970617
50
47.9292255
51
55.4054003
0
ARC
8
DEFAULT_255_1_234
10
5.4118851
20
69.0301502
40
0.2825983
50
4.3347696
51
48.0560701
0
ARC
8
DEFAULT_255_1_234
10
5.3023244
20
69.0131601
40
0.393225
50
359.925209
51
5.5967654
0
ARC
8
DEFAULT_255_1_234
10
5.3452136
20
69.0187816
40
0.3503892
50
337.8914096
51
358.9967724
0
ARC
8
DEFAULT_255_1_234
10
5.0738548
20
69.1234706
40
0.6412172
50
326.9135351
51
338.3505194
0
ARC
8
DEFAULT_255_1_234
10
4.6752852
20
69.3789284
40
1.1146189
50
319.6472867
51
327.095818
0
ARC
8
DEFAULT_255_1_234
10
4.2919855
20
69.6951
40
1.6114559
50
317.2586784
51
319.9046139
0
LINE
8
DEFAULT_255_1_234
10
4.5388137
20
77.2529433
11
4.5388137
21
76.0779
0
LINE
8
DEFAULT_255_1_234
10
4.5388137
20
76.0779
11
4.3894234
21
76.0779
0
LINE
8
DEFAULT_255_1_234
10
4.3894234
20
76.0779
11
4.3894234
21
77.0682133
0
LINE
8
DEFAULT_255_1_234
10
4.3894234
20
77.0682133
11
4.0898396
21
76.9581785
0
LINE
8
DEFAULT_255_1_234
10
4.0898396
20
76.9581785
11
4.0898396
21
77.0931117
0
LINE
8
DEFAULT_255_1_234
10
4.0898396
20
77.0931117
11
4.5155217
21
77.2529433
0
LINE
8
DEFAULT_255_1_234
10
4.5155217
20
77.2529433
11
4.5388137
21
77.2529433
0
LINE
8
DEFAULT_255_1_234
10
5.4624636
20
77.2529433
11
5.4624636
21
76.0779
0
LINE
8
DEFAULT_255_1_234
10
5.4624636
20
76.0779
11
5.3130733
21
76.0779
0
LINE
8
DEFAULT_255_1_234
10
5.3130733
20
76.0779
11
5.3130733
21
77.0682133
0
LINE
8
DEFAULT_255_1_234
10
5.3130733
20
77.0682133
11
5.0134895
21
76.9581785
0
LINE
8
DEFAULT_255_1_234
10
5.0134895
20
76.9581785
11
5.0134895
21
77.0931117
0
LINE
8
DEFAULT_255_1_234
10
5.0134895
20
77.0931117
11
5.4391716
21
77.2529433
0
LINE
8
DEFAULT_255_1_234
10
5.4391716
20
77.2529433
11
5.4624636
21
77.2529433
0
LINE
8
DEFAULT_255_1_234
10
4.5478137
20
85.1904433
11
4.5478137
21
84.0154
0
LINE
8
DEFAULT_255_1_234
10
4.5478137
20
84.0154
11
4.3984234
21
84.0154
0
LINE
8
DEFAULT_255_1_234
10
4.3984234
20
84.0154
11
4.3984234
21
85.0057133
0
LINE
8
DEFAULT_255_1_234
10
4.3984234
20
85.0057133
11
4.0988396
21
84.8956785
0
LINE
8
DEFAULT_255_1_234
10
4.0988396
20
84.8956785
11
4.0988396
21
85.0306117
0
LINE
8
DEFAULT_255_1_234
10
4.0988396
20
85.0306117
11
4.5245217
21
85.1904433
0
LINE
8
DEFAULT_255_1_234
10
4.5245217
20
85.1904433
11
4.5478137
21
85.1904433
0
LINE
8
DEFAULT_255_1_234
10
5.7164316
20
84.7069327
11
5.7164316
21
84.5141709
0
LINE
8
DEFAULT_255_1_234
10
4.9783149
20
84.4940916
11
4.9783149
21
84.6924755
0
LINE
8
DEFAULT_255_1_234
10
5.5678445
20
84.4740123
11
5.5678445
21
84.7173739
0
LINE
8
DEFAULT_255_1_234
10
5.1269021
20
84.7286184
11
5.1269021
21
84.4908789
0
ARC
8
DEFAULT_255_1_234
10
4.4917206
20
84.5092805
40
1.2247208
50
353.8441951
51
0.2287902
0
ARC
8
DEFAULT_255_1_234
10
4.955671
20
84.4574806
40
0.7578929
50
344.4934747
51
353.9765454
0
ARC
8
DEFAULT_255_1_234
10
5.25493
20
84.3723981
40
0.4467846
50
329.2803592
51
344.7472793
0
ARC
8
DEFAULT_255_1_234
10
5.3542125
20
84.3179018
40
0.3336173
50
324.9352394
51
328.6160465
0
ARC
8
DEFAULT_255_1_234
10
5.3919233
20
84.2915427
40
0.2876076
50
280.580143
51
324.9173126
0
ARC
8
DEFAULT_255_1_234
10
5.3518026
20
84.4586099
40
0.4592847
50
269.5977311
51
281.6734359
0
ARC
8
DEFAULT_255_1_234
10
5.3445932
20
84.4466173
40
0.4472986
50
256.6228859
51
270.51044
0
ARC
8
DEFAULT_255_1_234
10
5.3043909
20
84.2917877
40
0.2873874
50
215.8618325
51
257.2788573
0
ARC
8
DEFAULT_255_1_234
10
5.4064941
20
84.3602977
40
0.4102928
50
197.9693508
51
215.2623606
0
ARC
8
DEFAULT_255_1_234
10
5.6550057
20
84.4441709
40
0.6725652
50
187.8816417
51
198.2346507
0
ARC
8
DEFAULT_255_1_234
10
6.0508265
20
84.5013079
40
1.0724845
50
180.8976217
51
188.0055519
0
ARC
8
DEFAULT_255_1_234
10
6.3308453
20
84.5116777
40
1.3526448
50
180.7449369
51
181.1510016
0
ARC
8
DEFAULT_255_1_234
10
6.1731182
20
84.6973042
40
1.1948131
50
173.7675579
51
180.231553
0
ARC
8
DEFAULT_255_1_234
10
5.7213329
20
84.7483666
40
0.7401564
50
164.3058563
51
173.9002247
0
ARC
8
DEFAULT_255_1_234
10
5.4301398
20
84.8322656
40
0.4371288
50
148.7922025
51
164.568378
0
ARC
8
DEFAULT_255_1_234
10
5.334985
20
84.8853929
40
0.3282386
50
144.5883898
51
148.1176286
0
ARC
8
DEFAULT_255_1_234
10
5.3006748
20
84.9093315
40
0.2864044
50
101.6440918
51
144.514236
0
ARC
8
DEFAULT_255_1_234
10
5.3431814
20
84.7404069
40
0.4604934
50
89.5284041
51
102.5819763
0
ARC
8
DEFAULT_255_1_234
10
5.3510902
20
84.7365018
40
0.464401
50
77.0437873
51
90.5081339
0
ARC
8
DEFAULT_255_1_234
10
5.3912904
20
84.9007615
40
0.2953195
50
48.2778575
51
77.4994676
0
ARC
8
DEFAULT_255_1_234
10
5.3985535
20
84.9136746
40
0.2808655
50
36.3142134
51
47.6305865
0
ARC
8
DEFAULT_255_1_234
10
5.3116842
20
84.8551515
40
0.3855453
50
18.2931786
51
35.6769206
0
ARC
8
DEFAULT_255_1_234
10
5.0573601
20
84.7678593
40
0.654423
50
8.024666
51
18.5605216
0
ARC
8
DEFAULT_255_1_234
10
4.6410521
20
84.7063792
40
1.0752407
50
1.1274072
51
8.1718305
0
ARC
8
DEFAULT_255_1_234
10
4.3174712
20
84.6936885
40
1.3990231
50
0.5424119
51
1.3863029
0
ARC
8
DEFAULT_255_1_234
10
4.4996089
20
84.7209342
40
1.0682415
50
359.8090433
51
4.9407866
0
ARC
8
DEFAULT_255_1_234
10
4.9206103
20
84.7585113
40
0.6455691
50
4.8362157
51
12.2904523
0
ARC
8
DEFAULT_255_1_234
10
5.1961218
20
84.8198965
40
0.3633074
50
12.0805627
51
23.8173984
0
ARC
8
DEFAULT_255_1_234
10
5.3134924
20
84.8695919
40
0.2358723
50
24.2871213
51
31.3935614
0
ARC
8
DEFAULT_255_1_234
10
5.3659621
20
84.9039233
40
0.1732111
50
30.7407893
51
82.4657128
0
ARC
8
DEFAULT_255_1_234
10
5.3479755
20
84.8155691
40
0.263235
50
81.1060089
51
90.2184952
0
ARC
8
DEFAULT_255_1_234
10
5.3444054
20
84.8413924
40
0.2374236
50
89.3806855
51
105.6762551
0
ARC
8
DEFAULT_255_1_234
10
5.3260685
20
84.9080567
40
0.1682847
50
105.7981136
51
149.7388061
0
ARC
8
DEFAULT_255_1_234
10
5.4324763
20
84.844095
40
0.2924306
50
149.4208916
51
163.6286378
0
ARC
8
DEFAULT_255_1_234
10
5.6415651
20
84.780325
40
0.5110213
50
163.3763315
51
172.1410975
0
ARC
8
DEFAULT_255_1_234
10
5.971637
20
84.7330518
40
0.8444586
50
172.0259487
51
178.0703232
0
ARC
8
DEFAULT_255_1_234
10
6.274646
20
84.7186906
40
1.1477868
50
177.8631668
51
179.5044149
0
ARC
8
DEFAULT_255_1_234
10
6.1673864
20
84.4872389
40
1.0404907
50
179.7995573
51
185.2460446
0
ARC
8
DEFAULT_255_1_234
10
5.7630903
20
84.4489513
40
0.6343885
50
185.1411642
51
193.0079639
0
ARC
8
DEFAULT_255_1_234
10
5.4987376
20
84.3864641
40
0.3627568
50
192.7897626
51
205.2507664
0
ARC
8
DEFAULT_255_1_234
10
5.3940923
20
84.3397415
40
0.2481908
50
205.8005384
51
211.2537509
0
ARC
8
DEFAULT_255_1_234
10
5.3417363
20
84.304658
40
0.1852521
50
210.3789793
51
238.4008143
0
ARC
8
DEFAULT_255_1_234
10
5.3397885
20
84.3093376
40
0.1882621
50
239.6520629
51
265.9793761
0
ARC
8
DEFAULT_255_1_234
10
5.3483085
20
84.3765427
40
0.2559272
50
265.1315437
51
270.060332
0
ARC
8
DEFAULT_255_1_234
10
5.3511864
20
84.3441534
40
0.2235528
50
269.3314664
51
287.2178029
0
ARC
8
DEFAULT_255_1_234
10
5.3649716
20
84.2938279
40
0.1714108
50
287.7958004
51
329.080874
0
ARC
8
DEFAULT_255_1_234
10
5.2692173
20
84.353593
40
0.2842745
50
328.6634704
51
343.3325132
0
ARC
8
DEFAULT_255_1_234
10
5.0519193
20
84.4212863
40
0.5118644
50
343.0499468
51
351.9393422
0
ARC
8
DEFAULT_255_1_234
10
4.7052493
20
84.4723949
40
0.8622784
50
351.8069023
51
357.7959224
0
ARC
8
DEFAULT_255_1_234
10
4.3817049
20
84.4891721
40
1.1862365
50
357.5871873
51
359.2677531
0
LINE
8
DEFAULT_255_1_234
10
4.7186246
20
92.6548739
11
4.7186246
21
92.6115025
0
LINE
8
DEFAULT_255_1_234
10
4.1764823
20
91.9520968
11
4.147568
21
91.9520968
0
LINE
8
DEFAULT_255_1_234
10
4.147568
20
91.9520968
11
4.147568
21
92.0773919
0
LINE
8
DEFAULT_255_1_234
10
4.147568
20
92.0773919
11
4.1788918
21
92.0773919
0
LINE
8
DEFAULT_255_1_234
10
4.5700375
20
92.6259597
11
4.5700375
21
92.6853945
0
ARC
8
DEFAULT_255_1_234
10
4.2906644
20
92.7005403
40
0.3635579
50
297.4037347
51
320.016758
0
ARC
8
DEFAULT_255_1_234
10
4.3196593
20
92.644824
40
0.3007486
50
270.2633101
51
297.3851877
0
ARC
8
DEFAULT_255_1_234
10
4.3162549
20
92.6911904
40
0.3471448
50
269.9966443
51
270.7900392
0
ARC
8
DEFAULT_255_1_234
10
4.313703
20
92.6910143
40
0.3469779
50
254.5999133
51
270.4180344
0
ARC
8
DEFAULT_255_1_234
10
4.2994389
20
92.6345647
40
0.2887697
50
236.4717942
51
254.3541279
0
ARC
8
DEFAULT_255_1_234
10
4.3150607
20
92.6555711
40
0.3149125
50
208.4727207
51
236.2134933
0
ARC
8
DEFAULT_255_1_234
10
4.3789382
20
92.6946455
40
0.3897115
50
204.3447514
51
209.0453999
0
ARC
8
DEFAULT_255_1_234
10
4.4468958
20
92.7234656
40
0.4635101
50
183.9375985
51
204.1276318
0
ARC
8
DEFAULT_255_1_234
10
4.5377209
20
92.7332482
40
0.5548037
50
179.9652252
51
184.3013875
0
ARC
8
DEFAULT_255_1_234
10
4.5137255
20
92.7365507
40
0.5308164
50
166.7585989
51
180.3201225
0
ARC
8
DEFAULT_255_1_234
10
4.4290869
20
92.7549488
40
0.4442163
50
154.6955053
51
166.5679793
0
ARC
8
DEFAULT_255_1_234
10
4.3437739
20
92.797921
40
0.3487299
50
136.3324195
51
155.0871442
0
ARC
8
DEFAULT_255_1_234
10
4.3156812
20
92.8219954
40
0.3117924
50
121.236733
51
135.9680508
0
ARC
8
DEFAULT_255_1_234
10
4.329731
20
92.7959743
40
0.3413302
50
96.845628
51
120.9881519
0
ARC
8
DEFAULT_255_1_234
10
4.3442892
20
92.7024515
40
0.4359341
50
89.8870174
51
97.2802754
0
ARC
8
DEFAULT_255_1_234
10
4.349533
20
92.7662095
40
0.3722009
50
70.6505584
51
90.6749113
0
ARC
8
DEFAULT_255_1_234
10
4.3626609
20
92.8175361
40
0.3194571
50
36.7492984
51
69.8219918
0
ARC
8
DEFAULT_255_1_234
10
4.2627774
20
92.7396993
40
0.4460685
50
15.39587
51
37.0840084
0
ARC
8
DEFAULT_255_1_234
10
4.0498207
20
92.6776242
40
0.6678714
50
3.9488873
51
15.6798563
0
ARC
8
DEFAULT_255_1_234
10
3.8096835
20
92.6559964
40
0.9089418
50
359.929245
51
4.2665314
0
ARC
8
DEFAULT_255_1_234
10
3.3491272
20
92.6048513
40
1.3695135
50
352.8366322
51
0.2782669
0
ARC
8
DEFAULT_255_1_234
10
3.8778951
20
92.5361629
40
0.8363105
50
341.8359505
51
352.9884176
0
ARC
8
DEFAULT_255_1_234
10
4.199767
20
92.42767
40
0.4966642
50
322.8578092
51
342.1527901
0
ARC
8
DEFAULT_255_1_234
10
4.2861626
20
92.3687384
40
0.3922466
50
319.334325
51
322.0998941
0
ARC
8
DEFAULT_255_1_234
10
4.2551963
20
92.3998209
40
0.4360033
50
285.9541367
51
318.8878087
0
ARC
8
DEFAULT_255_1_234
10
4.1825224
20
92.63086
40
0.678149
50
272.9281676
51
286.4922826
0
ARC
8
DEFAULT_255_1_234
10
4.1635342
20
92.8559587
40
0.9039547
50
270.8207226
51
273.4012994
0
ARC
8
DEFAULT_255_1_234
10
4.1724193
20
92.6740666
40
0.5967098
50
270.6214993
51
281.4062806
0
ARC
8
DEFAULT_255_1_234
10
4.2154174
20
92.4684833
40
0.3866861
50
281.1852553
51
299.0621114
0
ARC
8
DEFAULT_255_1_234
10
4.2527745
20
92.3963798
40
0.3055236
50
299.5067782
51
313.1200873
0
ARC
8
DEFAULT_255_1_234
10
4.2549712
20
92.3884554
40
0.2982623
50
313.8526205
51
338.5989322
0
ARC
8
DEFAULT_255_1_234
10
4.0925786
20
92.4551781
40
0.4738131
50
338.2523585
51
351.2430902
0
ARC
8
DEFAULT_255_1_234
10
3.8515082
20
92.4961447
40
0.7183203
50
350.9409515
51
357.6691871
0
ARC
8
DEFAULT_255_1_234
10
4.3405512
20
92.6963764
40
0.2294452
50
269.9447023
51
306.8248917
0
ARC
8
DEFAULT_255_1_234
10
4.3168427
20
92.7386898
40
0.2775994
50
305.5072438
51
327.0773448
0
ARC
8
DEFAULT_255_1_234
10
4.3286868
20
92.7292025
40
0.2625056
50
327.4104943
51
336.840169
0
ARC
8
DEFAULT_255_1_234
10
4.0192933
20
92.6886302
40
0.5507537
50
359.6633817
51
10.117533
0
ARC
8
DEFAULT_255_1_234
10
4.1946731
20
92.7210777
40
0.372403
50
9.9430141
51
26.7700076
0
ARC
8
DEFAULT_255_1_234
10
4.2543943
20
92.7486187
40
0.3066865
50
27.2015464
51
34.6829435
0
ARC
8
DEFAULT_255_1_234
10
4.3033423
20
92.7853977
40
0.245519
50
34.1250343
51
50.3070065
0
ARC
8
DEFAULT_255_1_234
10
4.3480103
20
92.8388385
40
0.1758693
50
50.3851167
51
90.6705993
0
ARC
8
DEFAULT_255_1_234
10
4.3433336
20
92.8083799
40
0.2063326
50
89.272901
51
111.9140407
0
ARC
8
DEFAULT_255_1_234
10
4.3413864
20
92.822444
40
0.1925887
50
112.9382311
51
142.5320782
0
ARC
8
DEFAULT_255_1_234
10
4.3960044
20
92.7780969
40
0.2629232
50
142.1021256
51
166.3835592
0
ARC
8
DEFAULT_255_1_234
10
4.5141349
20
92.7475915
40
0.3849193
50
166.1100289
51
178.665427
0
ARC
8
DEFAULT_255_1_234
10
4.6188938
20
92.7417117
40
0.4897989
50
178.2632126
51
180.0111093
0
ARC
8
DEFAULT_255_1_234
10
4.5387059
20
92.7388728
40
0.40962
50
179.6161962
51
191.8787166
0
ARC
8
DEFAULT_255_1_234
10
4.4166898
20
92.7118896
40
0.2846655
50
191.6191692
51
215.2972286
0
ARC
8
DEFAULT_255_1_234
10
4.3970089
20
92.7003918
40
0.2619665
50
215.7320102
51
216.5355409
0
ARC
8
DEFAULT_255_1_234
10
4.3431175
20
92.6571647
40
0.1929497
50
215.7486685
51
239.9727502
0
ARC
8
DEFAULT_255_1_234
10
4.3361091
20
92.6520894
40
0.1850822
50
241.0650169
51
269.2810483
0
ARC
8
DEFAULT_255_1_234
10
4.3403006
20
92.7011371
40
0.2342059
50
268.4062526
51
270.0071348
0
ARC
8
DEFAULT_255_1_234
10
4.4267624
20
100.7520703
40
0.2822356
50
338.8763615
51
0.5166041
0
ARC
8
DEFAULT_255_1_234
10
4.4436278
20
100.7475208
40
0.2648703
50
325.8412414
51
338.4795939
0
ARC
8
DEFAULT_255_1_234
10
4.4045646
20
100.7746042
40
0.3124019
50
296.7586019
51
325.753654
0
ARC
8
DEFAULT_255_1_234
10
4.3757754
20
100.8230789
40
0.368668
50
296.0902311
51
297.3618122
0
ARC
8
DEFAULT_255_1_234
10
4.4015212
20
100.1676041
40
0.3518806
50
47.9009248
51
67.1946869
0
ARC
8
DEFAULT_255_1_234
10
4.4211454
20
100.1922395
40
0.320451
50
35.236241
51
47.551371
0
ARC
8
DEFAULT_255_1_234
10
4.4473072
20
100.2096993
40
0.2890103
50
359.2759738
51
35.4014081
0
ARC
8
DEFAULT_255_1_234
10
4.3728103
20
100.2023826
40
0.3635026
50
343.1294516
51
0.5776525
0
ARC
8
DEFAULT_255_1_234
10
4.4452648
20
100.182433
40
0.2883832
50
310.8497458
51
342.744803
0
ARC
8
DEFAULT_255_1_234
10
4.4034761
20
100.2301294
40
0.3517954
50
281.5473923
51
310.9169905
0
ARC
8
DEFAULT_255_1_234
10
4.367821
20
100.3854084
40
0.5110832
50
269.6192722
51
281.9789957
0
ARC
8
DEFAULT_255_1_234
10
4.3606
20
100.3854828
40
0.5111606
50
257.4584469
51
270.4287458
0
ARC
8
DEFAULT_255_1_234
10
4.3225143
20
100.2251344
40
0.3463762
50
228.7553743
51
257.8484423
0
ARC
8
DEFAULT_255_1_234
10
4.2915341
20
100.1878442
40
0.297916
50
184.0104442
51
228.5071787
0
ARC
8
DEFAULT_255_1_234
10
4.4078285
20
100.2055512
40
0.4152734
50
179.9315461
51
185.3254504
0
ARC
8
DEFAULT_255_1_234
10
4.2901931
20
100.2092992
40
0.2976554
50
145.6795913
51
180.6259649
0
ARC
8
DEFAULT_255_1_234
10
4.306528
20
100.1978929
40
0.3175776
50
115.5537925
51
145.6416199
0
ARC
8
DEFAULT_255_1_234
10
4.340621
20
100.1368028
40
0.3874232
50
113.2437915
51
116.2054627
0
ARC
8
DEFAULT_255_1_234
10
4.3253423
20
100.776658
40
0.3154751
50
222.9548379
51
244.1372485
0
ARC
8
DEFAULT_255_1_234
10
4.3131498
20
100.7629834
40
0.2972382
50
213.3439227
51
222.6271327
0
ARC
8
DEFAULT_255_1_234
10
4.2939433
20
100.7499308
40
0.274019
50
180.4316517
51
213.2713999
0
ARC
8
DEFAULT_255_1_234
10
4.3514434
20
100.754611
40
0.33158
50
179.9992944
51
181.1655061
0
ARC
8
DEFAULT_255_1_234
10
4.3923851
20
100.7580561
40
0.3725376
50
164.6186108
51
180.5292368
0
ARC
8
DEFAULT_255_1_234
10
4.3025714
20
100.7822101
40
0.2795349
50
132.2454369
51
164.5092287
0
ARC
8
DEFAULT_255_1_234
10
4.3312818
20
100.7497028
40
0.3229019
50
100.7052766
51
132.1387266
0
ARC
8
DEFAULT_255_1_234
10
4.361779
20
100.6119086
40
0.4639835
50
89.6732617
51
101.2449487
0
ARC
8
DEFAULT_255_1_234
10
4.3679988
20
100.629399
40
0.4464999
50
76.2876631
51
90.4586123
0
ARC
8
DEFAULT_255_1_234
10
4.398622
20
100.751622
40
0.3205023
50
47.8240157
51
76.4266918
0
ARC
8
DEFAULT_255_1_234
10
4.420877
20
100.777659
40
0.2862661
50
6.9168658
51
47.6261438
0
ARC
8
DEFAULT_255_1_234
10
4.3022173
20
100.755737
40
0.4067708
50
359.8419705
51
7.9694496
0
ARC
8
DEFAULT_255_1_234
10
4.336407
20
100.2116925
40
0.2513121
50
359.4454068
51
16.9256425
0
ARC
8
DEFAULT_255_1_234
10
4.3832881
20
100.2246033
40
0.2027071
50
17.292259
51
45.462717
0
ARC
8
DEFAULT_255_1_234
10
4.3778817
20
100.2199434
40
0.2098212
50
45.3028762
51
83.1921472
0
ARC
8
DEFAULT_255_1_234
10
4.3635501
20
100.1397895
40
0.2911472
50
82.2614531
51
90.143954
0
ARC
8
DEFAULT_255_1_234
10
4.3604621
20
100.163095
40
0.2678513
50
89.4959189
51
104.8579811
0
ARC
8
DEFAULT_255_1_234
10
4.342788
20
100.230089
40
0.1985654
50
104.8855873
51
135.2448349
0
ARC
8
DEFAULT_255_1_234
10
4.3477653
20
100.2256336
40
0.2052373
50
135.3398955
51
172.104394
0
ARC
8
DEFAULT_255_1_234
10
4.4284711
20
100.2101925
40
0.2873299
50
171.2651929
51
180.1859362
0
ARC
8
DEFAULT_255_1_234
10
4.4115412
20
100.2069733
40
0.2704083
50
179.515471
51
193.6466734
0
ARC
8
DEFAULT_255_1_234
10
4.3299181
20
100.1861777
40
0.1861855
50
193.3540587
51
225.8256931
0
ARC
8
DEFAULT_255_1_234
10
4.3339938
20
100.1932524
40
0.1941102
50
226.418029
51
255.8553723
0
ARC
8
DEFAULT_255_1_234
10
4.3596371
20
100.2868998
40
0.2911917
50
255.4655572
51
268.7985967
0
ARC
8
DEFAULT_255_1_234
10
4.3643563
20
100.3707491
40
0.3751331
50
268.3464808
51
270.0104874
0
ARC
8
DEFAULT_255_1_234
10
4.3666951
20
100.3023138
40
0.3067064
50
269.575914
51
282.0823146
0
ARC
8
DEFAULT_255_1_234
10
4.389186
20
100.2028803
40
0.2047712
50
281.7522535
51
306.6056425
0
ARC
8
DEFAULT_255_1_234
10
4.3990286
20
100.1867487
40
0.1859604
50
307.1350025
51
314.0277951
0
ARC
8
DEFAULT_255_1_234
10
4.395437
20
100.1893766
40
0.1903475
50
314.2553419
51
350.169324
0
ARC
8
DEFAULT_255_1_234
10
4.3102839
20
100.2078409
40
0.2774269
50
349.4145679
51
0.2930737
0
ARC
8
DEFAULT_255_1_234
10
4.3623272
20
100.7237353
40
0.2300764
50
89.477591
51
105.729794
0
ARC
8
DEFAULT_255_1_234
10
4.3487185
20
100.7742637
40
0.1777519
50
105.922966
51
135.1662921
0
ARC
8
DEFAULT_255_1_234
10
4.3507688
20
100.7728419
40
0.1802087
50
135.3053131
51
168.9882338
0
ARC
8
DEFAULT_255_1_234
10
4.433526
20
100.7538721
40
0.2650806
50
168.3802067
51
180.3602358
0
ARC
8
DEFAULT_255_1_234
10
4.410684
20
100.7501041
40
0.2422425
50
179.5029707
51
194.9126783
0
ARC
8
DEFAULT_255_1_234
10
4.3521501
20
100.734711
40
0.1817188
50
194.9722181
51
224.1943972
0
ARC
8
DEFAULT_255_1_234
10
4.3493368
20
100.7324169
40
0.1781027
50
224.2961434
51
262.0157375
0
ARC
8
DEFAULT_255_1_234
10
4.3635611
20
100.8055661
40
0.2525492
50
261.1250369
51
270.1959853
0
ARC
8
DEFAULT_255_1_234
10
4.3665366
20
100.7868339
40
0.233825
50
269.4825617
51
285.0988277
0
ARC
8
DEFAULT_255_1_234
10
4.3819525
20
100.728999
40
0.1739712
50
285.1585659
51
315.9484648
0
ARC
8
DEFAULT_255_1_234
10
4.3730537
20
100.7371886
40
0.1860616
50
316.0412958
51
351.9162715
0
ARC
8
DEFAULT_255_1_234
10
4.2997492
20
100.7513245
40
0.2606517
50
351.1056823
51
0.1936567
0
ARC
8
DEFAULT_255_1_234
10
4.3260321
20
100.7543369
40
0.234377
50
359.4789506
51
16.0679113
0
ARC
8
DEFAULT_255_1_234
10
4.373628
20
100.767181
40
0.1850875
50
16.3251951
51
44.791304
0
ARC
8
DEFAULT_255_1_234
10
4.3718561
20
100.7672339
40
0.186312
50
44.3958661
51
88.2498933
0
ARC
8
DEFAULT_255_1_234
10
4.3645115
20
100.7061154
40
0.2476868
50
86.9833827
51
90.0200148
0
LINE
8
DEFAULT_255_1_234
10
4.7547674
20
108.9973211
11
4.7547674
21
108.913791
0
LINE
8
DEFAULT_255_1_234
10
4.7547674
20
108.913791
11
4.2704536
21
107.8279
0
LINE
8
DEFAULT_255_1_234
10
4.2704536
20
107.8279
11
4.1146379
21
107.8279
0
LINE
8
DEFAULT_255_1_234
10
4.1146379
20
107.8279
11
4.5973454
21
108.8752387
0
LINE
8
DEFAULT_255_1_234
10
4.5973454
20
108.8752387
11
3.9644444
21
108.8752387
0
LINE
8
DEFAULT_255_1_234
10
3.9644444
20
108.8752387
11
3.9644444
21
108.9973211
0
LINE
8
DEFAULT_255_1_234
10
3.9644444
20
108.9973211
11
4.7547674
21
108.9973211
0
LINE
8
DEFAULT_255_1_234
10
4.5563835
20
116.9356243
11
4.5828882
21
116.9356243
0
LINE
8
DEFAULT_255_1_234
10
4.5828882
20
116.9356243
11
4.5828882
21
116.809526
0
LINE
8
DEFAULT_255_1_234
10
4.5828882
20
116.809526
11
4.5555803
21
116.809526
0
LINE
8
DEFAULT_255_1_234
10
4.0086189
20
116.2103583
11
4.0086189
21
116.2673836
0
LINE
8
DEFAULT_255_1_234
10
4.1580093
20
116.2481075
11
4.1580093
21
116.1934917
0
ARC
8
DEFAULT_255_1_234
10
4.5608151
20
116.3097455
40
0.4998079
50
90.6001036
51
104.514704
0
ARC
8
DEFAULT_255_1_234
10
4.5219667
20
116.4542131
40
0.3502176
50
104.2855254
51
133.862935
0
ARC
8
DEFAULT_255_1_234
10
4.5383424
20
116.443383
40
0.3693984
50
134.5302688
51
161.6210873
0
ARC
8
DEFAULT_255_1_234
10
4.7036613
20
116.3850895
40
0.5446739
50
161.2849839
51
174.2076652
0
ARC
8
DEFAULT_255_1_234
10
4.844355
20
116.3656787
40
0.6866274
50
173.7810589
51
174.9254635
0
ARC
8
DEFAULT_255_1_234
10
4.3893382
20
116.2273839
40
0.3033419
50
95.8330959
51
138.9954921
0
ARC
8
DEFAULT_255_1_234
10
4.4116738
20
116.0995375
40
0.4328947
50
89.8753725
51
97.0544009
0
ARC
8
DEFAULT_255_1_234
10
4.4164204
20
116.1830748
40
0.3493769
50
71.6407809
51
90.6240094
0
ARC
8
DEFAULT_255_1_234
10
4.4314777
20
116.2385082
40
0.2920396
50
39.6367836
51
71.019018
0
ARC
8
DEFAULT_255_1_234
10
4.367825
20
116.1834998
40
0.3761538
50
10.658731
51
39.9043955
0
ARC
8
DEFAULT_255_1_234
10
4.2130333
20
116.1498686
40
0.5345136
50
359.682601
51
11.132623
0
ARC
8
DEFAULT_255_1_234
10
4.2090464
20
116.142801
40
0.5385081
50
347.2486944
51
0.4369317
0
ARC
8
DEFAULT_255_1_234
10
4.3757941
20
116.1026807
40
0.3670249
50
318.1409698
51
347.6118597
0
ARC
8
DEFAULT_255_1_234
10
4.4082934
20
116.0759702
40
0.3250007
50
275.6342139
51
317.8248465
0
ARC
8
DEFAULT_255_1_234
10
4.3862045
20
116.2059219
40
0.4565864
50
269.8874292
51
276.7917694
0
ARC
8
DEFAULT_255_1_234
10
4.3807116
20
116.1033743
40
0.3540676
50
246.9140195
51
270.7437342
0
ARC
8
DEFAULT_255_1_234
10
4.3813506
20
116.0891384
40
0.3412781
50
218.1665114
51
245.878116
0
ARC
8
DEFAULT_255_1_234
10
4.4692967
20
116.1627279
40
0.455911
50
191.4115814
51
218.6077802
0
ARC
8
DEFAULT_255_1_234
10
4.6631056
20
116.2061833
40
0.6545001
50
179.6345085
51
191.7836486
0
ARC
8
DEFAULT_255_1_234
10
5.2213393
20
116.2740697
40
1.2127388
50
171.4525249
51
180.3158839
0
ARC
8
DEFAULT_255_1_234
10
4.7818269
20
116.3424608
40
0.7679464
50
157.9802646
51
171.6246686
0
ARC
8
DEFAULT_255_1_234
10
4.560429
20
116.4307421
40
0.5296008
50
141.4298019
51
157.854097
0
ARC
8
DEFAULT_255_1_234
10
4.496261
20
116.4761381
40
0.4511509
50
102.8715806
51
140.8564722
0
ARC
8
DEFAULT_255_1_234
10
4.5610226
20
116.2321552
40
0.7034845
50
90.3778349
51
103.5869322
0
ARC
8
DEFAULT_255_1_234
10
4.3872002
20
116.171673
40
0.2370698
50
89.8751008
51
126.2071704
0
ARC
8
DEFAULT_255_1_234
10
4.3917792
20
116.1562303
40
0.2522934
50
124.9745049
51
144.895901
0
ARC
8
DEFAULT_255_1_234
10
4.3741982
20
116.170556
40
0.2296779
50
145.2974905
51
160.2660252
0
ARC
8
DEFAULT_255_1_234
10
4.6814521
20
116.1903071
40
0.5234525
50
179.6514266
51
190.2855912
0
ARC
8
DEFAULT_255_1_234
10
4.5120658
20
116.1583786
40
0.3510893
50
190.0945431
51
207.5098196
0
ARC
8
DEFAULT_255_1_234
10
4.4554928
20
116.1314623
40
0.288489
50
207.9583163
51
216.3251085
0
ARC
8
DEFAULT_255_1_234
10
4.4215036
20
116.1035105
40
0.2445587
50
215.7661442
51
232.5456785
0
ARC
8
DEFAULT_255_1_234
10
4.3832019
20
116.0548482
40
0.1826382
50
232.8005391
51
270.6605633
0
ARC
8
DEFAULT_255_1_234
10
4.387772
20
116.0912612
40
0.2190529
50
269.35537
51
288.4744281
0
ARC
8
DEFAULT_255_1_234
10
4.3970617
20
116.0563118
40
0.1829749
50
289.1833337
51
322.9683818
0
ARC
8
DEFAULT_255_1_234
10
4.3359139
20
116.1045391
40
0.2608399
50
322.6007884
51
346.5182367
0
ARC
8
DEFAULT_255_1_234
10
4.2201735
20
116.1340616
40
0.3802777
50
346.2582162
51
358.7741648
0
ARC
8
DEFAULT_255_1_234
10
4.1183404
20
116.1395965
40
0.4822176
50
358.3755224
51
0.0098023
0
ARC
8
DEFAULT_255_1_234
10
4.1939591
20
116.1423657
40
0.4066078
50
359.6214041
51
11.2839074
0
ARC
8
DEFAULT_255_1_234
10
4.3216738
20
116.1690066
40
0.2761514
50
11.0482309
51
31.8146458
0
ARC
8
DEFAULT_255_1_234
10
4.3525781
20
116.1857584
40
0.2410679
50
32.3035391
51
38.082671
0
ARC
8
DEFAULT_255_1_234
10
4.3946441
20
116.2238662
40
0.1844966
50
36.825067
51
85.7415724
0
ARC
8
DEFAULT_255_1_234
10
4.3879274
20
116.1738301
40
0.2349122
50
85.0140713
51
90.0513278
0
LINE
8
DEFAULT_255_1_234
10
4.1869235
20
124.2586963
11
4.0680538
21
124.2892169
0
LINE
8
DEFAULT_255_1_234
10
4.0680538
20
124.2892169
11
4.1274887
21
124.8723211
0
LINE
8
DEFAULT_255_1_234
10
4.1274887
20
124.8723211
11
4.7266563
21
124.8723211
0
LINE
8
DEFAULT_255_1_234
10
4.7266563
20
124.8723211
11
4.7266563
21
124.7349784
0
LINE
8
DEFAULT_255_1_234
10
4.7266563
20
124.7349784
11
4.253587
21
124.7349784
0
LINE
8
DEFAULT_255_1_234
10
4.253587
20
124.7349784
11
4.2182473
21
124.4161184
0
LINE
8
DEFAULT_255_1_234
10
4.0262888
20
124.0105156
11
4.1668442
21
124.0105156
0
LINE
8
DEFAULT_255_1_234
10
4.2262791
20
124.2908232
11
4.1869235
21
124.2586963
0
ARC
8
DEFAULT_255_1_234
10
4.4037257
20
124.098123
40
0.3681349
50
93.7182161
51
120.2538958
0
ARC
8
DEFAULT_255_1_234
10
4.413152
20
124.0173394
40
0.449379
50
89.9660152
51
94.2496022
0
ARC
8
DEFAULT_255_1_234
10
4.4172254
20
124.0762549
40
0.390482
50
73.8043271
51
90.5585896
0
ARC
8
DEFAULT_255_1_234
10
4.4407151
20
124.1620602
40
0.3015334
50
41.3071453
51
73.5430202
0
ARC
8
DEFAULT_255_1_234
10
4.3990978
20
124.1262324
40
0.3564457
50
13.5075983
51
41.2174222
0
ARC
8
DEFAULT_255_1_234
10
4.2349182
20
124.0832486
40
0.5261351
50
1.1331335
51
13.8829381
0
ARC
8
DEFAULT_255_1_234
10
4.0937551
20
124.0756665
40
0.6674378
50
359.9919444
51
1.544251
0
ARC
8
DEFAULT_255_1_234
10
4.2214377
20
124.071528
40
0.5397702
50
347.8572367
51
0.4293338
0
ARC
8
DEFAULT_255_1_234
10
4.3964695
20
124.0318736
40
0.3603188
50
323.673004
51
348.1672506
0
ARC
8
DEFAULT_255_1_234
10
4.4259203
20
124.0139168
40
0.3259678
50
316.8171152
51
323.1492751
0
ARC
8
DEFAULT_255_1_234
10
4.4320392
20
124.010246
40
0.3189975
50
281.8396411
51
316.5457803
0
ARC
8
DEFAULT_255_1_234
10
4.3944656
20
124.1657762
40
0.4789527
50
269.5770101
51
282.4214771
0
ARC
8
DEFAULT_255_1_234
10
4.3873467
20
124.1444125
40
0.45759
50
256.2427136
51
270.4486331
0
ARC
8
DEFAULT_255_1_234
10
4.357437
20
124.0244229
40
0.3339303
50
228.9023911
51
256.3314342
0
ARC
8
DEFAULT_255_1_234
10
4.3500602
20
124.0127746
40
0.32031
50
193.753695
51
228.5271154
0
ARC
8
DEFAULT_255_1_234
10
4.4738556
20
124.04908
40
0.4492253
50
184.924711
51
194.497588
0
ARC
8
DEFAULT_255_1_234
10
4.4931123
20
124.0526591
40
0.3289787
50
187.3600538
51
198.6732863
0
ARC
8
DEFAULT_255_1_234
10
4.3881417
20
124.0162674
40
0.217884
50
198.4451669
51
217.794479
0
ARC
8
DEFAULT_255_1_234
10
4.3585592
20
123.9953085
40
0.1816698
50
218.2887171
51
228.5612368
0
ARC
8
DEFAULT_255_1_234
10
4.3683379
20
124.0084963
40
0.1980329
50
228.9654866
51
258.1234728
0
ARC
8
DEFAULT_255_1_234
10
4.3889089
20
124.0965833
40
0.2884748
50
257.7258293
51
270.401361
0
ARC
8
DEFAULT_255_1_234
10
4.3933975
20
124.0520821
40
0.2439788
50
269.4204404
51
286.4209037
0
ARC
8
DEFAULT_255_1_234
10
4.4082463
20
123.9981657
40
0.1880666
50
286.7251356
51
320.600362
0
ARC
8
DEFAULT_255_1_234
10
4.3699288
20
124.0292595
40
0.2374121
50
320.6712579
51
344.5441685
0
ARC
8
DEFAULT_255_1_234
10
4.2542614
20
124.0632045
40
0.3579479
50
344.2412205
51
356.7357071
0
ARC
8
DEFAULT_255_1_234
10
4.1293763
20
124.0735444
40
0.4832297
50
356.3548756
51
0.0500261
0
ARC
8
DEFAULT_255_1_234
10
4.2630272
20
124.076665
40
0.3495889
50
359.5576869
51
12.953486
0
ARC
8
DEFAULT_255_1_234
10
4.3685169
20
124.1022434
40
0.2410532
50
12.6490276
51
41.6081334
0
ARC
8
DEFAULT_255_1_234
10
4.391554
20
124.1218321
40
0.2108218
50
41.7850273
51
85.9892764
0
ARC
8
DEFAULT_255_1_234
10
4.3792277
20
124.0405462
40
0.2928454
50
84.6957577
51
90.0676183
0
ARC
8
DEFAULT_255_1_234
10
4.3768761
20
123.9736716
40
0.3597255
50
89.6804936
51
99.1614436
0
ARC
8
DEFAULT_255_1_234
10
4.3563392
20
124.0964131
40
0.235281
50
98.9830931
51
113.8908934
0
ARC
8
DEFAULT_255_1_234
10
4.3333802
20
124.1505587
40
0.176479
50
114.1950727
51
127.3641004
0
LINE
8
DEFAULT_255_1_234
10
4.8387628
20
132.8098211
11
4.8387628
21
132.033152
0
LINE
8
DEFAULT_255_1_234
10
4.8387628
20
132.033152
11
5.0010039
21
132.033152
0
LINE
8
DEFAULT_255_1_234
10
5.0010039
20
132.033152
11
5.0010039
21
131.9118728
0
LINE
8
DEFAULT_255_1_234
10
5.0010039
20
131.9118728
11
4.8387628
21
131.9118728
0
LINE
8
DEFAULT_255_1_234
10
4.8387628
20
131.9118728
11
4.8387628
21
131.6404
0
LINE
8
DEFAULT_255_1_234
10
4.8387628
20
131.6404
11
4.6893725
21
131.6404
0
LINE
8
DEFAULT_255_1_234
10
4.6893725
20
131.6404
11
4.6893725
21
131.9118728
0
LINE
8
DEFAULT_255_1_234
10
4.6893725
20
131.9118728
11
4.1568682
21
131.9118728
0
LINE
8
DEFAULT_255_1_234
10
4.1568682
20
131.9118728
11
4.1568682
21
131.9994187
0
LINE
8
DEFAULT_255_1_234
10
4.1568682
20
131.9994187
11
4.6805375
21
132.8098211
0
LINE
8
DEFAULT_255_1_234
10
4.6805375
20
132.8098211
11
4.8387628
21
132.8098211
0
LINE
8
DEFAULT_255_1_234
10
4.6717026
20
132.5744912
11
4.3255347
21
132.033152
0
LINE
8
DEFAULT_255_1_234
10
4.3255347
20
132.033152
11
4.6893725
21
132.033152
0
LINE
8
DEFAULT_255_1_234
10
4.6893725
20
132.033152
11
4.6893725
21
132.6066181
0
LINE
8
DEFAULT_255_1_234
10
4.6893725
20
132.6066181
11
4.6717026
21
132.5744912
0
LINE
8
DEFAULT_255_1_234
10
4.2158378
20
140.1136169
11
4.2158378
21
140.2348962
0
LINE
8
DEFAULT_255_1_234
10
4.2158378
20
140.2348962
11
4.327479
21
140.2348962
0
LINE
8
DEFAULT_255_1_234
10
4.1371268
20
140.4405087
11
3.9885396
21
140.4405087
0
LINE
8
DEFAULT_255_1_234
10
3.9780983
20
139.8863188
11
4.1274887
21
139.8863188
0
LINE
8
DEFAULT_255_1_234
10
4.327479
20
140.1136169
11
4.2158378
21
140.1136169
0
ARC
8
DEFAULT_255_1_234
10
4.3245656
20
140.5741713
40
0.3392876
50
270.4919872
51
281.8951556
0
ARC
8
DEFAULT_255_1_234
10
4.3486918
20
140.4639702
40
0.2264817
50
281.6691735
51
301.2943132
0
ARC
8
DEFAULT_255_1_234
10
4.3657128
20
140.4328304
40
0.1910381
50
301.7833094
51
311.7545298
0
ARC
8
DEFAULT_255_1_234
10
4.3748704
20
140.4226748
40
0.1773635
50
311.7323931
51
354.2802411
0
ARC
8
DEFAULT_255_1_234
10
4.3022329
20
140.4351722
40
0.2509385
50
353.0937916
51
0.1181479
0
ARC
8
DEFAULT_255_1_234
10
4.2561114
20
140.4399386
40
0.2970898
50
359.1805295
51
15.0453146
0
ARC
8
DEFAULT_255_1_234
10
4.3906951
20
140.4791992
40
0.1569564
50
13.9577229
51
77.6713066
0
ARC
8
DEFAULT_255_1_234
10
4.352048
20
140.3406949
40
0.3006298
50
76.1116566
51
90.7026153
0
ARC
8
DEFAULT_255_1_234
10
4.3461318
20
140.3680545
40
0.2732568
50
89.5324876
51
103.531937
0
ARC
8
DEFAULT_255_1_234
10
4.3260762
20
140.4479884
40
0.1908508
50
103.2931773
51
133.5619022
0
ARC
8
DEFAULT_255_1_234
10
4.3216251
20
140.4539375
40
0.1834746
50
133.8349307
51
173.5344437
0
ARC
8
DEFAULT_255_1_234
10
4.3939294
20
140.4411213
40
0.2568033
50
172.5096846
51
180.1366907
0
ARC
8
DEFAULT_255_1_234
10
4.2988188
20
140.4445622
40
0.3103056
50
155.3484492
51
180.7484736
0
ARC
8
DEFAULT_255_1_234
10
4.2939277
20
140.4416846
40
0.3070957
50
131.5744599
51
154.4798489
0
ARC
8
DEFAULT_255_1_234
10
4.3252424
20
140.410031
40
0.3515643
50
96.9875458
51
131.9690667
0
ARC
8
DEFAULT_255_1_234
10
4.3471904
20
140.2854636
40
0.4779224
50
89.8596053
51
97.7825159
0
ARC
8
DEFAULT_255_1_234
10
4.3519967
20
140.2592616
40
0.5041361
50
78.3655447
51
90.4131539
0
ARC
8
DEFAULT_255_1_234
10
4.3877885
20
140.4251887
40
0.3344039
50
56.6229102
51
78.638727
0
ARC
8
DEFAULT_255_1_234
10
4.4092829
20
140.4627805
40
0.2912001
50
47.0253525
51
56.0854072
0
ARC
8
DEFAULT_255_1_234
10
4.4112609
20
140.4667223
40
0.2869704
50
10.9208013
51
46.7778124
0
ARC
8
DEFAULT_255_1_234
10
4.2748675
20
140.4351857
40
0.426899
50
359.6364486
51
11.6087304
0
ARC
8
DEFAULT_255_1_234
10
4.4583519
20
140.4336752
40
0.243409
50
332.3549906
51
359.7179418
0
ARC
8
DEFAULT_255_1_234
10
4.3933121
20
140.4645142
40
0.3153459
50
325.2333722
51
332.8745602
0
ARC
8
DEFAULT_255_1_234
10
4.4085744
20
140.4538828
40
0.2967456
50
292.9802137
51
325.2392345
0
ARC
8
DEFAULT_255_1_234
10
4.3811118
20
140.5072863
40
0.3566604
50
292.5402179
51
293.6924929
0
ARC
8
DEFAULT_255_1_234
10
4.4203714
20
139.8618091
40
0.3307468
50
57.6435486
51
72.8625112
0
ARC
8
DEFAULT_255_1_234
10
4.4558214
20
139.9192549
40
0.2632492
50
36.7248896
51
57.4697979
0
ARC
8
DEFAULT_255_1_234
10
4.4546847
20
139.920522
40
0.2634081
50
8.0545065
51
36.356114
0
ARC
8
DEFAULT_255_1_234
10
4.3684032
20
139.9050174
40
0.3510261
50
359.8320645
51
8.5869982
0
ARC
8
DEFAULT_255_1_234
10
4.3308808
20
139.9002101
40
0.3885653
50
343.9829931
51
0.5571613
0
ARC
8
DEFAULT_255_1_234
10
4.4195005
20
139.8759438
40
0.2966924
50
311.6359546
51
343.7651759
0
ARC
8
DEFAULT_255_1_234
10
4.3816574
20
139.9186102
40
0.3537231
50
279.7829875
51
311.6255694
0
ARC
8
DEFAULT_255_1_234
10
4.3515351
20
140.062328
40
0.5004971
50
269.7286406
51
280.3856417
0
ARC
8
DEFAULT_255_1_234
10
4.3453423
20
140.0581996
40
0.4963778
50
256.6828919
51
270.4412052
0
ARC
8
DEFAULT_255_1_234
10
4.3114719
20
139.9197394
40
0.3538406
50
229.4223008
51
256.8556159
0
ARC
8
DEFAULT_255_1_234
10
4.2700112
20
139.8730736
40
0.2914296
50
181.818294
51
229.6455059
0
ARC
8
DEFAULT_255_1_234
10
4.3740068
20
139.8861496
40
0.3959084
50
179.9755256
51
183.2323064
0
ARC
8
DEFAULT_255_1_234
10
4.3567814
20
139.8841037
40
0.2293034
50
179.4465117
51
196.2869258
0
ARC
8
DEFAULT_255_1_234
10
4.3080222
20
139.8707651
40
0.1787621
50
196.5661473
51
227.705904
0
ARC
8
DEFAULT_255_1_234
10
4.3244317
20
139.8891155
40
0.2033784
50
227.7652068
51
257.8762805
0
ARC
8
DEFAULT_255_1_234
10
4.3469287
20
139.9834156
40
0.3003081
50
257.4584385
51
270.426602
0
ARC
8
DEFAULT_255_1_234
10
4.3514853
20
140.0123996
40
0.329292
50
269.5962073
51
280.8789248
0
ARC
8
DEFAULT_255_1_234
10
4.3744382
20
139.8977685
40
0.2123908
50
280.6346389
51
299.8595945
0
ARC
8
DEFAULT_255_1_234
10
4.3935289
20
139.8615212
40
0.171457
50
300.3576302
51
314.5517981
0
ARC
8
DEFAULT_255_1_234
10
4.3852349
20
139.8675919
40
0.1816095
50
315.0728369
51
345.0431014
0
ARC
8
DEFAULT_255_1_234
10
4.2929163
20
139.8944841
40
0.2777492
50
344.5986631
51
357.9269593
0
ARC
8
DEFAULT_255_1_234
10
4.2033489
20
139.9006276
40
0.3674917
50
357.4748886
51
0.0231117
0
ARC
8
DEFAULT_255_1_234
10
4.3056599
20
139.9030679
40
0.2651907
50
359.5047933
51
13.4239635
0
ARC
8
DEFAULT_255_1_234
10
4.3923242
20
139.9252478
40
0.1757509
50
12.9498199
51
48.7551375
0
ARC
8
DEFAULT_255_1_234
10
4.3740976
20
139.90034
40
0.2065134
50
49.5088623
51
72.1836453
0
ARC
8
DEFAULT_255_1_234
10
4.3383129
20
139.7941291
40
0.3185836
50
71.9010081
51
84.3554254
0
ARC
8
DEFAULT_255_1_234
10
4.3221761
20
139.6580326
40
0.4556151
50
84.0193428
51
89.333121
0
LINE
8
DEFAULT_255_1_234
10
4.7660119
20
147.6366792
11
4.7660119
21
147.5154
0
LINE
8
DEFAULT_255_1_234
10
4.7660119
20
147.5154
11
3.999784
21
147.5154
0
LINE
8
DEFAULT_255_1_234
10
3.999784
20
147.5154
11
3.999784
21
147.6222221
0
LINE
8
DEFAULT_255_1_234
10
3.999784
20
147.6222221
11
4.4045836
21
148.0719995
0
LINE
8
DEFAULT_255_1_234
10
4.1258823
20
148.3402595
11
3.9772952
21
148.3402595
0
LINE
8
DEFAULT_255_1_234
10
4.4921296
20
147.9764218
11
4.1788918
21
147.6366792
0
LINE
8
DEFAULT_255_1_234
10
4.1788918
20
147.6366792
11
4.7660119
21
147.6366792
0
ARC
8
DEFAULT_255_1_234
10
3.055567
20
149.2649527
40
1.8008286
50
318.5132453
51
320.7828378
0
ARC
8
DEFAULT_255_1_234
10
3.5842644
20
148.8346426
40
1.1191493
50
320.7372736
51
323.9737074
0
ARC
8
DEFAULT_255_1_234
10
3.9762501
20
148.5506361
40
0.6350923
50
323.8961724
51
328.6421089
0
ARC
8
DEFAULT_255_1_234
10
4.1809096
20
148.4244031
40
0.3946393
50
328.8299013
51
331.789948
0
ARC
8
DEFAULT_255_1_234
10
4.2806274
20
148.3729509
40
0.2824501
50
331.4255242
51
352.9364833
0
ARC
8
DEFAULT_255_1_234
10
4.2942775
20
148.3698976
40
0.2685315
50
353.2248685
51
0.0169286
0
ARC
8
DEFAULT_255_1_234
10
4.3152652
20
148.372195
40
0.2475536
50
359.4866256
51
15.9339782
0
ARC
8
DEFAULT_255_1_234
10
4.3659637
20
148.3858286
40
0.1950618
50
16.1714718
51
43.5284424
0
ARC
8
DEFAULT_255_1_234
10
4.3736946
20
148.3935573
40
0.184134
50
43.4415429
51
83.1661404
0
ARC
8
DEFAULT_255_1_234
10
4.3602864
20
148.3198771
40
0.258926
50
82.160215
51
90.1505798
0
ARC
8
DEFAULT_255_1_234
10
4.3571291
20
148.2661865
40
0.3126255
50
89.5460705
51
102.5418777
0
ARC
8
DEFAULT_255_1_234
10
4.3328377
20
148.3692665
40
0.2067346
50
102.1739365
51
129.2061916
0
ARC
8
DEFAULT_255_1_234
10
4.3249449
20
148.3817094
40
0.1921118
50
129.7279328
51
135.7542026
0
ARC
8
DEFAULT_255_1_234
10
4.3370977
20
148.3720045
40
0.2075944
50
136.175737
51
166.3674722
0
ARC
8
DEFAULT_255_1_234
10
4.4377896
20
148.3450182
40
0.3118201
50
165.9092917
51
178.8683903
0
ARC
8
DEFAULT_255_1_234
10
4.5242757
20
148.3403179
40
0.3983935
50
178.438168
51
180.0083905
0
ARC
8
DEFAULT_255_1_234
10
4.3841359
20
148.3442231
40
0.4068601
50
163.2878735
51
180.5581814
0
ARC
8
DEFAULT_255_1_234
10
4.3039621
20
148.366284
40
0.3237344
50
133.454115
51
162.9470031
0
ARC
8
DEFAULT_255_1_234
10
4.3218162
20
148.3473
40
0.349795
50
100.7869394
51
133.4384016
0
ARC
8
DEFAULT_255_1_234
10
4.3565934
20
148.1924319
40
0.5084616
50
89.6605301
51
101.3704185
0
ARC
8
DEFAULT_255_1_234
10
4.3632273
20
148.1985496
40
0.502348
50
78.2171172
51
90.4130393
0
ARC
8
DEFAULT_255_1_234
10
4.3987351
20
148.3609637
40
0.3361092
50
55.9268222
51
78.4888551
0
ARC
8
DEFAULT_255_1_234
10
4.4183791
20
148.3948324
40
0.2970617
50
47.9292255
51
55.4054003
0
ARC
8
DEFAULT_255_1_234
10
4.4285352
20
148.4051502
40
0.2825983
50
4.3347696
51
48.0560701
0
ARC
8
DEFAULT_255_1_234
10
4.3189745
20
148.3881601
40
0.393225
50
359.925209
51
5.5967654
0
ARC
8
DEFAULT_255_1_234
10
4.3618637
20
148.3937816
40
0.3503892
50
337.8914096
51
358.9967724
0
ARC
8
DEFAULT_255_1_234
10
4.0905049
20
148.4984706
40
0.6412172
50
326.9135351
51
338.3505194
0
ARC
8
DEFAULT_255_1_234
10
3.6919353
20
148.7539284
40
1.1146189
50
319.6472867
51
327.095818
0
ARC
8
DEFAULT_255_1_234
10
3.3086356
20
149.0701
40
1.6114559
50
317.2586784
51
319.9046139
0
LINE
8
DEFAULT_255_1_234
10
4.4798137
20
156.6279433
11
4.4798137
21
155.4529
0
LINE
8
DEFAULT_255_1_234
10
4.4798137
20
155.4529
11
4.3304234
21
155.4529
0
LINE
8
DEFAULT_255_1_234
10
4.3304234
20
155.4529
11
4.3304234
21
156.4432133
0
LINE
8
DEFAULT_255_1_234
10
4.3304234
20
156.4432133
11
4.0308396
21
156.3331785
0
LINE
8
DEFAULT_255_1_234
10
4.0308396
20
156.3331785
11
4.0308396
21
156.4681117
0
LINE
8
DEFAULT_255_1_234
10
4.0308396
20
156.4681117
11
4.4565217
21
156.6279433
0
LINE
8
DEFAULT_255_1_234
10
4.4565217
20
156.6279433
11
4.4798137
21
156.6279433
0
LINE
8
DEFAULT_255_1_234
10
23.1201628
20
164.5598211
11
23.1201628
21
163.783152
0
LINE
8
DEFAULT_255_1_234
10
23.1201628
20
163.783152
11
23.2824039
21
163.783152
0
LINE
8
DEFAULT_255_1_234
10
23.2824039
20
163.783152
11
23.2824039
21
163.6618728
0
LINE
8
DEFAULT_255_1_234
10
23.2824039
20
163.6618728
11
23.1201628
21
163.6618728
0
LINE
8
DEFAULT_255_1_234
10
23.1201628
20
163.6618728
11
23.1201628
21
163.3904
0
LINE
8
DEFAULT_255_1_234
10
23.1201628
20
163.3904
11
22.9707725
21
163.3904
0
LINE
8
DEFAULT_255_1_234
10
22.9707725
20
163.3904
11
22.9707725
21
163.6618728
0
LINE
8
DEFAULT_255_1_234
10
22.9707725
20
163.6618728
11
22.4382682
21
163.6618728
0
LINE
8
DEFAULT_255_1_234
10
22.4382682
20
163.6618728
11
22.4382682
21
163.7494187
0
LINE
8
DEFAULT_255_1_234
10
22.4382682
20
163.7494187
11
22.9619375
21
164.5598211
0
LINE
8
DEFAULT_255_1_234
10
22.9619375
20
164.5598211
11
23.1201628
21
164.5598211
0
LINE
8
DEFAULT_255_1_234
10
22.9531026
20
164.3244912
11
22.6069347
21
163.783152
0
LINE
8
DEFAULT_255_1_234
10
22.6069347
20
163.783152
11
22.9707725
21
163.783152
0
LINE
8
DEFAULT_255_1_234
10
22.9707725
20
163.783152
11
22.9707725
21
164.3566181
0
LINE
8
DEFAULT_255_1_234
10
22.9707725
20
164.3566181
11
22.9531026
21
164.3244912
0
LINE
8
DEFAULT_255_1_234
10
23.6325877
20
163.9261169
11
23.6325877
21
164.0473962
0
LINE
8
DEFAULT_255_1_234
10
23.6325877
20
164.0473962
11
23.7442289
21
164.0473962
0
LINE
8
DEFAULT_255_1_234
10
23.5538767
20
164.2530087
11
23.4052895
21
164.2530087
0
LINE
8
DEFAULT_255_1_234
10
23.3948482
20
163.6988188
11
23.5442386
21
163.6988188
0
LINE
8
DEFAULT_255_1_234
10
23.7442289
20
163.9261169
11
23.6325877
21
163.9261169
0
ARC
8
DEFAULT_255_1_234
10
23.7413155
20
164.3866713
40
0.3392876
50
270.4919872
51
281.8951556
0
ARC
8
DEFAULT_255_1_234
10
23.7654417
20
164.2764702
40
0.2264817
50
281.6691735
51
301.2943132
0
ARC
8
DEFAULT_255_1_234
10
23.7824627
20
164.2453304
40
0.1910381
50
301.7833094
51
311.7545298
0
ARC
8
DEFAULT_255_1_234
10
23.7916203
20
164.2351748
40
0.1773635
50
311.7323931
51
354.2802411
0
ARC
8
DEFAULT_255_1_234
10
23.7189828
20
164.2476722
40
0.2509385
50
353.0937916
51
0.1181479
0
ARC
8
DEFAULT_255_1_234
10
23.6728613
20
164.2524386
40
0.2970898
50
359.1805295
51
15.0453146
0
ARC
8
DEFAULT_255_1_234
10
23.807445
20
164.2916992
40
0.1569564
50
13.9577229
51
77.6713066
0
ARC
8
DEFAULT_255_1_234
10
23.7687979
20
164.1531949
40
0.3006298
50
76.1116566
51
90.7026153
0
ARC
8
DEFAULT_255_1_234
10
23.7628817
20
164.1805545
40
0.2732568
50
89.5324876
51
103.531937
0
ARC
8
DEFAULT_255_1_234
10
23.7428261
20
164.2604884
40
0.1908508
50
103.2931773
51
133.5619022
0
ARC
8
DEFAULT_255_1_234
10
23.738375
20
164.2664375
40
0.1834746
50
133.8349307
51
173.5344437
0
ARC
8
DEFAULT_255_1_234
10
23.8106793
20
164.2536213
40
0.2568033
50
172.5096846
51
180.1366907
0
ARC
8
DEFAULT_255_1_234
10
23.7155687
20
164.2570622
40
0.3103056
50
155.3484492
51
180.7484736
0
ARC
8
DEFAULT_255_1_234
10
23.7106776
20
164.2541846
40
0.3070957
50
131.5744599
51
154.4798489
0
ARC
8
DEFAULT_255_1_234
10
23.7419923
20
164.222531
40
0.3515643
50
96.9875458
51
131.9690667
0
ARC
8
DEFAULT_255_1_234
10
23.7639403
20
164.0979636
40
0.4779224
50
89.8596053
51
97.7825159
0
ARC
8
DEFAULT_255_1_234
10
23.7687466
20
164.0717616
40
0.5041361
50
78.3655447
51
90.4131539
0
ARC
8
DEFAULT_255_1_234
10
23.8045384
20
164.2376887
40
0.3344039
50
56.6229102
51
78.638727
0
ARC
8
DEFAULT_255_1_234
10
23.8260328
20
164.2752805
40
0.2912001
50
47.0253525
51
56.0854072
0
ARC
8
DEFAULT_255_1_234
10
23.8280108
20
164.2792223
40
0.2869704
50
10.9208013
51
46.7778124
0
ARC
8
DEFAULT_255_1_234
10
23.6916174
20
164.2476857
40
0.426899
50
359.6364486
51
11.6087304
0
ARC
8
DEFAULT_255_1_234
10
23.8751018
20
164.2461752
40
0.243409
50
332.3549906
51
359.7179418
0
ARC
8
DEFAULT_255_1_234
10
23.810062
20
164.2770142
40
0.3153459
50
325.2333722
51
332.8745602
0
ARC
8
DEFAULT_255_1_234
10
23.8253244
20
164.2663828
40
0.2967456
50
292.9802137
51
325.2392345
0
ARC
8
DEFAULT_255_1_234
10
23.7978617
20
164.3197863
40
0.3566604
50
292.5402179
51
293.6924929
0
ARC
8
DEFAULT_255_1_234
10
23.8371213
20
163.6743091
40
0.3307468
50
57.6435486
51
72.8625112
0
ARC
8
DEFAULT_255_1_234
10
23.8725713
20
163.7317549
40
0.2632492
50
36.7248896
51
57.4697979
0
ARC
8
DEFAULT_255_1_234
10
23.8714346
20
163.733022
40
0.2634081
50
8.0545065
51
36.356114
0
ARC
8
DEFAULT_255_1_234
10
23.7851531
20
163.7175174
40
0.3510261
50
359.8320645
51
8.5869982
0
ARC
8
DEFAULT_255_1_234
10
23.7476307
20
163.7127101
40
0.3885653
50
343.9829931
51
0.5571613
0
ARC
8
DEFAULT_255_1_234
10
23.8362504
20
163.6884438
40
0.2966924
50
311.6359546
51
343.7651759
0
ARC
8
DEFAULT_255_1_234
10
23.7984074
20
163.7311102
40
0.3537231
50
279.7829875
51
311.6255694
0
ARC
8
DEFAULT_255_1_234
10
23.768285
20
163.874828
40
0.5004971
50
269.7286406
51
280.3856417
0
ARC
8
DEFAULT_255_1_234
10
23.7620922
20
163.8706996
40
0.4963778
50
256.6828919
51
270.4412052
0
ARC
8
DEFAULT_255_1_234
10
23.7282218
20
163.7322394
40
0.3538406
50
229.4223008
51
256.8556159
0
ARC
8
DEFAULT_255_1_234
10
23.6867611
20
163.6855736
40
0.2914296
50
181.818294
51
229.6455059
0
ARC
8
DEFAULT_255_1_234
10
23.7907567
20
163.6986496
40
0.3959084
50
179.9755256
51
183.2323064
0
ARC
8
DEFAULT_255_1_234
10
23.7735313
20
163.6966037
40
0.2293034
50
179.4465117
51
196.2869258
0
ARC
8
DEFAULT_255_1_234
10
23.7247721
20
163.6832651
40
0.1787621
50
196.5661473
51
227.705904
0
ARC
8
DEFAULT_255_1_234
10
23.7411816
20
163.7016155
40
0.2033784
50
227.7652068
51
257.8762805
0
ARC
8
DEFAULT_255_1_234
10
23.7636786
20
163.7959156
40
0.3003081
50
257.4584385
51
270.426602
0
ARC
8
DEFAULT_255_1_234
10
23.7682352
20
163.8248996
40
0.329292
50
269.5962073
51
280.8789248
0
ARC
8
DEFAULT_255_1_234
10
23.7911881
20
163.7102685
40
0.2123908
50
280.6346389
51
299.8595945
0
ARC
8
DEFAULT_255_1_234
10
23.8102788
20
163.6740212
40
0.171457
50
300.3576302
51
314.5517981
0
ARC
8
DEFAULT_255_1_234
10
23.8019848
20
163.6800919
40
0.1816095
50
315.0728369
51
345.0431014
0
ARC
8
DEFAULT_255_1_234
10
23.7096662
20
163.7069841
40
0.2777492
50
344.5986631
51
357.9269593
0
ARC
8
DEFAULT_255_1_234
10
23.6200989
20
163.7131276
40
0.3674917
50
357.4748886
51
0.0231117
0
ARC
8
DEFAULT_255_1_234
10
23.7224098
20
163.7155679
40
0.2651907
50
359.5047933
51
13.4239635
0
ARC
8
DEFAULT_255_1_234
10
23.8090741
20
163.7377478
40
0.1757509
50
12.9498199
51
48.7551375
0
ARC
8
DEFAULT_255_1_234
10
23.7908475
20
163.71284
40
0.2065134
50
49.5088623
51
72.1836453
0
ARC
8
DEFAULT_255_1_234
10
23.7550628
20
163.6066291
40
0.3185836
50
71.9010081
51
84.3554254
0
ARC
8
DEFAULT_255_1_234
10
23.738926
20
163.4705326
40
0.4556151
50
84.0193428
51
89.333121
0
LINE
8
DEFAULT_255_1_234
10
22.8147378
20
13.1136169
11
22.8147378
21
13.2348962
0
LINE
8
DEFAULT_255_1_234
10
22.8147378
20
13.2348962
11
22.926379
21
13.2348962
0
LINE
8
DEFAULT_255_1_234
10
22.7360268
20
13.4405087
11
22.5874396
21
13.4405087
0
LINE
8
DEFAULT_255_1_234
10
22.5769983
20
12.8863188
11
22.7263887
21
12.8863188
0
LINE
8
DEFAULT_255_1_234
10
22.926379
20
13.1136169
11
22.8147378
21
13.1136169
0
ARC
8
DEFAULT_255_1_234
10
22.9234656
20
13.5741713
40
0.3392876
50
270.4919872
51
281.8951556
0
ARC
8
DEFAULT_255_1_234
10
22.9475918
20
13.4639702
40
0.2264817
50
281.6691735
51
301.2943132
0
ARC
8
DEFAULT_255_1_234
10
22.9646128
20
13.4328304
40
0.1910381
50
301.7833094
51
311.7545298
0
ARC
8
DEFAULT_255_1_234
10
22.9737704
20
13.4226748
40
0.1773635
50
311.7323931
51
354.2802411
0
ARC
8
DEFAULT_255_1_234
10
22.9011329
20
13.4351722
40
0.2509385
50
353.0937916
51
0.1181479
0
ARC
8
DEFAULT_255_1_234
10
22.8550114
20
13.4399386
40
0.2970898
50
359.1805295
51
15.0453146
0
ARC
8
DEFAULT_255_1_234
10
22.9895951
20
13.4791992
40
0.1569564
50
13.9577229
51
77.6713066
0
ARC
8
DEFAULT_255_1_234
10
22.950948
20
13.3406949
40
0.3006298
50
76.1116566
51
90.7026153
0
ARC
8
DEFAULT_255_1_234
10
22.9450318
20
13.3680545
40
0.2732568
50
89.5324876
51
103.531937
0
ARC
8
DEFAULT_255_1_234
10
22.9249762
20
13.4479884
40
0.1908508
50
103.2931773
51
133.5619022
0
ARC
8
DEFAULT_255_1_234
10
22.9205251
20
13.4539375
40
0.1834746
50
133.8349307
51
173.5344437
0
ARC
8
DEFAULT_255_1_234
10
22.9928294
20
13.4411213
40
0.2568033
50
172.5096846
51
180.1366907
0
ARC
8
DEFAULT_255_1_234
10
22.8977188
20
13.4445622
40
0.3103056
50
155.3484492
51
180.7484736
0
ARC
8
DEFAULT_255_1_234
10
22.8928277
20
13.4416846
40
0.3070957
50
131.5744599
51
154.4798489
0
ARC
8
DEFAULT_255_1_234
10
22.9241424
20
13.410031
40
0.3515643
50
96.9875458
51
131.9690667
0
ARC
8
DEFAULT_255_1_234
10
22.9460904
20
13.2854636
40
0.4779224
50
89.8596053
51
97.7825159
0
ARC
8
DEFAULT_255_1_234
10
22.9508967
20
13.2592616
40
0.5041361
50
78.3655447
51
90.4131539
0
ARC
8
DEFAULT_255_1_234
10
22.9866885
20
13.4251887
40
0.3344039
50
56.6229102
51
78.638727
0
ARC
8
DEFAULT_255_1_234
10
23.0081829
20
13.4627805
40
0.2912001
50
47.0253525
51
56.0854072
0
ARC
8
DEFAULT_255_1_234
10
23.0101609
20
13.4667223
40
0.2869704
50
10.9208013
51
46.7778124
0
ARC
8
DEFAULT_255_1_234
10
22.8737675
20
13.4351857
40
0.426899
50
359.6364486
51
11.6087304
0
ARC
8
DEFAULT_255_1_234
10
23.0572519
20
13.4336752
40
0.243409
50
332.3549906
51
359.7179418
0
ARC
8
DEFAULT_255_1_234
10
22.9922121
20
13.4645142
40
0.3153459
50
325.2333722
51
332.8745602
0
ARC
8
DEFAULT_255_1_234
10
23.0074744
20
13.4538828
40
0.2967456
50
292.9802137
51
325.2392345
0
ARC
8
DEFAULT_255_1_234
10
22.9800118
20
13.5072863
40
0.3566604
50
292.5402179
51
293.6924929
0
ARC
8
DEFAULT_255_1_234
10
23.0192714
20
12.8618091
40
0.3307468
50
57.6435486
51
72.8625112
0
ARC
8
DEFAULT_255_1_234
10
23.0547214
20
12.9192549
40
0.2632492
50
36.7248896
51
57.4697979
0
ARC
8
DEFAULT_255_1_234
10
23.0535847
20
12.920522
40
0.2634081
50
8.0545065
51
36.356114
0
ARC
8
DEFAULT_255_1_234
10
22.9673032
20
12.9050174
40
0.3510261
50
359.8320645
51
8.5869982
0
ARC
8
DEFAULT_255_1_234
10
22.9297808
20
12.9002101
40
0.3885653
50
343.9829931
51
0.5571613
0
ARC
8
DEFAULT_255_1_234
10
23.0184005
20
12.8759438
40
0.2966924
50
311.6359546
51
343.7651759
0
ARC
8
DEFAULT_255_1_234
10
22.9805574
20
12.9186102
40
0.3537231
50
279.7829875
51
311.6255694
0
ARC
8
DEFAULT_255_1_234
10
22.9504351
20
13.062328
40
0.5004971
50
269.7286406
51
280.3856417
0
ARC
8
DEFAULT_255_1_234
10
22.9442423
20
13.0581996
40
0.4963778
50
256.6828919
51
270.4412052
0
ARC
8
DEFAULT_255_1_234
10
22.9103719
20
12.9197394
40
0.3538406
50
229.4223008
51
256.8556159
0
ARC
8
DEFAULT_255_1_234
10
22.8689112
20
12.8730736
40
0.2914296
50
181.818294
51
229.6455059
0
ARC
8
DEFAULT_255_1_234
10
22.9729068
20
12.8861496
40
0.3959084
50
179.9755256
51
183.2323064
0
ARC
8
DEFAULT_255_1_234
10
22.9556814
20
12.8841037
40
0.2293034
50
179.4465117
51
196.2869258
0
ARC
8
DEFAULT_255_1_234
10
22.9069222
20
12.8707651
40
0.1787621
50
196.5661473
51
227.705904
0
ARC
8
DEFAULT_255_1_234
10
22.9233317
20
12.8891155
40
0.2033784
50
227.7652068
51
257.8762805
0
ARC
8
DEFAULT_255_1_234
10
22.9458287
20
12.9834156
40
0.3003081
50
257.4584385
51
270.426602
0
ARC
8
DEFAULT_255_1_234
10
22.9503853
20
13.0123996
40
0.329292
50
269.5962073
51
280.8789248
0
ARC
8
DEFAULT_255_1_234
10
22.9733382
20
12.8977685
40
0.2123908
50
280.6346389
51
299.8595945
0
ARC
8
DEFAULT_255_1_234
10
22.9924289
20
12.8615212
40
0.171457
50
300.3576302
51
314.5517981
0
ARC
8
DEFAULT_255_1_234
10
22.9841349
20
12.8675919
40
0.1816095
50
315.0728369
51
345.0431014
0
ARC
8
DEFAULT_255_1_234
10
22.8918163
20
12.8944841
40
0.2777492
50
344.5986631
51
357.9269593
0
ARC
8
DEFAULT_255_1_234
10
22.8022489
20
12.9006276
40
0.3674917
50
357.4748886
51
0.0231117
0
ARC
8
DEFAULT_255_1_234
10
22.9045599
20
12.9030679
40
0.2651907
50
359.5047933
51
13.4239635
0
ARC
8
DEFAULT_255_1_234
10
22.9912242
20
12.9252478
40
0.1757509
50
12.9498199
51
48.7551375
0
ARC
8
DEFAULT_255_1_234
10
22.9729976
20
12.90034
40
0.2065134
50
49.5088623
51
72.1836453
0
ARC
8
DEFAULT_255_1_234
10
22.9372129
20
12.7941291
40
0.3185836
50
71.9010081
51
84.3554254
0
ARC
8
DEFAULT_255_1_234
10
22.9210761
20
12.6580326
40
0.4556151
50
84.0193428
51
89.333121
0
LINE
8
DEFAULT_255_1_234
10
24.2411745
20
13.2798739
11
24.2411745
21
13.2365025
0
LINE
8
DEFAULT_255_1_234
10
23.6990322
20
12.5770968
11
23.6701179
21
12.5770968
0
LINE
8
DEFAULT_255_1_234
10
23.6701179
20
12.5770968
11
23.6701179
21
12.7023919
0
LINE
8
DEFAULT_255_1_234
10
23.6701179
20
12.7023919
11
23.7014417
21
12.7023919
0
LINE
8
DEFAULT_255_1_234
10
24.0925874
20
13.2509597
11
24.0925874
21
13.3103945
0
ARC
8
DEFAULT_255_1_234
10
23.8132143
20
13.3255403
40
0.3635579
50
297.4037347
51
320.016758
0
ARC
8
DEFAULT_255_1_234
10
23.8422092
20
13.269824
40
0.3007486
50
270.2633101
51
297.3851877
0
ARC
8
DEFAULT_255_1_234
10
23.8388048
20
13.3161904
40
0.3471448
50
269.9966443
51
270.7900392
0
ARC
8
DEFAULT_255_1_234
10
23.8362529
20
13.3160143
40
0.3469779
50
254.5999133
51
270.4180344
0
ARC
8
DEFAULT_255_1_234
10
23.8219888
20
13.2595647
40
0.2887697
50
236.4717942
51
254.3541279
0
ARC
8
DEFAULT_255_1_234
10
23.8376106
20
13.2805711
40
0.3149125
50
208.4727207
51
236.2134933
0
ARC
8
DEFAULT_255_1_234
10
23.9014881
20
13.3196455
40
0.3897115
50
204.3447514
51
209.0453999
0
ARC
8
DEFAULT_255_1_234
10
23.9694457
20
13.3484656
40
0.4635101
50
183.9375985
51
204.1276318
0
ARC
8
DEFAULT_255_1_234
10
24.0602708
20
13.3582482
40
0.5548037
50
179.9652252
51
184.3013875
0
ARC
8
DEFAULT_255_1_234
10
24.0362754
20
13.3615507
40
0.5308164
50
166.7585989
51
180.3201225
0
ARC
8
DEFAULT_255_1_234
10
23.9516368
20
13.3799488
40
0.4442163
50
154.6955053
51
166.5679793
0
ARC
8
DEFAULT_255_1_234
10
23.8663238
20
13.422921
40
0.3487299
50
136.3324195
51
155.0871442
0
ARC
8
DEFAULT_255_1_234
10
23.8382311
20
13.4469954
40
0.3117924
50
121.236733
51
135.9680508
0
ARC
8
DEFAULT_255_1_234
10
23.8522809
20
13.4209743
40
0.3413302
50
96.845628
51
120.9881519
0
ARC
8
DEFAULT_255_1_234
10
23.8668391
20
13.3274515
40
0.4359341
50
89.8870174
51
97.2802754
0
ARC
8
DEFAULT_255_1_234
10
23.8720829
20
13.3912095
40
0.3722009
50
70.6505584
51
90.6749113
0
ARC
8
DEFAULT_255_1_234
10
23.8852108
20
13.4425361
40
0.3194571
50
36.7492984
51
69.8219918
0
ARC
8
DEFAULT_255_1_234
10
23.7853273
20
13.3646993
40
0.4460685
50
15.39587
51
37.0840084
0
ARC
8
DEFAULT_255_1_234
10
23.5723706
20
13.3026242
40
0.6678714
50
3.9488873
51
15.6798563
0
ARC
8
DEFAULT_255_1_234
10
23.3322334
20
13.2809964
40
0.9089418
50
359.929245
51
4.2665314
0
ARC
8
DEFAULT_255_1_234
10
22.8716771
20
13.2298513
40
1.3695135
50
352.8366322
51
0.2782669
0
ARC
8
DEFAULT_255_1_234
10
23.400445
20
13.1611629
40
0.8363105
50
341.8359505
51
352.9884176
0
ARC
8
DEFAULT_255_1_234
10
23.7223169
20
13.05267
40
0.4966642
50
322.8578092
51
342.1527901
0
ARC
8
DEFAULT_255_1_234
10
23.8087125
20
12.9937384
40
0.3922466
50
319.334325
51
322.0998941
0
ARC
8
DEFAULT_255_1_234
10
23.7777462
20
13.0248209
40
0.4360033
50
285.9541367
51
318.8878087
0
ARC
8
DEFAULT_255_1_234
10
23.7050723
20
13.25586
40
0.678149
50
272.9281676
51
286.4922826
0
ARC
8
DEFAULT_255_1_234
10
23.6860841
20
13.4809587
40
0.9039547
50
270.8207226
51
273.4012994
0
ARC
8
DEFAULT_255_1_234
10
23.6949692
20
13.2990666
40
0.5967098
50
270.6214993
51
281.4062806
0
ARC
8
DEFAULT_255_1_234
10
23.7379673
20
13.0934833
40
0.3866861
50
281.1852553
51
299.0621114
0
ARC
8
DEFAULT_255_1_234
10
23.7753244
20
13.0213798
40
0.3055236
50
299.5067782
51
313.1200873
0
ARC
8
DEFAULT_255_1_234
10
23.7775211
20
13.0134554
40
0.2982623
50
313.8526205
51
338.5989322
0
ARC
8
DEFAULT_255_1_234
10
23.6151285
20
13.0801781
40
0.4738131
50
338.2523585
51
351.2430902
0
ARC
8
DEFAULT_255_1_234
10
23.3740581
20
13.1211447
40
0.7183203
50
350.9409515
51
357.6691871
0
ARC
8
DEFAULT_255_1_234
10
23.8631011
20
13.3213764
40
0.2294452
50
269.9447023
51
306.8248917
0
ARC
8
DEFAULT_255_1_234
10
23.8393926
20
13.3636898
40
0.2775994
50
305.5072438
51
327.0773448
0
ARC
8
DEFAULT_255_1_234
10
23.8512367
20
13.3542025
40
0.2625056
50
327.4104943
51
336.840169
0
ARC
8
DEFAULT_255_1_234
10
23.5418432
20
13.3136302
40
0.5507537
50
359.6633817
51
10.117533
0
ARC
8
DEFAULT_255_1_234
10
23.717223
20
13.3460777
40
0.372403
50
9.9430141
51
26.7700076
0
ARC
8
DEFAULT_255_1_234
10
23.7769442
20
13.3736187
40
0.3066865
50
27.2015464
51
34.6829435
0
ARC
8
DEFAULT_255_1_234
10
23.8258922
20
13.4103977
40
0.245519
50
34.1250343
51
50.3070065
0
ARC
8
DEFAULT_255_1_234
10
23.8705602
20
13.4638385
40
0.1758693
50
50.3851167
51
90.6705993
0
ARC
8
DEFAULT_255_1_234
10
23.8658835
20
13.4333799
40
0.2063326
50
89.272901
51
111.9140407
0
ARC
8
DEFAULT_255_1_234
10
23.8639363
20
13.447444
40
0.1925887
50
112.9382311
51
142.5320782
0
ARC
8
DEFAULT_255_1_234
10
23.9185543
20
13.4030969
40
0.2629232
50
142.1021256
51
166.3835592
0
ARC
8
DEFAULT_255_1_234
10
24.0366848
20
13.3725915
40
0.3849193
50
166.1100289
51
178.665427
0
ARC
8
DEFAULT_255_1_234
10
24.1414437
20
13.3667117
40
0.4897989
50
178.2632126
51
180.0111093
0
ARC
8
DEFAULT_255_1_234
10
24.0612558
20
13.3638728
40
0.40962
50
179.6161962
51
191.8787166
0
ARC
8
DEFAULT_255_1_234
10
23.9392397
20
13.3368896
40
0.2846655
50
191.6191692
51
215.2972286
0
ARC
8
DEFAULT_255_1_234
10
23.9195588
20
13.3253918
40
0.2619665
50
215.7320102
51
216.5355409
0
ARC
8
DEFAULT_255_1_234
10
23.8656674
20
13.2821647
40
0.1929497
50
215.7486685
51
239.9727502
0
ARC
8
DEFAULT_255_1_234
10
23.858659
20
13.2770894
40
0.1850822
50
241.0650169
51
269.2810483
0
ARC
8
DEFAULT_255_1_234
10
23.8628505
20
13.3261371
40
0.2342059
50
268.4062526
51
270.0071348
0
LINE
8
DEFAULT_255_1_234
10
22.8147378
20
21.0511169
11
22.8147378
21
21.1723962
0
LINE
8
DEFAULT_255_1_234
10
22.8147378
20
21.1723962
11
22.926379
21
21.1723962
0
LINE
8
DEFAULT_255_1_234
10
22.7360268
20
21.3780087
11
22.5874396
21
21.3780087
0
LINE
8
DEFAULT_255_1_234
10
22.5769983
20
20.8238188
11
22.7263887
21
20.8238188
0
LINE
8
DEFAULT_255_1_234
10
22.926379
20
21.0511169
11
22.8147378
21
21.0511169
0
ARC
8
DEFAULT_255_1_234
10
22.9234656
20
21.5116713
40
0.3392876
50
270.4919872
51
281.8951556
0
ARC
8
DEFAULT_255_1_234
10
22.9475918
20
21.4014702
40
0.2264817
50
281.6691735
51
301.2943132
0
ARC
8
DEFAULT_255_1_234
10
22.9646128
20
21.3703304
40
0.1910381
50
301.7833094
51
311.7545298
0
ARC
8
DEFAULT_255_1_234
10
22.9737704
20
21.3601748
40
0.1773635
50
311.7323931
51
354.2802411
0
ARC
8
DEFAULT_255_1_234
10
22.9011329
20
21.3726722
40
0.2509385
50
353.0937916
51
0.1181479
0
ARC
8
DEFAULT_255_1_234
10
22.8550114
20
21.3774386
40
0.2970898
50
359.1805295
51
15.0453146
0
ARC
8
DEFAULT_255_1_234
10
22.9895951
20
21.4166992
40
0.1569564
50
13.9577229
51
77.6713066
0
ARC
8
DEFAULT_255_1_234
10
22.950948
20
21.2781949
40
0.3006298
50
76.1116566
51
90.7026153
0
ARC
8
DEFAULT_255_1_234
10
22.9450318
20
21.3055545
40
0.2732568
50
89.5324876
51
103.531937
0
ARC
8
DEFAULT_255_1_234
10
22.9249762
20
21.3854884
40
0.1908508
50
103.2931773
51
133.5619022
0
ARC
8
DEFAULT_255_1_234
10
22.9205251
20
21.3914375
40
0.1834746
50
133.8349307
51
173.5344437
0
ARC
8
DEFAULT_255_1_234
10
22.9928294
20
21.3786213
40
0.2568033
50
172.5096846
51
180.1366907
0
ARC
8
DEFAULT_255_1_234
10
22.8977188
20
21.3820622
40
0.3103056
50
155.3484492
51
180.7484736
0
ARC
8
DEFAULT_255_1_234
10
22.8928277
20
21.3791846
40
0.3070957
50
131.5744599
51
154.4798489
0
ARC
8
DEFAULT_255_1_234
10
22.9241424
20
21.347531
40
0.3515643
50
96.9875458
51
131.9690667
0
ARC
8
DEFAULT_255_1_234
10
22.9460904
20
21.2229636
40
0.4779224
50
89.8596053
51
97.7825159
0
ARC
8
DEFAULT_255_1_234
10
22.9508967
20
21.1967616
40
0.5041361
50
78.3655447
51
90.4131539
0
ARC
8
DEFAULT_255_1_234
10
22.9866885
20
21.3626887
40
0.3344039
50
56.6229102
51
78.638727
0
ARC
8
DEFAULT_255_1_234
10
23.0081829
20
21.4002805
40
0.2912001
50
47.0253525
51
56.0854072
0
ARC
8
DEFAULT_255_1_234
10
23.0101609
20
21.4042223
40
0.2869704
50
10.9208013
51
46.7778124
0
ARC
8
DEFAULT_255_1_234
10
22.8737675
20
21.3726857
40
0.426899
50
359.6364486
51
11.6087304
0
ARC
8
DEFAULT_255_1_234
10
23.0572519
20
21.3711752
40
0.243409
50
332.3549906
51
359.7179418
0
ARC
8
DEFAULT_255_1_234
10
22.9922121
20
21.4020142
40
0.3153459
50
325.2333722
51
332.8745602
0
ARC
8
DEFAULT_255_1_234
10
23.0074744
20
21.3913828
40
0.2967456
50
292.9802137
51
325.2392345
0
ARC
8
DEFAULT_255_1_234
10
22.9800118
20
21.4447863
40
0.3566604
50
292.5402179
51
293.6924929
0
ARC
8
DEFAULT_255_1_234
10
23.0192714
20
20.7993091
40
0.3307468
50
57.6435486
51
72.8625112
0
ARC
8
DEFAULT_255_1_234
10
23.0547214
20
20.8567549
40
0.2632492
50
36.7248896
51
57.4697979
0
ARC
8
DEFAULT_255_1_234
10
23.0535847
20
20.858022
40
0.2634081
50
8.0545065
51
36.356114
0
ARC
8
DEFAULT_255_1_234
10
22.9673032
20
20.8425174
40
0.3510261
50
359.8320645
51
8.5869982
0
ARC
8
DEFAULT_255_1_234
10
22.9297808
20
20.8377101
40
0.3885653
50
343.9829931
51
0.5571613
0
ARC
8
DEFAULT_255_1_234
10
23.0184005
20
20.8134438
40
0.2966924
50
311.6359546
51
343.7651759
0
ARC
8
DEFAULT_255_1_234
10
22.9805574
20
20.8561102
40
0.3537231
50
279.7829875
51
311.6255694
0
ARC
8
DEFAULT_255_1_234
10
22.9504351
20
20.999828
40
0.5004971
50
269.7286406
51
280.3856417
0
ARC
8
DEFAULT_255_1_234
10
22.9442423
20
20.9956996
40
0.4963778
50
256.6828919
51
270.4412052
0
ARC
8
DEFAULT_255_1_234
10
22.9103719
20
20.8572394
40
0.3538406
50
229.4223008
51
256.8556159
0
ARC
8
DEFAULT_255_1_234
10
22.8689112
20
20.8105736
40
0.2914296
50
181.818294
51
229.6455059
0
ARC
8
DEFAULT_255_1_234
10
22.9729068
20
20.8236496
40
0.3959084
50
179.9755256
51
183.2323064
0
ARC
8
DEFAULT_255_1_234
10
22.9556814
20
20.8216037
40
0.2293034
50
179.4465117
51
196.2869258
0
ARC
8
DEFAULT_255_1_234
10
22.9069222
20
20.8082651
40
0.1787621
50
196.5661473
51
227.705904
0
ARC
8
DEFAULT_255_1_234
10
22.9233317
20
20.8266155
40
0.2033784
50
227.7652068
51
257.8762805
0
ARC
8
DEFAULT_255_1_234
10
22.9458287
20
20.9209156
40
0.3003081
50
257.4584385
51
270.426602
0
ARC
8
DEFAULT_255_1_234
10
22.9503853
20
20.9498996
40
0.329292
50
269.5962073
51
280.8789248
0
ARC
8
DEFAULT_255_1_234
10
22.9733382
20
20.8352685
40
0.2123908
50
280.6346389
51
299.8595945
0
ARC
8
DEFAULT_255_1_234
10
22.9924289
20
20.7990212
40
0.171457
50
300.3576302
51
314.5517981
0
ARC
8
DEFAULT_255_1_234
10
22.9841349
20
20.8050919
40
0.1816095
50
315.0728369
51
345.0431014
0
ARC
8
DEFAULT_255_1_234
10
22.8918163
20
20.8319841
40
0.2777492
50
344.5986631
51
357.9269593
0
ARC
8
DEFAULT_255_1_234
10
22.8022489
20
20.8381276
40
0.3674917
50
357.4748886
51
0.0231117
0
ARC
8
DEFAULT_255_1_234
10
22.9045599
20
20.8405679
40
0.2651907
50
359.5047933
51
13.4239635
0
ARC
8
DEFAULT_255_1_234
10
22.9912242
20
20.8627478
40
0.1757509
50
12.9498199
51
48.7551375
0
ARC
8
DEFAULT_255_1_234
10
22.9729976
20
20.83784
40
0.2065134
50
49.5088623
51
72.1836453
0
ARC
8
DEFAULT_255_1_234
10
22.9372129
20
20.7316291
40
0.3185836
50
71.9010081
51
84.3554254
0
ARC
8
DEFAULT_255_1_234
10
22.9210761
20
20.5955326
40
0.4556151
50
84.0193428
51
89.333121
0
ARC
8
DEFAULT_255_1_234
10
23.9493123
20
21.3770703
40
0.2822356
50
338.8763615
51
0.5166041
0
ARC
8
DEFAULT_255_1_234
10
23.9661777
20
21.3725208
40
0.2648703
50
325.8412414
51
338.4795939
0
ARC
8
DEFAULT_255_1_234
10
23.9271145
20
21.3996042
40
0.3124019
50
296.7586019
51
325.753654
0
ARC
8
DEFAULT_255_1_234
10
23.8983253
20
21.4480789
40
0.368668
50
296.0902311
51
297.3618122
0
ARC
8
DEFAULT_255_1_234
10
23.9240711
20
20.7926041
40
0.3518806
50
47.9009248
51
67.1946869
0
ARC
8
DEFAULT_255_1_234
10
23.9436953
20
20.8172395
40
0.320451
50
35.236241
51
47.551371
0
ARC
8
DEFAULT_255_1_234
10
23.9698571
20
20.8346993
40
0.2890103
50
359.2759738
51
35.4014081
0
ARC
8
DEFAULT_255_1_234
10
23.8953602
20
20.8273826
40
0.3635026
50
343.1294516
51
0.5776525
0
ARC
8
DEFAULT_255_1_234
10
23.9678147
20
20.807433
40
0.2883832
50
310.8497458
51
342.744803
0
ARC
8
DEFAULT_255_1_234
10
23.926026
20
20.8551294
40
0.3517954
50
281.5473923
51
310.9169905
0
ARC
8
DEFAULT_255_1_234
10
23.890371
20
21.0104084
40
0.5110832
50
269.6192722
51
281.9789957
0
ARC
8
DEFAULT_255_1_234
10
23.8831499
20
21.0104828
40
0.5111606
50
257.4584469
51
270.4287458
0
ARC
8
DEFAULT_255_1_234
10
23.8450642
20
20.8501344
40
0.3463762
50
228.7553743
51
257.8484423
0
ARC
8
DEFAULT_255_1_234
10
23.814084
20
20.8128442
40
0.297916
50
184.0104442
51
228.5071787
0
ARC
8
DEFAULT_255_1_234
10
23.9303784
20
20.8305512
40
0.4152734
50
179.9315461
51
185.3254504
0
ARC
8
DEFAULT_255_1_234
10
23.812743
20
20.8342992
40
0.2976554
50
145.6795913
51
180.6259649
0
ARC
8
DEFAULT_255_1_234
10
23.8290779
20
20.8228929
40
0.3175776
50
115.5537925
51
145.6416199
0
ARC
8
DEFAULT_255_1_234
10
23.8631709
20
20.7618028
40
0.3874232
50
113.2437915
51
116.2054627
0
ARC
8
DEFAULT_255_1_234
10
23.8478922
20
21.401658
40
0.3154751
50
222.9548379
51
244.1372485
0
ARC
8
DEFAULT_255_1_234
10
23.8356997
20
21.3879834
40
0.2972382
50
213.3439227
51
222.6271327
0
ARC
8
DEFAULT_255_1_234
10
23.8164932
20
21.3749308
40
0.274019
50
180.4316517
51
213.2713999
0
ARC
8
DEFAULT_255_1_234
10
23.8739933
20
21.379611
40
0.33158
50
179.9992944
51
181.1655061
0
ARC
8
DEFAULT_255_1_234
10
23.914935
20
21.3830561
40
0.3725376
50
164.6186108
51
180.5292368
0
ARC
8
DEFAULT_255_1_234
10
23.8251213
20
21.4072101
40
0.2795349
50
132.2454369
51
164.5092287
0
ARC
8
DEFAULT_255_1_234
10
23.8538317
20
21.3747028
40
0.3229019
50
100.7052766
51
132.1387266
0
ARC
8
DEFAULT_255_1_234
10
23.8843289
20
21.2369086
40
0.4639835
50
89.6732617
51
101.2449487
0
ARC
8
DEFAULT_255_1_234
10
23.8905487
20
21.254399
40
0.4464999
50
76.2876631
51
90.4586123
0
ARC
8
DEFAULT_255_1_234
10
23.9211719
20
21.376622
40
0.3205023
50
47.8240157
51
76.4266918
0
ARC
8
DEFAULT_255_1_234
10
23.9434269
20
21.402659
40
0.2862661
50
6.9168658
51
47.6261438
0
ARC
8
DEFAULT_255_1_234
10
23.8247672
20
21.380737
40
0.4067708
50
359.8419705
51
7.9694496
0
ARC
8
DEFAULT_255_1_234
10
23.8589569
20
20.8366925
40
0.2513121
50
359.4454068
51
16.9256425
0
ARC
8
DEFAULT_255_1_234
10
23.905838
20
20.8496033
40
0.2027071
50
17.292259
51
45.462717
0
ARC
8
DEFAULT_255_1_234
10
23.9004316
20
20.8449434
40
0.2098212
50
45.3028762
51
83.1921472
0
ARC
8
DEFAULT_255_1_234
10
23.8861
20
20.7647895
40
0.2911472
50
82.2614531
51
90.143954
0
ARC
8
DEFAULT_255_1_234
10
23.883012
20
20.788095
40
0.2678513
50
89.4959189
51
104.8579811
0
ARC
8
DEFAULT_255_1_234
10
23.8653379
20
20.855089
40
0.1985654
50
104.8855873
51
135.2448349
0
ARC
8
DEFAULT_255_1_234
10
23.8703152
20
20.8506336
40
0.2052373
50
135.3398955
51
172.104394
0
ARC
8
DEFAULT_255_1_234
10
23.951021
20
20.8351925
40
0.2873299
50
171.2651929
51
180.1859362
0
ARC
8
DEFAULT_255_1_234
10
23.9340911
20
20.8319733
40
0.2704083
50
179.515471
51
193.6466734
0
ARC
8
DEFAULT_255_1_234
10
23.852468
20
20.8111777
40
0.1861855
50
193.3540587
51
225.8256931
0
ARC
8
DEFAULT_255_1_234
10
23.8565437
20
20.8182524
40
0.1941102
50
226.418029
51
255.8553723
0
ARC
8
DEFAULT_255_1_234
10
23.882187
20
20.9118998
40
0.2911917
50
255.4655572
51
268.7985967
0
ARC
8
DEFAULT_255_1_234
10
23.8869062
20
20.9957491
40
0.3751331
50
268.3464808
51
270.0104874
0
ARC
8
DEFAULT_255_1_234
10
23.889245
20
20.9273138
40
0.3067064
50
269.575914
51
282.0823146
0
ARC
8
DEFAULT_255_1_234
10
23.9117359
20
20.8278803
40
0.2047712
50
281.7522535
51
306.6056425
0
ARC
8
DEFAULT_255_1_234
10
23.9215785
20
20.8117487
40
0.1859604
50
307.1350025
51
314.0277951
0
ARC
8
DEFAULT_255_1_234
10
23.9179869
20
20.8143766
40
0.1903475
50
314.2553419
51
350.169324
0
ARC
8
DEFAULT_255_1_234
10
23.8328338
20
20.8328409
40
0.2774269
50
349.4145679
51
0.2930737
0
ARC
8
DEFAULT_255_1_234
10
23.8848771
20
21.3487353
40
0.2300764
50
89.477591
51
105.729794
0
ARC
8
DEFAULT_255_1_234
10
23.8712684
20
21.3992637
40
0.1777519
50
105.922966
51
135.1662921
0
ARC
8
DEFAULT_255_1_234
10
23.8733187
20
21.3978419
40
0.1802087
50
135.3053131
51
168.9882338
0
ARC
8
DEFAULT_255_1_234
10
23.9560759
20
21.3788721
40
0.2650806
50
168.3802067
51
180.3602358
0
ARC
8
DEFAULT_255_1_234
10
23.9332339
20
21.3751041
40
0.2422425
50
179.5029707
51
194.9126783
0
ARC
8
DEFAULT_255_1_234
10
23.8747
20
21.359711
40
0.1817188
50
194.9722181
51
224.1943972
0
ARC
8
DEFAULT_255_1_234
10
23.8718867
20
21.3574169
40
0.1781027
50
224.2961434
51
262.0157375
0
ARC
8
DEFAULT_255_1_234
10
23.886111
20
21.4305661
40
0.2525492
50
261.1250369
51
270.1959853
0
ARC
8
DEFAULT_255_1_234
10
23.8890865
20
21.4118339
40
0.233825
50
269.4825617
51
285.0988277
0
ARC
8
DEFAULT_255_1_234
10
23.9045024
20
21.353999
40
0.1739712
50
285.1585659
51
315.9484648
0
ARC
8
DEFAULT_255_1_234
10
23.8956036
20
21.3621886
40
0.1860616
50
316.0412958
51
351.9162715
0
ARC
8
DEFAULT_255_1_234
10
23.8222991
20
21.3763245
40
0.2606517
50
351.1056823
51
0.1936567
0
ARC
8
DEFAULT_255_1_234
10
23.848582
20
21.3793369
40
0.234377
50
359.4789506
51
16.0679113
0
ARC
8
DEFAULT_255_1_234
10
23.8961779
20
21.392181
40
0.1850875
50
16.3251951
51
44.791304
0
ARC
8
DEFAULT_255_1_234
10
23.894406
20
21.3922339
40
0.186312
50
44.3958661
51
88.2498933
0
ARC
8
DEFAULT_255_1_234
10
23.8870614
20
21.3311154
40
0.2476868
50
86.9833827
51
90.0200148
0
LINE
8
DEFAULT_255_1_234
10
22.8147378
20
28.9886169
11
22.8147378
21
29.1098962
0
LINE
8
DEFAULT_255_1_234
10
22.8147378
20
29.1098962
11
22.926379
21
29.1098962
0
LINE
8
DEFAULT_255_1_234
10
22.7360268
20
29.3155087
11
22.5874396
21
29.3155087
0
LINE
8
DEFAULT_255_1_234
10
22.5769983
20
28.7613188
11
22.7263887
21
28.7613188
0
LINE
8
DEFAULT_255_1_234
10
22.926379
20
28.9886169
11
22.8147378
21
28.9886169
0
ARC
8
DEFAULT_255_1_234
10
22.9234656
20
29.4491713
40
0.3392876
50
270.4919872
51
281.8951556
0
ARC
8
DEFAULT_255_1_234
10
22.9475918
20
29.3389702
40
0.2264817
50
281.6691735
51
301.2943132
0
ARC
8
DEFAULT_255_1_234
10
22.9646128
20
29.3078304
40
0.1910381
50
301.7833094
51
311.7545298
0
ARC
8
DEFAULT_255_1_234
10
22.9737704
20
29.2976748
40
0.1773635
50
311.7323931
51
354.2802411
0
ARC
8
DEFAULT_255_1_234
10
22.9011329
20
29.3101722
40
0.2509385
50
353.0937916
51
0.1181479
0
ARC
8
DEFAULT_255_1_234
10
22.8550114
20
29.3149386
40
0.2970898
50
359.1805295
51
15.0453146
0
ARC
8
DEFAULT_255_1_234
10
22.9895951
20
29.3541992
40
0.1569564
50
13.9577229
51
77.6713066
0
ARC
8
DEFAULT_255_1_234
10
22.950948
20
29.2156949
40
0.3006298
50
76.1116566
51
90.7026153
0
ARC
8
DEFAULT_255_1_234
10
22.9450318
20
29.2430545
40
0.2732568
50
89.5324876
51
103.531937
0
ARC
8
DEFAULT_255_1_234
10
22.9249762
20
29.3229884
40
0.1908508
50
103.2931773
51
133.5619022
0
ARC
8
DEFAULT_255_1_234
10
22.9205251
20
29.3289375
40
0.1834746
50
133.8349307
51
173.5344437
0
ARC
8
DEFAULT_255_1_234
10
22.9928294
20
29.3161213
40
0.2568033
50
172.5096846
51
180.1366907
0
ARC
8
DEFAULT_255_1_234
10
22.8977188
20
29.3195622
40
0.3103056
50
155.3484492
51
180.7484736
0
ARC
8
DEFAULT_255_1_234
10
22.8928277
20
29.3166846
40
0.3070957
50
131.5744599
51
154.4798489
0
ARC
8
DEFAULT_255_1_234
10
22.9241424
20
29.285031
40
0.3515643
50
96.9875458
51
131.9690667
0
ARC
8
DEFAULT_255_1_234
10
22.9460904
20
29.1604636
40
0.4779224
50
89.8596053
51
97.7825159
0
ARC
8
DEFAULT_255_1_234
10
22.9508967
20
29.1342616
40
0.5041361
50
78.3655447
51
90.4131539
0
ARC
8
DEFAULT_255_1_234
10
22.9866885
20
29.3001887
40
0.3344039
50
56.6229102
51
78.638727
0
ARC
8
DEFAULT_255_1_234
10
23.0081829
20
29.3377805
40
0.2912001
50
47.0253525
51
56.0854072
0
ARC
8
DEFAULT_255_1_234
10
23.0101609
20
29.3417223
40
0.2869704
50
10.9208013
51
46.7778124
0
ARC
8
DEFAULT_255_1_234
10
22.8737675
20
29.3101857
40
0.426899
50
359.6364486
51
11.6087304
0
ARC
8
DEFAULT_255_1_234
10
23.0572519
20
29.3086752
40
0.243409
50
332.3549906
51
359.7179418
0
ARC
8
DEFAULT_255_1_234
10
22.9922121
20
29.3395142
40
0.3153459
50
325.2333722
51
332.8745602
0
ARC
8
DEFAULT_255_1_234
10
23.0074744
20
29.3288828
40
0.2967456
50
292.9802137
51
325.2392345
0
ARC
8
DEFAULT_255_1_234
10
22.9800118
20
29.3822863
40
0.3566604
50
292.5402179
51
293.6924929
0
ARC
8
DEFAULT_255_1_234
10
23.0192714
20
28.7368091
40
0.3307468
50
57.6435486
51
72.8625112
0
ARC
8
DEFAULT_255_1_234
10
23.0547214
20
28.7942549
40
0.2632492
50
36.7248896
51
57.4697979
0
ARC
8
DEFAULT_255_1_234
10
23.0535847
20
28.795522
40
0.2634081
50
8.0545065
51
36.356114
0
ARC
8
DEFAULT_255_1_234
10
22.9673032
20
28.7800174
40
0.3510261
50
359.8320645
51
8.5869982
0
ARC
8
DEFAULT_255_1_234
10
22.9297808
20
28.7752101
40
0.3885653
50
343.9829931
51
0.5571613
0
ARC
8
DEFAULT_255_1_234
10
23.0184005
20
28.7509438
40
0.2966924
50
311.6359546
51
343.7651759
0
ARC
8
DEFAULT_255_1_234
10
22.9805574
20
28.7936102
40
0.3537231
50
279.7829875
51
311.6255694
0
ARC
8
DEFAULT_255_1_234
10
22.9504351
20
28.937328
40
0.5004971
50
269.7286406
51
280.3856417
0
ARC
8
DEFAULT_255_1_234
10
22.9442423
20
28.9331996
40
0.4963778
50
256.6828919
51
270.4412052
0
ARC
8
DEFAULT_255_1_234
10
22.9103719
20
28.7947394
40
0.3538406
50
229.4223008
51
256.8556159
0
ARC
8
DEFAULT_255_1_234
10
22.8689112
20
28.7480736
40
0.2914296
50
181.818294
51
229.6455059
0
ARC
8
DEFAULT_255_1_234
10
22.9729068
20
28.7611496
40
0.3959084
50
179.9755256
51
183.2323064
0
ARC
8
DEFAULT_255_1_234
10
22.9556814
20
28.7591037
40
0.2293034
50
179.4465117
51
196.2869258
0
ARC
8
DEFAULT_255_1_234
10
22.9069222
20
28.7457651
40
0.1787621
50
196.5661473
51
227.705904
0
ARC
8
DEFAULT_255_1_234
10
22.9233317
20
28.7641155
40
0.2033784
50
227.7652068
51
257.8762805
0
ARC
8
DEFAULT_255_1_234
10
22.9458287
20
28.8584156
40
0.3003081
50
257.4584385
51
270.426602
0
ARC
8
DEFAULT_255_1_234
10
22.9503853
20
28.8873996
40
0.329292
50
269.5962073
51
280.8789248
0
ARC
8
DEFAULT_255_1_234
10
22.9733382
20
28.7727685
40
0.2123908
50
280.6346389
51
299.8595945
0
ARC
8
DEFAULT_255_1_234
10
22.9924289
20
28.7365212
40
0.171457
50
300.3576302
51
314.5517981
0
ARC
8
DEFAULT_255_1_234
10
22.9841349
20
28.7425919
40
0.1816095
50
315.0728369
51
345.0431014
0
ARC
8
DEFAULT_255_1_234
10
22.8918163
20
28.7694841
40
0.2777492
50
344.5986631
51
357.9269593
0
ARC
8
DEFAULT_255_1_234
10
22.8022489
20
28.7756276
40
0.3674917
50
357.4748886
51
0.0231117
0
ARC
8
DEFAULT_255_1_234
10
22.9045599
20
28.7780679
40
0.2651907
50
359.5047933
51
13.4239635
0
ARC
8
DEFAULT_255_1_234
10
22.9912242
20
28.8002478
40
0.1757509
50
12.9498199
51
48.7551375
0
ARC
8
DEFAULT_255_1_234
10
22.9729976
20
28.77534
40
0.2065134
50
49.5088623
51
72.1836453
0
ARC
8
DEFAULT_255_1_234
10
22.9372129
20
28.6691291
40
0.3185836
50
71.9010081
51
84.3554254
0
ARC
8
DEFAULT_255_1_234
10
22.9210761
20
28.5330326
40
0.4556151
50
84.0193428
51
89.333121
0
LINE
8
DEFAULT_255_1_234
10
24.2773173
20
29.6223211
11
24.2773173
21
29.538791
0
LINE
8
DEFAULT_255_1_234
10
24.2773173
20
29.538791
11
23.7930035
21
28.4529
0
LINE
8
DEFAULT_255_1_234
10
23.7930035
20
28.4529
11
23.6371878
21
28.4529
0
LINE
8
DEFAULT_255_1_234
10
23.6371878
20
28.4529
11
24.1198953
21
29.5002387
0
LINE
8
DEFAULT_255_1_234
10
24.1198953
20
29.5002387
11
23.4869943
21
29.5002387
0
LINE
8
DEFAULT_255_1_234
10
23.4869943
20
29.5002387
11
23.4869943
21
29.6223211
0
LINE
8
DEFAULT_255_1_234
10
23.4869943
20
29.6223211
11
24.2773173
21
29.6223211
0
LINE
8
DEFAULT_255_1_234
10
22.8147378
20
36.9261169
11
22.8147378
21
37.0473962
0
LINE
8
DEFAULT_255_1_234
10
22.8147378
20
37.0473962
11
22.926379
21
37.0473962
0
LINE
8
DEFAULT_255_1_234
10
22.7360268
20
37.2530087
11
22.5874396
21
37.2530087
0
LINE
8
DEFAULT_255_1_234
10
22.5769983
20
36.6988188
11
22.7263887
21
36.6988188
0
LINE
8
DEFAULT_255_1_234
10
22.926379
20
36.9261169
11
22.8147378
21
36.9261169
0
ARC
8
DEFAULT_255_1_234
10
22.9234656
20
37.3866713
40
0.3392876
50
270.4919872
51
281.8951556
0
ARC
8
DEFAULT_255_1_234
10
22.9475918
20
37.2764702
40
0.2264817
50
281.6691735
51
301.2943132
0
ARC
8
DEFAULT_255_1_234
10
22.9646128
20
37.2453304
40
0.1910381
50
301.7833094
51
311.7545298
0
ARC
8
DEFAULT_255_1_234
10
22.9737704
20
37.2351748
40
0.1773635
50
311.7323931
51
354.2802411
0
ARC
8
DEFAULT_255_1_234
10
22.9011329
20
37.2476722
40
0.2509385
50
353.0937916
51
0.1181479
0
ARC
8
DEFAULT_255_1_234
10
22.8550114
20
37.2524386
40
0.2970898
50
359.1805295
51
15.0453146
0
ARC
8
DEFAULT_255_1_234
10
22.9895951
20
37.2916992
40
0.1569564
50
13.9577229
51
77.6713066
0
ARC
8
DEFAULT_255_1_234
10
22.950948
20
37.1531949
40
0.3006298
50
76.1116566
51
90.7026153
0
ARC
8
DEFAULT_255_1_234
10
22.9450318
20
37.1805545
40
0.2732568
50
89.5324876
51
103.531937
0
ARC
8
DEFAULT_255_1_234
10
22.9249762
20
37.2604884
40
0.1908508
50
103.2931773
51
133.5619022
0
ARC
8
DEFAULT_255_1_234
10
22.9205251
20
37.2664375
40
0.1834746
50
133.8349307
51
173.5344437
0
ARC
8
DEFAULT_255_1_234
10
22.9928294
20
37.2536213
40
0.2568033
50
172.5096846
51
180.1366907
0
ARC
8
DEFAULT_255_1_234
10
22.8977188
20
37.2570622
40
0.3103056
50
155.3484492
51
180.7484736
0
ARC
8
DEFAULT_255_1_234
10
22.8928277
20
37.2541846
40
0.3070957
50
131.5744599
51
154.4798489
0
ARC
8
DEFAULT_255_1_234
10
22.9241424
20
37.222531
40
0.3515643
50
96.9875458
51
131.9690667
0
ARC
8
DEFAULT_255_1_234
10
22.9460904
20
37.0979636
40
0.4779224
50
89.8596053
51
97.7825159
0
ARC
8
DEFAULT_255_1_234
10
22.9508967
20
37.0717616
40
0.5041361
50
78.3655447
51
90.4131539
0
ARC
8
DEFAULT_255_1_234
10
22.9866885
20
37.2376887
40
0.3344039
50
56.6229102
51
78.638727
0
ARC
8
DEFAULT_255_1_234
10
23.0081829
20
37.2752805
40
0.2912001
50
47.0253525
51
56.0854072
0
ARC
8
DEFAULT_255_1_234
10
23.0101609
20
37.2792223
40
0.2869704
50
10.9208013
51
46.7778124
0
ARC
8
DEFAULT_255_1_234
10
22.8737675
20
37.2476857
40
0.426899
50
359.6364486
51
11.6087304
0
ARC
8
DEFAULT_255_1_234
10
23.0572519
20
37.2461752
40
0.243409
50
332.3549906
51
359.7179418
0
ARC
8
DEFAULT_255_1_234
10
22.9922121
20
37.2770142
40
0.3153459
50
325.2333722
51
332.8745602
0
ARC
8
DEFAULT_255_1_234
10
23.0074744
20
37.2663828
40
0.2967456
50
292.9802137
51
325.2392345
0
ARC
8
DEFAULT_255_1_234
10
22.9800118
20
37.3197863
40
0.3566604
50
292.5402179
51
293.6924929
0
ARC
8
DEFAULT_255_1_234
10
23.0192714
20
36.6743091
40
0.3307468
50
57.6435486
51
72.8625112
0
ARC
8
DEFAULT_255_1_234
10
23.0547214
20
36.7317549
40
0.2632492
50
36.7248896
51
57.4697979
0
ARC
8
DEFAULT_255_1_234
10
23.0535847
20
36.733022
40
0.2634081
50
8.0545065
51
36.356114
0
ARC
8
DEFAULT_255_1_234
10
22.9673032
20
36.7175174
40
0.3510261
50
359.8320645
51
8.5869982
0
ARC
8
DEFAULT_255_1_234
10
22.9297808
20
36.7127101
40
0.3885653
50
343.9829931
51
0.5571613
0
ARC
8
DEFAULT_255_1_234
10
23.0184005
20
36.6884438
40
0.2966924
50
311.6359546
51
343.7651759
0
ARC
8
DEFAULT_255_1_234
10
22.9805574
20
36.7311102
40
0.3537231
50
279.7829875
51
311.6255694
0
ARC
8
DEFAULT_255_1_234
10
22.9504351
20
36.874828
40
0.5004971
50
269.7286406
51
280.3856417
0
ARC
8
DEFAULT_255_1_234
10
22.9442423
20
36.8706996
40
0.4963778
50
256.6828919
51
270.4412052
0
ARC
8
DEFAULT_255_1_234
10
22.9103719
20
36.7322394
40
0.3538406
50
229.4223008
51
256.8556159
0
ARC
8
DEFAULT_255_1_234
10
22.8689112
20
36.6855736
40
0.2914296
50
181.818294
51
229.6455059
0
ARC
8
DEFAULT_255_1_234
10
22.9729068
20
36.6986496
40
0.3959084
50
179.9755256
51
183.2323064
0
ARC
8
DEFAULT_255_1_234
10
22.9556814
20
36.6966037
40
0.2293034
50
179.4465117
51
196.2869258
0
ARC
8
DEFAULT_255_1_234
10
22.9069222
20
36.6832651
40
0.1787621
50
196.5661473
51
227.705904
0
ARC
8
DEFAULT_255_1_234
10
22.9233317
20
36.7016155
40
0.2033784
50
227.7652068
51
257.8762805
0
ARC
8
DEFAULT_255_1_234
10
22.9458287
20
36.7959156
40
0.3003081
50
257.4584385
51
270.426602
0
ARC
8
DEFAULT_255_1_234
10
22.9503853
20
36.8248996
40
0.329292
50
269.5962073
51
280.8789248
0
ARC
8
DEFAULT_255_1_234
10
22.9733382
20
36.7102685
40
0.2123908
50
280.6346389
51
299.8595945
0
ARC
8
DEFAULT_255_1_234
10
22.9924289
20
36.6740212
40
0.171457
50
300.3576302
51
314.5517981
0
ARC
8
DEFAULT_255_1_234
10
22.9841349
20
36.6800919
40
0.1816095
50
315.0728369
51
345.0431014
0
ARC
8
DEFAULT_255_1_234
10
22.8918163
20
36.7069841
40
0.2777492
50
344.5986631
51
357.9269593
0
ARC
8
DEFAULT_255_1_234
10
22.8022489
20
36.7131276
40
0.3674917
50
357.4748886
51
0.0231117
0
ARC
8
DEFAULT_255_1_234
10
22.9045599
20
36.7155679
40
0.2651907
50
359.5047933
51
13.4239635
0
ARC
8
DEFAULT_255_1_234
10
22.9912242
20
36.7377478
40
0.1757509
50
12.9498199
51
48.7551375
0
ARC
8
DEFAULT_255_1_234
10
22.9729976
20
36.71284
40
0.2065134
50
49.5088623
51
72.1836453
0
ARC
8
DEFAULT_255_1_234
10
22.9372129
20
36.6066291
40
0.3185836
50
71.9010081
51
84.3554254
0
ARC
8
DEFAULT_255_1_234
10
22.9210761
20
36.4705326
40
0.4556151
50
84.0193428
51
89.333121
0
LINE
8
DEFAULT_255_1_234
10
24.0789334
20
37.5606243
11
24.1054381
21
37.5606243
0
LINE
8
DEFAULT_255_1_234
10
24.1054381
20
37.5606243
11
24.1054381
21
37.434526
0
LINE
8
DEFAULT_255_1_234
10
24.1054381
20
37.434526
11
24.0781302
21
37.434526
0
LINE
8
DEFAULT_255_1_234
10
23.5311688
20
36.8353583
11
23.5311688
21
36.8923836
0
LINE
8
DEFAULT_255_1_234
10
23.6805592
20
36.8731075
11
23.6805592
21
36.8184917
0
ARC
8
DEFAULT_255_1_234
10
24.083365
20
36.9347455
40
0.4998079
50
90.6001036
51
104.514704
0
ARC
8
DEFAULT_255_1_234
10
24.0445166
20
37.0792131
40
0.3502176
50
104.2855254
51
133.862935
0
ARC
8
DEFAULT_255_1_234
10
24.0608923
20
37.068383
40
0.3693984
50
134.5302688
51
161.6210873
0
ARC
8
DEFAULT_255_1_234
10
24.2262112
20
37.0100895
40
0.5446739
50
161.2849839
51
174.2076652
0
ARC
8
DEFAULT_255_1_234
10
24.3669049
20
36.9906787
40
0.6866274
50
173.7810589
51
174.9254635
0
ARC
8
DEFAULT_255_1_234
10
23.9118881
20
36.8523839
40
0.3033419
50
95.8330959
51
138.9954921
0
ARC
8
DEFAULT_255_1_234
10
23.9342237
20
36.7245375
40
0.4328947
50
89.8753725
51
97.0544009
0
ARC
8
DEFAULT_255_1_234
10
23.9389703
20
36.8080748
40
0.3493769
50
71.6407809
51
90.6240094
0
ARC
8
DEFAULT_255_1_234
10
23.9540276
20
36.8635082
40
0.2920396
50
39.6367836
51
71.019018
0
ARC
8
DEFAULT_255_1_234
10
23.8903749
20
36.8084998
40
0.3761538
50
10.658731
51
39.9043955
0
ARC
8
DEFAULT_255_1_234
10
23.7355832
20
36.7748686
40
0.5345136
50
359.682601
51
11.132623
0
ARC
8
DEFAULT_255_1_234
10
23.7315963
20
36.767801
40
0.5385081
50
347.2486944
51
0.4369317
0
ARC
8
DEFAULT_255_1_234
10
23.898344
20
36.7276807
40
0.3670249
50
318.1409698
51
347.6118597
0
ARC
8
DEFAULT_255_1_234
10
23.9308433
20
36.7009702
40
0.3250007
50
275.6342139
51
317.8248465
0
ARC
8
DEFAULT_255_1_234
10
23.9087544
20
36.8309219
40
0.4565864
50
269.8874292
51
276.7917694
0
ARC
8
DEFAULT_255_1_234
10
23.9032615
20
36.7283743
40
0.3540676
50
246.9140195
51
270.7437342
0
ARC
8
DEFAULT_255_1_234
10
23.9039005
20
36.7141384
40
0.3412781
50
218.1665114
51
245.878116
0
ARC
8
DEFAULT_255_1_234
10
23.9918466
20
36.7877279
40
0.455911
50
191.4115814
51
218.6077802
0
ARC
8
DEFAULT_255_1_234
10
24.1856555
20
36.8311833
40
0.6545001
50
179.6345085
51
191.7836486
0
ARC
8
DEFAULT_255_1_234
10
24.7438892
20
36.8990697
40
1.2127388
50
171.4525249
51
180.3158839
0
ARC
8
DEFAULT_255_1_234
10
24.3043768
20
36.9674608
40
0.7679464
50
157.9802646
51
171.6246686
0
ARC
8
DEFAULT_255_1_234
10
24.0829789
20
37.0557421
40
0.5296008
50
141.4298019
51
157.854097
0
ARC
8
DEFAULT_255_1_234
10
24.0188109
20
37.1011381
40
0.4511509
50
102.8715806
51
140.8564722
0
ARC
8
DEFAULT_255_1_234
10
24.0835725
20
36.8571552
40
0.7034845
50
90.3778349
51
103.5869322
0
ARC
8
DEFAULT_255_1_234
10
23.9097501
20
36.796673
40
0.2370698
50
89.8751008
51
126.2071704
0
ARC
8
DEFAULT_255_1_234
10
23.9143291
20
36.7812303
40
0.2522934
50
124.9745049
51
144.895901
0
ARC
8
DEFAULT_255_1_234
10
23.8967481
20
36.795556
40
0.2296779
50
145.2974905
51
160.2660252
0
ARC
8
DEFAULT_255_1_234
10
24.204002
20
36.8153071
40
0.5234525
50
179.6514266
51
190.2855912
0
ARC
8
DEFAULT_255_1_234
10
24.0346157
20
36.7833786
40
0.3510893
50
190.0945431
51
207.5098196
0
ARC
8
DEFAULT_255_1_234
10
23.9780427
20
36.7564623
40
0.288489
50
207.9583163
51
216.3251085
0
ARC
8
DEFAULT_255_1_234
10
23.9440535
20
36.7285105
40
0.2445587
50
215.7661442
51
232.5456785
0
ARC
8
DEFAULT_255_1_234
10
23.9057518
20
36.6798482
40
0.1826382
50
232.8005391
51
270.6605633
0
ARC
8
DEFAULT_255_1_234
10
23.9103219
20
36.7162612
40
0.2190529
50
269.35537
51
288.4744281
0
ARC
8
DEFAULT_255_1_234
10
23.9196116
20
36.6813118
40
0.1829749
50
289.1833337
51
322.9683818
0
ARC
8
DEFAULT_255_1_234
10
23.8584638
20
36.7295391
40
0.2608399
50
322.6007884
51
346.5182367
0
ARC
8
DEFAULT_255_1_234
10
23.7427234
20
36.7590616
40
0.3802777
50
346.2582162
51
358.7741648
0
ARC
8
DEFAULT_255_1_234
10
23.6408903
20
36.7645965
40
0.4822176
50
358.3755224
51
0.0098023
0
ARC
8
DEFAULT_255_1_234
10
23.716509
20
36.7673657
40
0.4066078
50
359.6214041
51
11.2839074
0
ARC
8
DEFAULT_255_1_234
10
23.8442237
20
36.7940066
40
0.2761514
50
11.0482309
51
31.8146458
0
ARC
8
DEFAULT_255_1_234
10
23.875128
20
36.8107584
40
0.2410679
50
32.3035391
51
38.082671
0
ARC
8
DEFAULT_255_1_234
10
23.917194
20
36.8488662
40
0.1844966
50
36.825067
51
85.7415724
0
ARC
8
DEFAULT_255_1_234
10
23.9104773
20
36.7988301
40
0.2349122
50
85.0140713
51
90.0513278
0
LINE
8
DEFAULT_255_1_234
10
22.8147378
20
44.8636169
11
22.8147378
21
44.9848962
0
LINE
8
DEFAULT_255_1_234
10
22.8147378
20
44.9848962
11
22.926379
21
44.9848962
0
LINE
8
DEFAULT_255_1_234
10
22.7360268
20
45.1905087
11
22.5874396
21
45.1905087
0
LINE
8
DEFAULT_255_1_234
10
22.5769983
20
44.6363188
11
22.7263887
21
44.6363188
0
LINE
8
DEFAULT_255_1_234
10
22.926379
20
44.8636169
11
22.8147378
21
44.8636169
0
ARC
8
DEFAULT_255_1_234
10
22.9234656
20
45.3241713
40
0.3392876
50
270.4919872
51
281.8951556
0
ARC
8
DEFAULT_255_1_234
10
22.9475918
20
45.2139702
40
0.2264817
50
281.6691735
51
301.2943132
0
ARC
8
DEFAULT_255_1_234
10
22.9646128
20
45.1828304
40
0.1910381
50
301.7833094
51
311.7545298
0
ARC
8
DEFAULT_255_1_234
10
22.9737704
20
45.1726748
40
0.1773635
50
311.7323931
51
354.2802411
0
ARC
8
DEFAULT_255_1_234
10
22.9011329
20
45.1851722
40
0.2509385
50
353.0937916
51
0.1181479
0
ARC
8
DEFAULT_255_1_234
10
22.8550114
20
45.1899386
40
0.2970898
50
359.1805295
51
15.0453146
0
ARC
8
DEFAULT_255_1_234
10
22.9895951
20
45.2291992
40
0.1569564
50
13.9577229
51
77.6713066
0
ARC
8
DEFAULT_255_1_234
10
22.950948
20
45.0906949
40
0.3006298
50
76.1116566
51
90.7026153
0
ARC
8
DEFAULT_255_1_234
10
22.9450318
20
45.1180545
40
0.2732568
50
89.5324876
51
103.531937
0
ARC
8
DEFAULT_255_1_234
10
22.9249762
20
45.1979884
40
0.1908508
50
103.2931773
51
133.5619022
0
ARC
8
DEFAULT_255_1_234
10
22.9205251
20
45.2039375
40
0.1834746
50
133.8349307
51
173.5344437
0
ARC
8
DEFAULT_255_1_234
10
22.9928294
20
45.1911213
40
0.2568033
50
172.5096846
51
180.1366907
0
ARC
8
DEFAULT_255_1_234
10
22.8977188
20
45.1945622
40
0.3103056
50
155.3484492
51
180.7484736
0
ARC
8
DEFAULT_255_1_234
10
22.8928277
20
45.1916846
40
0.3070957
50
131.5744599
51
154.4798489
0
ARC
8
DEFAULT_255_1_234
10
22.9241424
20
45.160031
40
0.3515643
50
96.9875458
51
131.9690667
0
ARC
8
DEFAULT_255_1_234
10
22.9460904
20
45.0354636
40
0.4779224
50
89.8596053
51
97.7825159
0
ARC
8
DEFAULT_255_1_234
10
22.9508967
20
45.0092616
40
0.5041361
50
78.3655447
51
90.4131539
0
ARC
8
DEFAULT_255_1_234
10
22.9866885
20
45.1751887
40
0.3344039
50
56.6229102
51
78.638727
0
ARC
8
DEFAULT_255_1_234
10
23.0081829
20
45.2127805
40
0.2912001
50
47.0253525
51
56.0854072
0
ARC
8
DEFAULT_255_1_234
10
23.0101609
20
45.2167223
40
0.2869704
50
10.9208013
51
46.7778124
0
ARC
8
DEFAULT_255_1_234
10
22.8737675
20
45.1851857
40
0.426899
50
359.6364486
51
11.6087304
0
ARC
8
DEFAULT_255_1_234
10
23.0572519
20
45.1836752
40
0.243409
50
332.3549906
51
359.7179418
0
ARC
8
DEFAULT_255_1_234
10
22.9922121
20
45.2145142
40
0.3153459
50
325.2333722
51
332.8745602
0
ARC
8
DEFAULT_255_1_234
10
23.0074744
20
45.2038828
40
0.2967456
50
292.9802137
51
325.2392345
0
ARC
8
DEFAULT_255_1_234
10
22.9800118
20
45.2572863
40
0.3566604
50
292.5402179
51
293.6924929
0
ARC
8
DEFAULT_255_1_234
10
23.0192714
20
44.6118091
40
0.3307468
50
57.6435486
51
72.8625112
0
ARC
8
DEFAULT_255_1_234
10
23.0547214
20
44.6692549
40
0.2632492
50
36.7248896
51
57.4697979
0
ARC
8
DEFAULT_255_1_234
10
23.0535847
20
44.670522
40
0.2634081
50
8.0545065
51
36.356114
0
ARC
8
DEFAULT_255_1_234
10
22.9673032
20
44.6550174
40
0.3510261
50
359.8320645
51
8.5869982
0
ARC
8
DEFAULT_255_1_234
10
22.9297808
20
44.6502101
40
0.3885653
50
343.9829931
51
0.5571613
0
ARC
8
DEFAULT_255_1_234
10
23.0184005
20
44.6259438
40
0.2966924
50
311.6359546
51
343.7651759
0
ARC
8
DEFAULT_255_1_234
10
22.9805574
20
44.6686102
40
0.3537231
50
279.7829875
51
311.6255694
0
ARC
8
DEFAULT_255_1_234
10
22.9504351
20
44.812328
40
0.5004971
50
269.7286406
51
280.3856417
0
ARC
8
DEFAULT_255_1_234
10
22.9442423
20
44.8081996
40
0.4963778
50
256.6828919
51
270.4412052
0
ARC
8
DEFAULT_255_1_234
10
22.9103719
20
44.6697394
40
0.3538406
50
229.4223008
51
256.8556159
0
ARC
8
DEFAULT_255_1_234
10
22.8689112
20
44.6230736
40
0.2914296
50
181.818294
51
229.6455059
0
ARC
8
DEFAULT_255_1_234
10
22.9729068
20
44.6361496
40
0.3959084
50
179.9755256
51
183.2323064
0
ARC
8
DEFAULT_255_1_234
10
22.9556814
20
44.6341037
40
0.2293034
50
179.4465117
51
196.2869258
0
ARC
8
DEFAULT_255_1_234
10
22.9069222
20
44.6207651
40
0.1787621
50
196.5661473
51
227.705904
0
ARC
8
DEFAULT_255_1_234
10
22.9233317
20
44.6391155
40
0.2033784
50
227.7652068
51
257.8762805
0
ARC
8
DEFAULT_255_1_234
10
22.9458287
20
44.7334156
40
0.3003081
50
257.4584385
51
270.426602
0
ARC
8
DEFAULT_255_1_234
10
22.9503853
20
44.7623996
40
0.329292
50
269.5962073
51
280.8789248
0
ARC
8
DEFAULT_255_1_234
10
22.9733382
20
44.6477685
40
0.2123908
50
280.6346389
51
299.8595945
0
ARC
8
DEFAULT_255_1_234
10
22.9924289
20
44.6115212
40
0.171457
50
300.3576302
51
314.5517981
0
ARC
8
DEFAULT_255_1_234
10
22.9841349
20
44.6175919
40
0.1816095
50
315.0728369
51
345.0431014
0
ARC
8
DEFAULT_255_1_234
10
22.8918163
20
44.6444841
40
0.2777492
50
344.5986631
51
357.9269593
0
ARC
8
DEFAULT_255_1_234
10
22.8022489
20
44.6506276
40
0.3674917
50
357.4748886
51
0.0231117
0
ARC
8
DEFAULT_255_1_234
10
22.9045599
20
44.6530679
40
0.2651907
50
359.5047933
51
13.4239635
0
ARC
8
DEFAULT_255_1_234
10
22.9912242
20
44.6752478
40
0.1757509
50
12.9498199
51
48.7551375
0
ARC
8
DEFAULT_255_1_234
10
22.9729976
20
44.65034
40
0.2065134
50
49.5088623
51
72.1836453
0
ARC
8
DEFAULT_255_1_234
10
22.9372129
20
44.5441291
40
0.3185836
50
71.9010081
51
84.3554254
0
ARC
8
DEFAULT_255_1_234
10
22.9210761
20
44.4080326
40
0.4556151
50
84.0193428
51
89.333121
0
LINE
8
DEFAULT_255_1_234
10
23.7094734
20
44.8836963
11
23.5906037
21
44.9142169
0
LINE
8
DEFAULT_255_1_234
10
23.5906037
20
44.9142169
11
23.6500386
21
45.4973211
0
LINE
8
DEFAULT_255_1_234
10
23.6500386
20
45.4973211
11
24.2492063
21
45.4973211
0
LINE
8
DEFAULT_255_1_234
10
24.2492063
20
45.4973211
11
24.2492063
21
45.3599784
0
LINE
8
DEFAULT_255_1_234
10
24.2492063
20
45.3599784
11
23.7761369
21
45.3599784
0
LINE
8
DEFAULT_255_1_234
10
23.7761369
20
45.3599784
11
23.7407972
21
45.0411184
0
LINE
8
DEFAULT_255_1_234
10
23.5488387
20
44.6355156
11
23.6893941
21
44.6355156
0
LINE
8
DEFAULT_255_1_234
10
23.748829
20
44.9158232
11
23.7094734
21
44.8836963
0
ARC
8
DEFAULT_255_1_234
10
23.9262756
20
44.723123
40
0.3681349
50
93.7182161
51
120.2538958
0
ARC
8
DEFAULT_255_1_234
10
23.9357019
20
44.6423394
40
0.449379
50
89.9660152
51
94.2496022
0
ARC
8
DEFAULT_255_1_234
10
23.9397753
20
44.7012549
40
0.390482
50
73.8043271
51
90.5585896
0
ARC
8
DEFAULT_255_1_234
10
23.963265
20
44.7870602
40
0.3015334
50
41.3071453
51
73.5430202
0
ARC
8
DEFAULT_255_1_234
10
23.9216477
20
44.7512324
40
0.3564457
50
13.5075983
51
41.2174222
0
ARC
8
DEFAULT_255_1_234
10
23.7574681
20
44.7082486
40
0.5261351
50
1.1331335
51
13.8829381
0
ARC
8
DEFAULT_255_1_234
10
23.616305
20
44.7006665
40
0.6674378
50
359.9919444
51
1.544251
0
ARC
8
DEFAULT_255_1_234
10
23.7439876
20
44.696528
40
0.5397702
50
347.8572367
51
0.4293338
0
ARC
8
DEFAULT_255_1_234
10
23.9190194
20
44.6568736
40
0.3603188
50
323.673004
51
348.1672506
0
ARC
8
DEFAULT_255_1_234
10
23.9484702
20
44.6389168
40
0.3259678
50
316.8171152
51
323.1492751
0
ARC
8
DEFAULT_255_1_234
10
23.9545891
20
44.635246
40
0.3189975
50
281.8396411
51
316.5457803
0
ARC
8
DEFAULT_255_1_234
10
23.9170155
20
44.7907762
40
0.4789527
50
269.5770101
51
282.4214771
0
ARC
8
DEFAULT_255_1_234
10
23.9098966
20
44.7694125
40
0.45759
50
256.2427136
51
270.4486331
0
ARC
8
DEFAULT_255_1_234
10
23.8799869
20
44.6494229
40
0.3339303
50
228.9023911
51
256.3314342
0
ARC
8
DEFAULT_255_1_234
10
23.8726101
20
44.6377746
40
0.32031
50
193.753695
51
228.5271154
0
ARC
8
DEFAULT_255_1_234
10
23.9964055
20
44.67408
40
0.4492253
50
184.924711
51
194.497588
0
ARC
8
DEFAULT_255_1_234
10
24.0156622
20
44.6776591
40
0.3289787
50
187.3600538
51
198.6732863
0
ARC
8
DEFAULT_255_1_234
10
23.9106916
20
44.6412674
40
0.217884
50
198.4451669
51
217.794479
0
ARC
8
DEFAULT_255_1_234
10
23.8811091
20
44.6203085
40
0.1816698
50
218.2887171
51
228.5612368
0
ARC
8
DEFAULT_255_1_234
10
23.8908878
20
44.6334963
40
0.1980329
50
228.9654866
51
258.1234728
0
ARC
8
DEFAULT_255_1_234
10
23.9114588
20
44.7215833
40
0.2884748
50
257.7258293
51
270.401361
0
ARC
8
DEFAULT_255_1_234
10
23.9159474
20
44.6770821
40
0.2439788
50
269.4204404
51
286.4209037
0
ARC
8
DEFAULT_255_1_234
10
23.9307962
20
44.6231657
40
0.1880666
50
286.7251356
51
320.600362
0
ARC
8
DEFAULT_255_1_234
10
23.8924787
20
44.6542595
40
0.2374121
50
320.6712579
51
344.5441685
0
ARC
8
DEFAULT_255_1_234
10
23.7768113
20
44.6882045
40
0.3579479
50
344.2412205
51
356.7357071
0
ARC
8
DEFAULT_255_1_234
10
23.6519262
20
44.6985444
40
0.4832297
50
356.3548756
51
0.0500261
0
ARC
8
DEFAULT_255_1_234
10
23.7855771
20
44.701665
40
0.3495889
50
359.5576869
51
12.953486
0
ARC
8
DEFAULT_255_1_234
10
23.8910668
20
44.7272434
40
0.2410532
50
12.6490276
51
41.6081334
0
ARC
8
DEFAULT_255_1_234
10
23.9141039
20
44.7468321
40
0.2108218
50
41.7850273
51
85.9892764
0
ARC
8
DEFAULT_255_1_234
10
23.9017776
20
44.6655462
40
0.2928454
50
84.6957577
51
90.0676183
0
ARC
8
DEFAULT_255_1_234
10
23.899426
20
44.5986716
40
0.3597255
50
89.6804936
51
99.1614436
0
ARC
8
DEFAULT_255_1_234
10
23.8788891
20
44.7214131
40
0.235281
50
98.9830931
51
113.8908934
0
ARC
8
DEFAULT_255_1_234
10
23.8559301
20
44.7755587
40
0.176479
50
114.1950727
51
127.3641004
0
LINE
8
DEFAULT_255_1_234
10
22.7089378
20
52.8011169
11
22.7089378
21
52.9223962
0
LINE
8
DEFAULT_255_1_234
10
22.7089378
20
52.9223962
11
22.820579
21
52.9223962
0
LINE
8
DEFAULT_255_1_234
10
22.6302268
20
53.1280087
11
22.4816396
21
53.1280087
0
LINE
8
DEFAULT_255_1_234
10
22.4711983
20
52.5738188
11
22.6205887
21
52.5738188
0
LINE
8
DEFAULT_255_1_234
10
22.820579
20
52.8011169
11
22.7089378
21
52.8011169
0
ARC
8
DEFAULT_255_1_234
10
22.8176656
20
53.2616713
40
0.3392876
50
270.4919872
51
281.8951556
0
ARC
8
DEFAULT_255_1_234
10
22.8417918
20
53.1514702
40
0.2264817
50
281.6691735
51
301.2943132
0
ARC
8
DEFAULT_255_1_234
10
22.8588128
20
53.1203304
40
0.1910381
50
301.7833094
51
311.7545298
0
ARC
8
DEFAULT_255_1_234
10
22.8679704
20
53.1101748
40
0.1773635
50
311.7323931
51
354.2802411
0
ARC
8
DEFAULT_255_1_234
10
22.7953329
20
53.1226722
40
0.2509385
50
353.0937916
51
0.1181479
0
ARC
8
DEFAULT_255_1_234
10
22.7492114
20
53.1274386
40
0.2970898
50
359.1805295
51
15.0453146
0
ARC
8
DEFAULT_255_1_234
10
22.8837951
20
53.1666992
40
0.1569564
50
13.9577229
51
77.6713066
0
ARC
8
DEFAULT_255_1_234
10
22.845148
20
53.0281949
40
0.3006298
50
76.1116566
51
90.7026153
0
ARC
8
DEFAULT_255_1_234
10
22.8392318
20
53.0555545
40
0.2732568
50
89.5324876
51
103.531937
0
ARC
8
DEFAULT_255_1_234
10
22.8191762
20
53.1354884
40
0.1908508
50
103.2931773
51
133.5619022
0
ARC
8
DEFAULT_255_1_234
10
22.8147251
20
53.1414375
40
0.1834746
50
133.8349307
51
173.5344437
0
ARC
8
DEFAULT_255_1_234
10
22.8870294
20
53.1286213
40
0.2568033
50
172.5096846
51
180.1366907
0
ARC
8
DEFAULT_255_1_234
10
22.7919188
20
53.1320622
40
0.3103056
50
155.3484492
51
180.7484736
0
ARC
8
DEFAULT_255_1_234
10
22.7870277
20
53.1291846
40
0.3070957
50
131.5744599
51
154.4798489
0
ARC
8
DEFAULT_255_1_234
10
22.8183424
20
53.097531
40
0.3515643
50
96.9875458
51
131.9690667
0
ARC
8
DEFAULT_255_1_234
10
22.8402904
20
52.9729636
40
0.4779224
50
89.8596053
51
97.7825159
0
ARC
8
DEFAULT_255_1_234
10
22.8450967
20
52.9467616
40
0.5041361
50
78.3655447
51
90.4131539
0
ARC
8
DEFAULT_255_1_234
10
22.8808885
20
53.1126887
40
0.3344039
50
56.6229102
51
78.638727
0
ARC
8
DEFAULT_255_1_234
10
22.9023829
20
53.1502805
40
0.2912001
50
47.0253525
51
56.0854072
0
ARC
8
DEFAULT_255_1_234
10
22.9043609
20
53.1542223
40
0.2869704
50
10.9208013
51
46.7778124
0
ARC
8
DEFAULT_255_1_234
10
22.7679675
20
53.1226857
40
0.426899
50
359.6364486
51
11.6087304
0
ARC
8
DEFAULT_255_1_234
10
22.9514519
20
53.1211752
40
0.243409
50
332.3549906
51
359.7179418
0
ARC
8
DEFAULT_255_1_234
10
22.8864121
20
53.1520142
40
0.3153459
50
325.2333722
51
332.8745602
0
ARC
8
DEFAULT_255_1_234
10
22.9016744
20
53.1413828
40
0.2967456
50
292.9802137
51
325.2392345
0
ARC
8
DEFAULT_255_1_234
10
22.8742118
20
53.1947863
40
0.3566604
50
292.5402179
51
293.6924929
0
ARC
8
DEFAULT_255_1_234
10
22.9134714
20
52.5493091
40
0.3307468
50
57.6435486
51
72.8625112
0
ARC
8
DEFAULT_255_1_234
10
22.9489214
20
52.6067549
40
0.2632492
50
36.7248896
51
57.4697979
0
ARC
8
DEFAULT_255_1_234
10
22.9477847
20
52.608022
40
0.2634081
50
8.0545065
51
36.356114
0
ARC
8
DEFAULT_255_1_234
10
22.8615032
20
52.5925174
40
0.3510261
50
359.8320645
51
8.5869982
0
ARC
8
DEFAULT_255_1_234
10
22.8239808
20
52.5877101
40
0.3885653
50
343.9829931
51
0.5571613
0
ARC
8
DEFAULT_255_1_234
10
22.9126005
20
52.5634438
40
0.2966924
50
311.6359546
51
343.7651759
0
ARC
8
DEFAULT_255_1_234
10
22.8747574
20
52.6061102
40
0.3537231
50
279.7829875
51
311.6255694
0
ARC
8
DEFAULT_255_1_234
10
22.8446351
20
52.749828
40
0.5004971
50
269.7286406
51
280.3856417
0
ARC
8
DEFAULT_255_1_234
10
22.8384423
20
52.7456996
40
0.4963778
50
256.6828919
51
270.4412052
0
ARC
8
DEFAULT_255_1_234
10
22.8045719
20
52.6072394
40
0.3538406
50
229.4223008
51
256.8556159
0
ARC
8
DEFAULT_255_1_234
10
22.7631112
20
52.5605736
40
0.2914296
50
181.818294
51
229.6455059
0
ARC
8
DEFAULT_255_1_234
10
22.8671068
20
52.5736496
40
0.3959084
50
179.9755256
51
183.2323064
0
ARC
8
DEFAULT_255_1_234
10
22.8498814
20
52.5716037
40
0.2293034
50
179.4465117
51
196.2869258
0
ARC
8
DEFAULT_255_1_234
10
22.8011222
20
52.5582651
40
0.1787621
50
196.5661473
51
227.705904
0
ARC
8
DEFAULT_255_1_234
10
22.8175317
20
52.5766155
40
0.2033784
50
227.7652068
51
257.8762805
0
ARC
8
DEFAULT_255_1_234
10
22.8400287
20
52.6709156
40
0.3003081
50
257.4584385
51
270.426602
0
ARC
8
DEFAULT_255_1_234
10
22.8445853
20
52.6998996
40
0.329292
50
269.5962073
51
280.8789248
0
ARC
8
DEFAULT_255_1_234
10
22.8675382
20
52.5852685
40
0.2123908
50
280.6346389
51
299.8595945
0
ARC
8
DEFAULT_255_1_234
10
22.8866289
20
52.5490212
40
0.171457
50
300.3576302
51
314.5517981
0
ARC
8
DEFAULT_255_1_234
10
22.8783349
20
52.5550919
40
0.1816095
50
315.0728369
51
345.0431014
0
ARC
8
DEFAULT_255_1_234
10
22.7860163
20
52.5819841
40
0.2777492
50
344.5986631
51
357.9269593
0
ARC
8
DEFAULT_255_1_234
10
22.6964489
20
52.5881276
40
0.3674917
50
357.4748886
51
0.0231117
0
ARC
8
DEFAULT_255_1_234
10
22.7987599
20
52.5905679
40
0.2651907
50
359.5047933
51
13.4239635
0
ARC
8
DEFAULT_255_1_234
10
22.8854242
20
52.6127478
40
0.1757509
50
12.9498199
51
48.7551375
0
ARC
8
DEFAULT_255_1_234
10
22.8671976
20
52.58784
40
0.2065134
50
49.5088623
51
72.1836453
0
ARC
8
DEFAULT_255_1_234
10
22.8314129
20
52.4816291
40
0.3185836
50
71.9010081
51
84.3554254
0
ARC
8
DEFAULT_255_1_234
10
22.8152761
20
52.3455326
40
0.4556151
50
84.0193428
51
89.333121
0
LINE
8
DEFAULT_255_1_234
10
24.0438127
20
53.4348211
11
24.0438127
21
52.658152
0
LINE
8
DEFAULT_255_1_234
10
24.0438127
20
52.658152
11
24.2060538
21
52.658152
0
LINE
8
DEFAULT_255_1_234
10
24.2060538
20
52.658152
11
24.2060538
21
52.5368728
0
LINE
8
DEFAULT_255_1_234
10
24.2060538
20
52.5368728
11
24.0438127
21
52.5368728
0
LINE
8
DEFAULT_255_1_234
10
24.0438127
20
52.5368728
11
24.0438127
21
52.2654
0
LINE
8
DEFAULT_255_1_234
10
24.0438127
20
52.2654
11
23.8944224
21
52.2654
0
LINE
8
DEFAULT_255_1_234
10
23.8944224
20
52.2654
11
23.8944224
21
52.5368728
0
LINE
8
DEFAULT_255_1_234
10
23.8944224
20
52.5368728
11
23.3619181
21
52.5368728
0
LINE
8
DEFAULT_255_1_234
10
23.3619181
20
52.5368728
11
23.3619181
21
52.6244187
0
LINE
8
DEFAULT_255_1_234
10
23.3619181
20
52.6244187
11
23.8855875
21
53.4348211
0
LINE
8
DEFAULT_255_1_234
10
23.8855875
20
53.4348211
11
24.0438127
21
53.4348211
0
LINE
8
DEFAULT_255_1_234
10
23.8767525
20
53.1994912
11
23.5305846
21
52.658152
0
LINE
8
DEFAULT_255_1_234
10
23.5305846
20
52.658152
11
23.8944224
21
52.658152
0
LINE
8
DEFAULT_255_1_234
10
23.8944224
20
52.658152
11
23.8944224
21
53.2316181
0
LINE
8
DEFAULT_255_1_234
10
23.8944224
20
53.2316181
11
23.8767525
21
53.1994912
0
LINE
8
DEFAULT_255_1_234
10
22.8147378
20
60.7386169
11
22.8147378
21
60.8598962
0
LINE
8
DEFAULT_255_1_234
10
22.8147378
20
60.8598962
11
22.926379
21
60.8598962
0
LINE
8
DEFAULT_255_1_234
10
22.7360268
20
61.0655087
11
22.5874396
21
61.0655087
0
LINE
8
DEFAULT_255_1_234
10
22.5769983
20
60.5113188
11
22.7263887
21
60.5113188
0
LINE
8
DEFAULT_255_1_234
10
22.926379
20
60.7386169
11
22.8147378
21
60.7386169
0
ARC
8
DEFAULT_255_1_234
10
22.9234656
20
61.1991713
40
0.3392876
50
270.4919872
51
281.8951556
0
ARC
8
DEFAULT_255_1_234
10
22.9475918
20
61.0889702
40
0.2264817
50
281.6691735
51
301.2943132
0
ARC
8
DEFAULT_255_1_234
10
22.9646128
20
61.0578304
40
0.1910381
50
301.7833094
51
311.7545298
0
ARC
8
DEFAULT_255_1_234
10
22.9737704
20
61.0476748
40
0.1773635
50
311.7323931
51
354.2802411
0
ARC
8
DEFAULT_255_1_234
10
22.9011329
20
61.0601722
40
0.2509385
50
353.0937916
51
0.1181479
0
ARC
8
DEFAULT_255_1_234
10
22.8550114
20
61.0649386
40
0.2970898
50
359.1805295
51
15.0453146
0
ARC
8
DEFAULT_255_1_234
10
22.9895951
20
61.1041992
40
0.1569564
50
13.9577229
51
77.6713066
0
ARC
8
DEFAULT_255_1_234
10
22.950948
20
60.9656949
40
0.3006298
50
76.1116566
51
90.7026153
0
ARC
8
DEFAULT_255_1_234
10
22.9450318
20
60.9930545
40
0.2732568
50
89.5324876
51
103.531937
0
ARC
8
DEFAULT_255_1_234
10
22.9249762
20
61.0729884
40
0.1908508
50
103.2931773
51
133.5619022
0
ARC
8
DEFAULT_255_1_234
10
22.9205251
20
61.0789375
40
0.1834746
50
133.8349307
51
173.5344437
0
ARC
8
DEFAULT_255_1_234
10
22.9928294
20
61.0661213
40
0.2568033
50
172.5096846
51
180.1366907
0
ARC
8
DEFAULT_255_1_234
10
22.8977188
20
61.0695622
40
0.3103056
50
155.3484492
51
180.7484736
0
ARC
8
DEFAULT_255_1_234
10
22.8928277
20
61.0666846
40
0.3070957
50
131.5744599
51
154.4798489
0
ARC
8
DEFAULT_255_1_234
10
22.9241424
20
61.035031
40
0.3515643
50
96.9875458
51
131.9690667
0
ARC
8
DEFAULT_255_1_234
10
22.9460904
20
60.9104636
40
0.4779224
50
89.8596053
51
97.7825159
0
ARC
8
DEFAULT_255_1_234
10
22.9508967
20
60.8842616
40
0.5041361
50
78.3655447
51
90.4131539
0
ARC
8
DEFAULT_255_1_234
10
22.9866885
20
61.0501887
40
0.3344039
50
56.6229102
51
78.638727
0
ARC
8
DEFAULT_255_1_234
10
23.0081829
20
61.0877805
40
0.2912001
50
47.0253525
51
56.0854072
0
ARC
8
DEFAULT_255_1_234
10
23.0101609
20
61.0917223
40
0.2869704
50
10.9208013
51
46.7778124
0
ARC
8
DEFAULT_255_1_234
10
22.8737675
20
61.0601857
40
0.426899
50
359.6364486
51
11.6087304
0
ARC
8
DEFAULT_255_1_234
10
23.0572519
20
61.0586752
40
0.243409
50
332.3549906
51
359.7179418
0
ARC
8
DEFAULT_255_1_234
10
22.9922121
20
61.0895142
40
0.3153459
50
325.2333722
51
332.8745602
0
ARC
8
DEFAULT_255_1_234
10
23.0074744
20
61.0788828
40
0.2967456
50
292.9802137
51
325.2392345
0
ARC
8
DEFAULT_255_1_234
10
22.9800118
20
61.1322863
40
0.3566604
50
292.5402179
51
293.6924929
0
ARC
8
DEFAULT_255_1_234
10
23.0192714
20
60.4868091
40
0.3307468
50
57.6435486
51
72.8625112
0
ARC
8
DEFAULT_255_1_234
10
23.0547214
20
60.5442549
40
0.2632492
50
36.7248896
51
57.4697979
0
ARC
8
DEFAULT_255_1_234
10
23.0535847
20
60.545522
40
0.2634081
50
8.0545065
51
36.356114
0
ARC
8
DEFAULT_255_1_234
10
22.9673032
20
60.5300174
40
0.3510261
50
359.8320645
51
8.5869982
0
ARC
8
DEFAULT_255_1_234
10
22.9297808
20
60.5252101
40
0.3885653
50
343.9829931
51
0.5571613
0
ARC
8
DEFAULT_255_1_234
10
23.0184005
20
60.5009438
40
0.2966924
50
311.6359546
51
343.7651759
0
ARC
8
DEFAULT_255_1_234
10
22.9805574
20
60.5436102
40
0.3537231
50
279.7829875
51
311.6255694
0
ARC
8
DEFAULT_255_1_234
10
22.9504351
20
60.687328
40
0.5004971
50
269.7286406
51
280.3856417
0
ARC
8
DEFAULT_255_1_234
10
22.9442423
20
60.6831996
40
0.4963778
50
256.6828919
51
270.4412052
0
ARC
8
DEFAULT_255_1_234
10
22.9103719
20
60.5447394
40
0.3538406
50
229.4223008
51
256.8556159
0
ARC
8
DEFAULT_255_1_234
10
22.8689112
20
60.4980736
40
0.2914296
50
181.818294
51
229.6455059
0
ARC
8
DEFAULT_255_1_234
10
22.9729068
20
60.5111496
40
0.3959084
50
179.9755256
51
183.2323064
0
ARC
8
DEFAULT_255_1_234
10
22.9556814
20
60.5091037
40
0.2293034
50
179.4465117
51
196.2869258
0
ARC
8
DEFAULT_255_1_234
10
22.9069222
20
60.4957651
40
0.1787621
50
196.5661473
51
227.705904
0
ARC
8
DEFAULT_255_1_234
10
22.9233317
20
60.5141155
40
0.2033784
50
227.7652068
51
257.8762805
0
ARC
8
DEFAULT_255_1_234
10
22.9458287
20
60.6084156
40
0.3003081
50
257.4584385
51
270.426602
0
ARC
8
DEFAULT_255_1_234
10
22.9503853
20
60.6373996
40
0.329292
50
269.5962073
51
280.8789248
0
ARC
8
DEFAULT_255_1_234
10
22.9733382
20
60.5227685
40
0.2123908
50
280.6346389
51
299.8595945
0
ARC
8
DEFAULT_255_1_234
10
22.9924289
20
60.4865212
40
0.171457
50
300.3576302
51
314.5517981
0
ARC
8
DEFAULT_255_1_234
10
22.9841349
20
60.4925919
40
0.1816095
50
315.0728369
51
345.0431014
0
ARC
8
DEFAULT_255_1_234
10
22.8918163
20
60.5194841
40
0.2777492
50
344.5986631
51
357.9269593
0
ARC
8
DEFAULT_255_1_234
10
22.8022489
20
60.5256276
40
0.3674917
50
357.4748886
51
0.0231117
0
ARC
8
DEFAULT_255_1_234
10
22.9045599
20
60.5280679
40
0.2651907
50
359.5047933
51
13.4239635
0
ARC
8
DEFAULT_255_1_234
10
22.9912242
20
60.5502478
40
0.1757509
50
12.9498199
51
48.7551375
0
ARC
8
DEFAULT_255_1_234
10
22.9729976
20
60.52534
40
0.2065134
50
49.5088623
51
72.1836453
0
ARC
8
DEFAULT_255_1_234
10
22.9372129
20
60.4191291
40
0.3185836
50
71.9010081
51
84.3554254
0
ARC
8
DEFAULT_255_1_234
10
22.9210761
20
60.2830326
40
0.4556151
50
84.0193428
51
89.333121
0
LINE
8
DEFAULT_255_1_234
10
23.7383877
20
60.7386169
11
23.7383877
21
60.8598962
0
LINE
8
DEFAULT_255_1_234
10
23.7383877
20
60.8598962
11
23.8500289
21
60.8598962
0
LINE
8
DEFAULT_255_1_234
10
23.6596767
20
61.0655087
11
23.5110895
21
61.0655087
0
LINE
8
DEFAULT_255_1_234
10
23.5006482
20
60.5113188
11
23.6500386
21
60.5113188
0
LINE
8
DEFAULT_255_1_234
10
23.8500289
20
60.7386169
11
23.7383877
21
60.7386169
0
ARC
8
DEFAULT_255_1_234
10
23.8471155
20
61.1991713
40
0.3392876
50
270.4919872
51
281.8951556
0
ARC
8
DEFAULT_255_1_234
10
23.8712417
20
61.0889702
40
0.2264817
50
281.6691735
51
301.2943132
0
ARC
8
DEFAULT_255_1_234
10
23.8882627
20
61.0578304
40
0.1910381
50
301.7833094
51
311.7545298
0
ARC
8
DEFAULT_255_1_234
10
23.8974203
20
61.0476748
40
0.1773635
50
311.7323931
51
354.2802411
0
ARC
8
DEFAULT_255_1_234
10
23.8247828
20
61.0601722
40
0.2509385
50
353.0937916
51
0.1181479
0
ARC
8
DEFAULT_255_1_234
10
23.7786613
20
61.0649386
40
0.2970898
50
359.1805295
51
15.0453146
0
ARC
8
DEFAULT_255_1_234
10
23.913245
20
61.1041992
40
0.1569564
50
13.9577229
51
77.6713066
0
ARC
8
DEFAULT_255_1_234
10
23.8745979
20
60.9656949
40
0.3006298
50
76.1116566
51
90.7026153
0
ARC
8
DEFAULT_255_1_234
10
23.8686817
20
60.9930545
40
0.2732568
50
89.5324876
51
103.531937
0
ARC
8
DEFAULT_255_1_234
10
23.8486261
20
61.0729884
40
0.1908508
50
103.2931773
51
133.5619022
0
ARC
8
DEFAULT_255_1_234
10
23.844175
20
61.0789375
40
0.1834746
50
133.8349307
51
173.5344437
0
ARC
8
DEFAULT_255_1_234
10
23.9164793
20
61.0661213
40
0.2568033
50
172.5096846
51
180.1366907
0
ARC
8
DEFAULT_255_1_234
10
23.8213687
20
61.0695622
40
0.3103056
50
155.3484492
51
180.7484736
0
ARC
8
DEFAULT_255_1_234
10
23.8164776
20
61.0666846
40
0.3070957
50
131.5744599
51
154.4798489
0
ARC
8
DEFAULT_255_1_234
10
23.8477923
20
61.035031
40
0.3515643
50
96.9875458
51
131.9690667
0
ARC
8
DEFAULT_255_1_234
10
23.8697403
20
60.9104636
40
0.4779224
50
89.8596053
51
97.7825159
0
ARC
8
DEFAULT_255_1_234
10
23.8745466
20
60.8842616
40
0.5041361
50
78.3655447
51
90.4131539
0
ARC
8
DEFAULT_255_1_234
10
23.9103384
20
61.0501887
40
0.3344039
50
56.6229102
51
78.638727
0
ARC
8
DEFAULT_255_1_234
10
23.9318328
20
61.0877805
40
0.2912001
50
47.0253525
51
56.0854072
0
ARC
8
DEFAULT_255_1_234
10
23.9338108
20
61.0917223
40
0.2869704
50
10.9208013
51
46.7778124
0
ARC
8
DEFAULT_255_1_234
10
23.7974174
20
61.0601857
40
0.426899
50
359.6364486
51
11.6087304
0
ARC
8
DEFAULT_255_1_234
10
23.9809018
20
61.0586752
40
0.243409
50
332.3549906
51
359.7179418
0
ARC
8
DEFAULT_255_1_234
10
23.915862
20
61.0895142
40
0.3153459
50
325.2333722
51
332.8745602
0
ARC
8
DEFAULT_255_1_234
10
23.9311244
20
61.0788828
40
0.2967456
50
292.9802137
51
325.2392345
0
ARC
8
DEFAULT_255_1_234
10
23.9036617
20
61.1322863
40
0.3566604
50
292.5402179
51
293.6924929
0
ARC
8
DEFAULT_255_1_234
10
23.9429213
20
60.4868091
40
0.3307468
50
57.6435486
51
72.8625112
0
ARC
8
DEFAULT_255_1_234
10
23.9783713
20
60.5442549
40
0.2632492
50
36.7248896
51
57.4697979
0
ARC
8
DEFAULT_255_1_234
10
23.9772346
20
60.545522
40
0.2634081
50
8.0545065
51
36.356114
0
ARC
8
DEFAULT_255_1_234
10
23.8909531
20
60.5300174
40
0.3510261
50
359.8320645
51
8.5869982
0
ARC
8
DEFAULT_255_1_234
10
23.8534307
20
60.5252101
40
0.3885653
50
343.9829931
51
0.5571613
0
ARC
8
DEFAULT_255_1_234
10
23.9420504
20
60.5009438
40
0.2966924
50
311.6359546
51
343.7651759
0
ARC
8
DEFAULT_255_1_234
10
23.9042074
20
60.5436102
40
0.3537231
50
279.7829875
51
311.6255694
0
ARC
8
DEFAULT_255_1_234
10
23.874085
20
60.687328
40
0.5004971
50
269.7286406
51
280.3856417
0
ARC
8
DEFAULT_255_1_234
10
23.8678922
20
60.6831996
40
0.4963778
50
256.6828919
51
270.4412052
0
ARC
8
DEFAULT_255_1_234
10
23.8340218
20
60.5447394
40
0.3538406
50
229.4223008
51
256.8556159
0
ARC
8
DEFAULT_255_1_234
10
23.7925611
20
60.4980736
40
0.2914296
50
181.818294
51
229.6455059
0
ARC
8
DEFAULT_255_1_234
10
23.8965567
20
60.5111496
40
0.3959084
50
179.9755256
51
183.2323064
0
ARC
8
DEFAULT_255_1_234
10
23.8793313
20
60.5091037
40
0.2293034
50
179.4465117
51
196.2869258
0
ARC
8
DEFAULT_255_1_234
10
23.8305721
20
60.4957651
40
0.1787621
50
196.5661473
51
227.705904
0
ARC
8
DEFAULT_255_1_234
10
23.8469816
20
60.5141155
40
0.2033784
50
227.7652068
51
257.8762805
0
ARC
8
DEFAULT_255_1_234
10
23.8694786
20
60.6084156
40
0.3003081
50
257.4584385
51
270.426602
0
ARC
8
DEFAULT_255_1_234
10
23.8740352
20
60.6373996
40
0.329292
50
269.5962073
51
280.8789248
0
ARC
8
DEFAULT_255_1_234
10
23.8969881
20
60.5227685
40
0.2123908
50
280.6346389
51
299.8595945
0
ARC
8
DEFAULT_255_1_234
10
23.9160788
20
60.4865212
40
0.171457
50
300.3576302
51
314.5517981
0
ARC
8
DEFAULT_255_1_234
10
23.9077848
20
60.4925919
40
0.1816095
50
315.0728369
51
345.0431014
0
ARC
8
DEFAULT_255_1_234
10
23.8154662
20
60.5194841
40
0.2777492
50
344.5986631
51
357.9269593
0
ARC
8
DEFAULT_255_1_234
10
23.7258989
20
60.5256276
40
0.3674917
50
357.4748886
51
0.0231117
0
ARC
8
DEFAULT_255_1_234
10
23.8282098
20
60.5280679
40
0.2651907
50
359.5047933
51
13.4239635
0
ARC
8
DEFAULT_255_1_234
10
23.9148741
20
60.5502478
40
0.1757509
50
12.9498199
51
48.7551375
0
ARC
8
DEFAULT_255_1_234
10
23.8966475
20
60.52534
40
0.2065134
50
49.5088623
51
72.1836453
0
ARC
8
DEFAULT_255_1_234
10
23.8608628
20
60.4191291
40
0.3185836
50
71.9010081
51
84.3554254
0
ARC
8
DEFAULT_255_1_234
10
23.844726
20
60.2830326
40
0.4556151
50
84.0193428
51
89.333121
0
LINE
8
DEFAULT_255_1_234
10
22.8147378
20
68.6761169
11
22.8147378
21
68.7973962
0
LINE
8
DEFAULT_255_1_234
10
22.8147378
20
68.7973962
11
22.926379
21
68.7973962
0
LINE
8
DEFAULT_255_1_234
10
22.7360268
20
69.0030087
11
22.5874396
21
69.0030087
0
LINE
8
DEFAULT_255_1_234
10
22.5769983
20
68.4488188
11
22.7263887
21
68.4488188
0
LINE
8
DEFAULT_255_1_234
10
22.926379
20
68.6761169
11
22.8147378
21
68.6761169
0
ARC
8
DEFAULT_255_1_234
10
22.9234656
20
69.1366713
40
0.3392876
50
270.4919872
51
281.8951556
0
ARC
8
DEFAULT_255_1_234
10
22.9475918
20
69.0264702
40
0.2264817
50
281.6691735
51
301.2943132
0
ARC
8
DEFAULT_255_1_234
10
22.9646128
20
68.9953304
40
0.1910381
50
301.7833094
51
311.7545298
0
ARC
8
DEFAULT_255_1_234
10
22.9737704
20
68.9851748
40
0.1773635
50
311.7323931
51
354.2802411
0
ARC
8
DEFAULT_255_1_234
10
22.9011329
20
68.9976722
40
0.2509385
50
353.0937916
51
0.1181479
0
ARC
8
DEFAULT_255_1_234
10
22.8550114
20
69.0024386
40
0.2970898
50
359.1805295
51
15.0453146
0
ARC
8
DEFAULT_255_1_234
10
22.9895951
20
69.0416992
40
0.1569564
50
13.9577229
51
77.6713066
0
ARC
8
DEFAULT_255_1_234
10
22.950948
20
68.9031949
40
0.3006298
50
76.1116566
51
90.7026153
0
ARC
8
DEFAULT_255_1_234
10
22.9450318
20
68.9305545
40
0.2732568
50
89.5324876
51
103.531937
0
ARC
8
DEFAULT_255_1_234
10
22.9249762
20
69.0104884
40
0.1908508
50
103.2931773
51
133.5619022
0
ARC
8
DEFAULT_255_1_234
10
22.9205251
20
69.0164375
40
0.1834746
50
133.8349307
51
173.5344437
0
ARC
8
DEFAULT_255_1_234
10
22.9928294
20
69.0036213
40
0.2568033
50
172.5096846
51
180.1366907
0
ARC
8
DEFAULT_255_1_234
10
22.8977188
20
69.0070622
40
0.3103056
50
155.3484492
51
180.7484736
0
ARC
8
DEFAULT_255_1_234
10
22.8928277
20
69.0041846
40
0.3070957
50
131.5744599
51
154.4798489
0
ARC
8
DEFAULT_255_1_234
10
22.9241424
20
68.972531
40
0.3515643
50
96.9875458
51
131.9690667
0
ARC
8
DEFAULT_255_1_234
10
22.9460904
20
68.8479636
40
0.4779224
50
89.8596053
51
97.7825159
0
ARC
8
DEFAULT_255_1_234
10
22.9508967
20
68.8217616
40
0.5041361
50
78.3655447
51
90.4131539
0
ARC
8
DEFAULT_255_1_234
10
22.9866885
20
68.9876887
40
0.3344039
50
56.6229102
51
78.638727
0
ARC
8
DEFAULT_255_1_234
10
23.0081829
20
69.0252805
40
0.2912001
50
47.0253525
51
56.0854072
0
ARC
8
DEFAULT_255_1_234
10
23.0101609
20
69.0292223
40
0.2869704
50
10.9208013
51
46.7778124
0
ARC
8
DEFAULT_255_1_234
10
22.8737675
20
68.9976857
40
0.426899
50
359.6364486
51
11.6087304
0
ARC
8
DEFAULT_255_1_234
10
23.0572519
20
68.9961752
40
0.243409
50
332.3549906
51
359.7179418
0
ARC
8
DEFAULT_255_1_234
10
22.9922121
20
69.0270142
40
0.3153459
50
325.2333722
51
332.8745602
0
ARC
8
DEFAULT_255_1_234
10
23.0074744
20
69.0163828
40
0.2967456
50
292.9802137
51
325.2392345
0
ARC
8
DEFAULT_255_1_234
10
22.9800118
20
69.0697863
40
0.3566604
50
292.5402179
51
293.6924929
0
ARC
8
DEFAULT_255_1_234
10
23.0192714
20
68.4243091
40
0.3307468
50
57.6435486
51
72.8625112
0
ARC
8
DEFAULT_255_1_234
10
23.0547214
20
68.4817549
40
0.2632492
50
36.7248896
51
57.4697979
0
ARC
8
DEFAULT_255_1_234
10
23.0535847
20
68.483022
40
0.2634081
50
8.0545065
51
36.356114
0
ARC
8
DEFAULT_255_1_234
10
22.9673032
20
68.4675174
40
0.3510261
50
359.8320645
51
8.5869982
0
ARC
8
DEFAULT_255_1_234
10
22.9297808
20
68.4627101
40
0.3885653
50
343.9829931
51
0.5571613
0
ARC
8
DEFAULT_255_1_234
10
23.0184005
20
68.4384438
40
0.2966924
50
311.6359546
51
343.7651759
0
ARC
8
DEFAULT_255_1_234
10
22.9805574
20
68.4811102
40
0.3537231
50
279.7829875
51
311.6255694
0
ARC
8
DEFAULT_255_1_234
10
22.9504351
20
68.624828
40
0.5004971
50
269.7286406
51
280.3856417
0
ARC
8
DEFAULT_255_1_234
10
22.9442423
20
68.6206996
40
0.4963778
50
256.6828919
51
270.4412052
0
ARC
8
DEFAULT_255_1_234
10
22.9103719
20
68.4822394
40
0.3538406
50
229.4223008
51
256.8556159
0
ARC
8
DEFAULT_255_1_234
10
22.8689112
20
68.4355736
40
0.2914296
50
181.818294
51
229.6455059
0
ARC
8
DEFAULT_255_1_234
10
22.9729068
20
68.4486496
40
0.3959084
50
179.9755256
51
183.2323064
0
ARC
8
DEFAULT_255_1_234
10
22.9556814
20
68.4466037
40
0.2293034
50
179.4465117
51
196.2869258
0
ARC
8
DEFAULT_255_1_234
10
22.9069222
20
68.4332651
40
0.1787621
50
196.5661473
51
227.705904
0
ARC
8
DEFAULT_255_1_234
10
22.9233317
20
68.4516155
40
0.2033784
50
227.7652068
51
257.8762805
0
ARC
8
DEFAULT_255_1_234
10
22.9458287
20
68.5459156
40
0.3003081
50
257.4584385
51
270.426602
0
ARC
8
DEFAULT_255_1_234
10
22.9503853
20
68.5748996
40
0.329292
50
269.5962073
51
280.8789248
0
ARC
8
DEFAULT_255_1_234
10
22.9733382
20
68.4602685
40
0.2123908
50
280.6346389
51
299.8595945
0
ARC
8
DEFAULT_255_1_234
10
22.9924289
20
68.4240212
40
0.171457
50
300.3576302
51
314.5517981
0
ARC
8
DEFAULT_255_1_234
10
22.9841349
20
68.4300919
40
0.1816095
50
315.0728369
51
345.0431014
0
ARC
8
DEFAULT_255_1_234
10
22.8918163
20
68.4569841
40
0.2777492
50
344.5986631
51
357.9269593
0
ARC
8
DEFAULT_255_1_234
10
22.8022489
20
68.4631276
40
0.3674917
50
357.4748886
51
0.0231117
0
ARC
8
DEFAULT_255_1_234
10
22.9045599
20
68.4655679
40
0.2651907
50
359.5047933
51
13.4239635
0
ARC
8
DEFAULT_255_1_234
10
22.9912242
20
68.4877478
40
0.1757509
50
12.9498199
51
48.7551375
0
ARC
8
DEFAULT_255_1_234
10
22.9729976
20
68.46284
40
0.2065134
50
49.5088623
51
72.1836453
0
ARC
8
DEFAULT_255_1_234
10
22.9372129
20
68.3566291
40
0.3185836
50
71.9010081
51
84.3554254
0
ARC
8
DEFAULT_255_1_234
10
22.9210761
20
68.2205326
40
0.4556151
50
84.0193428
51
89.333121
0
LINE
8
DEFAULT_255_1_234
10
24.2885618
20
68.2616792
11
24.2885618
21
68.1404
0
LINE
8
DEFAULT_255_1_234
10
24.2885618
20
68.1404
11
23.5223339
21
68.1404
0
LINE
8
DEFAULT_255_1_234
10
23.5223339
20
68.1404
11
23.5223339
21
68.2472221
0
LINE
8
DEFAULT_255_1_234
10
23.5223339
20
68.2472221
11
23.9271335
21
68.6969995
0
LINE
8
DEFAULT_255_1_234
10
23.6484322
20
68.9652595
11
23.4998451
21
68.9652595
0
LINE
8
DEFAULT_255_1_234
10
24.0146795
20
68.6014218
11
23.7014417
21
68.2616792
0
LINE
8
DEFAULT_255_1_234
10
23.7014417
20
68.2616792
11
24.2885618
21
68.2616792
0
ARC
8
DEFAULT_255_1_234
10
22.5781169
20
69.8899527
40
1.8008286
50
318.5132453
51
320.7828378
0
ARC
8
DEFAULT_255_1_234
10
23.1068143
20
69.4596426
40
1.1191493
50
320.7372736
51
323.9737074
0
ARC
8
DEFAULT_255_1_234
10
23.4988
20
69.1756361
40
0.6350923
50
323.8961724
51
328.6421089
0
ARC
8
DEFAULT_255_1_234
10
23.7034595
20
69.0494031
40
0.3946393
50
328.8299013
51
331.789948
0
ARC
8
DEFAULT_255_1_234
10
23.8031774
20
68.9979509
40
0.2824501
50
331.4255242
51
352.9364833
0
ARC
8
DEFAULT_255_1_234
10
23.8168274
20
68.9948976
40
0.2685315
50
353.2248685
51
0.0169286
0
ARC
8
DEFAULT_255_1_234
10
23.8378151
20
68.997195
40
0.2475536
50
359.4866256
51
15.9339782
0
ARC
8
DEFAULT_255_1_234
10
23.8885136
20
69.0108286
40
0.1950618
50
16.1714718
51
43.5284424
0
ARC
8
DEFAULT_255_1_234
10
23.8962445
20
69.0185573
40
0.184134
50
43.4415429
51
83.1661404
0
ARC
8
DEFAULT_255_1_234
10
23.8828363
20
68.9448771
40
0.258926
50
82.160215
51
90.1505798
0
ARC
8
DEFAULT_255_1_234
10
23.879679
20
68.8911865
40
0.3126255
50
89.5460705
51
102.5418777
0
ARC
8
DEFAULT_255_1_234
10
23.8553876
20
68.9942665
40
0.2067346
50
102.1739365
51
129.2061916
0
ARC
8
DEFAULT_255_1_234
10
23.8474948
20
69.0067094
40
0.1921118
50
129.7279328
51
135.7542026
0
ARC
8
DEFAULT_255_1_234
10
23.8596476
20
68.9970045
40
0.2075944
50
136.175737
51
166.3674722
0
ARC
8
DEFAULT_255_1_234
10
23.9603395
20
68.9700182
40
0.3118201
50
165.9092917
51
178.8683903
0
ARC
8
DEFAULT_255_1_234
10
24.0468256
20
68.9653179
40
0.3983935
50
178.438168
51
180.0083905
0
ARC
8
DEFAULT_255_1_234
10
23.9066859
20
68.9692231
40
0.4068601
50
163.2878735
51
180.5581814
0
ARC
8
DEFAULT_255_1_234
10
23.826512
20
68.991284
40
0.3237344
50
133.454115
51
162.9470031
0
ARC
8
DEFAULT_255_1_234
10
23.8443661
20
68.9723
40
0.349795
50
100.7869394
51
133.4384016
0
ARC
8
DEFAULT_255_1_234
10
23.8791433
20
68.8174319
40
0.5084616
50
89.6605301
51
101.3704185
0
ARC
8
DEFAULT_255_1_234
10
23.8857772
20
68.8235496
40
0.502348
50
78.2171172
51
90.4130393
0
ARC
8
DEFAULT_255_1_234
10
23.921285
20
68.9859637
40
0.3361092
50
55.9268222
51
78.4888551
0
ARC
8
DEFAULT_255_1_234
10
23.940929
20
69.0198324
40
0.2970617
50
47.9292255
51
55.4054003
0
ARC
8
DEFAULT_255_1_234
10
23.9510851
20
69.0301502
40
0.2825983
50
4.3347696
51
48.0560701
0
ARC
8
DEFAULT_255_1_234
10
23.8415244
20
69.0131601
40
0.393225
50
359.925209
51
5.5967654
0
ARC
8
DEFAULT_255_1_234
10
23.8844136
20
69.0187816
40
0.3503892
50
337.8914096
51
358.9967724
0
ARC
8
DEFAULT_255_1_234
10
23.6130548
20
69.1234706
40
0.6412172
50
326.9135351
51
338.3505194
0
ARC
8
DEFAULT_255_1_234
10
23.2144852
20
69.3789284
40
1.1146189
50
319.6472867
51
327.095818
0
ARC
8
DEFAULT_255_1_234
10
22.8311855
20
69.6951
40
1.6114559
50
317.2586784
51
319.9046139
0
LINE
8
DEFAULT_255_1_234
10
22.8237378
20
76.6136169
11
22.8237378
21
76.7348962
0
LINE
8
DEFAULT_255_1_234
10
22.8237378
20
76.7348962
11
22.935379
21
76.7348962
0
LINE
8
DEFAULT_255_1_234
10
22.7450268
20
76.9405087
11
22.5964396
21
76.9405087
0
LINE
8
DEFAULT_255_1_234
10
22.5859983
20
76.3863188
11
22.7353887
21
76.3863188
0
LINE
8
DEFAULT_255_1_234
10
22.935379
20
76.6136169
11
22.8237378
21
76.6136169
0
ARC
8
DEFAULT_255_1_234
10
22.9324656
20
77.0741713
40
0.3392876
50
270.4919872
51
281.8951556
0
ARC
8
DEFAULT_255_1_234
10
22.9565918
20
76.9639702
40
0.2264817
50
281.6691735
51
301.2943132
0
ARC
8
DEFAULT_255_1_234
10
22.9736128
20
76.9328304
40
0.1910381
50
301.7833094
51
311.7545298
0
ARC
8
DEFAULT_255_1_234
10
22.9827704
20
76.9226748
40
0.1773635
50
311.7323931
51
354.2802411
0
ARC
8
DEFAULT_255_1_234
10
22.9101329
20
76.9351722
40
0.2509385
50
353.0937916
51
0.1181479
0
ARC
8
DEFAULT_255_1_234
10
22.8640114
20
76.9399386
40
0.2970898
50
359.1805295
51
15.0453146
0
ARC
8
DEFAULT_255_1_234
10
22.9985951
20
76.9791992
40
0.1569564
50
13.9577229
51
77.6713066
0
ARC
8
DEFAULT_255_1_234
10
22.959948
20
76.8406949
40
0.3006298
50
76.1116566
51
90.7026153
0
ARC
8
DEFAULT_255_1_234
10
22.9540318
20
76.8680545
40
0.2732568
50
89.5324876
51
103.531937
0
ARC
8
DEFAULT_255_1_234
10
22.9339762
20
76.9479884
40
0.1908508
50
103.2931773
51
133.5619022
0
ARC
8
DEFAULT_255_1_234
10
22.9295251
20
76.9539375
40
0.1834746
50
133.8349307
51
173.5344437
0
ARC
8
DEFAULT_255_1_234
10
23.0018294
20
76.9411213
40
0.2568033
50
172.5096846
51
180.1366907
0
ARC
8
DEFAULT_255_1_234
10
22.9067188
20
76.9445622
40
0.3103056
50
155.3484492
51
180.7484736
0
ARC
8
DEFAULT_255_1_234
10
22.9018277
20
76.9416846
40
0.3070957
50
131.5744599
51
154.4798489
0
ARC
8
DEFAULT_255_1_234
10
22.9331424
20
76.910031
40
0.3515643
50
96.9875458
51
131.9690667
0
ARC
8
DEFAULT_255_1_234
10
22.9550904
20
76.7854636
40
0.4779224
50
89.8596053
51
97.7825159
0
ARC
8
DEFAULT_255_1_234
10
22.9598967
20
76.7592616
40
0.5041361
50
78.3655447
51
90.4131539
0
ARC
8
DEFAULT_255_1_234
10
22.9956885
20
76.9251887
40
0.3344039
50
56.6229102
51
78.638727
0
ARC
8
DEFAULT_255_1_234
10
23.0171829
20
76.9627805
40
0.2912001
50
47.0253525
51
56.0854072
0
ARC
8
DEFAULT_255_1_234
10
23.0191609
20
76.9667223
40
0.2869704
50
10.9208013
51
46.7778124
0
ARC
8
DEFAULT_255_1_234
10
22.8827675
20
76.9351857
40
0.426899
50
359.6364486
51
11.6087304
0
ARC
8
DEFAULT_255_1_234
10
23.0662519
20
76.9336752
40
0.243409
50
332.3549906
51
359.7179418
0
ARC
8
DEFAULT_255_1_234
10
23.0012121
20
76.9645142
40
0.3153459
50
325.2333722
51
332.8745602
0
ARC
8
DEFAULT_255_1_234
10
23.0164744
20
76.9538828
40
0.2967456
50
292.9802137
51
325.2392345
0
ARC
8
DEFAULT_255_1_234
10
22.9890118
20
77.0072863
40
0.3566604
50
292.5402179
51
293.6924929
0
ARC
8
DEFAULT_255_1_234
10
23.0282714
20
76.3618091
40
0.3307468
50
57.6435486
51
72.8625112
0
ARC
8
DEFAULT_255_1_234
10
23.0637214
20
76.4192549
40
0.2632492
50
36.7248896
51
57.4697979
0
ARC
8
DEFAULT_255_1_234
10
23.0625847
20
76.420522
40
0.2634081
50
8.0545065
51
36.356114
0
ARC
8
DEFAULT_255_1_234
10
22.9763032
20
76.4050174
40
0.3510261
50
359.8320645
51
8.5869982
0
ARC
8
DEFAULT_255_1_234
10
22.9387808
20
76.4002101
40
0.3885653
50
343.9829931
51
0.5571613
0
ARC
8
DEFAULT_255_1_234
10
23.0274005
20
76.3759438
40
0.2966924
50
311.6359546
51
343.7651759
0
ARC
8
DEFAULT_255_1_234
10
22.9895574
20
76.4186102
40
0.3537231
50
279.7829875
51
311.6255694
0
ARC
8
DEFAULT_255_1_234
10
22.9594351
20
76.562328
40
0.5004971
50
269.7286406
51
280.3856417
0
ARC
8
DEFAULT_255_1_234
10
22.9532423
20
76.5581996
40
0.4963778
50
256.6828919
51
270.4412052
0
ARC
8
DEFAULT_255_1_234
10
22.9193719
20
76.4197394
40
0.3538406
50
229.4223008
51
256.8556159
0
ARC
8
DEFAULT_255_1_234
10
22.8779112
20
76.3730736
40
0.2914296
50
181.818294
51
229.6455059
0
ARC
8
DEFAULT_255_1_234
10
22.9819068
20
76.3861496
40
0.3959084
50
179.9755256
51
183.2323064
0
ARC
8
DEFAULT_255_1_234
10
22.9646814
20
76.3841037
40
0.2293034
50
179.4465117
51
196.2869258
0
ARC
8
DEFAULT_255_1_234
10
22.9159222
20
76.3707651
40
0.1787621
50
196.5661473
51
227.705904
0
ARC
8
DEFAULT_255_1_234
10
22.9323317
20
76.3891155
40
0.2033784
50
227.7652068
51
257.8762805
0
ARC
8
DEFAULT_255_1_234
10
22.9548287
20
76.4834156
40
0.3003081
50
257.4584385
51
270.426602
0
ARC
8
DEFAULT_255_1_234
10
22.9593853
20
76.5123996
40
0.329292
50
269.5962073
51
280.8789248
0
ARC
8
DEFAULT_255_1_234
10
22.9823382
20
76.3977685
40
0.2123908
50
280.6346389
51
299.8595945
0
ARC
8
DEFAULT_255_1_234
10
23.0014289
20
76.3615212
40
0.171457
50
300.3576302
51
314.5517981
0
ARC
8
DEFAULT_255_1_234
10
22.9931349
20
76.3675919
40
0.1816095
50
315.0728369
51
345.0431014
0
ARC
8
DEFAULT_255_1_234
10
22.9008163
20
76.3944841
40
0.2777492
50
344.5986631
51
357.9269593
0
ARC
8
DEFAULT_255_1_234
10
22.8112489
20
76.4006276
40
0.3674917
50
357.4748886
51
0.0231117
0
ARC
8
DEFAULT_255_1_234
10
22.9135599
20
76.4030679
40
0.2651907
50
359.5047933
51
13.4239635
0
ARC
8
DEFAULT_255_1_234
10
23.0002242
20
76.4252478
40
0.1757509
50
12.9498199
51
48.7551375
0
ARC
8
DEFAULT_255_1_234
10
22.9819976
20
76.40034
40
0.2065134
50
49.5088623
51
72.1836453
0
ARC
8
DEFAULT_255_1_234
10
22.9462129
20
76.2941291
40
0.3185836
50
71.9010081
51
84.3554254
0
ARC
8
DEFAULT_255_1_234
10
22.9300761
20
76.1580326
40
0.4556151
50
84.0193428
51
89.333121
0
LINE
8
DEFAULT_255_1_234
10
24.0196636
20
77.2529433
11
24.0196636
21
76.0779
0
LINE
8
DEFAULT_255_1_234
10
24.0196636
20
76.0779
11
23.8702733
21
76.0779
0
LINE
8
DEFAULT_255_1_234
10
23.8702733
20
76.0779
11
23.8702733
21
77.0682133
0
LINE
8
DEFAULT_255_1_234
10
23.8702733
20
77.0682133
11
23.5706895
21
76.9581785
0
LINE
8
DEFAULT_255_1_234
10
23.5706895
20
76.9581785
11
23.5706895
21
77.0931117
0
LINE
8
DEFAULT_255_1_234
10
23.5706895
20
77.0931117
11
23.9963716
21
77.2529433
0
LINE
8
DEFAULT_255_1_234
10
23.9963716
20
77.2529433
11
24.0196636
21
77.2529433
0
LINE
8
DEFAULT_255_1_234
10
22.8147378
20
84.5511169
11
22.8147378
21
84.6723962
0
LINE
8
DEFAULT_255_1_234
10
22.8147378
20
84.6723962
11
22.926379
21
84.6723962
0
LINE
8
DEFAULT_255_1_234
10
22.7360268
20
84.8780087
11
22.5874396
21
84.8780087
0
LINE
8
DEFAULT_255_1_234
10
22.5769983
20
84.3238188
11
22.7263887
21
84.3238188
0
LINE
8
DEFAULT_255_1_234
10
22.926379
20
84.5511169
11
22.8147378
21
84.5511169
0
ARC
8
DEFAULT_255_1_234
10
22.9234656
20
85.0116713
40
0.3392876
50
270.4919872
51
281.8951556
0
ARC
8
DEFAULT_255_1_234
10
22.9475918
20
84.9014702
40
0.2264817
50
281.6691735
51
301.2943132
0
ARC
8
DEFAULT_255_1_234
10
22.9646128
20
84.8703304
40
0.1910381
50
301.7833094
51
311.7545298
0
ARC
8
DEFAULT_255_1_234
10
22.9737704
20
84.8601748
40
0.1773635
50
311.7323931
51
354.2802411
0
ARC
8
DEFAULT_255_1_234
10
22.9011329
20
84.8726722
40
0.2509385
50
353.0937916
51
0.1181479
0
ARC
8
DEFAULT_255_1_234
10
22.8550114
20
84.8774386
40
0.2970898
50
359.1805295
51
15.0453146
0
ARC
8
DEFAULT_255_1_234
10
22.9895951
20
84.9166992
40
0.1569564
50
13.9577229
51
77.6713066
0
ARC
8
DEFAULT_255_1_234
10
22.950948
20
84.7781949
40
0.3006298
50
76.1116566
51
90.7026153
0
ARC
8
DEFAULT_255_1_234
10
22.9450318
20
84.8055545
40
0.2732568
50
89.5324876
51
103.531937
0
ARC
8
DEFAULT_255_1_234
10
22.9249762
20
84.8854884
40
0.1908508
50
103.2931773
51
133.5619022
0
ARC
8
DEFAULT_255_1_234
10
22.9205251
20
84.8914375
40
0.1834746
50
133.8349307
51
173.5344437
0
ARC
8
DEFAULT_255_1_234
10
22.9928294
20
84.8786213
40
0.2568033
50
172.5096846
51
180.1366907
0
ARC
8
DEFAULT_255_1_234
10
22.8977188
20
84.8820622
40
0.3103056
50
155.3484492
51
180.7484736
0
ARC
8
DEFAULT_255_1_234
10
22.8928277
20
84.8791846
40
0.3070957
50
131.5744599
51
154.4798489
0
ARC
8
DEFAULT_255_1_234
10
22.9241424
20
84.847531
40
0.3515643
50
96.9875458
51
131.9690667
0
ARC
8
DEFAULT_255_1_234
10
22.9460904
20
84.7229636
40
0.4779224
50
89.8596053
51
97.7825159
0
ARC
8
DEFAULT_255_1_234
10
22.9508967
20
84.6967616
40
0.5041361
50
78.3655447
51
90.4131539
0
ARC
8
DEFAULT_255_1_234
10
22.9866885
20
84.8626887
40
0.3344039
50
56.6229102
51
78.638727
0
ARC
8
DEFAULT_255_1_234
10
23.0081829
20
84.9002805
40
0.2912001
50
47.0253525
51
56.0854072
0
ARC
8
DEFAULT_255_1_234
10
23.0101609
20
84.9042223
40
0.2869704
50
10.9208013
51
46.7778124
0
ARC
8
DEFAULT_255_1_234
10
22.8737675
20
84.8726857
40
0.426899
50
359.6364486
51
11.6087304
0
ARC
8
DEFAULT_255_1_234
10
23.0572519
20
84.8711752
40
0.243409
50
332.3549906
51
359.7179418
0
ARC
8
DEFAULT_255_1_234
10
22.9922121
20
84.9020142
40
0.3153459
50
325.2333722
51
332.8745602
0
ARC
8
DEFAULT_255_1_234
10
23.0074744
20
84.8913828
40
0.2967456
50
292.9802137
51
325.2392345
0
ARC
8
DEFAULT_255_1_234
10
22.9800118
20
84.9447863
40
0.3566604
50
292.5402179
51
293.6924929
0
ARC
8
DEFAULT_255_1_234
10
23.0192714
20
84.2993091
40
0.3307468
50
57.6435486
51
72.8625112
0
ARC
8
DEFAULT_255_1_234
10
23.0547214
20
84.3567549
40
0.2632492
50
36.7248896
51
57.4697979
0
ARC
8
DEFAULT_255_1_234
10
23.0535847
20
84.358022
40
0.2634081
50
8.0545065
51
36.356114
0
ARC
8
DEFAULT_255_1_234
10
22.9673032
20
84.3425174
40
0.3510261
50
359.8320645
51
8.5869982
0
ARC
8
DEFAULT_255_1_234
10
22.9297808
20
84.3377101
40
0.3885653
50
343.9829931
51
0.5571613
0
ARC
8
DEFAULT_255_1_234
10
23.0184005
20
84.3134438
40
0.2966924
50
311.6359546
51
343.7651759
0
ARC
8
DEFAULT_255_1_234
10
22.9805574
20
84.3561102
40
0.3537231
50
279.7829875
51
311.6255694
0
ARC
8
DEFAULT_255_1_234
10
22.9504351
20
84.499828
40
0.5004971
50
269.7286406
51
280.3856417
0
ARC
8
DEFAULT_255_1_234
10
22.9442423
20
84.4956996
40
0.4963778
50
256.6828919
51
270.4412052
0
ARC
8
DEFAULT_255_1_234
10
22.9103719
20
84.3572394
40
0.3538406
50
229.4223008
51
256.8556159
0
ARC
8
DEFAULT_255_1_234
10
22.8689112
20
84.3105736
40
0.2914296
50
181.818294
51
229.6455059
0
ARC
8
DEFAULT_255_1_234
10
22.9729068
20
84.3236496
40
0.3959084
50
179.9755256
51
183.2323064
0
ARC
8
DEFAULT_255_1_234
10
22.9556814
20
84.3216037
40
0.2293034
50
179.4465117
51
196.2869258
0
ARC
8
DEFAULT_255_1_234
10
22.9069222
20
84.3082651
40
0.1787621
50
196.5661473
51
227.705904
0
ARC
8
DEFAULT_255_1_234
10
22.9233317
20
84.3266155
40
0.2033784
50
227.7652068
51
257.8762805
0
ARC
8
DEFAULT_255_1_234
10
22.9458287
20
84.4209156
40
0.3003081
50
257.4584385
51
270.426602
0
ARC
8
DEFAULT_255_1_234
10
22.9503853
20
84.4498996
40
0.329292
50
269.5962073
51
280.8789248
0
ARC
8
DEFAULT_255_1_234
10
22.9733382
20
84.3352685
40
0.2123908
50
280.6346389
51
299.8595945
0
ARC
8
DEFAULT_255_1_234
10
22.9924289
20
84.2990212
40
0.171457
50
300.3576302
51
314.5517981
0
ARC
8
DEFAULT_255_1_234
10
22.9841349
20
84.3050919
40
0.1816095
50
315.0728369
51
345.0431014
0
ARC
8
DEFAULT_255_1_234
10
22.8918163
20
84.3319841
40
0.2777492
50
344.5986631
51
357.9269593
0
ARC
8
DEFAULT_255_1_234
10
22.8022489
20
84.3381276
40
0.3674917
50
357.4748886
51
0.0231117
0
ARC
8
DEFAULT_255_1_234
10
22.9045599
20
84.3405679
40
0.2651907
50
359.5047933
51
13.4239635
0
ARC
8
DEFAULT_255_1_234
10
22.9912242
20
84.3627478
40
0.1757509
50
12.9498199
51
48.7551375
0
ARC
8
DEFAULT_255_1_234
10
22.9729976
20
84.33784
40
0.2065134
50
49.5088623
51
72.1836453
0
ARC
8
DEFAULT_255_1_234
10
22.9372129
20
84.2316291
40
0.3185836
50
71.9010081
51
84.3554254
0
ARC
8
DEFAULT_255_1_234
10
22.9210761
20
84.0955326
40
0.4556151
50
84.0193428
51
89.333121
0
LINE
8
DEFAULT_255_1_234
10
24.2556316
20
84.7069327
11
24.2556316
21
84.5141709
0
LINE
8
DEFAULT_255_1_234
10
23.5175149
20
84.4940916
11
23.5175149
21
84.6924755
0
LINE
8
DEFAULT_255_1_234
10
24.1070445
20
84.4740123
11
24.1070445
21
84.7173739
0
LINE
8
DEFAULT_255_1_234
10
23.6661021
20
84.7286184
11
23.6661021
21
84.4908789
0
ARC
8
DEFAULT_255_1_234
10
23.0309206
20
84.5092805
40
1.2247208
50
353.8441951
51
0.2287902
0
ARC
8
DEFAULT_255_1_234
10
23.494871
20
84.4574806
40
0.7578929
50
344.4934747
51
353.9765454
0
ARC
8
DEFAULT_255_1_234
10
23.79413
20
84.3723981
40
0.4467846
50
329.2803592
51
344.7472793
0
ARC
8
DEFAULT_255_1_234
10
23.8934125
20
84.3179018
40
0.3336173
50
324.9352394
51
328.6160465
0
ARC
8
DEFAULT_255_1_234
10
23.9311233
20
84.2915427
40
0.2876076
50
280.580143
51
324.9173126
0
ARC
8
DEFAULT_255_1_234
10
23.8910026
20
84.4586099
40
0.4592847
50
269.5977311
51
281.6734359
0
ARC
8
DEFAULT_255_1_234
10
23.8837932
20
84.4466173
40
0.4472986
50
256.6228859
51
270.51044
0
ARC
8
DEFAULT_255_1_234
10
23.8435909
20
84.2917877
40
0.2873874
50
215.8618325
51
257.2788573
0
ARC
8
DEFAULT_255_1_234
10
23.9456941
20
84.3602977
40
0.4102928
50
197.9693508
51
215.2623606
0
ARC
8
DEFAULT_255_1_234
10
24.1942057
20
84.4441709
40
0.6725652
50
187.8816417
51
198.2346507
0
ARC
8
DEFAULT_255_1_234
10
24.5900265
20
84.5013079
40
1.0724845
50
180.8976217
51
188.0055519
0
ARC
8
DEFAULT_255_1_234
10
24.8700453
20
84.5116777
40
1.3526448
50
180.7449369
51
181.1510016
0
ARC
8
DEFAULT_255_1_234
10
24.7123182
20
84.6973042
40
1.1948131
50
173.7675579
51
180.231553
0
ARC
8
DEFAULT_255_1_234
10
24.2605329
20
84.7483666
40
0.7401564
50
164.3058563
51
173.9002247
0
ARC
8
DEFAULT_255_1_234
10
23.9693398
20
84.8322656
40
0.4371288
50
148.7922025
51
164.568378
0
ARC
8
DEFAULT_255_1_234
10
23.874185
20
84.8853929
40
0.3282386
50
144.5883898
51
148.1176286
0
ARC
8
DEFAULT_255_1_234
10
23.8398748
20
84.9093315
40
0.2864044
50
101.6440918
51
144.514236
0
ARC
8
DEFAULT_255_1_234
10
23.8823814
20
84.7404069
40
0.4604934
50
89.5284041
51
102.5819763
0
ARC
8
DEFAULT_255_1_234
10
23.8902902
20
84.7365018
40
0.464401
50
77.0437873
51
90.5081339
0
ARC
8
DEFAULT_255_1_234
10
23.9304904
20
84.9007615
40
0.2953195
50
48.2778575
51
77.4994676
0
ARC
8
DEFAULT_255_1_234
10
23.9377535
20
84.9136746
40
0.2808655
50
36.3142134
51
47.6305865
0
ARC
8
DEFAULT_255_1_234
10
23.8508842
20
84.8551515
40
0.3855453
50
18.2931786
51
35.6769206
0
ARC
8
DEFAULT_255_1_234
10
23.5965601
20
84.7678593
40
0.654423
50
8.024666
51
18.5605216
0
ARC
8
DEFAULT_255_1_234
10
23.1802521
20
84.7063792
40
1.0752407
50
1.1274072
51
8.1718305
0
ARC
8
DEFAULT_255_1_234
10
22.8566712
20
84.6936885
40
1.3990231
50
0.5424119
51
1.3863029
0
ARC
8
DEFAULT_255_1_234
10
23.0388089
20
84.7209342
40
1.0682415
50
359.8090433
51
4.9407866
0
ARC
8
DEFAULT_255_1_234
10
23.4598103
20
84.7585113
40
0.6455691
50
4.8362157
51
12.2904523
0
ARC
8
DEFAULT_255_1_234
10
23.7353218
20
84.8198965
40
0.3633074
50
12.0805627
51
23.8173984
0
ARC
8
DEFAULT_255_1_234
10
23.8526924
20
84.8695919
40
0.2358723
50
24.2871213
51
31.3935614
0
ARC
8
DEFAULT_255_1_234
10
23.9051621
20
84.9039233
40
0.1732111
50
30.7407893
51
82.4657128
0
ARC
8
DEFAULT_255_1_234
10
23.8871755
20
84.8155691
40
0.263235
50
81.1060089
51
90.2184952
0
ARC
8
DEFAULT_255_1_234
10
23.8836054
20
84.8413924
40
0.2374236
50
89.3806855
51
105.6762551
0
ARC
8
DEFAULT_255_1_234
10
23.8652685
20
84.9080567
40
0.1682847
50
105.7981136
51
149.7388061
0
ARC
8
DEFAULT_255_1_234
10
23.9716763
20
84.844095
40
0.2924306
50
149.4208916
51
163.6286378
0
ARC
8
DEFAULT_255_1_234
10
24.1807651
20
84.780325
40
0.5110213
50
163.3763315
51
172.1410975
0
ARC
8
DEFAULT_255_1_234
10
24.510837
20
84.7330518
40
0.8444586
50
172.0259487
51
178.0703232
0
ARC
8
DEFAULT_255_1_234
10
24.813846
20
84.7186906
40
1.1477868
50
177.8631668
51
179.5044149
0
ARC
8
DEFAULT_255_1_234
10
24.7065864
20
84.4872389
40
1.0404907
50
179.7995573
51
185.2460446
0
ARC
8
DEFAULT_255_1_234
10
24.3022903
20
84.4489513
40
0.6343885
50
185.1411642
51
193.0079639
0
ARC
8
DEFAULT_255_1_234
10
24.0379376
20
84.3864641
40
0.3627568
50
192.7897626
51
205.2507664
0
ARC
8
DEFAULT_255_1_234
10
23.9332923
20
84.3397415
40
0.2481908
50
205.8005384
51
211.2537509
0
ARC
8
DEFAULT_255_1_234
10
23.8809363
20
84.304658
40
0.1852521
50
210.3789793
51
238.4008143
0
ARC
8
DEFAULT_255_1_234
10
23.8789885
20
84.3093376
40
0.1882621
50
239.6520629
51
265.9793761
0
ARC
8
DEFAULT_255_1_234
10
23.8875085
20
84.3765427
40
0.2559272
50
265.1315437
51
270.060332
0
ARC
8
DEFAULT_255_1_234
10
23.8903864
20
84.3441534
40
0.2235528
50
269.3314664
51
287.2178029
0
ARC
8
DEFAULT_255_1_234
10
23.9041716
20
84.2938279
40
0.1714108
50
287.7958004
51
329.080874
0
ARC
8
DEFAULT_255_1_234
10
23.8084173
20
84.353593
40
0.2842745
50
328.6634704
51
343.3325132
0
ARC
8
DEFAULT_255_1_234
10
23.5911193
20
84.4212863
40
0.5118644
50
343.0499468
51
351.9393422
0
ARC
8
DEFAULT_255_1_234
10
23.2444493
20
84.4723949
40
0.8622784
50
351.8069023
51
357.7959224
0
ARC
8
DEFAULT_255_1_234
10
22.9209049
20
84.4891721
40
1.1862365
50
357.5871873
51
359.2677531
0
LINE
8
DEFAULT_255_1_234
10
23.3649119
20
92.0741792
11
23.3649119
21
91.9529
0
LINE
8
DEFAULT_255_1_234
10
23.3649119
20
91.9529
11
22.598684
21
91.9529
0
LINE
8
DEFAULT_255_1_234
10
22.598684
20
91.9529
11
22.598684
21
92.0597221
0
LINE
8
DEFAULT_255_1_234
10
22.598684
20
92.0597221
11
23.0034836
21
92.5094995
0
LINE
8
DEFAULT_255_1_234
10
22.7247823
20
92.7777595
11
22.5761952
21
92.7777595
0
LINE
8
DEFAULT_255_1_234
10
23.0910296
20
92.4139218
11
22.7777918
21
92.0741792
0
LINE
8
DEFAULT_255_1_234
10
22.7777918
20
92.0741792
11
23.3649119
21
92.0741792
0
ARC
8
DEFAULT_255_1_234
10
21.654467
20
93.7024527
40
1.8008286
50
318.5132453
51
320.7828378
0
ARC
8
DEFAULT_255_1_234
10
22.1831644
20
93.2721426
40
1.1191493
50
320.7372736
51
323.9737074
0
ARC
8
DEFAULT_255_1_234
10
22.5751501
20
92.9881361
40
0.6350923
50
323.8961724
51
328.6421089
0
ARC
8
DEFAULT_255_1_234
10
22.7798096
20
92.8619031
40
0.3946393
50
328.8299013
51
331.789948
0
ARC
8
DEFAULT_255_1_234
10
22.8795274
20
92.8104509
40
0.2824501
50
331.4255242
51
352.9364833
0
ARC
8
DEFAULT_255_1_234
10
22.8931775
20
92.8073976
40
0.2685315
50
353.2248685
51
0.0169286
0
ARC
8
DEFAULT_255_1_234
10
22.9141652
20
92.809695
40
0.2475536
50
359.4866256
51
15.9339782
0
ARC
8
DEFAULT_255_1_234
10
22.9648637
20
92.8233286
40
0.1950618
50
16.1714718
51
43.5284424
0
ARC
8
DEFAULT_255_1_234
10
22.9725946
20
92.8310573
40
0.184134
50
43.4415429
51
83.1661404
0
ARC
8
DEFAULT_255_1_234
10
22.9591864
20
92.7573771
40
0.258926
50
82.160215
51
90.1505798
0
ARC
8
DEFAULT_255_1_234
10
22.9560291
20
92.7036865
40
0.3126255
50
89.5460705
51
102.5418777
0
ARC
8
DEFAULT_255_1_234
10
22.9317377
20
92.8067665
40
0.2067346
50
102.1739365
51
129.2061916
0
ARC
8
DEFAULT_255_1_234
10
22.9238449
20
92.8192094
40
0.1921118
50
129.7279328
51
135.7542026
0
ARC
8
DEFAULT_255_1_234
10
22.9359977
20
92.8095045
40
0.2075944
50
136.175737
51
166.3674722
0
ARC
8
DEFAULT_255_1_234
10
23.0366896
20
92.7825182
40
0.3118201
50
165.9092917
51
178.8683903
0
ARC
8
DEFAULT_255_1_234
10
23.1231757
20
92.7778179
40
0.3983935
50
178.438168
51
180.0083905
0
ARC
8
DEFAULT_255_1_234
10
22.9830359
20
92.7817231
40
0.4068601
50
163.2878735
51
180.5581814
0
ARC
8
DEFAULT_255_1_234
10
22.9028621
20
92.803784
40
0.3237344
50
133.454115
51
162.9470031
0
ARC
8
DEFAULT_255_1_234
10
22.9207162
20
92.7848
40
0.349795
50
100.7869394
51
133.4384016
0
ARC
8
DEFAULT_255_1_234
10
22.9554934
20
92.6299319
40
0.5084616
50
89.6605301
51
101.3704185
0
ARC
8
DEFAULT_255_1_234
10
22.9621273
20
92.6360496
40
0.502348
50
78.2171172
51
90.4130393
0
ARC
8
DEFAULT_255_1_234
10
22.9976351
20
92.7984637
40
0.3361092
50
55.9268222
51
78.4888551
0
ARC
8
DEFAULT_255_1_234
10
23.0172791
20
92.8323324
40
0.2970617
50
47.9292255
51
55.4054003
0
ARC
8
DEFAULT_255_1_234
10
23.0274352
20
92.8426502
40
0.2825983
50
4.3347696
51
48.0560701
0
ARC
8
DEFAULT_255_1_234
10
22.9178745
20
92.8256601
40
0.393225
50
359.925209
51
5.5967654
0
ARC
8
DEFAULT_255_1_234
10
22.9607637
20
92.8312816
40
0.3503892
50
337.8914096
51
358.9967724
0
ARC
8
DEFAULT_255_1_234
10
22.6894049
20
92.9359706
40
0.6412172
50
326.9135351
51
338.3505194
0
ARC
8
DEFAULT_255_1_234
10
22.2908353
20
93.1914284
40
1.1146189
50
319.6472867
51
327.095818
0
ARC
8
DEFAULT_255_1_234
10
21.9075356
20
93.5076
40
1.6114559
50
317.2586784
51
319.9046139
0
LINE
8
DEFAULT_255_1_234
10
24.2411745
20
92.6548739
11
24.2411745
21
92.6115025
0
LINE
8
DEFAULT_255_1_234
10
23.6990322
20
91.9520968
11
23.6701179
21
91.9520968
0
LINE
8
DEFAULT_255_1_234
10
23.6701179
20
91.9520968
11
23.6701179
21
92.0773919
0
LINE
8
DEFAULT_255_1_234
10
23.6701179
20
92.0773919
11
23.7014417
21
92.0773919
0
LINE
8
DEFAULT_255_1_234
10
24.0925874
20
92.6259597
11
24.0925874
21
92.6853945
0
ARC
8
DEFAULT_255_1_234
10
23.8132143
20
92.7005403
40
0.3635579
50
297.4037347
51
320.016758
0
ARC
8
DEFAULT_255_1_234
10
23.8422092
20
92.644824
40
0.3007486
50
270.2633101
51
297.3851877
0
ARC
8
DEFAULT_255_1_234
10
23.8388048
20
92.6911904
40
0.3471448
50
269.9966443
51
270.7900392
0
ARC
8
DEFAULT_255_1_234
10
23.8362529
20
92.6910143
40
0.3469779
50
254.5999133
51
270.4180344
0
ARC
8
DEFAULT_255_1_234
10
23.8219888
20
92.6345647
40
0.2887697
50
236.4717942
51
254.3541279
0
ARC
8
DEFAULT_255_1_234
10
23.8376106
20
92.6555711
40
0.3149125
50
208.4727207
51
236.2134933
0
ARC
8
DEFAULT_255_1_234
10
23.9014881
20
92.6946455
40
0.3897115
50
204.3447514
51
209.0453999
0
ARC
8
DEFAULT_255_1_234
10
23.9694457
20
92.7234656
40
0.4635101
50
183.9375985
51
204.1276318
0
ARC
8
DEFAULT_255_1_234
10
24.0602708
20
92.7332482
40
0.5548037
50
179.9652252
51
184.3013875
0
ARC
8
DEFAULT_255_1_234
10
24.0362754
20
92.7365507
40
0.5308164
50
166.7585989
51
180.3201225
0
ARC
8
DEFAULT_255_1_234
10
23.9516368
20
92.7549488
40
0.4442163
50
154.6955053
51
166.5679793
0
ARC
8
DEFAULT_255_1_234
10
23.8663238
20
92.797921
40
0.3487299
50
136.3324195
51
155.0871442
0
ARC
8
DEFAULT_255_1_234
10
23.8382311
20
92.8219954
40
0.3117924
50
121.236733
51
135.9680508
0
ARC
8
DEFAULT_255_1_234
10
23.8522809
20
92.7959743
40
0.3413302
50
96.845628
51
120.9881519
0
ARC
8
DEFAULT_255_1_234
10
23.8668391
20
92.7024515
40
0.4359341
50
89.8870174
51
97.2802754
0
ARC
8
DEFAULT_255_1_234
10
23.8720829
20
92.7662095
40
0.3722009
50
70.6505584
51
90.6749113
0
ARC
8
DEFAULT_255_1_234
10
23.8852108
20
92.8175361
40
0.3194571
50
36.7492984
51
69.8219918
0
ARC
8
DEFAULT_255_1_234
10
23.7853273
20
92.7396993
40
0.4460685
50
15.39587
51
37.0840084
0
ARC
8
DEFAULT_255_1_234
10
23.5723706
20
92.6776242
40
0.6678714
50
3.9488873
51
15.6798563
0
ARC
8
DEFAULT_255_1_234
10
23.3322334
20
92.6559964
40
0.9089418
50
359.929245
51
4.2665314
0
ARC
8
DEFAULT_255_1_234
10
22.8716771
20
92.6048513
40
1.3695135
50
352.8366322
51
0.2782669
0
ARC
8
DEFAULT_255_1_234
10
23.400445
20
92.5361629
40
0.8363105
50
341.8359505
51
352.9884176
0
ARC
8
DEFAULT_255_1_234
10
23.7223169
20
92.42767
40
0.4966642
50
322.8578092
51
342.1527901
0
ARC
8
DEFAULT_255_1_234
10
23.8087125
20
92.3687384
40
0.3922466
50
319.334325
51
322.0998941
0
ARC
8
DEFAULT_255_1_234
10
23.7777462
20
92.3998209
40
0.4360033
50
285.9541367
51
318.8878087
0
ARC
8
DEFAULT_255_1_234
10
23.7050723
20
92.63086
40
0.678149
50
272.9281676
51
286.4922826
0
ARC
8
DEFAULT_255_1_234
10
23.6860841
20
92.8559587
40
0.9039547
50
270.8207226
51
273.4012994
0
ARC
8
DEFAULT_255_1_234
10
23.6949692
20
92.6740666
40
0.5967098
50
270.6214993
51
281.4062806
0
ARC
8
DEFAULT_255_1_234
10
23.7379673
20
92.4684833
40
0.3866861
50
281.1852553
51
299.0621114
0
ARC
8
DEFAULT_255_1_234
10
23.7753244
20
92.3963798
40
0.3055236
50
299.5067782
51
313.1200873
0
ARC
8
DEFAULT_255_1_234
10
23.7775211
20
92.3884554
40
0.2982623
50
313.8526205
51
338.5989322
0
ARC
8
DEFAULT_255_1_234
10
23.6151285
20
92.4551781
40
0.4738131
50
338.2523585
51
351.2430902
0
ARC
8
DEFAULT_255_1_234
10
23.3740581
20
92.4961447
40
0.7183203
50
350.9409515
51
357.6691871
0
ARC
8
DEFAULT_255_1_234
10
23.8631011
20
92.6963764
40
0.2294452
50
269.9447023
51
306.8248917
0
ARC
8
DEFAULT_255_1_234
10
23.8393926
20
92.7386898
40
0.2775994
50
305.5072438
51
327.0773448
0
ARC
8
DEFAULT_255_1_234
10
23.8512367
20
92.7292025
40
0.2625056
50
327.4104943
51
336.840169
0
ARC
8
DEFAULT_255_1_234
10
23.5418432
20
92.6886302
40
0.5507537
50
359.6633817
51
10.117533
0
ARC
8
DEFAULT_255_1_234
10
23.717223
20
92.7210777
40
0.372403
50
9.9430141
51
26.7700076
0
ARC
8
DEFAULT_255_1_234
10
23.7769442
20
92.7486187
40
0.3066865
50
27.2015464
51
34.6829435
0
ARC
8
DEFAULT_255_1_234
10
23.8258922
20
92.7853977
40
0.245519
50
34.1250343
51
50.3070065
0
ARC
8
DEFAULT_255_1_234
10
23.8705602
20
92.8388385
40
0.1758693
50
50.3851167
51
90.6705993
0
ARC
8
DEFAULT_255_1_234
10
23.8658835
20
92.8083799
40
0.2063326
50
89.272901
51
111.9140407
0
ARC
8
DEFAULT_255_1_234
10
23.8639363
20
92.822444
40
0.1925887
50
112.9382311
51
142.5320782
0
ARC
8
DEFAULT_255_1_234
10
23.9185543
20
92.7780969
40
0.2629232
50
142.1021256
51
166.3835592
0
ARC
8
DEFAULT_255_1_234
10
24.0366848
20
92.7475915
40
0.3849193
50
166.1100289
51
178.665427
0
ARC
8
DEFAULT_255_1_234
10
24.1414437
20
92.7417117
40
0.4897989
50
178.2632126
51
180.0111093
0
ARC
8
DEFAULT_255_1_234
10
24.0612558
20
92.7388728
40
0.40962
50
179.6161962
51
191.8787166
0
ARC
8
DEFAULT_255_1_234
10
23.9392397
20
92.7118896
40
0.2846655
50
191.6191692
51
215.2972286
0
ARC
8
DEFAULT_255_1_234
10
23.9195588
20
92.7003918
40
0.2619665
50
215.7320102
51
216.5355409
0
ARC
8
DEFAULT_255_1_234
10
23.8656674
20
92.6571647
40
0.1929497
50
215.7486685
51
239.9727502
0
ARC
8
DEFAULT_255_1_234
10
23.858659
20
92.6520894
40
0.1850822
50
241.0650169
51
269.2810483
0
ARC
8
DEFAULT_255_1_234
10
23.8628505
20
92.7011371
40
0.2342059
50
268.4062526
51
270.0071348
0
LINE
8
DEFAULT_255_1_234
10
23.3649119
20
100.0116792
11
23.3649119
21
99.8904
0
LINE
8
DEFAULT_255_1_234
10
23.3649119
20
99.8904
11
22.598684
21
99.8904
0
LINE
8
DEFAULT_255_1_234
10
22.598684
20
99.8904
11
22.598684
21
99.9972221
0
LINE
8
DEFAULT_255_1_234
10
22.598684
20
99.9972221
11
23.0034836
21
100.4469995
0
LINE
8
DEFAULT_255_1_234
10
22.7247823
20
100.7152595
11
22.5761952
21
100.7152595
0
LINE
8
DEFAULT_255_1_234
10
23.0910296
20
100.3514218
11
22.7777918
21
100.0116792
0
LINE
8
DEFAULT_255_1_234
10
22.7777918
20
100.0116792
11
23.3649119
21
100.0116792
0
ARC
8
DEFAULT_255_1_234
10
21.654467
20
101.6399527
40
1.8008286
50
318.5132453
51
320.7828378
0
ARC
8
DEFAULT_255_1_234
10
22.1831644
20
101.2096426
40
1.1191493
50
320.7372736
51
323.9737074
0
ARC
8
DEFAULT_255_1_234
10
22.5751501
20
100.9256361
40
0.6350923
50
323.8961724
51
328.6421089
0
ARC
8
DEFAULT_255_1_234
10
22.7798096
20
100.7994031
40
0.3946393
50
328.8299013
51
331.789948
0
ARC
8
DEFAULT_255_1_234
10
22.8795274
20
100.7479509
40
0.2824501
50
331.4255242
51
352.9364833
0
ARC
8
DEFAULT_255_1_234
10
22.8931775
20
100.7448976
40
0.2685315
50
353.2248685
51
0.0169286
0
ARC
8
DEFAULT_255_1_234
10
22.9141652
20
100.747195
40
0.2475536
50
359.4866256
51
15.9339782
0
ARC
8
DEFAULT_255_1_234
10
22.9648637
20
100.7608286
40
0.1950618
50
16.1714718
51
43.5284424
0
ARC
8
DEFAULT_255_1_234
10
22.9725946
20
100.7685573
40
0.184134
50
43.4415429
51
83.1661404
0
ARC
8
DEFAULT_255_1_234
10
22.9591864
20
100.6948771
40
0.258926
50
82.160215
51
90.1505798
0
ARC
8
DEFAULT_255_1_234
10
22.9560291
20
100.6411865
40
0.3126255
50
89.5460705
51
102.5418777
0
ARC
8
DEFAULT_255_1_234
10
22.9317377
20
100.7442665
40
0.2067346
50
102.1739365
51
129.2061916
0
ARC
8
DEFAULT_255_1_234
10
22.9238449
20
100.7567094
40
0.1921118
50
129.7279328
51
135.7542026
0
ARC
8
DEFAULT_255_1_234
10
22.9359977
20
100.7470045
40
0.2075944
50
136.175737
51
166.3674722
0
ARC
8
DEFAULT_255_1_234
10
23.0366896
20
100.7200182
40
0.3118201
50
165.9092917
51
178.8683903
0
ARC
8
DEFAULT_255_1_234
10
23.1231757
20
100.7153179
40
0.3983935
50
178.438168
51
180.0083905
0
ARC
8
DEFAULT_255_1_234
10
22.9830359
20
100.7192231
40
0.4068601
50
163.2878735
51
180.5581814
0
ARC
8
DEFAULT_255_1_234
10
22.9028621
20
100.741284
40
0.3237344
50
133.454115
51
162.9470031
0
ARC
8
DEFAULT_255_1_234
10
22.9207162
20
100.7223
40
0.349795
50
100.7869394
51
133.4384016
0
ARC
8
DEFAULT_255_1_234
10
22.9554934
20
100.5674319
40
0.5084616
50
89.6605301
51
101.3704185
0
ARC
8
DEFAULT_255_1_234
10
22.9621273
20
100.5735496
40
0.502348
50
78.2171172
51
90.4130393
0
ARC
8
DEFAULT_255_1_234
10
22.9976351
20
100.7359637
40
0.3361092
50
55.9268222
51
78.4888551
0
ARC
8
DEFAULT_255_1_234
10
23.0172791
20
100.7698324
40
0.2970617
50
47.9292255
51
55.4054003
0
ARC
8
DEFAULT_255_1_234
10
23.0274352
20
100.7801502
40
0.2825983
50
4.3347696
51
48.0560701
0
ARC
8
DEFAULT_255_1_234
10
22.9178745
20
100.7631601
40
0.393225
50
359.925209
51
5.5967654
0
ARC
8
DEFAULT_255_1_234
10
22.9607637
20
100.7687816
40
0.3503892
50
337.8914096
51
358.9967724
0
ARC
8
DEFAULT_255_1_234
10
22.6894049
20
100.8734706
40
0.6412172
50
326.9135351
51
338.3505194
0
ARC
8
DEFAULT_255_1_234
10
22.2908353
20
101.1289284
40
1.1146189
50
319.6472867
51
327.095818
0
ARC
8
DEFAULT_255_1_234
10
21.9075356
20
101.4451
40
1.6114559
50
317.2586784
51
319.9046139
0
ARC
8
DEFAULT_255_1_234
10
23.9493123
20
100.7520703
40
0.2822356
50
338.8763615
51
0.5166041
0
ARC
8
DEFAULT_255_1_234
10
23.9661777
20
100.7475208
40
0.2648703
50
325.8412414
51
338.4795939
0
ARC
8
DEFAULT_255_1_234
10
23.9271145
20
100.7746042
40
0.3124019
50
296.7586019
51
325.753654
0
ARC
8
DEFAULT_255_1_234
10
23.8983253
20
100.8230789
40
0.368668
50
296.0902311
51
297.3618122
0
ARC
8
DEFAULT_255_1_234
10
23.9240711
20
100.1676041
40
0.3518806
50
47.9009248
51
67.1946869
0
ARC
8
DEFAULT_255_1_234
10
23.9436953
20
100.1922395
40
0.320451
50
35.236241
51
47.551371
0
ARC
8
DEFAULT_255_1_234
10
23.9698571
20
100.2096993
40
0.2890103
50
359.2759738
51
35.4014081
0
ARC
8
DEFAULT_255_1_234
10
23.8953602
20
100.2023826
40
0.3635026
50
343.1294516
51
0.5776525
0
ARC
8
DEFAULT_255_1_234
10
23.9678147
20
100.182433
40
0.2883832
50
310.8497458
51
342.744803
0
ARC
8
DEFAULT_255_1_234
10
23.926026
20
100.2301294
40
0.3517954
50
281.5473923
51
310.9169905
0
ARC
8
DEFAULT_255_1_234
10
23.890371
20
100.3854084
40
0.5110832
50
269.6192722
51
281.9789957
0
ARC
8
DEFAULT_255_1_234
10
23.8831499
20
100.3854828
40
0.5111606
50
257.4584469
51
270.4287458
0
ARC
8
DEFAULT_255_1_234
10
23.8450642
20
100.2251344
40
0.3463762
50
228.7553743
51
257.8484423
0
ARC
8
DEFAULT_255_1_234
10
23.814084
20
100.1878442
40
0.297916
50
184.0104442
51
228.5071787
0
ARC
8
DEFAULT_255_1_234
10
23.9303784
20
100.2055512
40
0.4152734
50
179.9315461
51
185.3254504
0
ARC
8
DEFAULT_255_1_234
10
23.812743
20
100.2092992
40
0.2976554
50
145.6795913
51
180.6259649
0
ARC
8
DEFAULT_255_1_234
10
23.8290779
20
100.1978929
40
0.3175776
50
115.5537925
51
145.6416199
0
ARC
8
DEFAULT_255_1_234
10
23.8631709
20
100.1368028
40
0.3874232
50
113.2437915
51
116.2054627
0
ARC
8
DEFAULT_255_1_234
10
23.8478922
20
100.776658
40
0.3154751
50
222.9548379
51
244.1372485
0
ARC
8
DEFAULT_255_1_234
10
23.8356997
20
100.7629834
40
0.2972382
50
213.3439227
51
222.6271327
0
ARC
8
DEFAULT_255_1_234
10
23.8164932
20
100.7499308
40
0.274019
50
180.4316517
51
213.2713999
0
ARC
8
DEFAULT_255_1_234
10
23.8739933
20
100.754611
40
0.33158
50
179.9992944
51
181.1655061
0
ARC
8
DEFAULT_255_1_234
10
23.914935
20
100.7580561
40
0.3725376
50
164.6186108
51
180.5292368
0
ARC
8
DEFAULT_255_1_234
10
23.8251213
20
100.7822101
40
0.2795349
50
132.2454369
51
164.5092287
0
ARC
8
DEFAULT_255_1_234
10
23.8538317
20
100.7497028
40
0.3229019
50
100.7052766
51
132.1387266
0
ARC
8
DEFAULT_255_1_234
10
23.8843289
20
100.6119086
40
0.4639835
50
89.6732617
51
101.2449487
0
ARC
8
DEFAULT_255_1_234
10
23.8905487
20
100.629399
40
0.4464999
50
76.2876631
51
90.4586123
0
ARC
8
DEFAULT_255_1_234
10
23.9211719
20
100.751622
40
0.3205023
50
47.8240157
51
76.4266918
0
ARC
8
DEFAULT_255_1_234
10
23.9434269
20
100.777659
40
0.2862661
50
6.9168658
51
47.6261438
0
ARC
8
DEFAULT_255_1_234
10
23.8247672
20
100.755737
40
0.4067708
50
359.8419705
51
7.9694496
0
ARC
8
DEFAULT_255_1_234
10
23.8589569
20
100.2116925
40
0.2513121
50
359.4454068
51
16.9256425
0
ARC
8
DEFAULT_255_1_234
10
23.905838
20
100.2246033
40
0.2027071
50
17.292259
51
45.462717
0
ARC
8
DEFAULT_255_1_234
10
23.9004316
20
100.2199434
40
0.2098212
50
45.3028762
51
83.1921472
0
ARC
8
DEFAULT_255_1_234
10
23.8861
20
100.1397895
40
0.2911472
50
82.2614531
51
90.143954
0
ARC
8
DEFAULT_255_1_234
10
23.883012
20
100.163095
40
0.2678513
50
89.4959189
51
104.8579811
0
ARC
8
DEFAULT_255_1_234
10
23.8653379
20
100.230089
40
0.1985654
50
104.8855873
51
135.2448349
0
ARC
8
DEFAULT_255_1_234
10
23.8703152
20
100.2256336
40
0.2052373
50
135.3398955
51
172.104394
0
ARC
8
DEFAULT_255_1_234
10
23.951021
20
100.2101925
40
0.2873299
50
171.2651929
51
180.1859362
0
ARC
8
DEFAULT_255_1_234
10
23.9340911
20
100.2069733
40
0.2704083
50
179.515471
51
193.6466734
0
ARC
8
DEFAULT_255_1_234
10
23.852468
20
100.1861777
40
0.1861855
50
193.3540587
51
225.8256931
0
ARC
8
DEFAULT_255_1_234
10
23.8565437
20
100.1932524
40
0.1941102
50
226.418029
51
255.8553723
0
ARC
8
DEFAULT_255_1_234
10
23.882187
20
100.2868998
40
0.2911917
50
255.4655572
51
268.7985967
0
ARC
8
DEFAULT_255_1_234
10
23.8869062
20
100.3707491
40
0.3751331
50
268.3464808
51
270.0104874
0
ARC
8
DEFAULT_255_1_234
10
23.889245
20
100.3023138
40
0.3067064
50
269.575914
51
282.0823146
0
ARC
8
DEFAULT_255_1_234
10
23.9117359
20
100.2028803
40
0.2047712
50
281.7522535
51
306.6056425
0
ARC
8
DEFAULT_255_1_234
10
23.9215785
20
100.1867487
40
0.1859604
50
307.1350025
51
314.0277951
0
ARC
8
DEFAULT_255_1_234
10
23.9179869
20
100.1893766
40
0.1903475
50
314.2553419
51
350.169324
0
ARC
8
DEFAULT_255_1_234
10
23.8328338
20
100.2078409
40
0.2774269
50
349.4145679
51
0.2930737
0
ARC
8
DEFAULT_255_1_234
10
23.8848771
20
100.7237353
40
0.2300764
50
89.477591
51
105.729794
0
ARC
8
DEFAULT_255_1_234
10
23.8712684
20
100.7742637
40
0.1777519
50
105.922966
51
135.1662921
0
ARC
8
DEFAULT_255_1_234
10
23.8733187
20
100.7728419
40
0.1802087
50
135.3053131
51
168.9882338
0
ARC
8
DEFAULT_255_1_234
10
23.9560759
20
100.7538721
40
0.2650806
50
168.3802067
51
180.3602358
0
ARC
8
DEFAULT_255_1_234
10
23.9332339
20
100.7501041
40
0.2422425
50
179.5029707
51
194.9126783
0
ARC
8
DEFAULT_255_1_234
10
23.8747
20
100.734711
40
0.1817188
50
194.9722181
51
224.1943972
0
ARC
8
DEFAULT_255_1_234
10
23.8718867
20
100.7324169
40
0.1781027
50
224.2961434
51
262.0157375
0
ARC
8
DEFAULT_255_1_234
10
23.886111
20
100.8055661
40
0.2525492
50
261.1250369
51
270.1959853
0
ARC
8
DEFAULT_255_1_234
10
23.8890865
20
100.7868339
40
0.233825
50
269.4825617
51
285.0988277
0
ARC
8
DEFAULT_255_1_234
10
23.9045024
20
100.728999
40
0.1739712
50
285.1585659
51
315.9484648
0
ARC
8
DEFAULT_255_1_234
10
23.8956036
20
100.7371886
40
0.1860616
50
316.0412958
51
351.9162715
0
ARC
8
DEFAULT_255_1_234
10
23.8222991
20
100.7513245
40
0.2606517
50
351.1056823
51
0.1936567
0
ARC
8
DEFAULT_255_1_234
10
23.848582
20
100.7543369
40
0.234377
50
359.4789506
51
16.0679113
0
ARC
8
DEFAULT_255_1_234
10
23.8961779
20
100.767181
40
0.1850875
50
16.3251951
51
44.791304
0
ARC
8
DEFAULT_255_1_234
10
23.894406
20
100.7672339
40
0.186312
50
44.3958661
51
88.2498933
0
ARC
8
DEFAULT_255_1_234
10
23.8870614
20
100.7061154
40
0.2476868
50
86.9833827
51
90.0200148
0
LINE
8
DEFAULT_255_1_234
10
23.3649119
20
107.9491792
11
23.3649119
21
107.8279
0
LINE
8
DEFAULT_255_1_234
10
23.3649119
20
107.8279
11
22.598684
21
107.8279
0
LINE
8
DEFAULT_255_1_234
10
22.598684
20
107.8279
11
22.598684
21
107.9347221
0
LINE
8
DEFAULT_255_1_234
10
22.598684
20
107.9347221
11
23.0034836
21
108.3844995
0
LINE
8
DEFAULT_255_1_234
10
22.7247823
20
108.6527595
11
22.5761952
21
108.6527595
0
LINE
8
DEFAULT_255_1_234
10
23.0910296
20
108.2889218
11
22.7777918
21
107.9491792
0
LINE
8
DEFAULT_255_1_234
10
22.7777918
20
107.9491792
11
23.3649119
21
107.9491792
0
ARC
8
DEFAULT_255_1_234
10
21.654467
20
109.5774527
40
1.8008286
50
318.5132453
51
320.7828378
0
ARC
8
DEFAULT_255_1_234
10
22.1831644
20
109.1471426
40
1.1191493
50
320.7372736
51
323.9737074
0
ARC
8
DEFAULT_255_1_234
10
22.5751501
20
108.8631361
40
0.6350923
50
323.8961724
51
328.6421089
0
ARC
8
DEFAULT_255_1_234
10
22.7798096
20
108.7369031
40
0.3946393
50
328.8299013
51
331.789948
0
ARC
8
DEFAULT_255_1_234
10
22.8795274
20
108.6854509
40
0.2824501
50
331.4255242
51
352.9364833
0
ARC
8
DEFAULT_255_1_234
10
22.8931775
20
108.6823976
40
0.2685315
50
353.2248685
51
0.0169286
0
ARC
8
DEFAULT_255_1_234
10
22.9141652
20
108.684695
40
0.2475536
50
359.4866256
51
15.9339782
0
ARC
8
DEFAULT_255_1_234
10
22.9648637
20
108.6983286
40
0.1950618
50
16.1714718
51
43.5284424
0
ARC
8
DEFAULT_255_1_234
10
22.9725946
20
108.7060573
40
0.184134
50
43.4415429
51
83.1661404
0
ARC
8
DEFAULT_255_1_234
10
22.9591864
20
108.6323771
40
0.258926
50
82.160215
51
90.1505798
0
ARC
8
DEFAULT_255_1_234
10
22.9560291
20
108.5786865
40
0.3126255
50
89.5460705
51
102.5418777
0
ARC
8
DEFAULT_255_1_234
10
22.9317377
20
108.6817665
40
0.2067346
50
102.1739365
51
129.2061916
0
ARC
8
DEFAULT_255_1_234
10
22.9238449
20
108.6942094
40
0.1921118
50
129.7279328
51
135.7542026
0
ARC
8
DEFAULT_255_1_234
10
22.9359977
20
108.6845045
40
0.2075944
50
136.175737
51
166.3674722
0
ARC
8
DEFAULT_255_1_234
10
23.0366896
20
108.6575182
40
0.3118201
50
165.9092917
51
178.8683903
0
ARC
8
DEFAULT_255_1_234
10
23.1231757
20
108.6528179
40
0.3983935
50
178.438168
51
180.0083905
0
ARC
8
DEFAULT_255_1_234
10
22.9830359
20
108.6567231
40
0.4068601
50
163.2878735
51
180.5581814
0
ARC
8
DEFAULT_255_1_234
10
22.9028621
20
108.678784
40
0.3237344
50
133.454115
51
162.9470031
0
ARC
8
DEFAULT_255_1_234
10
22.9207162
20
108.6598
40
0.349795
50
100.7869394
51
133.4384016
0
ARC
8
DEFAULT_255_1_234
10
22.9554934
20
108.5049319
40
0.5084616
50
89.6605301
51
101.3704185
0
ARC
8
DEFAULT_255_1_234
10
22.9621273
20
108.5110496
40
0.502348
50
78.2171172
51
90.4130393
0
ARC
8
DEFAULT_255_1_234
10
22.9976351
20
108.6734637
40
0.3361092
50
55.9268222
51
78.4888551
0
ARC
8
DEFAULT_255_1_234
10
23.0172791
20
108.7073324
40
0.2970617
50
47.9292255
51
55.4054003
0
ARC
8
DEFAULT_255_1_234
10
23.0274352
20
108.7176502
40
0.2825983
50
4.3347696
51
48.0560701
0
ARC
8
DEFAULT_255_1_234
10
22.9178745
20
108.7006601
40
0.393225
50
359.925209
51
5.5967654
0
ARC
8
DEFAULT_255_1_234
10
22.9607637
20
108.7062816
40
0.3503892
50
337.8914096
51
358.9967724
0
ARC
8
DEFAULT_255_1_234
10
22.6894049
20
108.8109706
40
0.6412172
50
326.9135351
51
338.3505194
0
ARC
8
DEFAULT_255_1_234
10
22.2908353
20
109.0664284
40
1.1146189
50
319.6472867
51
327.095818
0
ARC
8
DEFAULT_255_1_234
10
21.9075356
20
109.3826
40
1.6114559
50
317.2586784
51
319.9046139
0
LINE
8
DEFAULT_255_1_234
10
24.2773173
20
108.9973211
11
24.2773173
21
108.913791
0
LINE
8
DEFAULT_255_1_234
10
24.2773173
20
108.913791
11
23.7930035
21
107.8279
0
LINE
8
DEFAULT_255_1_234
10
23.7930035
20
107.8279
11
23.6371878
21
107.8279
0
LINE
8
DEFAULT_255_1_234
10
23.6371878
20
107.8279
11
24.1198953
21
108.8752387
0
LINE
8
DEFAULT_255_1_234
10
24.1198953
20
108.8752387
11
23.4869943
21
108.8752387
0
LINE
8
DEFAULT_255_1_234
10
23.4869943
20
108.8752387
11
23.4869943
21
108.9973211
0
LINE
8
DEFAULT_255_1_234
10
23.4869943
20
108.9973211
11
24.2773173
21
108.9973211
0
LINE
8
DEFAULT_255_1_234
10
23.3649119
20
115.8866792
11
23.3649119
21
115.7654
0
LINE
8
DEFAULT_255_1_234
10
23.3649119
20
115.7654
11
22.598684
21
115.7654
0
LINE
8
DEFAULT_255_1_234
10
22.598684
20
115.7654
11
22.598684
21
115.8722221
0
LINE
8
DEFAULT_255_1_234
10
22.598684
20
115.8722221
11
23.0034836
21
116.3219995
0
LINE
8
DEFAULT_255_1_234
10
22.7247823
20
116.5902595
11
22.5761952
21
116.5902595
0
LINE
8
DEFAULT_255_1_234
10
23.0910296
20
116.2264218
11
22.7777918
21
115.8866792
0
LINE
8
DEFAULT_255_1_234
10
22.7777918
20
115.8866792
11
23.3649119
21
115.8866792
0
ARC
8
DEFAULT_255_1_234
10
21.654467
20
117.5149527
40
1.8008286
50
318.5132453
51
320.7828378
0
ARC
8
DEFAULT_255_1_234
10
22.1831644
20
117.0846426
40
1.1191493
50
320.7372736
51
323.9737074
0
ARC
8
DEFAULT_255_1_234
10
22.5751501
20
116.8006361
40
0.6350923
50
323.8961724
51
328.6421089
0
ARC
8
DEFAULT_255_1_234
10
22.7798096
20
116.6744031
40
0.3946393
50
328.8299013
51
331.789948
0
ARC
8
DEFAULT_255_1_234
10
22.8795274
20
116.6229509
40
0.2824501
50
331.4255242
51
352.9364833
0
ARC
8
DEFAULT_255_1_234
10
22.8931775
20
116.6198976
40
0.2685315
50
353.2248685
51
0.0169286
0
ARC
8
DEFAULT_255_1_234
10
22.9141652
20
116.622195
40
0.2475536
50
359.4866256
51
15.9339782
0
ARC
8
DEFAULT_255_1_234
10
22.9648637
20
116.6358286
40
0.1950618
50
16.1714718
51
43.5284424
0
ARC
8
DEFAULT_255_1_234
10
22.9725946
20
116.6435573
40
0.184134
50
43.4415429
51
83.1661404
0
ARC
8
DEFAULT_255_1_234
10
22.9591864
20
116.5698771
40
0.258926
50
82.160215
51
90.1505798
0
ARC
8
DEFAULT_255_1_234
10
22.9560291
20
116.5161865
40
0.3126255
50
89.5460705
51
102.5418777
0
ARC
8
DEFAULT_255_1_234
10
22.9317377
20
116.6192665
40
0.2067346
50
102.1739365
51
129.2061916
0
ARC
8
DEFAULT_255_1_234
10
22.9238449
20
116.6317094
40
0.1921118
50
129.7279328
51
135.7542026
0
ARC
8
DEFAULT_255_1_234
10
22.9359977
20
116.6220045
40
0.2075944
50
136.175737
51
166.3674722
0
ARC
8
DEFAULT_255_1_234
10
23.0366896
20
116.5950182
40
0.3118201
50
165.9092917
51
178.8683903
0
ARC
8
DEFAULT_255_1_234
10
23.1231757
20
116.5903179
40
0.3983935
50
178.438168
51
180.0083905
0
ARC
8
DEFAULT_255_1_234
10
22.9830359
20
116.5942231
40
0.4068601
50
163.2878735
51
180.5581814
0
ARC
8
DEFAULT_255_1_234
10
22.9028621
20
116.616284
40
0.3237344
50
133.454115
51
162.9470031
0
ARC
8
DEFAULT_255_1_234
10
22.9207162
20
116.5973
40
0.349795
50
100.7869394
51
133.4384016
0
ARC
8
DEFAULT_255_1_234
10
22.9554934
20
116.4424319
40
0.5084616
50
89.6605301
51
101.3704185
0
ARC
8
DEFAULT_255_1_234
10
22.9621273
20
116.4485496
40
0.502348
50
78.2171172
51
90.4130393
0
ARC
8
DEFAULT_255_1_234
10
22.9976351
20
116.6109637
40
0.3361092
50
55.9268222
51
78.4888551
0
ARC
8
DEFAULT_255_1_234
10
23.0172791
20
116.6448324
40
0.2970617
50
47.9292255
51
55.4054003
0
ARC
8
DEFAULT_255_1_234
10
23.0274352
20
116.6551502
40
0.2825983
50
4.3347696
51
48.0560701
0
ARC
8
DEFAULT_255_1_234
10
22.9178745
20
116.6381601
40
0.393225
50
359.925209
51
5.5967654
0
ARC
8
DEFAULT_255_1_234
10
22.9607637
20
116.6437816
40
0.3503892
50
337.8914096
51
358.9967724
0
ARC
8
DEFAULT_255_1_234
10
22.6894049
20
116.7484706
40
0.6412172
50
326.9135351
51
338.3505194
0
ARC
8
DEFAULT_255_1_234
10
22.2908353
20
117.0039284
40
1.1146189
50
319.6472867
51
327.095818
0
ARC
8
DEFAULT_255_1_234
10
21.9075356
20
117.3201
40
1.6114559
50
317.2586784
51
319.9046139
0
LINE
8
DEFAULT_255_1_234
10
24.0789334
20
116.9356243
11
24.1054381
21
116.9356243
0
LINE
8
DEFAULT_255_1_234
10
24.1054381
20
116.9356243
11
24.1054381
21
116.809526
0
LINE
8
DEFAULT_255_1_234
10
24.1054381
20
116.809526
11
24.0781302
21
116.809526
0
LINE
8
DEFAULT_255_1_234
10
23.5311688
20
116.2103583
11
23.5311688
21
116.2673836
0
LINE
8
DEFAULT_255_1_234
10
23.6805592
20
116.2481075
11
23.6805592
21
116.1934917
0
ARC
8
DEFAULT_255_1_234
10
24.083365
20
116.3097455
40
0.4998079
50
90.6001036
51
104.514704
0
ARC
8
DEFAULT_255_1_234
10
24.0445166
20
116.4542131
40
0.3502176
50
104.2855254
51
133.862935
0
ARC
8
DEFAULT_255_1_234
10
24.0608923
20
116.443383
40
0.3693984
50
134.5302688
51
161.6210873
0
ARC
8
DEFAULT_255_1_234
10
24.2262112
20
116.3850895
40
0.5446739
50
161.2849839
51
174.2076652
0
ARC
8
DEFAULT_255_1_234
10
24.3669049
20
116.3656787
40
0.6866274
50
173.7810589
51
174.9254635
0
ARC
8
DEFAULT_255_1_234
10
23.9118881
20
116.2273839
40
0.3033419
50
95.8330959
51
138.9954921
0
ARC
8
DEFAULT_255_1_234
10
23.9342237
20
116.0995375
40
0.4328947
50
89.8753725
51
97.0544009
0
ARC
8
DEFAULT_255_1_234
10
23.9389703
20
116.1830748
40
0.3493769
50
71.6407809
51
90.6240094
0
ARC
8
DEFAULT_255_1_234
10
23.9540276
20
116.2385082
40
0.2920396
50
39.6367836
51
71.019018
0
ARC
8
DEFAULT_255_1_234
10
23.8903749
20
116.1834998
40
0.3761538
50
10.658731
51
39.9043955
0
ARC
8
DEFAULT_255_1_234
10
23.7355832
20
116.1498686
40
0.5345136
50
359.682601
51
11.132623
0
ARC
8
DEFAULT_255_1_234
10
23.7315963
20
116.142801
40
0.5385081
50
347.2486944
51
0.4369317
0
ARC
8
DEFAULT_255_1_234
10
23.898344
20
116.1026807
40
0.3670249
50
318.1409698
51
347.6118597
0
ARC
8
DEFAULT_255_1_234
10
23.9308433
20
116.0759702
40
0.3250007
50
275.6342139
51
317.8248465
0
ARC
8
DEFAULT_255_1_234
10
23.9087544
20
116.2059219
40
0.4565864
50
269.8874292
51
276.7917694
0
ARC
8
DEFAULT_255_1_234
10
23.9032615
20
116.1033743
40
0.3540676
50
246.9140195
51
270.7437342
0
ARC
8
DEFAULT_255_1_234
10
23.9039005
20
116.0891384
40
0.3412781
50
218.1665114
51
245.878116
0
ARC
8
DEFAULT_255_1_234
10
23.9918466
20
116.1627279
40
0.455911
50
191.4115814
51
218.6077802
0
ARC
8
DEFAULT_255_1_234
10
24.1856555
20
116.2061833
40
0.6545001
50
179.6345085
51
191.7836486
0
ARC
8
DEFAULT_255_1_234
10
24.7438892
20
116.2740697
40
1.2127388
50
171.4525249
51
180.3158839
0
ARC
8
DEFAULT_255_1_234
10
24.3043768
20
116.3424608
40
0.7679464
50
157.9802646
51
171.6246686
0
ARC
8
DEFAULT_255_1_234
10
24.0829789
20
116.4307421
40
0.5296008
50
141.4298019
51
157.854097
0
ARC
8
DEFAULT_255_1_234
10
24.0188109
20
116.4761381
40
0.4511509
50
102.8715806
51
140.8564722
0
ARC
8
DEFAULT_255_1_234
10
24.0835725
20
116.2321552
40
0.7034845
50
90.3778349
51
103.5869322
0
ARC
8
DEFAULT_255_1_234
10
23.9097501
20
116.171673
40
0.2370698
50
89.8751008
51
126.2071704
0
ARC
8
DEFAULT_255_1_234
10
23.9143291
20
116.1562303
40
0.2522934
50
124.9745049
51
144.895901
0
ARC
8
DEFAULT_255_1_234
10
23.8967481
20
116.170556
40
0.2296779
50
145.2974905
51
160.2660252
0
ARC
8
DEFAULT_255_1_234
10
24.204002
20
116.1903071
40
0.5234525
50
179.6514266
51
190.2855912
0
ARC
8
DEFAULT_255_1_234
10
24.0346157
20
116.1583786
40
0.3510893
50
190.0945431
51
207.5098196
0
ARC
8
DEFAULT_255_1_234
10
23.9780427
20
116.1314623
40
0.288489
50
207.9583163
51
216.3251085
0
ARC
8
DEFAULT_255_1_234
10
23.9440535
20
116.1035105
40
0.2445587
50
215.7661442
51
232.5456785
0
ARC
8
DEFAULT_255_1_234
10
23.9057518
20
116.0548482
40
0.1826382
50
232.8005391
51
270.6605633
0
ARC
8
DEFAULT_255_1_234
10
23.9103219
20
116.0912612
40
0.2190529
50
269.35537
51
288.4744281
0
ARC
8
DEFAULT_255_1_234
10
23.9196116
20
116.0563118
40
0.1829749
50
289.1833337
51
322.9683818
0
ARC
8
DEFAULT_255_1_234
10
23.8584638
20
116.1045391
40
0.2608399
50
322.6007884
51
346.5182367
0
ARC
8
DEFAULT_255_1_234
10
23.7427234
20
116.1340616
40
0.3802777
50
346.2582162
51
358.7741648
0
ARC
8
DEFAULT_255_1_234
10
23.6408903
20
116.1395965
40
0.4822176
50
358.3755224
51
0.0098023
0
ARC
8
DEFAULT_255_1_234
10
23.716509
20
116.1423657
40
0.4066078
50
359.6214041
51
11.2839074
0
ARC
8
DEFAULT_255_1_234
10
23.8442237
20
116.1690066
40
0.2761514
50
11.0482309
51
31.8146458
0
ARC
8
DEFAULT_255_1_234
10
23.875128
20
116.1857584
40
0.2410679
50
32.3035391
51
38.082671
0
ARC
8
DEFAULT_255_1_234
10
23.917194
20
116.2238662
40
0.1844966
50
36.825067
51
85.7415724
0
ARC
8
DEFAULT_255_1_234
10
23.9104773
20
116.1738301
40
0.2349122
50
85.0140713
51
90.0513278
0
LINE
8
DEFAULT_255_1_234
10
23.3649119
20
123.8241792
11
23.3649119
21
123.7029
0
LINE
8
DEFAULT_255_1_234
10
23.3649119
20
123.7029
11
22.598684
21
123.7029
0
LINE
8
DEFAULT_255_1_234
10
22.598684
20
123.7029
11
22.598684
21
123.8097221
0
LINE
8
DEFAULT_255_1_234
10
22.598684
20
123.8097221
11
23.0034836
21
124.2594995
0
LINE
8
DEFAULT_255_1_234
10
22.7247823
20
124.5277595
11
22.5761952
21
124.5277595
0
LINE
8
DEFAULT_255_1_234
10
23.0910296
20
124.1639218
11
22.7777918
21
123.8241792
0
LINE
8
DEFAULT_255_1_234
10
22.7777918
20
123.8241792
11
23.3649119
21
123.8241792
0
ARC
8
DEFAULT_255_1_234
10
21.654467
20
125.4524527
40
1.8008286
50
318.5132453
51
320.7828378
0
ARC
8
DEFAULT_255_1_234
10
22.1831644
20
125.0221426
40
1.1191493
50
320.7372736
51
323.9737074
0
ARC
8
DEFAULT_255_1_234
10
22.5751501
20
124.7381361
40
0.6350923
50
323.8961724
51
328.6421089
0
ARC
8
DEFAULT_255_1_234
10
22.7798096
20
124.6119031
40
0.3946393
50
328.8299013
51
331.789948
0
ARC
8
DEFAULT_255_1_234
10
22.8795274
20
124.5604509
40
0.2824501
50
331.4255242
51
352.9364833
0
ARC
8
DEFAULT_255_1_234
10
22.8931775
20
124.5573976
40
0.2685315
50
353.2248685
51
0.0169286
0
ARC
8
DEFAULT_255_1_234
10
22.9141652
20
124.559695
40
0.2475536
50
359.4866256
51
15.9339782
0
ARC
8
DEFAULT_255_1_234
10
22.9648637
20
124.5733286
40
0.1950618
50
16.1714718
51
43.5284424
0
ARC
8
DEFAULT_255_1_234
10
22.9725946
20
124.5810573
40
0.184134
50
43.4415429
51
83.1661404
0
ARC
8
DEFAULT_255_1_234
10
22.9591864
20
124.5073771
40
0.258926
50
82.160215
51
90.1505798
0
ARC
8
DEFAULT_255_1_234
10
22.9560291
20
124.4536865
40
0.3126255
50
89.5460705
51
102.5418777
0
ARC
8
DEFAULT_255_1_234
10
22.9317377
20
124.5567665
40
0.2067346
50
102.1739365
51
129.2061916
0
ARC
8
DEFAULT_255_1_234
10
22.9238449
20
124.5692094
40
0.1921118
50
129.7279328
51
135.7542026
0
ARC
8
DEFAULT_255_1_234
10
22.9359977
20
124.5595045
40
0.2075944
50
136.175737
51
166.3674722
0
ARC
8
DEFAULT_255_1_234
10
23.0366896
20
124.5325182
40
0.3118201
50
165.9092917
51
178.8683903
0
ARC
8
DEFAULT_255_1_234
10
23.1231757
20
124.5278179
40
0.3983935
50
178.438168
51
180.0083905
0
ARC
8
DEFAULT_255_1_234
10
22.9830359
20
124.5317231
40
0.4068601
50
163.2878735
51
180.5581814
0
ARC
8
DEFAULT_255_1_234
10
22.9028621
20
124.553784
40
0.3237344
50
133.454115
51
162.9470031
0
ARC
8
DEFAULT_255_1_234
10
22.9207162
20
124.5348
40
0.349795
50
100.7869394
51
133.4384016
0
ARC
8
DEFAULT_255_1_234
10
22.9554934
20
124.3799319
40
0.5084616
50
89.6605301
51
101.3704185
0
ARC
8
DEFAULT_255_1_234
10
22.9621273
20
124.3860496
40
0.502348
50
78.2171172
51
90.4130393
0
ARC
8
DEFAULT_255_1_234
10
22.9976351
20
124.5484637
40
0.3361092
50
55.9268222
51
78.4888551
0
ARC
8
DEFAULT_255_1_234
10
23.0172791
20
124.5823324
40
0.2970617
50
47.9292255
51
55.4054003
0
ARC
8
DEFAULT_255_1_234
10
23.0274352
20
124.5926502
40
0.2825983
50
4.3347696
51
48.0560701
0
ARC
8
DEFAULT_255_1_234
10
22.9178745
20
124.5756601
40
0.393225
50
359.925209
51
5.5967654
0
ARC
8
DEFAULT_255_1_234
10
22.9607637
20
124.5812816
40
0.3503892
50
337.8914096
51
358.9967724
0
ARC
8
DEFAULT_255_1_234
10
22.6894049
20
124.6859706
40
0.6412172
50
326.9135351
51
338.3505194
0
ARC
8
DEFAULT_255_1_234
10
22.2908353
20
124.9414284
40
1.1146189
50
319.6472867
51
327.095818
0
ARC
8
DEFAULT_255_1_234
10
21.9075356
20
125.2576
40
1.6114559
50
317.2586784
51
319.9046139
0
LINE
8
DEFAULT_255_1_234
10
23.7094734
20
124.2586963
11
23.5906037
21
124.2892169
0
LINE
8
DEFAULT_255_1_234
10
23.5906037
20
124.2892169
11
23.6500386
21
124.8723211
0
LINE
8
DEFAULT_255_1_234
10
23.6500386
20
124.8723211
11
24.2492063
21
124.8723211
0
LINE
8
DEFAULT_255_1_234
10
24.2492063
20
124.8723211
11
24.2492063
21
124.7349784
0
LINE
8
DEFAULT_255_1_234
10
24.2492063
20
124.7349784
11
23.7761369
21
124.7349784
0
LINE
8
DEFAULT_255_1_234
10
23.7761369
20
124.7349784
11
23.7407972
21
124.4161184
0
LINE
8
DEFAULT_255_1_234
10
23.5488387
20
124.0105156
11
23.6893941
21
124.0105156
0
LINE
8
DEFAULT_255_1_234
10
23.748829
20
124.2908232
11
23.7094734
21
124.2586963
0
ARC
8
DEFAULT_255_1_234
10
23.9262756
20
124.098123
40
0.3681349
50
93.7182161
51
120.2538958
0
ARC
8
DEFAULT_255_1_234
10
23.9357019
20
124.0173394
40
0.449379
50
89.9660152
51
94.2496022
0
ARC
8
DEFAULT_255_1_234
10
23.9397753
20
124.0762549
40
0.390482
50
73.8043271
51
90.5585896
0
ARC
8
DEFAULT_255_1_234
10
23.963265
20
124.1620602
40
0.3015334
50
41.3071453
51
73.5430202
0
ARC
8
DEFAULT_255_1_234
10
23.9216477
20
124.1262324
40
0.3564457
50
13.5075983
51
41.2174222
0
ARC
8
DEFAULT_255_1_234
10
23.7574681
20
124.0832486
40
0.5261351
50
1.1331335
51
13.8829381
0
ARC
8
DEFAULT_255_1_234
10
23.616305
20
124.0756665
40
0.6674378
50
359.9919444
51
1.544251
0
ARC
8
DEFAULT_255_1_234
10
23.7439876
20
124.071528
40
0.5397702
50
347.8572367
51
0.4293338
0
ARC
8
DEFAULT_255_1_234
10
23.9190194
20
124.0318736
40
0.3603188
50
323.673004
51
348.1672506
0
ARC
8
DEFAULT_255_1_234
10
23.9484702
20
124.0139168
40
0.3259678
50
316.8171152
51
323.1492751
0
ARC
8
DEFAULT_255_1_234
10
23.9545891
20
124.010246
40
0.3189975
50
281.8396411
51
316.5457803
0
ARC
8
DEFAULT_255_1_234
10
23.9170155
20
124.1657762
40
0.4789527
50
269.5770101
51
282.4214771
0
ARC
8
DEFAULT_255_1_234
10
23.9098966
20
124.1444125
40
0.45759
50
256.2427136
51
270.4486331
0
ARC
8
DEFAULT_255_1_234
10
23.8799869
20
124.0244229
40
0.3339303
50
228.9023911
51
256.3314342
0
ARC
8
DEFAULT_255_1_234
10
23.8726101
20
124.0127746
40
0.32031
50
193.753695
51
228.5271154
0
ARC
8
DEFAULT_255_1_234
10
23.9964055
20
124.04908
40
0.4492253
50
184.924711
51
194.497588
0
ARC
8
DEFAULT_255_1_234
10
24.0156622
20
124.0526591
40
0.3289787
50
187.3600538
51
198.6732863
0
ARC
8
DEFAULT_255_1_234
10
23.9106916
20
124.0162674
40
0.217884
50
198.4451669
51
217.794479
0
ARC
8
DEFAULT_255_1_234
10
23.8811091
20
123.9953085
40
0.1816698
50
218.2887171
51
228.5612368
0
ARC
8
DEFAULT_255_1_234
10
23.8908878
20
124.0084963
40
0.1980329
50
228.9654866
51
258.1234728
0
ARC
8
DEFAULT_255_1_234
10
23.9114588
20
124.0965833
40
0.2884748
50
257.7258293
51
270.401361
0
ARC
8
DEFAULT_255_1_234
10
23.9159474
20
124.0520821
40
0.2439788
50
269.4204404
51
286.4209037
0
ARC
8
DEFAULT_255_1_234
10
23.9307962
20
123.9981657
40
0.1880666
50
286.7251356
51
320.600362
0
ARC
8
DEFAULT_255_1_234
10
23.8924787
20
124.0292595
40
0.2374121
50
320.6712579
51
344.5441685
0
ARC
8
DEFAULT_255_1_234
10
23.7768113
20
124.0632045
40
0.3579479
50
344.2412205
51
356.7357071
0
ARC
8
DEFAULT_255_1_234
10
23.6519262
20
124.0735444
40
0.4832297
50
356.3548756
51
0.0500261
0
ARC
8
DEFAULT_255_1_234
10
23.7855771
20
124.076665
40
0.3495889
50
359.5576869
51
12.953486
0
ARC
8
DEFAULT_255_1_234
10
23.8910668
20
124.1022434
40
0.2410532
50
12.6490276
51
41.6081334
0
ARC
8
DEFAULT_255_1_234
10
23.9141039
20
124.1218321
40
0.2108218
50
41.7850273
51
85.9892764
0
ARC
8
DEFAULT_255_1_234
10
23.9017776
20
124.0405462
40
0.2928454
50
84.6957577
51
90.0676183
0
ARC
8
DEFAULT_255_1_234
10
23.899426
20
123.9736716
40
0.3597255
50
89.6804936
51
99.1614436
0
ARC
8
DEFAULT_255_1_234
10
23.8788891
20
124.0964131
40
0.235281
50
98.9830931
51
113.8908934
0
ARC
8
DEFAULT_255_1_234
10
23.8559301
20
124.1505587
40
0.176479
50
114.1950727
51
127.3641004
0
LINE
8
DEFAULT_255_1_234
10
23.2591119
20
131.7616792
11
23.2591119
21
131.6404
0
LINE
8
DEFAULT_255_1_234
10
23.2591119
20
131.6404
11
22.492884
21
131.6404
0
LINE
8
DEFAULT_255_1_234
10
22.492884
20
131.6404
11
22.492884
21
131.7472221
0
LINE
8
DEFAULT_255_1_234
10
22.492884
20
131.7472221
11
22.8976836
21
132.1969995
0
LINE
8
DEFAULT_255_1_234
10
22.6189823
20
132.4652595
11
22.4703952
21
132.4652595
0
LINE
8
DEFAULT_255_1_234
10
22.9852296
20
132.1014218
11
22.6719918
21
131.7616792
0
LINE
8
DEFAULT_255_1_234
10
22.6719918
20
131.7616792
11
23.2591119
21
131.7616792
0
ARC
8
DEFAULT_255_1_234
10
21.548667
20
133.3899527
40
1.8008286
50
318.5132453
51
320.7828378
0
ARC
8
DEFAULT_255_1_234
10
22.0773644
20
132.9596426
40
1.1191493
50
320.7372736
51
323.9737074
0
ARC
8
DEFAULT_255_1_234
10
22.4693501
20
132.6756361
40
0.6350923
50
323.8961724
51
328.6421089
0
ARC
8
DEFAULT_255_1_234
10
22.6740096
20
132.5494031
40
0.3946393
50
328.8299013
51
331.789948
0
ARC
8
DEFAULT_255_1_234
10
22.7737274
20
132.4979509
40
0.2824501
50
331.4255242
51
352.9364833
0
ARC
8
DEFAULT_255_1_234
10
22.7873775
20
132.4948976
40
0.2685315
50
353.2248685
51
0.0169286
0
ARC
8
DEFAULT_255_1_234
10
22.8083652
20
132.497195
40
0.2475536
50
359.4866256
51
15.9339782
0
ARC
8
DEFAULT_255_1_234
10
22.8590637
20
132.5108286
40
0.1950618
50
16.1714718
51
43.5284424
0
ARC
8
DEFAULT_255_1_234
10
22.8667946
20
132.5185573
40
0.184134
50
43.4415429
51
83.1661404
0
ARC
8
DEFAULT_255_1_234
10
22.8533864
20
132.4448771
40
0.258926
50
82.160215
51
90.1505798
0
ARC
8
DEFAULT_255_1_234
10
22.8502291
20
132.3911865
40
0.3126255
50
89.5460705
51
102.5418777
0
ARC
8
DEFAULT_255_1_234
10
22.8259377
20
132.4942665
40
0.2067346
50
102.1739365
51
129.2061916
0
ARC
8
DEFAULT_255_1_234
10
22.8180449
20
132.5067094
40
0.1921118
50
129.7279328
51
135.7542026
0
ARC
8
DEFAULT_255_1_234
10
22.8301977
20
132.4970045
40
0.2075944
50
136.175737
51
166.3674722
0
ARC
8
DEFAULT_255_1_234
10
22.9308896
20
132.4700182
40
0.3118201
50
165.9092917
51
178.8683903
0
ARC
8
DEFAULT_255_1_234
10
23.0173757
20
132.4653179
40
0.3983935
50
178.438168
51
180.0083905
0
ARC
8
DEFAULT_255_1_234
10
22.8772359
20
132.4692231
40
0.4068601
50
163.2878735
51
180.5581814
0
ARC
8
DEFAULT_255_1_234
10
22.7970621
20
132.491284
40
0.3237344
50
133.454115
51
162.9470031
0
ARC
8
DEFAULT_255_1_234
10
22.8149162
20
132.4723
40
0.349795
50
100.7869394
51
133.4384016
0
ARC
8
DEFAULT_255_1_234
10
22.8496934
20
132.3174319
40
0.5084616
50
89.6605301
51
101.3704185
0
ARC
8
DEFAULT_255_1_234
10
22.8563273
20
132.3235496
40
0.502348
50
78.2171172
51
90.4130393
0
ARC
8
DEFAULT_255_1_234
10
22.8918351
20
132.4859637
40
0.3361092
50
55.9268222
51
78.4888551
0
ARC
8
DEFAULT_255_1_234
10
22.9114791
20
132.5198324
40
0.2970617
50
47.9292255
51
55.4054003
0
ARC
8
DEFAULT_255_1_234
10
22.9216352
20
132.5301502
40
0.2825983
50
4.3347696
51
48.0560701
0
ARC
8
DEFAULT_255_1_234
10
22.8120745
20
132.5131601
40
0.393225
50
359.925209
51
5.5967654
0
ARC
8
DEFAULT_255_1_234
10
22.8549637
20
132.5187816
40
0.3503892
50
337.8914096
51
358.9967724
0
ARC
8
DEFAULT_255_1_234
10
22.5836049
20
132.6234706
40
0.6412172
50
326.9135351
51
338.3505194
0
ARC
8
DEFAULT_255_1_234
10
22.1850353
20
132.8789284
40
1.1146189
50
319.6472867
51
327.095818
0
ARC
8
DEFAULT_255_1_234
10
21.8017356
20
133.1951
40
1.6114559
50
317.2586784
51
319.9046139
0
LINE
8
DEFAULT_255_1_234
10
24.0438127
20
132.8098211
11
24.0438127
21
132.033152
0
LINE
8
DEFAULT_255_1_234
10
24.0438127
20
132.033152
11
24.2060538
21
132.033152
0
LINE
8
DEFAULT_255_1_234
10
24.2060538
20
132.033152
11
24.2060538
21
131.9118728
0
LINE
8
DEFAULT_255_1_234
10
24.2060538
20
131.9118728
11
24.0438127
21
131.9118728
0
LINE
8
DEFAULT_255_1_234
10
24.0438127
20
131.9118728
11
24.0438127
21
131.6404
0
LINE
8
DEFAULT_255_1_234
10
24.0438127
20
131.6404
11
23.8944224
21
131.6404
0
LINE
8
DEFAULT_255_1_234
10
23.8944224
20
131.6404
11
23.8944224
21
131.9118728
0
LINE
8
DEFAULT_255_1_234
10
23.8944224
20
131.9118728
11
23.3619181
21
131.9118728
0
LINE
8
DEFAULT_255_1_234
10
23.3619181
20
131.9118728
11
23.3619181
21
131.9994187
0
LINE
8
DEFAULT_255_1_234
10
23.3619181
20
131.9994187
11
23.8855875
21
132.8098211
0
LINE
8
DEFAULT_255_1_234
10
23.8855875
20
132.8098211
11
24.0438127
21
132.8098211
0
LINE
8
DEFAULT_255_1_234
10
23.8767525
20
132.5744912
11
23.5305846
21
132.033152
0
LINE
8
DEFAULT_255_1_234
10
23.5305846
20
132.033152
11
23.8944224
21
132.033152
0
LINE
8
DEFAULT_255_1_234
10
23.8944224
20
132.033152
11
23.8944224
21
132.6066181
0
LINE
8
DEFAULT_255_1_234
10
23.8944224
20
132.6066181
11
23.8767525
21
132.5744912
0
LINE
8
DEFAULT_255_1_234
10
23.3649119
20
139.6991792
11
23.3649119
21
139.5779
0
LINE
8
DEFAULT_255_1_234
10
23.3649119
20
139.5779
11
22.598684
21
139.5779
0
LINE
8
DEFAULT_255_1_234
10
22.598684
20
139.5779
11
22.598684
21
139.6847221
0
LINE
8
DEFAULT_255_1_234
10
22.598684
20
139.6847221
11
23.0034836
21
140.1344995
0
LINE
8
DEFAULT_255_1_234
10
22.7247823
20
140.4027595
11
22.5761952
21
140.4027595
0
LINE
8
DEFAULT_255_1_234
10
23.0910296
20
140.0389218
11
22.7777918
21
139.6991792
0
LINE
8
DEFAULT_255_1_234
10
22.7777918
20
139.6991792
11
23.3649119
21
139.6991792
0
ARC
8
DEFAULT_255_1_234
10
21.654467
20
141.3274527
40
1.8008286
50
318.5132453
51
320.7828378
0
ARC
8
DEFAULT_255_1_234
10
22.1831644
20
140.8971426
40
1.1191493
50
320.7372736
51
323.9737074
0
ARC
8
DEFAULT_255_1_234
10
22.5751501
20
140.6131361
40
0.6350923
50
323.8961724
51
328.6421089
0
ARC
8
DEFAULT_255_1_234
10
22.7798096
20
140.4869031
40
0.3946393
50
328.8299013
51
331.789948
0
ARC
8
DEFAULT_255_1_234
10
22.8795274
20
140.4354509
40
0.2824501
50
331.4255242
51
352.9364833
0
ARC
8
DEFAULT_255_1_234
10
22.8931775
20
140.4323976
40
0.2685315
50
353.2248685
51
0.0169286
0
ARC
8
DEFAULT_255_1_234
10
22.9141652
20
140.434695
40
0.2475536
50
359.4866256
51
15.9339782
0
ARC
8
DEFAULT_255_1_234
10
22.9648637
20
140.4483286
40
0.1950618
50
16.1714718
51
43.5284424
0
ARC
8
DEFAULT_255_1_234
10
22.9725946
20
140.4560573
40
0.184134
50
43.4415429
51
83.1661404
0
ARC
8
DEFAULT_255_1_234
10
22.9591864
20
140.3823771
40
0.258926
50
82.160215
51
90.1505798
0
ARC
8
DEFAULT_255_1_234
10
22.9560291
20
140.3286865
40
0.3126255
50
89.5460705
51
102.5418777
0
ARC
8
DEFAULT_255_1_234
10
22.9317377
20
140.4317665
40
0.2067346
50
102.1739365
51
129.2061916
0
ARC
8
DEFAULT_255_1_234
10
22.9238449
20
140.4442094
40
0.1921118
50
129.7279328
51
135.7542026
0
ARC
8
DEFAULT_255_1_234
10
22.9359977
20
140.4345045
40
0.2075944
50
136.175737
51
166.3674722
0
ARC
8
DEFAULT_255_1_234
10
23.0366896
20
140.4075182
40
0.3118201
50
165.9092917
51
178.8683903
0
ARC
8
DEFAULT_255_1_234
10
23.1231757
20
140.4028179
40
0.3983935
50
178.438168
51
180.0083905
0
ARC
8
DEFAULT_255_1_234
10
22.9830359
20
140.4067231
40
0.4068601
50
163.2878735
51
180.5581814
0
ARC
8
DEFAULT_255_1_234
10
22.9028621
20
140.428784
40
0.3237344
50
133.454115
51
162.9470031
0
ARC
8
DEFAULT_255_1_234
10
22.9207162
20
140.4098
40
0.349795
50
100.7869394
51
133.4384016
0
ARC
8
DEFAULT_255_1_234
10
22.9554934
20
140.2549319
40
0.5084616
50
89.6605301
51
101.3704185
0
ARC
8
DEFAULT_255_1_234
10
22.9621273
20
140.2610496
40
0.502348
50
78.2171172
51
90.4130393
0
ARC
8
DEFAULT_255_1_234
10
22.9976351
20
140.4234637
40
0.3361092
50
55.9268222
51
78.4888551
0
ARC
8
DEFAULT_255_1_234
10
23.0172791
20
140.4573324
40
0.2970617
50
47.9292255
51
55.4054003
0
ARC
8
DEFAULT_255_1_234
10
23.0274352
20
140.4676502
40
0.2825983
50
4.3347696
51
48.0560701
0
ARC
8
DEFAULT_255_1_234
10
22.9178745
20
140.4506601
40
0.393225
50
359.925209
51
5.5967654
0
ARC
8
DEFAULT_255_1_234
10
22.9607637
20
140.4562816
40
0.3503892
50
337.8914096
51
358.9967724
0
ARC
8
DEFAULT_255_1_234
10
22.6894049
20
140.5609706
40
0.6412172
50
326.9135351
51
338.3505194
0
ARC
8
DEFAULT_255_1_234
10
22.2908353
20
140.8164284
40
1.1146189
50
319.6472867
51
327.095818
0
ARC
8
DEFAULT_255_1_234
10
21.9075356
20
141.1326
40
1.6114559
50
317.2586784
51
319.9046139
0
LINE
8
DEFAULT_255_1_234
10
23.7383877
20
140.1136169
11
23.7383877
21
140.2348962
0
LINE
8
DEFAULT_255_1_234
10
23.7383877
20
140.2348962
11
23.8500289
21
140.2348962
0
LINE
8
DEFAULT_255_1_234
10
23.6596767
20
140.4405087
11
23.5110895
21
140.4405087
0
LINE
8
DEFAULT_255_1_234
10
23.5006482
20
139.8863188
11
23.6500386
21
139.8863188
0
LINE
8
DEFAULT_255_1_234
10
23.8500289
20
140.1136169
11
23.7383877
21
140.1136169
0
ARC
8
DEFAULT_255_1_234
10
23.8471155
20
140.5741713
40
0.3392876
50
270.4919872
51
281.8951556
0
ARC
8
DEFAULT_255_1_234
10
23.8712417
20
140.4639702
40
0.2264817
50
281.6691735
51
301.2943132
0
ARC
8
DEFAULT_255_1_234
10
23.8882627
20
140.4328304
40
0.1910381
50
301.7833094
51
311.7545298
0
ARC
8
DEFAULT_255_1_234
10
23.8974203
20
140.4226748
40
0.1773635
50
311.7323931
51
354.2802411
0
ARC
8
DEFAULT_255_1_234
10
23.8247828
20
140.4351722
40
0.2509385
50
353.0937916
51
0.1181479
0
ARC
8
DEFAULT_255_1_234
10
23.7786613
20
140.4399386
40
0.2970898
50
359.1805295
51
15.0453146
0
ARC
8
DEFAULT_255_1_234
10
23.913245
20
140.4791992
40
0.1569564
50
13.9577229
51
77.6713066
0
ARC
8
DEFAULT_255_1_234
10
23.8745979
20
140.3406949
40
0.3006298
50
76.1116566
51
90.7026153
0
ARC
8
DEFAULT_255_1_234
10
23.8686817
20
140.3680545
40
0.2732568
50
89.5324876
51
103.531937
0
ARC
8
DEFAULT_255_1_234
10
23.8486261
20
140.4479884
40
0.1908508
50
103.2931773
51
133.5619022
0
ARC
8
DEFAULT_255_1_234
10
23.844175
20
140.4539375
40
0.1834746
50
133.8349307
51
173.5344437
0
ARC
8
DEFAULT_255_1_234
10
23.9164793
20
140.4411213
40
0.2568033
50
172.5096846
51
180.1366907
0
ARC
8
DEFAULT_255_1_234
10
23.8213687
20
140.4445622
40
0.3103056
50
155.3484492
51
180.7484736
0
ARC
8
DEFAULT_255_1_234
10
23.8164776
20
140.4416846
40
0.3070957
50
131.5744599
51
154.4798489
0
ARC
8
DEFAULT_255_1_234
10
23.8477923
20
140.410031
40
0.3515643
50
96.9875458
51
131.9690667
0
ARC
8
DEFAULT_255_1_234
10
23.8697403
20
140.2854636
40
0.4779224
50
89.8596053
51
97.7825159
0
ARC
8
DEFAULT_255_1_234
10
23.8745466
20
140.2592616
40
0.5041361
50
78.3655447
51
90.4131539
0
ARC
8
DEFAULT_255_1_234
10
23.9103384
20
140.4251887
40
0.3344039
50
56.6229102
51
78.638727
0
ARC
8
DEFAULT_255_1_234
10
23.9318328
20
140.4627805
40
0.2912001
50
47.0253525
51
56.0854072
0
ARC
8
DEFAULT_255_1_234
10
23.9338108
20
140.4667223
40
0.2869704
50
10.9208013
51
46.7778124
0
ARC
8
DEFAULT_255_1_234
10
23.7974174
20
140.4351857
40
0.426899
50
359.6364486
51
11.6087304
0
ARC
8
DEFAULT_255_1_234
10
23.9809018
20
140.4336752
40
0.243409
50
332.3549906
51
359.7179418
0
ARC
8
DEFAULT_255_1_234
10
23.915862
20
140.4645142
40
0.3153459
50
325.2333722
51
332.8745602
0
ARC
8
DEFAULT_255_1_234
10
23.9311244
20
140.4538828
40
0.2967456
50
292.9802137
51
325.2392345
0
ARC
8
DEFAULT_255_1_234
10
23.9036617
20
140.5072863
40
0.3566604
50
292.5402179
51
293.6924929
0
ARC
8
DEFAULT_255_1_234
10
23.9429213
20
139.8618091
40
0.3307468
50
57.6435486
51
72.8625112
0
ARC
8
DEFAULT_255_1_234
10
23.9783713
20
139.9192549
40
0.2632492
50
36.7248896
51
57.4697979
0
ARC
8
DEFAULT_255_1_234
10
23.9772346
20
139.920522
40
0.2634081
50
8.0545065
51
36.356114
0
ARC
8
DEFAULT_255_1_234
10
23.8909531
20
139.9050174
40
0.3510261
50
359.8320645
51
8.5869982
0
ARC
8
DEFAULT_255_1_234
10
23.8534307
20
139.9002101
40
0.3885653
50
343.9829931
51
0.5571613
0
ARC
8
DEFAULT_255_1_234
10
23.9420504
20
139.8759438
40
0.2966924
50
311.6359546
51
343.7651759
0
ARC
8
DEFAULT_255_1_234
10
23.9042074
20
139.9186102
40
0.3537231
50
279.7829875
51
311.6255694
0
ARC
8
DEFAULT_255_1_234
10
23.874085
20
140.062328
40
0.5004971
50
269.7286406
51
280.3856417
0
ARC
8
DEFAULT_255_1_234
10
23.8678922
20
140.0581996
40
0.4963778
50
256.6828919
51
270.4412052
0
ARC
8
DEFAULT_255_1_234
10
23.8340218
20
139.9197394
40
0.3538406
50
229.4223008
51
256.8556159
0
ARC
8
DEFAULT_255_1_234
10
23.7925611
20
139.8730736
40
0.2914296
50
181.818294
51
229.6455059
0
ARC
8
DEFAULT_255_1_234
10
23.8965567
20
139.8861496
40
0.3959084
50
179.9755256
51
183.2323064
0
ARC
8
DEFAULT_255_1_234
10
23.8793313
20
139.8841037
40
0.2293034
50
179.4465117
51
196.2869258
0
ARC
8
DEFAULT_255_1_234
10
23.8305721
20
139.8707651
40
0.1787621
50
196.5661473
51
227.705904
0
ARC
8
DEFAULT_255_1_234
10
23.8469816
20
139.8891155
40
0.2033784
50
227.7652068
51
257.8762805
0
ARC
8
DEFAULT_255_1_234
10
23.8694786
20
139.9834156
40
0.3003081
50
257.4584385
51
270.426602
0
ARC
8
DEFAULT_255_1_234
10
23.8740352
20
140.0123996
40
0.329292
50
269.5962073
51
280.8789248
0
ARC
8
DEFAULT_255_1_234
10
23.8969881
20
139.8977685
40
0.2123908
50
280.6346389
51
299.8595945
0
ARC
8
DEFAULT_255_1_234
10
23.9160788
20
139.8615212
40
0.171457
50
300.3576302
51
314.5517981
0
ARC
8
DEFAULT_255_1_234
10
23.9077848
20
139.8675919
40
0.1816095
50
315.0728369
51
345.0431014
0
ARC
8
DEFAULT_255_1_234
10
23.8154662
20
139.8944841
40
0.2777492
50
344.5986631
51
357.9269593
0
ARC
8
DEFAULT_255_1_234
10
23.7258989
20
139.9006276
40
0.3674917
50
357.4748886
51
0.0231117
0
ARC
8
DEFAULT_255_1_234
10
23.8282098
20
139.9030679
40
0.2651907
50
359.5047933
51
13.4239635
0
ARC
8
DEFAULT_255_1_234
10
23.9148741
20
139.9252478
40
0.1757509
50
12.9498199
51
48.7551375
0
ARC
8
DEFAULT_255_1_234
10
23.8966475
20
139.90034
40
0.2065134
50
49.5088623
51
72.1836453
0
ARC
8
DEFAULT_255_1_234
10
23.8608628
20
139.7941291
40
0.3185836
50
71.9010081
51
84.3554254
0
ARC
8
DEFAULT_255_1_234
10
23.844726
20
139.6580326
40
0.4556151
50
84.0193428
51
89.333121
0
LINE
8
DEFAULT_255_1_234
10
23.3649119
20
147.6366792
11
23.3649119
21
147.5154
0
LINE
8
DEFAULT_255_1_234
10
23.3649119
20
147.5154
11
22.598684
21
147.5154
0
LINE
8
DEFAULT_255_1_234
10
22.598684
20
147.5154
11
22.598684
21
147.6222221
0
LINE
8
DEFAULT_255_1_234
10
22.598684
20
147.6222221
11
23.0034836
21
148.0719995
0
LINE
8
DEFAULT_255_1_234
10
22.7247823
20
148.3402595
11
22.5761952
21
148.3402595
0
LINE
8
DEFAULT_255_1_234
10
23.0910296
20
147.9764218
11
22.7777918
21
147.6366792
0
LINE
8
DEFAULT_255_1_234
10
22.7777918
20
147.6366792
11
23.3649119
21
147.6366792
0
ARC
8
DEFAULT_255_1_234
10
21.654467
20
149.2649527
40
1.8008286
50
318.5132453
51
320.7828378
0
ARC
8
DEFAULT_255_1_234
10
22.1831644
20
148.8346426
40
1.1191493
50
320.7372736
51
323.9737074
0
ARC
8
DEFAULT_255_1_234
10
22.5751501
20
148.5506361
40
0.6350923
50
323.8961724
51
328.6421089
0
ARC
8
DEFAULT_255_1_234
10
22.7798096
20
148.4244031
40
0.3946393
50
328.8299013
51
331.789948
0
ARC
8
DEFAULT_255_1_234
10
22.8795274
20
148.3729509
40
0.2824501
50
331.4255242
51
352.9364833
0
ARC
8
DEFAULT_255_1_234
10
22.8931775
20
148.3698976
40
0.2685315
50
353.2248685
51
0.0169286
0
ARC
8
DEFAULT_255_1_234
10
22.9141652
20
148.372195
40
0.2475536
50
359.4866256
51
15.9339782
0
ARC
8
DEFAULT_255_1_234
10
22.9648637
20
148.3858286
40
0.1950618
50
16.1714718
51
43.5284424
0
ARC
8
DEFAULT_255_1_234
10
22.9725946
20
148.3935573
40
0.184134
50
43.4415429
51
83.1661404
0
ARC
8
DEFAULT_255_1_234
10
22.9591864
20
148.3198771
40
0.258926
50
82.160215
51
90.1505798
0
ARC
8
DEFAULT_255_1_234
10
22.9560291
20
148.2661865
40
0.3126255
50
89.5460705
51
102.5418777
0
ARC
8
DEFAULT_255_1_234
10
22.9317377
20
148.3692665
40
0.2067346
50
102.1739365
51
129.2061916
0
ARC
8
DEFAULT_255_1_234
10
22.9238449
20
148.3817094
40
0.1921118
50
129.7279328
51
135.7542026
0
ARC
8
DEFAULT_255_1_234
10
22.9359977
20
148.3720045
40
0.2075944
50
136.175737
51
166.3674722
0
ARC
8
DEFAULT_255_1_234
10
23.0366896
20
148.3450182
40
0.3118201
50
165.9092917
51
178.8683903
0
ARC
8
DEFAULT_255_1_234
10
23.1231757
20
148.3403179
40
0.3983935
50
178.438168
51
180.0083905
0
ARC
8
DEFAULT_255_1_234
10
22.9830359
20
148.3442231
40
0.4068601
50
163.2878735
51
180.5581814
0
ARC
8
DEFAULT_255_1_234
10
22.9028621
20
148.366284
40
0.3237344
50
133.454115
51
162.9470031
0
ARC
8
DEFAULT_255_1_234
10
22.9207162
20
148.3473
40
0.349795
50
100.7869394
51
133.4384016
0
ARC
8
DEFAULT_255_1_234
10
22.9554934
20
148.1924319
40
0.5084616
50
89.6605301
51
101.3704185
0
ARC
8
DEFAULT_255_1_234
10
22.9621273
20
148.1985496
40
0.502348
50
78.2171172
51
90.4130393
0
ARC
8
DEFAULT_255_1_234
10
22.9976351
20
148.3609637
40
0.3361092
50
55.9268222
51
78.4888551
0
ARC
8
DEFAULT_255_1_234
10
23.0172791
20
148.3948324
40
0.2970617
50
47.9292255
51
55.4054003
0
ARC
8
DEFAULT_255_1_234
10
23.0274352
20
148.4051502
40
0.2825983
50
4.3347696
51
48.0560701
0
ARC
8
DEFAULT_255_1_234
10
22.9178745
20
148.3881601
40
0.393225
50
359.925209
51
5.5967654
0
ARC
8
DEFAULT_255_1_234
10
22.9607637
20
148.3937816
40
0.3503892
50
337.8914096
51
358.9967724
0
ARC
8
DEFAULT_255_1_234
10
22.6894049
20
148.4984706
40
0.6412172
50
326.9135351
51
338.3505194
0
ARC
8
DEFAULT_255_1_234
10
22.2908353
20
148.7539284
40
1.1146189
50
319.6472867
51
327.095818
0
ARC
8
DEFAULT_255_1_234
10
21.9075356
20
149.0701
40
1.6114559
50
317.2586784
51
319.9046139
0
LINE
8
DEFAULT_255_1_234
10
24.2885618
20
147.6366792
11
24.2885618
21
147.5154
0
LINE
8
DEFAULT_255_1_234
10
24.2885618
20
147.5154
11
23.5223339
21
147.5154
0
LINE
8
DEFAULT_255_1_234
10
23.5223339
20
147.5154
11
23.5223339
21
147.6222221
0
LINE
8
DEFAULT_255_1_234
10
23.5223339
20
147.6222221
11
23.9271335
21
148.0719995
0
LINE
8
DEFAULT_255_1_234
10
23.6484322
20
148.3402595
11
23.4998451
21
148.3402595
0
LINE
8
DEFAULT_255_1_234
10
24.0146795
20
147.9764218
11
23.7014417
21
147.6366792
0
LINE
8
DEFAULT_255_1_234
10
23.7014417
20
147.6366792
11
24.2885618
21
147.6366792
0
ARC
8
DEFAULT_255_1_234
10
22.5781169
20
149.2649527
40
1.8008286
50
318.5132453
51
320.7828378
0
ARC
8
DEFAULT_255_1_234
10
23.1068143
20
148.8346426
40
1.1191493
50
320.7372736
51
323.9737074
0
ARC
8
DEFAULT_255_1_234
10
23.4988
20
148.5506361
40
0.6350923
50
323.8961724
51
328.6421089
0
ARC
8
DEFAULT_255_1_234
10
23.7034595
20
148.4244031
40
0.3946393
50
328.8299013
51
331.789948
0
ARC
8
DEFAULT_255_1_234
10
23.8031774
20
148.3729509
40
0.2824501
50
331.4255242
51
352.9364833
0
ARC
8
DEFAULT_255_1_234
10
23.8168274
20
148.3698976
40
0.2685315
50
353.2248685
51
0.0169286
0
ARC
8
DEFAULT_255_1_234
10
23.8378151
20
148.372195
40
0.2475536
50
359.4866256
51
15.9339782
0
ARC
8
DEFAULT_255_1_234
10
23.8885136
20
148.3858286
40
0.1950618
50
16.1714718
51
43.5284424
0
ARC
8
DEFAULT_255_1_234
10
23.8962445
20
148.3935573
40
0.184134
50
43.4415429
51
83.1661404
0
ARC
8
DEFAULT_255_1_234
10
23.8828363
20
148.3198771
40
0.258926
50
82.160215
51
90.1505798
0
ARC
8
DEFAULT_255_1_234
10
23.879679
20
148.2661865
40
0.3126255
50
89.5460705
51
102.5418777
0
ARC
8
DEFAULT_255_1_234
10
23.8553876
20
148.3692665
40
0.2067346
50
102.1739365
51
129.2061916
0
ARC
8
DEFAULT_255_1_234
10
23.8474948
20
148.3817094
40
0.1921118
50
129.7279328
51
135.7542026
0
ARC
8
DEFAULT_255_1_234
10
23.8596476
20
148.3720045
40
0.2075944
50
136.175737
51
166.3674722
0
ARC
8
DEFAULT_255_1_234
10
23.9603395
20
148.3450182
40
0.3118201
50
165.9092917
51
178.8683903
0
ARC
8
DEFAULT_255_1_234
10
24.0468256
20
148.3403179
40
0.3983935
50
178.438168
51
180.0083905
0
ARC
8
DEFAULT_255_1_234
10
23.9066859
20
148.3442231
40
0.4068601
50
163.2878735
51
180.5581814
0
ARC
8
DEFAULT_255_1_234
10
23.826512
20
148.366284
40
0.3237344
50
133.454115
51
162.9470031
0
ARC
8
DEFAULT_255_1_234
10
23.8443661
20
148.3473
40
0.349795
50
100.7869394
51
133.4384016
0
ARC
8
DEFAULT_255_1_234
10
23.8791433
20
148.1924319
40
0.5084616
50
89.6605301
51
101.3704185
0
ARC
8
DEFAULT_255_1_234
10
23.8857772
20
148.1985496
40
0.502348
50
78.2171172
51
90.4130393
0
ARC
8
DEFAULT_255_1_234
10
23.921285
20
148.3609637
40
0.3361092
50
55.9268222
51
78.4888551
0
ARC
8
DEFAULT_255_1_234
10
23.940929
20
148.3948324
40
0.2970617
50
47.9292255
51
55.4054003
0
ARC
8
DEFAULT_255_1_234
10
23.9510851
20
148.4051502
40
0.2825983
50
4.3347696
51
48.0560701
0
ARC
8
DEFAULT_255_1_234
10
23.8415244
20
148.3881601
40
0.393225
50
359.925209
51
5.5967654
0
ARC
8
DEFAULT_255_1_234
10
23.8844136
20
148.3937816
40
0.3503892
50
337.8914096
51
358.9967724
0
ARC
8
DEFAULT_255_1_234
10
23.6130548
20
148.4984706
40
0.6412172
50
326.9135351
51
338.3505194
0
ARC
8
DEFAULT_255_1_234
10
23.2144852
20
148.7539284
40
1.1146189
50
319.6472867
51
327.095818
0
ARC
8
DEFAULT_255_1_234
10
22.8311855
20
149.0701
40
1.6114559
50
317.2586784
51
319.9046139
0
LINE
8
DEFAULT_255_1_234
10
23.3739119
20
155.5741792
11
23.3739119
21
155.4529
0
LINE
8
DEFAULT_255_1_234
10
23.3739119
20
155.4529
11
22.607684
21
155.4529
0
LINE
8
DEFAULT_255_1_234
10
22.607684
20
155.4529
11
22.607684
21
155.5597221
0
LINE
8
DEFAULT_255_1_234
10
22.607684
20
155.5597221
11
23.0124836
21
156.0094995
0
LINE
8
DEFAULT_255_1_234
10
22.7337823
20
156.2777595
11
22.5851952
21
156.2777595
0
LINE
8
DEFAULT_255_1_234
10
23.1000296
20
155.9139218
11
22.7867918
21
155.5741792
0
LINE
8
DEFAULT_255_1_234
10
22.7867918
20
155.5741792
11
23.3739119
21
155.5741792
0
ARC
8
DEFAULT_255_1_234
10
21.663467
20
157.2024527
40
1.8008286
50
318.5132453
51
320.7828378
0
ARC
8
DEFAULT_255_1_234
10
22.1921644
20
156.7721426
40
1.1191493
50
320.7372736
51
323.9737074
0
ARC
8
DEFAULT_255_1_234
10
22.5841501
20
156.4881361
40
0.6350923
50
323.8961724
51
328.6421089
0
ARC
8
DEFAULT_255_1_234
10
22.7888096
20
156.3619031
40
0.3946393
50
328.8299013
51
331.789948
0
ARC
8
DEFAULT_255_1_234
10
22.8885274
20
156.3104509
40
0.2824501
50
331.4255242
51
352.9364833
0
ARC
8
DEFAULT_255_1_234
10
22.9021775
20
156.3073976
40
0.2685315
50
353.2248685
51
0.0169286
0
ARC
8
DEFAULT_255_1_234
10
22.9231652
20
156.309695
40
0.2475536
50
359.4866256
51
15.9339782
0
ARC
8
DEFAULT_255_1_234
10
22.9738637
20
156.3233286
40
0.1950618
50
16.1714718
51
43.5284424
0
ARC
8
DEFAULT_255_1_234
10
22.9815946
20
156.3310573
40
0.184134
50
43.4415429
51
83.1661404
0
ARC
8
DEFAULT_255_1_234
10
22.9681864
20
156.2573771
40
0.258926
50
82.160215
51
90.1505798
0
ARC
8
DEFAULT_255_1_234
10
22.9650291
20
156.2036865
40
0.3126255
50
89.5460705
51
102.5418777
0
ARC
8
DEFAULT_255_1_234
10
22.9407377
20
156.3067665
40
0.2067346
50
102.1739365
51
129.2061916
0
ARC
8
DEFAULT_255_1_234
10
22.9328449
20
156.3192094
40
0.1921118
50
129.7279328
51
135.7542026
0
ARC
8
DEFAULT_255_1_234
10
22.9449977
20
156.3095045
40
0.2075944
50
136.175737
51
166.3674722
0
ARC
8
DEFAULT_255_1_234
10
23.0456896
20
156.2825182
40
0.3118201
50
165.9092917
51
178.8683903
0
ARC
8
DEFAULT_255_1_234
10
23.1321757
20
156.2778179
40
0.3983935
50
178.438168
51
180.0083905
0
ARC
8
DEFAULT_255_1_234
10
22.9920359
20
156.2817231
40
0.4068601
50
163.2878735
51
180.5581814
0
ARC
8
DEFAULT_255_1_234
10
22.9118621
20
156.303784
40
0.3237344
50
133.454115
51
162.9470031
0
ARC
8
DEFAULT_255_1_234
10
22.9297162
20
156.2848
40
0.349795
50
100.7869394
51
133.4384016
0
ARC
8
DEFAULT_255_1_234
10
22.9644934
20
156.1299319
40
0.5084616
50
89.6605301
51
101.3704185
0
ARC
8
DEFAULT_255_1_234
10
22.9711273
20
156.1360496
40
0.502348
50
78.2171172
51
90.4130393
0
ARC
8
DEFAULT_255_1_234
10
23.0066351
20
156.2984637
40
0.3361092
50
55.9268222
51
78.4888551
0
ARC
8
DEFAULT_255_1_234
10
23.0262791
20
156.3323324
40
0.2970617
50
47.9292255
51
55.4054003
0
ARC
8
DEFAULT_255_1_234
10
23.0364352
20
156.3426502
40
0.2825983
50
4.3347696
51
48.0560701
0
ARC
8
DEFAULT_255_1_234
10
22.9268745
20
156.3256601
40
0.393225
50
359.925209
51
5.5967654
0
ARC
8
DEFAULT_255_1_234
10
22.9697637
20
156.3312816
40
0.3503892
50
337.8914096
51
358.9967724
0
ARC
8
DEFAULT_255_1_234
10
22.6984049
20
156.4359706
40
0.6412172
50
326.9135351
51
338.3505194
0
ARC
8
DEFAULT_255_1_234
10
22.2998353
20
156.6914284
40
1.1146189
50
319.6472867
51
327.095818
0
ARC
8
DEFAULT_255_1_234
10
21.9165356
20
157.0076
40
1.6114559
50
317.2586784
51
319.9046139
0
LINE
8
DEFAULT_255_1_234
10
24.0196636
20
156.6279433
11
24.0196636
21
155.4529
0
LINE
8
DEFAULT_255_1_234
10
24.0196636
20
155.4529
11
23.8702733
21
155.4529
0
LINE
8
DEFAULT_255_1_234
10
23.8702733
20
155.4529
11
23.8702733
21
156.4432133
0
LINE
8
DEFAULT_255_1_234
10
23.8702733
20
156.4432133
11
23.5706895
21
156.3331785
0
LINE
8
DEFAULT_255_1_234
10
23.5706895
20
156.3331785
11
23.5706895
21
156.4681117
0
LINE
8
DEFAULT_255_1_234
10
23.5706895
20
156.4681117
11
23.9963716
21
156.6279433
0
LINE
8
DEFAULT_255_1_234
10
23.9963716
20
156.6279433
11
24.0196636
21
156.6279433
0
ARC
8
DEFAULT_255_2_778
10
7.7537338
20
171.4012992
40
3.0484709
50
251.6854144
51
258.6071955
0
ARC
8
DEFAULT_255_2_778
10
7.539521
20
170.3196738
40
1.9458471
50
258.4992492
51
268.3986479
0
ARC
8
DEFAULT_255_2_778
10
7.5172314
20
169.8894206
40
1.5151737
50
268.7865272
51
269.9950384
0
ARC
8
DEFAULT_255_2_778
10
7.5277432
20
169.4382355
40
1.0640417
50
269.426895
51
279.6711067
0
ARC
8
DEFAULT_255_2_778
10
7.6417753
20
168.8086746
40
0.4243233
50
278.7731084
51
300.3324923
0
ARC
8
DEFAULT_255_2_778
10
7.760746
20
168.6060552
40
0.1893587
50
300.2240287
51
1.9041213
0
ARC
8
DEFAULT_255_2_778
10
7.7452705
20
168.6152089
40
0.2047497
50
359.1991369
51
359.99965
0
ARC
8
DEFAULT_255_2_778
10
7.7523233
20
168.6160378
40
0.1976988
50
359.7594145
51
47.1793976
0
ARC
8
DEFAULT_255_2_778
10
7.6187277
20
168.467431
40
0.3975169
50
47.6144502
51
60.8366176
0
ARC
8
DEFAULT_255_2_778
10
7.0190958
20
167.4514865
40
1.5771337
50
59.799464
51
64.8885807
0
ARC
8
DEFAULT_255_2_778
10
6.0948833
20
165.5224682
40
3.7160912
50
64.6076081
51
66.8386974
0
ARC
8
DEFAULT_255_2_778
10
9.6419609
20
173.8855052
40
5.368109
50
244.3032309
51
247.1393781
0
ARC
8
DEFAULT_255_2_778
10
8.5507088
20
171.625518
40
2.8584574
50
240.2323579
51
244.3709759
0
ARC
8
DEFAULT_255_2_778
10
7.7800475
20
170.2886591
40
1.315392
50
233.2209971
51
240.4606284
0
ARC
8
DEFAULT_255_2_778
10
7.3561477
20
169.7175187
40
0.6041399
50
225.6990744
51
232.9899679
0
ARC
8
DEFAULT_255_2_778
10
7.3965073
20
169.7419214
40
0.6499005
50
178.2783416
51
224.6550883
0
ARC
8
DEFAULT_255_2_778
10
7.5059624
20
169.7752974
40
0.7591885
50
157.033673
51
181.0453383
0
ARC
8
DEFAULT_255_2_778
10
7.378439
20
169.8161396
40
0.6259551
50
124.9113017
51
155.9211516
0
ARC
8
DEFAULT_255_2_778
10
7.5960466
20
169.5075681
40
1.0035357
50
100.4079723
51
125.0168617
0
ARC
8
DEFAULT_255_2_778
10
7.6991199
20
169.0135046
40
1.5081396
50
89.6483922
51
100.8684975
0
ARC
8
DEFAULT_255_2_778
10
7.7083242
20
168.6612988
40
1.8603169
50
89.5079487
51
89.9984402
0
ARC
8
DEFAULT_255_2_778
10
7.7099573
20
168.5960694
40
1.9255311
50
83.9170631
51
89.5732113
0
ARC
8
DEFAULT_255_2_778
10
7.5071517
20
166.5884957
40
3.9433074
50
80.7325723
51
84.0779772
0
ARC
8
DEFAULT_255_2_778
10
7.0208457
20
163.565582
40
7.0050837
50
78.5086351
51
80.7886813
0
ARC
8
DEFAULT_255_2_778
10
7.6620177
20
168.1650544
40
1.9415426
50
67.135818
51
78.0934208
0
ARC
8
DEFAULT_255_2_778
10
7.7851814
20
168.7354809
40
1.3579807
50
78.2126325
51
89.7333975
0
ARC
8
DEFAULT_255_2_778
10
7.7793853
20
169.1506211
40
0.9429038
50
89.2638155
51
100.5666868
0
ARC
8
DEFAULT_255_2_778
10
7.6660949
20
169.7204419
40
0.362036
50
99.4784875
51
124.329414
0
ARC
8
DEFAULT_255_2_778
10
7.5705593
20
169.868551
40
0.1859067
50
125.7571195
51
182.2824883
0
ARC
8
DEFAULT_255_2_778
10
7.5493239
20
169.8618629
40
0.1645253
50
180.2492993
51
239.8144161
0
ARC
8
DEFAULT_255_2_778
10
7.932718
20
170.4619128
40
0.876484
50
237.8725734
51
242.8068846
0
ARC
8
DEFAULT_255_2_778
10
9.4175857
20
173.2784958
40
4.0604642
50
242.3328458
51
244.031083
0
ARC
8
DEFAULT_255_2_778
10
12.3804066
20
179.3269314
40
10.7955807
50
243.950624
51
244.8024316
0
ARC
8
DEFAULT_255_2_778
10
15.4009918
20
185.7109175
40
17.8580926
50
244.7535425
51
244.9563234
0
ARC
8
DEFAULT_255_2_778
10
5.8652927
20
165.2093264
40
4.7527588
50
62.2505456
51
65.4301556
0
ARC
8
DEFAULT_255_2_778
10
6.9275435
20
167.2174172
40
2.4810291
50
57.2951304
51
62.3684211
0
ARC
8
DEFAULT_255_2_778
10
7.6807233
20
168.3807235
40
1.0952081
50
48.7345704
51
57.5685367
0
ARC
8
DEFAULT_255_2_778
10
8.0117486
20
168.7682722
40
0.5856147
50
44.3236031
51
48.0704418
0
ARC
8
DEFAULT_255_2_778
10
7.9783002
20
168.7482468
40
0.6236013
50
1.3523843
51
43.4925744
0
ARC
8
DEFAULT_255_2_778
10
7.7103531
20
168.7153151
40
0.8926473
50
359.9763756
51
3.0599076
0
ARC
8
DEFAULT_255_2_778
10
7.8645343
20
168.7002407
40
0.7386124
50
333.0361889
51
1.1408766
0
ARC
8
DEFAULT_255_2_778
10
7.8947908
20
168.7071919
40
0.7150741
50
300.8430083
51
331.4403095
0
ARC
8
DEFAULT_255_2_778
10
7.694568
20
169.0207162
40
1.0869673
50
281.4258583
51
301.4316118
0
ARC
8
DEFAULT_255_2_778
10
7.5632666
20
169.6289414
40
1.7091691
50
270.2273513
51
281.7010805
0
ARC
8
DEFAULT_255_2_778
10
7.5453797
20
170.1056043
40
2.1859577
50
269.9983113
51
270.6466065
0
LINE
8
DEFAULT_255_2_778
10
7.5453153
20
167.9196465
11
7.5438002
21
167.919647
0
ARC
8
DEFAULT_255_2_778
10
7.5509161
20
171.1025969
40
3.1829579
50
256.2431122
51
269.871909
0
ARC
8
DEFAULT_255_2_778
10
21.7538511
20
171.3271629
40
2.9720345
50
251.5709223
51
258.7508181
0
ARC
8
DEFAULT_255_2_778
10
21.5538128
20
170.3039385
40
1.9294488
50
258.6495077
51
268.8281511
0
ARC
8
DEFAULT_255_2_778
10
21.5355488
20
169.9091193
40
1.5343723
50
269.2085037
51
269.9981866
0
ARC
8
DEFAULT_255_2_778
10
21.5473849
20
169.4407184
40
1.0660376
50
269.3612297
51
279.5899087
0
ARC
8
DEFAULT_255_2_778
10
21.6608439
20
168.8092324
40
0.424527
50
278.6895227
51
300.2363944
0
ARC
8
DEFAULT_255_2_778
10
21.7799083
20
168.6057793
40
0.188796
50
300.1108484
51
1.9024905
0
ARC
8
DEFAULT_255_2_778
10
21.7439577
20
168.6164221
40
0.2246851
50
358.8842611
51
0.0019649
0
ARC
8
DEFAULT_255_2_778
10
21.7769791
20
168.6203385
40
0.1917038
50
358.831716
51
47.0900458
0
ARC
8
DEFAULT_255_2_778
10
21.6364654
20
168.460984
40
0.4041259
50
47.8812665
51
61.174665
0
ARC
8
DEFAULT_255_2_778
10
21.0418848
20
167.4410117
40
1.5846568
50
60.1210877
51
65.1917015
0
ARC
8
DEFAULT_255_2_778
10
20.1415278
20
165.5354122
40
3.6922188
50
64.9168629
51
67.1565628
0
ARC
8
DEFAULT_255_2_778
10
23.6275467
20
173.8069888
40
5.2839333
50
244.2656926
51
247.1407051
0
ARC
8
DEFAULT_255_2_778
10
22.5594997
20
171.598765
40
2.8309849
50
240.1545061
51
244.3326325
0
ARC
8
DEFAULT_255_2_778
10
21.7856548
20
170.2627346
40
1.2870531
50
232.697515
51
240.4357497
0
ARC
8
DEFAULT_255_2_778
10
21.3705506
20
169.7117218
40
0.5972006
50
225.5850892
51
232.3393736
0
ARC
8
DEFAULT_255_2_778
10
21.4133941
20
169.7412933
40
0.6483829
50
178.7795739
51
224.7095916
0
ARC
8
DEFAULT_255_2_778
10
21.6669319
20
169.7653135
40
0.9018316
50
179.997867
51
180.6487041
0
ARC
8
DEFAULT_255_2_778
10
21.5167738
20
169.7791249
40
0.7517998
50
156.9195758
51
181.050088
0
ARC
8
DEFAULT_255_2_778
10
21.3928482
20
169.8185712
40
0.6224513
50
124.7111133
51
155.7879672
0
ARC
8
DEFAULT_255_2_778
10
21.6055459
20
169.5266942
40
0.9835402
50
101.7934503
51
125.2143527
0
ARC
8
DEFAULT_255_2_778
10
21.729848
20
168.9741326
40
1.5498677
50
89.5248728
51
102.1166783
0
ARC
8
DEFAULT_255_2_778
10
21.7283109
20
168.4205834
40
2.1034129
50
83.2889725
51
89.6080411
0
ARC
8
DEFAULT_255_2_778
10
21.529975
20
166.6527668
40
3.8823067
50
79.4764054
51
83.4308492
0
ARC
8
DEFAULT_255_2_778
10
21.2186357
20
164.8995673
40
5.6628977
50
78.2224868
51
79.6190915
0
ARC
8
DEFAULT_255_2_778
10
21.6838473
20
168.1770715
40
1.9311543
50
67.1323814
51
78.3148813
0
ARC
8
DEFAULT_255_2_778
10
21.801359
20
168.7285614
40
1.3672981
50
78.4565774
51
89.7552271
0
ARC
8
DEFAULT_255_2_778
10
21.7951366
20
169.159447
40
0.9364778
50
89.2619009
51
100.5950934
0
ARC
8
DEFAULT_255_2_778
10
21.6824182
20
169.7249169
40
0.3599879
50
99.5087086
51
124.406715
0
ARC
8
DEFAULT_255_2_778
10
21.5878565
20
169.871343
40
0.1858061
50
125.8630185
51
182.2986975
0
ARC
8
DEFAULT_255_2_778
10
21.5497296
20
169.8638047
40
0.1475296
50
179.9666559
51
180.100057
0
ARC
8
DEFAULT_255_2_778
10
21.566185
20
169.863793
40
0.163985
50
180.0859454
51
239.8819968
0
ARC
8
DEFAULT_255_2_778
10
21.9379018
20
170.4505619
40
0.8584853
50
238.072871
51
243.0442008
0
ARC
8
DEFAULT_255_2_778
10
23.4872034
20
173.4155845
40
4.2038426
50
242.5409111
51
244.1884903
0
ARC
8
DEFAULT_255_2_778
10
26.6463384
20
179.910196
40
11.4260319
50
244.1076525
51
244.9219574
0
ARC
8
DEFAULT_255_2_778
10
29.9038827
20
186.833855
40
19.0777309
50
244.8743531
51
245.066969
0
ARC
8
DEFAULT_255_2_778
10
19.8865272
20
165.2416274
40
4.7250654
50
62.0340028
51
65.293009
0
ARC
8
DEFAULT_255_2_778
10
20.9507744
20
167.2365758
40
2.464003
50
57.1127289
51
62.13736
0
ARC
8
DEFAULT_255_2_778
10
21.7037139
20
168.3902906
40
1.0863604
50
48.3695509
51
57.4197129
0
ARC
8
DEFAULT_255_2_778
10
22.0286268
20
168.7670419
40
0.5889589
50
44.472493
51
47.6467012
0
ARC
8
DEFAULT_255_2_778
10
21.9979457
20
168.7499032
40
0.6229283
50
1.2061613
51
43.6203607
0
ARC
8
DEFAULT_255_2_778
10
21.7312413
20
168.7174903
40
0.890659
50
359.9779196
51
2.9299178
0
ARC
8
DEFAULT_255_2_778
10
21.8802547
20
168.7023837
40
0.7417924
50
333.172934
51
1.140392
0
ARC
8
DEFAULT_255_2_778
10
21.9146167
20
168.7070736
40
0.7135172
50
300.9808035
51
331.5913995
0
ARC
8
DEFAULT_255_2_778
10
21.7182603
20
169.0169862
40
1.0803281
50
281.9040909
51
301.4483918
0
ARC
8
DEFAULT_255_2_778
10
21.5848425
20
169.6155518
40
1.6935565
50
270.5796874
51
282.1436175
0
ARC
8
DEFAULT_255_2_778
10
21.5636722
20
170.1104735
40
2.1887267
50
269.9959074
51
271.0027751
0
LINE
8
DEFAULT_255_2_778
10
21.5635158
20
167.9217468
11
21.5625002
21
167.921747
0
ARC
8
DEFAULT_255_2_778
10
21.5700221
20
171.1105174
40
3.1887792
50
256.2556596
51
269.8648469
0
LINE
8
DEFAULT_255_2_778
10
6.7958002
20
168.012547
11
6.7958002
21
168.507247
0
LINE
8
DEFAULT_255_2_778
10
8.4164002
20
170.430247
11
8.4164002
21
169.954047
0
LINE
8
DEFAULT_255_2_778
10
6.7940002
20
168.010947
11
6.7958002
21
168.012547
0
LINE
8
DEFAULT_255_2_778
10
8.9866002
20
170.479747
11
9.6629002
21
170.479747
0
LINE
8
DEFAULT_255_2_778
10
9.6629002
20
170.479747
11
9.6629002
21
167.972347
0
LINE
8
DEFAULT_255_2_778
10
9.6629002
20
167.972347
11
8.9866002
21
167.972347
0
LINE
8
DEFAULT_255_2_778
10
8.9866002
20
167.972347
11
8.9866002
21
170.479747
0
LINE
8
DEFAULT_255_2_778
10
10.2809002
20
167.972347
11
10.2809002
21
170.479747
0
LINE
8
DEFAULT_255_2_778
10
10.2809002
20
170.479747
11
12.0132002
21
170.479747
0
LINE
8
DEFAULT_255_2_778
10
12.0132002
20
170.479747
11
12.0132002
21
170.026047
0
LINE
8
DEFAULT_255_2_778
10
12.0132002
20
170.026047
11
10.9321002
21
170.026047
0
LINE
8
DEFAULT_255_2_778
10
10.9321002
20
170.026047
11
10.9321002
21
169.459747
0
LINE
8
DEFAULT_255_2_778
10
10.9321002
20
169.459747
11
11.8735002
21
169.459747
0
LINE
8
DEFAULT_255_2_778
10
11.8735002
20
169.459747
11
11.8735002
21
169.046247
0
LINE
8
DEFAULT_255_2_778
10
11.8735002
20
169.046247
11
10.9321002
21
169.046247
0
LINE
8
DEFAULT_255_2_778
10
10.9321002
20
169.046247
11
10.9321002
21
168.450947
0
LINE
8
DEFAULT_255_2_778
10
10.9321002
20
168.450947
11
12.0412002
21
168.450947
0
LINE
8
DEFAULT_255_2_778
10
12.0412002
20
168.450947
11
12.0412002
21
167.970747
0
LINE
8
DEFAULT_255_2_778
10
12.0412002
20
167.970747
11
10.2809002
21
167.972347
0
LINE
8
DEFAULT_255_2_778
10
12.4817002
20
167.972347
11
12.4817002
21
170.479747
0
LINE
8
DEFAULT_255_2_778
10
12.4817002
20
170.479747
11
13.3575002
21
170.479747
0
LINE
8
DEFAULT_255_2_778
10
13.3575002
20
170.479747
11
13.9671002
21
168.877447
0
LINE
8
DEFAULT_255_2_778
10
13.9671002
20
168.877447
11
14.5897002
21
170.479747
0
LINE
8
DEFAULT_255_2_778
10
14.5897002
20
170.479747
11
15.4215002
21
170.479747
0
LINE
8
DEFAULT_255_2_778
10
15.4215002
20
170.479747
11
15.4215002
21
167.972347
0
LINE
8
DEFAULT_255_2_778
10
15.4215002
20
167.972347
11
14.7812002
21
167.972347
0
LINE
8
DEFAULT_255_2_778
10
14.7812002
20
167.972347
11
14.7812002
21
169.748147
0
LINE
8
DEFAULT_255_2_778
10
14.7812002
20
169.748147
11
14.0724002
21
167.947947
0
LINE
8
DEFAULT_255_2_778
10
14.0724002
20
167.947947
11
13.6515002
21
167.947947
0
LINE
8
DEFAULT_255_2_778
10
13.6515002
20
167.947947
11
12.9559002
21
169.748147
0
LINE
8
DEFAULT_255_2_778
10
12.9559002
20
169.748147
11
12.9559002
21
167.972047
0
LINE
8
DEFAULT_255_2_778
10
12.9559002
20
167.972047
11
12.4817002
21
167.972347
0
LINE
8
DEFAULT_255_2_778
10
16.0409002
20
167.972347
11
16.0409002
21
170.479747
0
LINE
8
DEFAULT_255_2_778
10
16.0409002
20
170.479747
11
17.7731002
21
170.479747
0
LINE
8
DEFAULT_255_2_778
10
17.7731002
20
170.479747
11
17.7731002
21
170.026047
0
LINE
8
DEFAULT_255_2_778
10
17.7731002
20
170.026047
11
16.6921002
21
170.026047
0
LINE
8
DEFAULT_255_2_778
10
16.6921002
20
170.026047
11
16.6921002
21
169.459747
0
LINE
8
DEFAULT_255_2_778
10
16.6921002
20
169.459747
11
17.6334002
21
169.459747
0
LINE
8
DEFAULT_255_2_778
10
17.6334002
20
169.459747
11
17.6334002
21
169.046247
0
LINE
8
DEFAULT_255_2_778
10
17.6334002
20
169.046247
11
16.6921002
21
169.046247
0
LINE
8
DEFAULT_255_2_778
10
16.6921002
20
169.046247
11
16.6921002
21
168.450947
0
LINE
8
DEFAULT_255_2_778
10
16.6921002
20
168.450947
11
17.8030002
21
168.450947
0
LINE
8
DEFAULT_255_2_778
10
17.8030002
20
168.450947
11
17.8030002
21
167.970747
0
LINE
8
DEFAULT_255_2_778
10
17.8030002
20
167.970747
11
16.0409002
21
167.972347
0
LINE
8
DEFAULT_255_2_778
10
18.2454002
20
167.972347
11
18.2454002
21
170.479747
0
LINE
8
DEFAULT_255_2_778
10
18.2454002
20
170.479747
11
19.0283002
21
170.479747
0
LINE
8
DEFAULT_255_2_778
10
19.0283002
20
170.479747
11
19.8586002
21
168.800947
0
LINE
8
DEFAULT_255_2_778
10
19.8586002
20
168.800947
11
19.8586002
21
170.479747
0
LINE
8
DEFAULT_255_2_778
10
19.8586002
20
170.479747
11
20.3343002
21
170.479747
0
LINE
8
DEFAULT_255_2_778
10
20.3343002
20
170.479747
11
20.3343002
21
167.972347
0
LINE
8
DEFAULT_255_2_778
10
20.3343002
20
167.972347
11
19.5739002
21
167.972347
0
LINE
8
DEFAULT_255_2_778
10
19.5739002
20
167.972347
11
18.7214002
21
169.673547
0
LINE
8
DEFAULT_255_2_778
10
18.7214002
20
169.673547
11
18.7214002
21
167.972347
0
LINE
8
DEFAULT_255_2_778
10
18.7214002
20
167.972347
11
18.2454002
21
167.972347
0
LINE
8
DEFAULT_255_2_778
10
20.8143002
20
168.012747
11
20.8143002
21
168.507547
0
LINE
8
DEFAULT_255_2_778
10
22.3745002
20
170.443247
11
22.4343002
21
170.432647
0
LINE
8
DEFAULT_255_2_778
10
22.4343002
20
170.432647
11
22.4343002
21
169.956447
0
LINE
8
DEFAULT_255_2_778
10
20.8124002
20
168.013047
11
20.8143002
21
168.012747
0
LINE
8
DEFAULT_255_1_234
10
8.6700023
20
166.2059849
11
8.5149897
21
166.2059849
0
LINE
8
DEFAULT_255_1_234
10
7.8226539
20
165.7136394
11
7.9776665
21
165.7136394
0
ARC
8
DEFAULT_255_1_234
10
8.580871
20
167.1006768
40
1.252368
50
248.9199003
51
254.1439814
0
ARC
8
DEFAULT_255_1_234
10
8.4128205
20
166.6680234
40
0.788226
50
241.633709
51
249.0064503
0
ARC
8
DEFAULT_255_1_234
10
8.25996
20
166.3879317
40
0.4691427
50
230.498225
51
241.8087113
0
ARC
8
DEFAULT_255_1_234
10
8.1815174
20
166.2879906
40
0.3421437
50
227.4064532
51
229.9881192
0
ARC
8
DEFAULT_255_1_234
10
8.1327694
20
166.2404088
40
0.2741476
50
200.6781896
51
228.1763934
0
ARC
8
DEFAULT_255_1_234
10
8.1400005
20
166.2389077
40
0.2804109
50
179.5061581
51
199.8694617
0
ARC
8
DEFAULT_255_1_234
10
8.1390757
20
166.246321
40
0.2795204
50
132.4834203
51
181.0242172
0
ARC
8
DEFAULT_255_1_234
10
8.1986339
20
166.1900704
40
0.3612768
50
129.2532479
51
133.4242687
0
ARC
8
DEFAULT_255_1_234
10
8.2132789
20
166.1680965
40
0.3875675
50
101.98776
51
128.8742646
0
ARC
8
DEFAULT_255_1_234
10
8.2531399
20
165.9959741
40
0.5642249
50
89.5906553
51
102.3169264
0
ARC
8
DEFAULT_255_1_234
10
8.2601891
20
166.0278148
40
0.5323783
50
77.2360837
51
90.3248275
0
ARC
8
DEFAULT_255_1_234
10
8.2808971
20
166.12454
40
0.4334697
50
63.837784
51
77.0809408
0
ARC
8
DEFAULT_255_1_234
10
8.3086732
20
166.1762911
40
0.3747796
50
45.9864267
51
64.1607727
0
ARC
8
DEFAULT_255_1_234
10
8.3347614
20
166.2060866
40
0.3352302
50
32.2747395
51
45.6547121
0
ARC
8
DEFAULT_255_1_234
10
8.3414054
20
166.207988
40
0.328603
50
359.6507365
51
32.6130309
0
ARC
8
DEFAULT_255_1_234
10
8.247115
20
166.208466
40
0.2678863
50
359.469343
51
14.9832209
0
ARC
8
DEFAULT_255_1_234
10
8.3176212
20
166.2273539
40
0.1948938
50
14.9781179
51
48.2004265
0
ARC
8
DEFAULT_255_1_234
10
8.3011856
20
166.2066983
40
0.2212521
50
48.5927837
51
74.1241538
0
ARC
8
DEFAULT_255_1_234
10
8.2678346
20
166.0966248
40
0.3362561
50
73.7888341
51
86.6652678
0
ARC
8
DEFAULT_255_1_234
10
8.2575911
20
165.9758881
40
0.4573953
50
86.2640471
51
90.0526343
0
ARC
8
DEFAULT_255_1_234
10
8.2547624
20
166.0154192
40
0.4178709
50
89.6697524
51
99.2309573
0
ARC
8
DEFAULT_255_1_234
10
8.2305075
20
166.1598964
40
0.2713749
50
99.069534
51
113.7658566
0
ARC
8
DEFAULT_255_1_234
10
8.2031266
20
166.2244677
40
0.2012469
50
114.0401004
51
127.9850673
0
ARC
8
DEFAULT_255_1_234
10
8.179083
20
166.254073
40
0.1631167
50
127.7287463
51
176.7105154
0
ARC
8
DEFAULT_255_1_234
10
8.2469547
20
166.2439693
40
0.2315392
50
175.1779447
51
180.0581938
0
ARC
8
DEFAULT_255_1_234
10
8.1626394
20
166.2427428
40
0.1472271
50
179.6142195
51
228.1246017
0
ARC
8
DEFAULT_255_1_234
10
8.2068063
20
166.2836308
40
0.2072299
50
226.5779593
51
230.8800004
0
ARC
8
DEFAULT_255_1_234
10
8.2539141
20
166.3461636
40
0.2854818
50
231.4635071
51
241.9260842
0
ARC
8
DEFAULT_255_1_234
10
8.3736319
20
166.56648
40
0.53622
50
241.7178533
51
248.3259551
0
ARC
8
DEFAULT_255_1_234
10
8.5121691
20
166.9097064
40
0.9063478
50
248.2007737
51
252.4528373
0
ARC
8
DEFAULT_255_1_234
10
8.6325416
20
167.2818441
40
1.2974635
50
252.3391078
51
254.3469452
0
ARC
8
DEFAULT_255_1_234
10
7.8783119
20
164.5841148
40
1.5037162
50
71.0197183
51
74.4087047
0
ARC
8
DEFAULT_255_1_234
10
8.0477804
20
165.0733111
40
0.9859993
50
66.1847285
51
71.086374
0
ARC
8
DEFAULT_255_1_234
10
8.2034116
20
165.42372
40
0.6025855
50
59.3536294
51
66.2691831
0
ARC
8
DEFAULT_255_1_234
10
8.2922769
20
165.5740609
40
0.4279449
50
49.1020879
51
59.3293958
0
ARC
8
DEFAULT_255_1_234
10
8.3741509
20
165.6673834
40
0.3038015
50
32.7919921
51
49.2505539
0
ARC
8
DEFAULT_255_1_234
10
8.4062599
20
165.6902191
40
0.264448
50
31.1181161
51
32.4005348
0
ARC
8
DEFAULT_255_1_234
10
8.3974136
20
165.6866779
40
0.2738556
50
8.1116974
51
30.7958831
0
ARC
8
DEFAULT_255_1_234
10
8.3163804
20
165.6728753
40
0.3560327
50
359.8389159
51
8.4706516
0
ARC
8
DEFAULT_255_1_234
10
8.3789596
20
165.6680137
40
0.2934776
50
337.4731098
51
0.7537279
0
ARC
8
DEFAULT_255_1_234
10
8.3968291
20
165.6660387
40
0.2762607
50
307.5917067
51
336.4315538
0
ARC
8
DEFAULT_255_1_234
10
8.3508119
20
165.7173102
40
0.3449979
50
307.6551545
51
308.4529766
0
ARC
8
DEFAULT_255_1_234
10
8.3277838
20
165.752825
40
0.3871988
50
284.3734338
51
307.1424381
0
ARC
8
DEFAULT_255_1_234
10
8.2782668
20
165.9349932
40
0.5759636
50
272.4382747
51
284.646547
0
ARC
8
DEFAULT_255_1_234
10
8.2655876
20
166.1149893
40
0.7563528
50
269.9708387
51
272.8178037
0
ARC
8
DEFAULT_255_1_234
10
8.2612916
20
165.9111716
40
0.5525489
50
248.2707594
51
270.4055579
0
ARC
8
DEFAULT_255_1_234
10
8.2558657
20
165.8921192
40
0.5328452
50
246.1383403
51
248.0542782
0
ARC
8
DEFAULT_255_1_234
10
8.2140036
20
165.8041843
40
0.4355005
50
233.1670131
51
246.4950969
0
ARC
8
DEFAULT_255_1_234
10
8.1585941
20
165.7293812
40
0.3424126
50
215.3403242
51
233.0843104
0
ARC
8
DEFAULT_255_1_234
10
8.1313372
20
165.7095549
40
0.3087104
50
179.2419209
51
215.2648451
0
ARC
8
DEFAULT_255_1_234
10
8.2080966
20
165.7109666
40
0.2304457
50
179.335461
51
199.1045811
0
ARC
8
DEFAULT_255_1_234
10
8.1748643
20
165.7022766
40
0.1962176
50
199.8828939
51
232.7063202
0
ARC
8
DEFAULT_255_1_234
10
8.2220911
20
165.7616788
40
0.2720938
50
232.3738199
51
255.5136649
0
ARC
8
DEFAULT_255_1_234
10
8.2561778
20
165.8860835
40
0.4010747
50
255.2446292
51
267.5320849
0
ARC
8
DEFAULT_255_1_234
10
8.2649401
20
166.0093702
40
0.5246356
50
267.1557994
51
270.0286766
0
ARC
8
DEFAULT_255_1_234
10
8.2677173
20
165.964995
40
0.4802668
50
269.7000017
51
278.1660162
0
ARC
8
DEFAULT_255_1_234
10
8.2933178
20
165.7919515
40
0.3053425
50
278.0231263
51
290.625471
0
ARC
8
DEFAULT_255_1_234
10
8.3280865
20
165.6992025
40
0.206291
50
290.6619762
51
307.0370976
0
ARC
8
DEFAULT_255_1_234
10
8.3581254
20
165.6623504
40
0.1587906
50
306.3943566
51
355.3030547
0
ARC
8
DEFAULT_255_1_234
10
8.3069186
20
165.6700113
40
0.2104809
50
354.3660432
51
0.0698737
0
ARC
8
DEFAULT_255_1_234
10
8.3211531
20
165.6722617
40
0.1962563
50
359.417946
51
16.1971788
0
ARC
8
DEFAULT_255_1_234
10
8.3666841
20
165.6847418
40
0.149053
50
16.4723299
51
52.6262157
0
ARC
8
DEFAULT_255_1_234
10
8.2845895
20
165.5763433
40
0.2850296
50
52.7386432
51
62.4979148
0
ARC
8
DEFAULT_255_1_234
10
8.1460972
20
165.3157283
40
0.5801521
50
62.2515216
51
68.1220564
0
ARC
8
DEFAULT_255_1_234
10
7.9740883
20
164.8929872
40
1.0365451
50
68.0062803
51
71.8053402
0
ARC
8
DEFAULT_255_1_234
10
7.7945255
20
164.3544758
40
1.6042013
50
71.7183119
51
73.9258742
0
LINE
8
DEFAULT_255_1_234
10
9.0354464
20
166.5441211
11
9.0354464
21
165.3747
0
LINE
8
DEFAULT_255_1_234
10
9.0354464
20
165.3747
11
8.881237
21
165.3747
0
LINE
8
DEFAULT_255_1_234
10
8.881237
20
165.3747
11
8.881237
21
166.5441211
0
LINE
8
DEFAULT_255_1_234
10
8.881237
20
166.5441211
11
9.0354464
21
166.5441211
0
LINE
8
DEFAULT_255_1_234
10
9.3173604
20
166.5441211
11
9.5165475
21
166.5441211
0
LINE
8
DEFAULT_255_1_234
10
9.5165475
20
166.5441211
11
9.8988583
21
165.5899506
0
LINE
8
DEFAULT_255_1_234
10
9.8988583
20
165.5899506
11
10.281169
21
166.5441211
0
LINE
8
DEFAULT_255_1_234
10
10.281169
20
166.5441211
11
10.4811593
21
166.5441211
0
LINE
8
DEFAULT_255_1_234
10
10.4811593
20
166.5441211
11
10.4811593
21
165.3747
0
LINE
8
DEFAULT_255_1_234
10
10.4811593
20
165.3747
11
10.3269499
21
165.3747
0
LINE
8
DEFAULT_255_1_234
10
10.3269499
20
165.3747
11
10.3269499
21
165.8300996
0
LINE
8
DEFAULT_255_1_234
10
10.3269499
20
165.8300996
11
10.341407
21
166.3216419
0
LINE
8
DEFAULT_255_1_234
10
10.341407
20
166.3216419
11
9.9574899
21
165.3747
0
LINE
8
DEFAULT_255_1_234
10
9.9574899
20
165.3747
11
9.8394234
21
165.3747
0
LINE
8
DEFAULT_255_1_234
10
9.8394234
20
165.3747
11
9.4563095
21
166.3192324
0
LINE
8
DEFAULT_255_1_234
10
9.4563095
20
166.3192324
11
9.4715698
21
165.8300996
0
LINE
8
DEFAULT_255_1_234
10
9.4715698
20
165.8300996
11
9.4715698
21
165.3747
0
LINE
8
DEFAULT_255_1_234
10
9.4715698
20
165.3747
11
9.3173604
21
165.3747
0
LINE
8
DEFAULT_255_1_234
10
9.3173604
20
165.3747
11
9.3173604
21
166.5441211
0
LINE
8
DEFAULT_255_1_234
10
11.5252853
20
165.3747
11
11.4136441
21
165.6799061
0
LINE
8
DEFAULT_255_1_234
10
11.4136441
20
165.6799061
11
10.9237081
21
165.6799061
0
LINE
8
DEFAULT_255_1_234
10
10.9237081
20
165.6799061
11
10.8136732
21
165.3747
0
LINE
8
DEFAULT_255_1_234
10
10.8136732
20
165.3747
11
10.6546448
21
165.3747
0
LINE
8
DEFAULT_255_1_234
10
10.6546448
20
165.3747
11
11.1012095
21
166.5441211
0
LINE
8
DEFAULT_255_1_234
10
11.1012095
20
166.5441211
11
11.2361427
21
166.5441211
0
LINE
8
DEFAULT_255_1_234
10
11.2361427
20
166.5441211
11
11.6835105
21
165.3747
0
LINE
8
DEFAULT_255_1_234
10
11.6835105
20
165.3747
11
11.5252853
21
165.3747
0
LINE
8
DEFAULT_255_1_234
10
11.1686761
20
166.3537689
11
10.9702921
21
165.8068075
0
LINE
8
DEFAULT_255_1_234
10
10.9702921
20
165.8068075
11
11.3678632
21
165.8068075
0
LINE
8
DEFAULT_255_1_234
10
11.3678632
20
165.8068075
11
11.1686761
21
166.3537689
0
LINE
8
DEFAULT_255_1_234
10
12.545316
20
166.5441211
11
12.545316
21
166.4172196
0
LINE
8
DEFAULT_255_1_234
10
12.545316
20
166.4172196
11
12.1694307
21
166.4172196
0
LINE
8
DEFAULT_255_1_234
10
12.1694307
20
166.4172196
11
12.1694307
21
165.3747
0
LINE
8
DEFAULT_255_1_234
10
12.1694307
20
165.3747
11
12.0160245
21
165.3747
0
LINE
8
DEFAULT_255_1_234
10
12.0160245
20
165.3747
11
12.0160245
21
166.4172196
0
LINE
8
DEFAULT_255_1_234
10
12.0160245
20
166.4172196
11
11.6409423
21
166.4172196
0
LINE
8
DEFAULT_255_1_234
10
11.6409423
20
166.4172196
11
11.6409423
21
166.5441211
0
LINE
8
DEFAULT_255_1_234
10
11.6409423
20
166.5441211
11
12.545316
21
166.5441211
0
LINE
8
DEFAULT_255_1_234
10
12.8842554
20
166.5441211
11
12.8842554
21
165.3747
0
LINE
8
DEFAULT_255_1_234
10
12.8842554
20
165.3747
11
12.730046
21
165.3747
0
LINE
8
DEFAULT_255_1_234
10
12.730046
20
165.3747
11
12.730046
21
166.5441211
0
LINE
8
DEFAULT_255_1_234
10
12.730046
20
166.5441211
11
12.8842554
21
166.5441211
0
LINE
8
DEFAULT_255_1_234
10
13.871356
20
165.7457663
11
14.0263686
21
165.7457663
0
LINE
8
DEFAULT_255_1_234
10
13.1260107
20
165.9047947
11
13.1260107
21
166.0172391
0
LINE
8
DEFAULT_255_1_234
10
14.0263686
20
166.1682357
11
13.871356
21
166.1682357
0
LINE
8
DEFAULT_255_1_234
10
13.2810232
20
166.0132232
11
13.2810232
21
165.8999757
0
ARC
8
DEFAULT_255_1_234
10
13.4783072
20
165.8054846
40
0.5513052
50
340.1774281
51
353.7814284
0
ARC
8
DEFAULT_255_1_234
10
13.6354425
20
165.7469582
40
0.3836379
50
311.4558989
51
340.4421614
0
ARC
8
DEFAULT_255_1_234
10
13.6321093
20
165.7580528
40
0.3941894
50
282.4333181
51
310.7513653
0
ARC
8
DEFAULT_255_1_234
10
13.5881832
20
165.9395679
40
0.5809175
50
269.9358511
51
282.809604
0
ARC
8
DEFAULT_255_1_234
10
13.5829899
20
166.0853212
40
0.7266847
50
270.0021091
51
270.3581957
0
ARC
8
DEFAULT_255_1_234
10
13.5777315
20
165.8252585
40
0.4666519
50
250.7884749
51
270.6489167
0
ARC
8
DEFAULT_255_1_234
10
13.560915
20
165.7615319
40
0.4009729
50
219.3627325
51
250.0611886
0
ARC
8
DEFAULT_255_1_234
10
13.6438361
20
165.8320042
40
0.5097822
50
193.5479632
51
219.5756669
0
ARC
8
DEFAULT_255_1_234
10
13.8809982
20
165.8935919
40
0.7547848
50
181.1218675
51
193.87563
0
ARC
8
DEFAULT_255_1_234
10
14.0880163
20
165.904658
40
0.9620055
50
179.9918545
51
181.5394234
0
ARC
8
DEFAULT_255_1_234
10
13.9029265
20
166.0209788
40
0.7769248
50
169.5837241
51
180.2757934
0
ARC
8
DEFAULT_255_1_234
10
13.7192203
20
166.0549229
40
0.590109
50
155.0365899
51
169.6003176
0
ARC
8
DEFAULT_255_1_234
10
13.6056667
20
166.1096677
40
0.4640625
50
136.783148
51
155.2472683
0
ARC
8
DEFAULT_255_1_234
10
13.5667144
20
166.1427562
40
0.4130255
50
121.7633186
51
136.428115
0
ARC
8
DEFAULT_255_1_234
10
13.5802106
20
166.1178227
40
0.4413323
50
95.6459699
51
121.5490577
0
ARC
8
DEFAULT_255_1_234
10
13.5959388
20
166.0069949
40
0.55319
50
89.924208
51
96.1377933
0
ARC
8
DEFAULT_255_1_234
10
13.6009821
20
166.0188542
40
0.5413475
50
76.6779277
51
90.4563316
0
ARC
8
DEFAULT_255_1_234
10
13.6403444
20
166.1779114
40
0.3775041
50
47.485847
51
76.9287264
0
ARC
8
DEFAULT_255_1_234
10
13.6256417
20
166.1679159
40
0.3948286
50
16.5424086
51
46.8933463
0
ARC
8
DEFAULT_255_1_234
10
13.4648574
20
166.1150861
40
0.564021
50
5.4072051
51
17.0365086
0
ARC
8
DEFAULT_255_1_234
10
13.3209591
20
166.0919679
40
0.5556559
50
7.8891745
51
15.9239216
0
ARC
8
DEFAULT_255_1_234
10
13.5196605
20
166.1496631
40
0.3487515
50
15.7653144
51
27.9410532
0
ARC
8
DEFAULT_255_1_234
10
13.6300822
20
166.208779
40
0.2235026
50
27.8166557
51
46.4008329
0
ARC
8
DEFAULT_255_1_234
10
13.6350465
20
166.2082082
40
0.2205286
50
47.4371857
51
75.0698205
0
ARC
8
DEFAULT_255_1_234
10
13.604186
20
166.1007765
40
0.3322915
50
74.7008593
51
87.8124495
0
ARC
8
DEFAULT_255_1_234
10
13.5968547
20
165.9951844
40
0.4380987
50
87.3814673
51
90.0240855
0
ARC
8
DEFAULT_255_1_234
10
13.5930091
20
166.1129291
40
0.3203749
50
89.3451631
51
108.5745436
0
ARC
8
DEFAULT_255_1_234
10
13.5793196
20
166.1642908
40
0.2673494
50
109.2998449
51
143.3037509
0
ARC
8
DEFAULT_255_1_234
10
13.6555268
20
166.1056881
40
0.3634757
50
143.0753173
51
163.1916937
0
ARC
8
DEFAULT_255_1_234
10
13.8506996
20
166.0440967
40
0.5681262
50
162.9373603
51
174.6208611
0
ARC
8
DEFAULT_255_1_234
10
14.1133038
20
166.015301
40
0.8322832
50
174.3419979
51
180.1430411
0
ARC
8
DEFAULT_255_1_234
10
14.0202194
20
165.8958698
40
0.7392076
50
179.6817502
51
189.150529
0
ARC
8
DEFAULT_255_1_234
10
13.7701443
20
165.854219
40
0.4856932
50
188.9910863
51
203.5773039
0
ARC
8
DEFAULT_255_1_234
10
13.6621775
20
165.8094211
40
0.3688271
50
203.9077269
51
215.1312379
0
ARC
8
DEFAULT_255_1_234
10
13.5698869
20
165.7378941
40
0.2522457
50
213.9071664
51
263.8849284
0
ARC
8
DEFAULT_255_1_234
10
13.5824198
20
165.8163518
40
0.3316174
50
263.1758525
51
270.1031083
0
ARC
8
DEFAULT_255_1_234
10
13.585629
20
165.9410365
40
0.4563091
50
269.6719807
51
279.0609165
0
ARC
8
DEFAULT_255_1_234
10
13.6123058
20
165.7797907
40
0.2928759
50
278.8750225
51
293.6346586
0
ARC
8
DEFAULT_255_1_234
10
13.6443266
20
165.70459
40
0.2111472
50
293.8553404
51
310.0518804
0
ARC
8
DEFAULT_255_1_234
10
13.644812
20
165.6983516
40
0.2060917
50
311.0646779
51
332.0108348
0
ARC
8
DEFAULT_255_1_234
10
13.5255847
20
165.7640978
40
0.3422352
50
331.6588543
51
343.2878891
0
ARC
8
DEFAULT_255_1_234
10
13.3193362
20
165.8274798
40
0.5580003
50
343.1446044
51
351.010618
0
ARC
8
DEFAULT_255_1_234
10
13.1652008
20
165.8555871
40
0.7146438
50
350.7157277
51
351.1602153
0
LINE
8
DEFAULT_255_1_234
10
15.4198751
20
166.2059849
11
15.2648626
21
166.2059849
0
LINE
8
DEFAULT_255_1_234
10
14.5725268
20
165.7136394
11
14.7275393
21
165.7136394
0
ARC
8
DEFAULT_255_1_234
10
15.3307439
20
167.1006768
40
1.252368
50
248.9199003
51
254.1439814
0
ARC
8
DEFAULT_255_1_234
10
15.1626934
20
166.6680234
40
0.788226
50
241.633709
51
249.0064503
0
ARC
8
DEFAULT_255_1_234
10
15.0098328
20
166.3879317
40
0.4691427
50
230.498225
51
241.8087113
0
ARC
8
DEFAULT_255_1_234
10
14.9313902
20
166.2879906
40
0.3421437
50
227.4064532
51
229.9881192
0
ARC
8
DEFAULT_255_1_234
10
14.8826423
20
166.2404088
40
0.2741476
50
200.6781896
51
228.1763934
0
ARC
8
DEFAULT_255_1_234
10
14.8898734
20
166.2389077
40
0.2804109
50
179.5061581
51
199.8694617
0
ARC
8
DEFAULT_255_1_234
10
14.8889485
20
166.246321
40
0.2795204
50
132.4834203
51
181.0242172
0
ARC
8
DEFAULT_255_1_234
10
14.9485068
20
166.1900704
40
0.3612768
50
129.2532479
51
133.4242687
0
ARC
8
DEFAULT_255_1_234
10
14.9631517
20
166.1680965
40
0.3875675
50
101.98776
51
128.8742646
0
ARC
8
DEFAULT_255_1_234
10
15.0030128
20
165.9959741
40
0.5642249
50
89.5906553
51
102.3169264
0
ARC
8
DEFAULT_255_1_234
10
15.010062
20
166.0278148
40
0.5323783
50
77.2360837
51
90.3248275
0
ARC
8
DEFAULT_255_1_234
10
15.0307699
20
166.12454
40
0.4334697
50
63.837784
51
77.0809408
0
ARC
8
DEFAULT_255_1_234
10
15.0585461
20
166.1762911
40
0.3747796
50
45.9864267
51
64.1607727
0
ARC
8
DEFAULT_255_1_234
10
15.0846342
20
166.2060866
40
0.3352302
50
32.2747395
51
45.6547121
0
ARC
8
DEFAULT_255_1_234
10
15.0912783
20
166.207988
40
0.328603
50
359.6507365
51
32.6130309
0
ARC
8
DEFAULT_255_1_234
10
14.9969878
20
166.208466
40
0.2678863
50
359.469343
51
14.9832209
0
ARC
8
DEFAULT_255_1_234
10
15.0674941
20
166.2273539
40
0.1948938
50
14.9781179
51
48.2004265
0
ARC
8
DEFAULT_255_1_234
10
15.0510585
20
166.2066983
40
0.2212521
50
48.5927837
51
74.1241538
0
ARC
8
DEFAULT_255_1_234
10
15.0177074
20
166.0966248
40
0.3362561
50
73.7888341
51
86.6652678
0
ARC
8
DEFAULT_255_1_234
10
15.007464
20
165.9758881
40
0.4573953
50
86.2640471
51
90.0526343
0
ARC
8
DEFAULT_255_1_234
10
15.0046352
20
166.0154192
40
0.4178709
50
89.6697524
51
99.2309573
0
ARC
8
DEFAULT_255_1_234
10
14.9803803
20
166.1598964
40
0.2713749
50
99.069534
51
113.7658566
0
ARC
8
DEFAULT_255_1_234
10
14.9529994
20
166.2244677
40
0.2012469
50
114.0401004
51
127.9850673
0
ARC
8
DEFAULT_255_1_234
10
14.9289558
20
166.254073
40
0.1631167
50
127.7287463
51
176.7105154
0
ARC
8
DEFAULT_255_1_234
10
14.9968276
20
166.2439693
40
0.2315392
50
175.1779447
51
180.0581938
0
ARC
8
DEFAULT_255_1_234
10
14.9125123
20
166.2427428
40
0.1472271
50
179.6142195
51
228.1246017
0
ARC
8
DEFAULT_255_1_234
10
14.9566791
20
166.2836308
40
0.2072299
50
226.5779593
51
230.8800004
0
ARC
8
DEFAULT_255_1_234
10
15.003787
20
166.3461636
40
0.2854818
50
231.4635071
51
241.9260842
0
ARC
8
DEFAULT_255_1_234
10
15.1235048
20
166.56648
40
0.53622
50
241.7178533
51
248.3259551
0
ARC
8
DEFAULT_255_1_234
10
15.262042
20
166.9097064
40
0.9063478
50
248.2007737
51
252.4528373
0
ARC
8
DEFAULT_255_1_234
10
15.3824145
20
167.2818441
40
1.2974635
50
252.3391078
51
254.3469452
0
ARC
8
DEFAULT_255_1_234
10
14.6281847
20
164.5841148
40
1.5037162
50
71.0197183
51
74.4087047
0
ARC
8
DEFAULT_255_1_234
10
14.7976532
20
165.0733111
40
0.9859993
50
66.1847285
51
71.086374
0
ARC
8
DEFAULT_255_1_234
10
14.9532845
20
165.42372
40
0.6025855
50
59.3536294
51
66.2691831
0
ARC
8
DEFAULT_255_1_234
10
15.0421497
20
165.5740609
40
0.4279449
50
49.1020879
51
59.3293958
0
ARC
8
DEFAULT_255_1_234
10
15.1240237
20
165.6673834
40
0.3038015
50
32.7919921
51
49.2505539
0
ARC
8
DEFAULT_255_1_234
10
15.1561327
20
165.6902191
40
0.264448
50
31.1181161
51
32.4005348
0
ARC
8
DEFAULT_255_1_234
10
15.1472865
20
165.6866779
40
0.2738556
50
8.1116974
51
30.7958831
0
ARC
8
DEFAULT_255_1_234
10
15.0662533
20
165.6728753
40
0.3560327
50
359.8389159
51
8.4706516
0
ARC
8
DEFAULT_255_1_234
10
15.1288324
20
165.6680137
40
0.2934776
50
337.4731098
51
0.7537279
0
ARC
8
DEFAULT_255_1_234
10
15.1467019
20
165.6660387
40
0.2762607
50
307.5917067
51
336.4315538
0
ARC
8
DEFAULT_255_1_234
10
15.1006847
20
165.7173102
40
0.3449979
50
307.6551545
51
308.4529766
0
ARC
8
DEFAULT_255_1_234
10
15.0776566
20
165.752825
40
0.3871988
50
284.3734338
51
307.1424381
0
ARC
8
DEFAULT_255_1_234
10
15.0281396
20
165.9349932
40
0.5759636
50
272.4382747
51
284.646547
0
ARC
8
DEFAULT_255_1_234
10
15.0154605
20
166.1149893
40
0.7563528
50
269.9708387
51
272.8178037
0
ARC
8
DEFAULT_255_1_234
10
15.0111645
20
165.9111716
40
0.5525489
50
248.2707594
51
270.4055579
0
ARC
8
DEFAULT_255_1_234
10
15.0057386
20
165.8921192
40
0.5328452
50
246.1383403
51
248.0542782
0
ARC
8
DEFAULT_255_1_234
10
14.9638765
20
165.8041843
40
0.4355005
50
233.1670131
51
246.4950969
0
ARC
8
DEFAULT_255_1_234
10
14.908467
20
165.7293812
40
0.3424126
50
215.3403242
51
233.0843104
0
ARC
8
DEFAULT_255_1_234
10
14.8812101
20
165.7095549
40
0.3087104
50
179.2419209
51
215.2648451
0
ARC
8
DEFAULT_255_1_234
10
14.9579695
20
165.7109666
40
0.2304457
50
179.335461
51
199.1045811
0
ARC
8
DEFAULT_255_1_234
10
14.9247371
20
165.7022766
40
0.1962176
50
199.8828939
51
232.7063202
0
ARC
8
DEFAULT_255_1_234
10
14.971964
20
165.7616788
40
0.2720938
50
232.3738199
51
255.5136649
0
ARC
8
DEFAULT_255_1_234
10
15.0060506
20
165.8860835
40
0.4010747
50
255.2446292
51
267.5320849
0
ARC
8
DEFAULT_255_1_234
10
15.014813
20
166.0093702
40
0.5246356
50
267.1557994
51
270.0286766
0
ARC
8
DEFAULT_255_1_234
10
15.0175902
20
165.964995
40
0.4802668
50
269.7000017
51
278.1660162
0
ARC
8
DEFAULT_255_1_234
10
15.0431907
20
165.7919515
40
0.3053425
50
278.0231263
51
290.625471
0
ARC
8
DEFAULT_255_1_234
10
15.0779594
20
165.6992025
40
0.206291
50
290.6619762
51
307.0370976
0
ARC
8
DEFAULT_255_1_234
10
15.1079983
20
165.6623504
40
0.1587906
50
306.3943566
51
355.3030547
0
ARC
8
DEFAULT_255_1_234
10
15.0567914
20
165.6700113
40
0.2104809
50
354.3660432
51
0.0698737
0
ARC
8
DEFAULT_255_1_234
10
15.071026
20
165.6722617
40
0.1962563
50
359.417946
51
16.1971788
0
ARC
8
DEFAULT_255_1_234
10
15.116557
20
165.6847418
40
0.149053
50
16.4723299
51
52.6262157
0
ARC
8
DEFAULT_255_1_234
10
15.0344624
20
165.5763433
40
0.2850296
50
52.7386432
51
62.4979148
0
ARC
8
DEFAULT_255_1_234
10
14.8959701
20
165.3157283
40
0.5801521
50
62.2515216
51
68.1220564
0
ARC
8
DEFAULT_255_1_234
10
14.7239612
20
164.8929872
40
1.0365451
50
68.0062803
51
71.8053402
0
ARC
8
DEFAULT_255_1_234
10
14.5443983
20
164.3544758
40
1.6042013
50
71.7183119
51
73.9258742
0
LINE
8
DEFAULT_255_1_234
10
16.3362965
20
166.5441211
11
16.3362965
21
166.460591
0
LINE
8
DEFAULT_255_1_234
10
16.3362965
20
166.460591
11
15.8519827
21
165.3747
0
LINE
8
DEFAULT_255_1_234
10
15.8519827
20
165.3747
11
15.6961669
21
165.3747
0
LINE
8
DEFAULT_255_1_234
10
15.6961669
20
165.3747
11
16.1788744
21
166.4220387
0
LINE
8
DEFAULT_255_1_234
10
16.1788744
20
166.4220387
11
15.5459734
21
166.4220387
0
LINE
8
DEFAULT_255_1_234
10
15.5459734
20
166.4220387
11
15.5459734
21
166.5441211
0
LINE
8
DEFAULT_255_1_234
10
15.5459734
20
166.5441211
11
16.3362965
21
166.5441211
0
LINE
8
DEFAULT_255_1_234
10
16.8294452
20
165.9321026
11
16.8294452
21
165.8108234
0
LINE
8
DEFAULT_255_1_234
10
16.8294452
20
165.8108234
11
16.4374964
21
165.8108234
0
LINE
8
DEFAULT_255_1_234
10
16.4374964
20
165.8108234
11
16.4374964
21
165.9321026
0
LINE
8
DEFAULT_255_1_234
10
16.4374964
20
165.9321026
11
16.8294452
21
165.9321026
0
LINE
8
DEFAULT_255_1_234
10
17.4470859
20
166.5497433
11
17.4470859
21
165.3747
0
LINE
8
DEFAULT_255_1_234
10
17.4470859
20
165.3747
11
17.2976956
21
165.3747
0
LINE
8
DEFAULT_255_1_234
10
17.2976956
20
165.3747
11
17.2976956
21
166.3650133
0
LINE
8
DEFAULT_255_1_234
10
17.2976956
20
166.3650133
11
16.9981117
21
166.2549785
0
LINE
8
DEFAULT_255_1_234
10
16.9981117
20
166.2549785
11
16.9981117
21
166.3899117
0
LINE
8
DEFAULT_255_1_234
10
16.9981117
20
166.3899117
11
17.4237938
21
166.5497433
0
LINE
8
DEFAULT_255_1_234
10
17.4237938
20
166.5497433
11
17.4470859
21
166.5497433
0
LINE
8
DEFAULT_255_1_234
10
18.0695456
20
165.9304963
11
17.9506759
21
165.9610169
0
LINE
8
DEFAULT_255_1_234
10
17.9506759
20
165.9610169
11
18.0101107
21
166.5441211
0
LINE
8
DEFAULT_255_1_234
10
18.0101107
20
166.5441211
11
18.6092784
21
166.5441211
0
LINE
8
DEFAULT_255_1_234
10
18.6092784
20
166.5441211
11
18.6092784
21
166.4067784
0
LINE
8
DEFAULT_255_1_234
10
18.6092784
20
166.4067784
11
18.136209
21
166.4067784
0
LINE
8
DEFAULT_255_1_234
10
18.136209
20
166.4067784
11
18.1008694
21
166.0879184
0
LINE
8
DEFAULT_255_1_234
10
17.9089108
20
165.6823156
11
18.0494663
21
165.6823156
0
LINE
8
DEFAULT_255_1_234
10
18.1089011
20
165.9626232
11
18.0695456
21
165.9304963
0
ARC
8
DEFAULT_255_1_234
10
18.2863478
20
165.769923
40
0.3681349
50
93.7182161
51
120.2538958
0
ARC
8
DEFAULT_255_1_234
10
18.2957741
20
165.6891394
40
0.449379
50
89.9660152
51
94.2496022
0
ARC
8
DEFAULT_255_1_234
10
18.2998475
20
165.7480549
40
0.390482
50
73.8043271
51
90.5585896
0
ARC
8
DEFAULT_255_1_234
10
18.3233372
20
165.8338602
40
0.3015334
50
41.3071453
51
73.5430202
0
ARC
8
DEFAULT_255_1_234
10
18.2817199
20
165.7980324
40
0.3564457
50
13.5075983
51
41.2174222
0
ARC
8
DEFAULT_255_1_234
10
18.1175403
20
165.7550486
40
0.5261351
50
1.1331335
51
13.8829381
0
ARC
8
DEFAULT_255_1_234
10
17.9763772
20
165.7474665
40
0.6674378
50
359.9919444
51
1.544251
0
ARC
8
DEFAULT_255_1_234
10
18.1040598
20
165.743328
40
0.5397702
50
347.8572367
51
0.4293338
0
ARC
8
DEFAULT_255_1_234
10
18.2790916
20
165.7036736
40
0.3603188
50
323.673004
51
348.1672506
0
ARC
8
DEFAULT_255_1_234
10
18.3085424
20
165.6857168
40
0.3259678
50
316.8171152
51
323.1492751
0
ARC
8
DEFAULT_255_1_234
10
18.3146613
20
165.682046
40
0.3189975
50
281.8396411
51
316.5457803
0
ARC
8
DEFAULT_255_1_234
10
18.2770876
20
165.8375762
40
0.4789527
50
269.5770101
51
282.4214771
0
ARC
8
DEFAULT_255_1_234
10
18.2699688
20
165.8162125
40
0.45759
50
256.2427136
51
270.4486331
0
ARC
8
DEFAULT_255_1_234
10
18.240059
20
165.6962229
40
0.3339303
50
228.9023911
51
256.3314342
0
ARC
8
DEFAULT_255_1_234
10
18.2326823
20
165.6845746
40
0.32031
50
193.753695
51
228.5271154
0
ARC
8
DEFAULT_255_1_234
10
18.3564777
20
165.72088
40
0.4492253
50
184.924711
51
194.497588
0
ARC
8
DEFAULT_255_1_234
10
18.3757344
20
165.7244591
40
0.3289787
50
187.3600538
51
198.6732863
0
ARC
8
DEFAULT_255_1_234
10
18.2707638
20
165.6880674
40
0.217884
50
198.4451669
51
217.794479
0
ARC
8
DEFAULT_255_1_234
10
18.2411813
20
165.6671085
40
0.1816698
50
218.2887171
51
228.5612368
0
ARC
8
DEFAULT_255_1_234
10
18.25096
20
165.6802963
40
0.1980329
50
228.9654866
51
258.1234728
0
ARC
8
DEFAULT_255_1_234
10
18.271531
20
165.7683833
40
0.2884748
50
257.7258293
51
270.401361
0
ARC
8
DEFAULT_255_1_234
10
18.2760196
20
165.7238821
40
0.2439788
50
269.4204404
51
286.4209037
0
ARC
8
DEFAULT_255_1_234
10
18.2908684
20
165.6699657
40
0.1880666
50
286.7251356
51
320.600362
0
ARC
8
DEFAULT_255_1_234
10
18.2525509
20
165.7010595
40
0.2374121
50
320.6712579
51
344.5441685
0
ARC
8
DEFAULT_255_1_234
10
18.1368835
20
165.7350045
40
0.3579479
50
344.2412205
51
356.7357071
0
ARC
8
DEFAULT_255_1_234
10
18.0119983
20
165.7453444
40
0.4832297
50
356.3548756
51
0.0500261
0
ARC
8
DEFAULT_255_1_234
10
18.1456493
20
165.748465
40
0.3495889
50
359.5576869
51
12.953486
0
ARC
8
DEFAULT_255_1_234
10
18.251139
20
165.7740434
40
0.2410532
50
12.6490276
51
41.6081334
0
ARC
8
DEFAULT_255_1_234
10
18.2741761
20
165.7936321
40
0.2108218
50
41.7850273
51
85.9892764
0
ARC
8
DEFAULT_255_1_234
10
18.2618498
20
165.7123462
40
0.2928454
50
84.6957577
51
90.0676183
0
ARC
8
DEFAULT_255_1_234
10
18.2594982
20
165.6454716
40
0.3597255
50
89.6804936
51
99.1614436
0
ARC
8
DEFAULT_255_1_234
10
18.2389613
20
165.7682131
40
0.235281
50
98.9830931
51
113.8908934
0
ARC
8
DEFAULT_255_1_234
10
18.2160023
20
165.8223587
40
0.176479
50
114.1950727
51
127.3641004
0
LINE
8
DEFAULT_255_1_234
10
19.5393537
20
166.0662327
11
19.5393537
21
165.8734709
0
LINE
8
DEFAULT_255_1_234
10
18.801237
20
165.8533916
11
18.801237
21
166.0517755
0
LINE
8
DEFAULT_255_1_234
10
19.3907666
20
165.8333123
11
19.3907666
21
166.0766739
0
LINE
8
DEFAULT_255_1_234
10
18.9498241
20
166.0879184
11
18.9498241
21
165.8501789
0
ARC
8
DEFAULT_255_1_234
10
18.3146427
20
165.8685805
40
1.2247208
50
353.8441951
51
0.2287902
0
ARC
8
DEFAULT_255_1_234
10
18.778593
20
165.8167806
40
0.7578929
50
344.4934747
51
353.9765454
0
ARC
8
DEFAULT_255_1_234
10
19.0778521
20
165.7316981
40
0.4467846
50
329.2803592
51
344.7472793
0
ARC
8
DEFAULT_255_1_234
10
19.1771345
20
165.6772018
40
0.3336173
50
324.9352394
51
328.6160465
0
ARC
8
DEFAULT_255_1_234
10
19.2148454
20
165.6508427
40
0.2876076
50
280.580143
51
324.9173126
0
ARC
8
DEFAULT_255_1_234
10
19.1747247
20
165.8179099
40
0.4592847
50
269.5977311
51
281.6734359
0
ARC
8
DEFAULT_255_1_234
10
19.1675152
20
165.8059173
40
0.4472986
50
256.6228859
51
270.51044
0
ARC
8
DEFAULT_255_1_234
10
19.127313
20
165.6510877
40
0.2873874
50
215.8618325
51
257.2788573
0
ARC
8
DEFAULT_255_1_234
10
19.2294162
20
165.7195977
40
0.4102928
50
197.9693508
51
215.2623606
0
ARC
8
DEFAULT_255_1_234
10
19.4779277
20
165.8034709
40
0.6725652
50
187.8816417
51
198.2346507
0
ARC
8
DEFAULT_255_1_234
10
19.8737486
20
165.8606079
40
1.0724845
50
180.8976217
51
188.0055519
0
ARC
8
DEFAULT_255_1_234
10
20.1537674
20
165.8709777
40
1.3526448
50
180.7449369
51
181.1510016
0
ARC
8
DEFAULT_255_1_234
10
19.9960403
20
166.0566042
40
1.1948131
50
173.7675579
51
180.231553
0
ARC
8
DEFAULT_255_1_234
10
19.5442549
20
166.1076666
40
0.7401564
50
164.3058563
51
173.9002247
0
ARC
8
DEFAULT_255_1_234
10
19.2530618
20
166.1915656
40
0.4371288
50
148.7922025
51
164.568378
0
ARC
8
DEFAULT_255_1_234
10
19.157907
20
166.2446929
40
0.3282386
50
144.5883898
51
148.1176286
0
ARC
8
DEFAULT_255_1_234
10
19.1235968
20
166.2686315
40
0.2864044
50
101.6440918
51
144.514236
0
ARC
8
DEFAULT_255_1_234
10
19.1661035
20
166.0997069
40
0.4604934
50
89.5284041
51
102.5819763
0
ARC
8
DEFAULT_255_1_234
10
19.1740123
20
166.0958018
40
0.464401
50
77.0437873
51
90.5081339
0
ARC
8
DEFAULT_255_1_234
10
19.2142125
20
166.2600615
40
0.2953195
50
48.2778575
51
77.4994676
0
ARC
8
DEFAULT_255_1_234
10
19.2214756
20
166.2729746
40
0.2808655
50
36.3142134
51
47.6305865
0
ARC
8
DEFAULT_255_1_234
10
19.1346063
20
166.2144515
40
0.3855453
50
18.2931786
51
35.6769206
0
ARC
8
DEFAULT_255_1_234
10
18.8802822
20
166.1271593
40
0.654423
50
8.024666
51
18.5605216
0
ARC
8
DEFAULT_255_1_234
10
18.4639742
20
166.0656792
40
1.0752407
50
1.1274072
51
8.1718305
0
ARC
8
DEFAULT_255_1_234
10
18.1403932
20
166.0529885
40
1.3990231
50
0.5424119
51
1.3863029
0
ARC
8
DEFAULT_255_1_234
10
18.322531
20
166.0802342
40
1.0682415
50
359.8090433
51
4.9407866
0
ARC
8
DEFAULT_255_1_234
10
18.7435324
20
166.1178113
40
0.6455691
50
4.8362157
51
12.2904523
0
ARC
8
DEFAULT_255_1_234
10
19.0190439
20
166.1791965
40
0.3633074
50
12.0805627
51
23.8173984
0
ARC
8
DEFAULT_255_1_234
10
19.1364144
20
166.2288919
40
0.2358723
50
24.2871213
51
31.3935614
0
ARC
8
DEFAULT_255_1_234
10
19.1888841
20
166.2632233
40
0.1732111
50
30.7407893
51
82.4657128
0
ARC
8
DEFAULT_255_1_234
10
19.1708976
20
166.1748691
40
0.263235
50
81.1060089
51
90.2184952
0
ARC
8
DEFAULT_255_1_234
10
19.1673275
20
166.2006924
40
0.2374236
50
89.3806855
51
105.6762551
0
ARC
8
DEFAULT_255_1_234
10
19.1489905
20
166.2673567
40
0.1682847
50
105.7981136
51
149.7388061
0
ARC
8
DEFAULT_255_1_234
10
19.2553984
20
166.203395
40
0.2924306
50
149.4208916
51
163.6286378
0
ARC
8
DEFAULT_255_1_234
10
19.4644872
20
166.139625
40
0.5110213
50
163.3763315
51
172.1410975
0
ARC
8
DEFAULT_255_1_234
10
19.7945591
20
166.0923518
40
0.8444586
50
172.0259487
51
178.0703232
0
ARC
8
DEFAULT_255_1_234
10
20.097568
20
166.0779906
40
1.1477868
50
177.8631668
51
179.5044149
0
ARC
8
DEFAULT_255_1_234
10
19.9903085
20
165.8465389
40
1.0404907
50
179.7995573
51
185.2460446
0
ARC
8
DEFAULT_255_1_234
10
19.5860124
20
165.8082513
40
0.6343885
50
185.1411642
51
193.0079639
0
ARC
8
DEFAULT_255_1_234
10
19.3216596
20
165.7457641
40
0.3627568
50
192.7897626
51
205.2507664
0
ARC
8
DEFAULT_255_1_234
10
19.2170143
20
165.6990415
40
0.2481908
50
205.8005384
51
211.2537509
0
ARC
8
DEFAULT_255_1_234
10
19.1646584
20
165.663958
40
0.1852521
50
210.3789793
51
238.4008143
0
ARC
8
DEFAULT_255_1_234
10
19.1627106
20
165.6686376
40
0.1882621
50
239.6520629
51
265.9793761
0
ARC
8
DEFAULT_255_1_234
10
19.1712306
20
165.7358427
40
0.2559272
50
265.1315437
51
270.060332
0
ARC
8
DEFAULT_255_1_234
10
19.1741085
20
165.7034534
40
0.2235528
50
269.3314664
51
287.2178029
0
ARC
8
DEFAULT_255_1_234
10
19.1878937
20
165.6531279
40
0.1714108
50
287.7958004
51
329.080874
0
ARC
8
DEFAULT_255_1_234
10
19.0921394
20
165.712893
40
0.2842745
50
328.6634704
51
343.3325132
0
ARC
8
DEFAULT_255_1_234
10
18.8748414
20
165.7805863
40
0.5118644
50
343.0499468
51
351.9393422
0
ARC
8
DEFAULT_255_1_234
10
18.5281714
20
165.8316949
40
0.8622784
50
351.8069023
51
357.7959224
0
ARC
8
DEFAULT_255_1_234
10
18.204627
20
165.8484721
40
1.1862365
50
357.5871873
51
359.2677531
0
LINE
8
DEFAULT_255_1_234
10
20.4630036
20
166.0662327
11
20.4630036
21
165.8734709
0
LINE
8
DEFAULT_255_1_234
10
19.7248869
20
165.8533916
11
19.7248869
21
166.0517755
0
LINE
8
DEFAULT_255_1_234
10
20.3144165
20
165.8333123
11
20.3144165
21
166.0766739
0
LINE
8
DEFAULT_255_1_234
10
19.873474
20
166.0879184
11
19.873474
21
165.8501789
0
ARC
8
DEFAULT_255_1_234
10
19.2382926
20
165.8685805
40
1.2247208
50
353.8441951
51
0.2287902
0
ARC
8
DEFAULT_255_1_234
10
19.7022429
20
165.8167806
40
0.7578929
50
344.4934747
51
353.9765454
0
ARC
8
DEFAULT_255_1_234
10
20.001502
20
165.7316981
40
0.4467846
50
329.2803592
51
344.7472793
0
ARC
8
DEFAULT_255_1_234
10
20.1007844
20
165.6772018
40
0.3336173
50
324.9352394
51
328.6160465
0
ARC
8
DEFAULT_255_1_234
10
20.1384953
20
165.6508427
40
0.2876076
50
280.580143
51
324.9173126
0
ARC
8
DEFAULT_255_1_234
10
20.0983746
20
165.8179099
40
0.4592847
50
269.5977311
51
281.6734359
0
ARC
8
DEFAULT_255_1_234
10
20.0911651
20
165.8059173
40
0.4472986
50
256.6228859
51
270.51044
0
ARC
8
DEFAULT_255_1_234
10
20.0509629
20
165.6510877
40
0.2873874
50
215.8618325
51
257.2788573
0
ARC
8
DEFAULT_255_1_234
10
20.1530661
20
165.7195977
40
0.4102928
50
197.9693508
51
215.2623606
0
ARC
8
DEFAULT_255_1_234
10
20.4015776
20
165.8034709
40
0.6725652
50
187.8816417
51
198.2346507
0
ARC
8
DEFAULT_255_1_234
10
20.7973985
20
165.8606079
40
1.0724845
50
180.8976217
51
188.0055519
0
ARC
8
DEFAULT_255_1_234
10
21.0774173
20
165.8709777
40
1.3526448
50
180.7449369
51
181.1510016
0
ARC
8
DEFAULT_255_1_234
10
20.9196902
20
166.0566042
40
1.1948131
50
173.7675579
51
180.231553
0
ARC
8
DEFAULT_255_1_234
10
20.4679048
20
166.1076666
40
0.7401564
50
164.3058563
51
173.9002247
0
ARC
8
DEFAULT_255_1_234
10
20.1767117
20
166.1915656
40
0.4371288
50
148.7922025
51
164.568378
0
ARC
8
DEFAULT_255_1_234
10
20.0815569
20
166.2446929
40
0.3282386
50
144.5883898
51
148.1176286
0
ARC
8
DEFAULT_255_1_234
10
20.0472467
20
166.2686315
40
0.2864044
50
101.6440918
51
144.514236
0
ARC
8
DEFAULT_255_1_234
10
20.0897534
20
166.0997069
40
0.4604934
50
89.5284041
51
102.5819763
0
ARC
8
DEFAULT_255_1_234
10
20.0976622
20
166.0958018
40
0.464401
50
77.0437873
51
90.5081339
0
ARC
8
DEFAULT_255_1_234
10
20.1378624
20
166.2600615
40
0.2953195
50
48.2778575
51
77.4994676
0
ARC
8
DEFAULT_255_1_234
10
20.1451255
20
166.2729746
40
0.2808655
50
36.3142134
51
47.6305865
0
ARC
8
DEFAULT_255_1_234
10
20.0582562
20
166.2144515
40
0.3855453
50
18.2931786
51
35.6769206
0
ARC
8
DEFAULT_255_1_234
10
19.8039321
20
166.1271593
40
0.654423
50
8.024666
51
18.5605216
0
ARC
8
DEFAULT_255_1_234
10
19.3876241
20
166.0656792
40
1.0752407
50
1.1274072
51
8.1718305
0
ARC
8
DEFAULT_255_1_234
10
19.0640431
20
166.0529885
40
1.3990231
50
0.5424119
51
1.3863029
0
ARC
8
DEFAULT_255_1_234
10
19.2461809
20
166.0802342
40
1.0682415
50
359.8090433
51
4.9407866
0
ARC
8
DEFAULT_255_1_234
10
19.6671823
20
166.1178113
40
0.6455691
50
4.8362157
51
12.2904523
0
ARC
8
DEFAULT_255_1_234
10
19.9426938
20
166.1791965
40
0.3633074
50
12.0805627
51
23.8173984
0
ARC
8
DEFAULT_255_1_234
10
20.0600643
20
166.2288919
40
0.2358723
50
24.2871213
51
31.3935614
0
ARC
8
DEFAULT_255_1_234
10
20.112534
20
166.2632233
40
0.1732111
50
30.7407893
51
82.4657128
0
ARC
8
DEFAULT_255_1_234
10
20.0945475
20
166.1748691
40
0.263235
50
81.1060089
51
90.2184952
0
ARC
8
DEFAULT_255_1_234
10
20.0909774
20
166.2006924
40
0.2374236
50
89.3806855
51
105.6762551
0
ARC
8
DEFAULT_255_1_234
10
20.0726404
20
166.2673567
40
0.1682847
50
105.7981136
51
149.7388061
0
ARC
8
DEFAULT_255_1_234
10
20.1790483
20
166.203395
40
0.2924306
50
149.4208916
51
163.6286378
0
ARC
8
DEFAULT_255_1_234
10
20.3881371
20
166.139625
40
0.5110213
50
163.3763315
51
172.1410975
0
ARC
8
DEFAULT_255_1_234
10
20.718209
20
166.0923518
40
0.8444586
50
172.0259487
51
178.0703232
0
ARC
8
DEFAULT_255_1_234
10
21.0212179
20
166.0779906
40
1.1477868
50
177.8631668
51
179.5044149
0
ARC
8
DEFAULT_255_1_234
10
20.9139584
20
165.8465389
40
1.0404907
50
179.7995573
51
185.2460446
0
ARC
8
DEFAULT_255_1_234
10
20.5096623
20
165.8082513
40
0.6343885
50
185.1411642
51
193.0079639
0
ARC
8
DEFAULT_255_1_234
10
20.2453095
20
165.7457641
40
0.3627568
50
192.7897626
51
205.2507664
0
ARC
8
DEFAULT_255_1_234
10
20.1406642
20
165.6990415
40
0.2481908
50
205.8005384
51
211.2537509
0
ARC
8
DEFAULT_255_1_234
10
20.0883083
20
165.663958
40
0.1852521
50
210.3789793
51
238.4008143
0
ARC
8
DEFAULT_255_1_234
10
20.0863605
20
165.6686376
40
0.1882621
50
239.6520629
51
265.9793761
0
ARC
8
DEFAULT_255_1_234
10
20.0948805
20
165.7358427
40
0.2559272
50
265.1315437
51
270.060332
0
ARC
8
DEFAULT_255_1_234
10
20.0977584
20
165.7034534
40
0.2235528
50
269.3314664
51
287.2178029
0
ARC
8
DEFAULT_255_1_234
10
20.1115436
20
165.6531279
40
0.1714108
50
287.7958004
51
329.080874
0
ARC
8
DEFAULT_255_1_234
10
20.0157893
20
165.712893
40
0.2842745
50
328.6634704
51
343.3325132
0
ARC
8
DEFAULT_255_1_234
10
19.7984913
20
165.7805863
40
0.5118644
50
343.0499468
51
351.9393422
0
ARC
8
DEFAULT_255_1_234
10
19.4518213
20
165.8316949
40
0.8622784
50
351.8069023
51
357.7959224
0
ARC
8
DEFAULT_255_1_234
10
19.1282769
20
165.8484721
40
1.1862365
50
357.5871873
51
359.2677531
0
LINE
8
DEFAULT_255_1_234
10
23.1201628
20
5.8098211
11
23.1201628
21
5.033152
0
LINE
8
DEFAULT_255_1_234
10
23.1201628
20
5.033152
11
23.2824039
21
5.033152
0
LINE
8
DEFAULT_255_1_234
10
23.2824039
20
5.033152
11
23.2824039
21
4.9118728
0
LINE
8
DEFAULT_255_1_234
10
23.2824039
20
4.9118728
11
23.1201628
21
4.9118728
0
LINE
8
DEFAULT_255_1_234
10
23.1201628
20
4.9118728
11
23.1201628
21
4.6404
0
LINE
8
DEFAULT_255_1_234
10
23.1201628
20
4.6404
11
22.9707725
21
4.6404
0
LINE
8
DEFAULT_255_1_234
10
22.9707725
20
4.6404
11
22.9707725
21
4.9118728
0
LINE
8
DEFAULT_255_1_234
10
22.9707725
20
4.9118728
11
22.4382682
21
4.9118728
0
LINE
8
DEFAULT_255_1_234
10
22.4382682
20
4.9118728
11
22.4382682
21
4.9994187
0
LINE
8
DEFAULT_255_1_234
10
22.4382682
20
4.9994187
11
22.9619375
21
5.8098211
0
LINE
8
DEFAULT_255_1_234
10
22.9619375
20
5.8098211
11
23.1201628
21
5.8098211
0
LINE
8
DEFAULT_255_1_234
10
22.9531026
20
5.5744912
11
22.6069347
21
5.033152
0
LINE
8
DEFAULT_255_1_234
10
22.6069347
20
5.033152
11
22.9707725
21
5.033152
0
LINE
8
DEFAULT_255_1_234
10
22.9707725
20
5.033152
11
22.9707725
21
5.6066181
0
LINE
8
DEFAULT_255_1_234
10
22.9707725
20
5.6066181
11
22.9531026
21
5.5744912
0
LINE
8
DEFAULT_255_1_234
10
24.1498316
20
5.3319327
11
24.1498316
21
5.1391709
0
LINE
8
DEFAULT_255_1_234
10
23.4117149
20
5.1190916
11
23.4117149
21
5.3174755
0
LINE
8
DEFAULT_255_1_234
10
24.0012445
20
5.0990123
11
24.0012445
21
5.3423739
0
LINE
8
DEFAULT_255_1_234
10
23.5603021
20
5.3536184
11
23.5603021
21
5.1158789
0
ARC
8
DEFAULT_255_1_234
10
22.9251206
20
5.1342805
40
1.2247208
50
353.8441951
51
0.2287902
0
ARC
8
DEFAULT_255_1_234
10
23.389071
20
5.0824806
40
0.7578929
50
344.4934747
51
353.9765454
0
ARC
8
DEFAULT_255_1_234
10
23.68833
20
4.9973981
40
0.4467846
50
329.2803592
51
344.7472793
0
ARC
8
DEFAULT_255_1_234
10
23.7876125
20
4.9429018
40
0.3336173
50
324.9352394
51
328.6160465
0
ARC
8
DEFAULT_255_1_234
10
23.8253233
20
4.9165427
40
0.2876076
50
280.580143
51
324.9173126
0
ARC
8
DEFAULT_255_1_234
10
23.7852026
20
5.0836099
40
0.4592847
50
269.5977311
51
281.6734359
0
ARC
8
DEFAULT_255_1_234
10
23.7779932
20
5.0716173
40
0.4472986
50
256.6228859
51
270.51044
0
ARC
8
DEFAULT_255_1_234
10
23.7377909
20
4.9167877
40
0.2873874
50
215.8618325
51
257.2788573
0
ARC
8
DEFAULT_255_1_234
10
23.8398941
20
4.9852977
40
0.4102928
50
197.9693508
51
215.2623606
0
ARC
8
DEFAULT_255_1_234
10
24.0884057
20
5.0691709
40
0.6725652
50
187.8816417
51
198.2346507
0
ARC
8
DEFAULT_255_1_234
10
24.4842265
20
5.1263079
40
1.0724845
50
180.8976217
51
188.0055519
0
ARC
8
DEFAULT_255_1_234
10
24.7642453
20
5.1366777
40
1.3526448
50
180.7449369
51
181.1510016
0
ARC
8
DEFAULT_255_1_234
10
24.6065182
20
5.3223042
40
1.1948131
50
173.7675579
51
180.231553
0
ARC
8
DEFAULT_255_1_234
10
24.1547329
20
5.3733666
40
0.7401564
50
164.3058563
51
173.9002247
0
ARC
8
DEFAULT_255_1_234
10
23.8635398
20
5.4572656
40
0.4371288
50
148.7922025
51
164.568378
0
ARC
8
DEFAULT_255_1_234
10
23.768385
20
5.5103929
40
0.3282386
50
144.5883898
51
148.1176286
0
ARC
8
DEFAULT_255_1_234
10
23.7340748
20
5.5343315
40
0.2864044
50
101.6440918
51
144.514236
0
ARC
8
DEFAULT_255_1_234
10
23.7765814
20
5.3654069
40
0.4604934
50
89.5284041
51
102.5819763
0
ARC
8
DEFAULT_255_1_234
10
23.7844902
20
5.3615018
40
0.464401
50
77.0437873
51
90.5081339
0
ARC
8
DEFAULT_255_1_234
10
23.8246904
20
5.5257615
40
0.2953195
50
48.2778575
51
77.4994676
0
ARC
8
DEFAULT_255_1_234
10
23.8319535
20
5.5386746
40
0.2808655
50
36.3142134
51
47.6305865
0
ARC
8
DEFAULT_255_1_234
10
23.7450842
20
5.4801515
40
0.3855453
50
18.2931786
51
35.6769206
0
ARC
8
DEFAULT_255_1_234
10
23.4907601
20
5.3928593
40
0.654423
50
8.024666
51
18.5605216
0
ARC
8
DEFAULT_255_1_234
10
23.0744521
20
5.3313792
40
1.0752407
50
1.1274072
51
8.1718305
0
ARC
8
DEFAULT_255_1_234
10
22.7508712
20
5.3186885
40
1.3990231
50
0.5424119
51
1.3863029
0
ARC
8
DEFAULT_255_1_234
10
22.9330089
20
5.3459342
40
1.0682415
50
359.8090433
51
4.9407866
0
ARC
8
DEFAULT_255_1_234
10
23.3540103
20
5.3835113
40
0.6455691
50
4.8362157
51
12.2904523
0
ARC
8
DEFAULT_255_1_234
10
23.6295218
20
5.4448965
40
0.3633074
50
12.0805627
51
23.8173984
0
ARC
8
DEFAULT_255_1_234
10
23.7468924
20
5.4945919
40
0.2358723
50
24.2871213
51
31.3935614
0
ARC
8
DEFAULT_255_1_234
10
23.7993621
20
5.5289233
40
0.1732111
50
30.7407893
51
82.4657128
0
ARC
8
DEFAULT_255_1_234
10
23.7813755
20
5.4405691
40
0.263235
50
81.1060089
51
90.2184952
0
ARC
8
DEFAULT_255_1_234
10
23.7778054
20
5.4663924
40
0.2374236
50
89.3806855
51
105.6762551
0
ARC
8
DEFAULT_255_1_234
10
23.7594685
20
5.5330567
40
0.1682847
50
105.7981136
51
149.7388061
0
ARC
8
DEFAULT_255_1_234
10
23.8658763
20
5.469095
40
0.2924306
50
149.4208916
51
163.6286378
0
ARC
8
DEFAULT_255_1_234
10
24.0749651
20
5.405325
40
0.5110213
50
163.3763315
51
172.1410975
0
ARC
8
DEFAULT_255_1_234
10
24.405037
20
5.3580518
40
0.8444586
50
172.0259487
51
178.0703232
0
ARC
8
DEFAULT_255_1_234
10
24.708046
20
5.3436906
40
1.1477868
50
177.8631668
51
179.5044149
0
ARC
8
DEFAULT_255_1_234
10
24.6007864
20
5.1122389
40
1.0404907
50
179.7995573
51
185.2460446
0
ARC
8
DEFAULT_255_1_234
10
24.1964903
20
5.0739513
40
0.6343885
50
185.1411642
51
193.0079639
0
ARC
8
DEFAULT_255_1_234
10
23.9321376
20
5.0114641
40
0.3627568
50
192.7897626
51
205.2507664
0
ARC
8
DEFAULT_255_1_234
10
23.8274923
20
4.9647415
40
0.2481908
50
205.8005384
51
211.2537509
0
ARC
8
DEFAULT_255_1_234
10
23.7751363
20
4.929658
40
0.1852521
50
210.3789793
51
238.4008143
0
ARC
8
DEFAULT_255_1_234
10
23.7731885
20
4.9343376
40
0.1882621
50
239.6520629
51
265.9793761
0
ARC
8
DEFAULT_255_1_234
10
23.7817085
20
5.0015427
40
0.2559272
50
265.1315437
51
270.060332
0
ARC
8
DEFAULT_255_1_234
10
23.7845864
20
4.9691534
40
0.2235528
50
269.3314664
51
287.2178029
0
ARC
8
DEFAULT_255_1_234
10
23.7983716
20
4.9188279
40
0.1714108
50
287.7958004
51
329.080874
0
ARC
8
DEFAULT_255_1_234
10
23.7026173
20
4.978593
40
0.2842745
50
328.6634704
51
343.3325132
0
ARC
8
DEFAULT_255_1_234
10
23.4853193
20
5.0462863
40
0.5118644
50
343.0499468
51
351.9393422
0
ARC
8
DEFAULT_255_1_234
10
23.1386493
20
5.0973949
40
0.8622784
50
351.8069023
51
357.7959224
0
ARC
8
DEFAULT_255_1_234
10
22.8151049
20
5.1141721
40
1.1862365
50
357.5871873
51
359.2677531
0
ENDSEC
0
EOF