0
SECTION
2
HEADER
9
$MEASUREMENT
70
1
0
ENDSEC
0
SECTION
2
TABLES
0
TABLE
2
LTYPE
0
LTYPE
72
65
70
64
2
CONTINUOUS
3
______
73
0
40
0
0
ENDTAB
0
TABLE
2
LAYER
0
LAYER
2
DEFAULT_255_2_778
70
0
62
255
6
CONTINUOUS
0
ENDTAB
0
ENDSEC
0
SECTION
2
ENTITIES
0
LINE
8
DEFAULT_255_2_778
10
47.1261834
20
20.6624599
11
45.6762834
21
21.4791599
0
LINE
8
DEFAULT_255_2_778
10
45.6762834
20
21.4791599
11
44.2263834
21
22.2959599
0
LINE
8
DEFAULT_255_2_778
10
44.2263834
20
22.2959599
11
42.7761834
21
23.1127599
0
LINE
8
DEFAULT_255_2_778
10
42.7761834
20
23.1127599
11
42.6261834
21
23.1127599
0
LINE
8
DEFAULT_255_2_778
10
42.6261834
20
23.1127599
11
42.6261834
21
132.3991599
0
LINE
8
DEFAULT_255_2_778
10
42.6261834
20
132.3991599
11
42.8478834
21
132.3991599
0
LINE
8
DEFAULT_255_2_778
10
42.8478834
20
132.3991599
11
45.9260834
21
134.1763599
0
LINE
8
DEFAULT_255_2_778
10
47.126284
20
134.869225
11
47.126284
21
20.662625
0
LINE
8
DEFAULT_255_2_778
10
47.126284
20
20.662625
11
47.126284
21
7.813425
0
LINE
8
DEFAULT_255_2_778
10
47.126284
20
7.813425
11
47.126284
21
-0.186575
0
LINE
8
DEFAULT_255_2_778
10
47.126284
20
-0.186575
11
12.326184
21
-0.186575
0
LINE
8
DEFAULT_255_2_778
10
12.326184
20
-0.186575
11
12.326184
21
4.813825
0
LINE
8
DEFAULT_255_2_778
10
12.326184
20
4.813825
11
12.326184
21
20.662625
0
LINE
8
DEFAULT_255_2_778
10
12.326184
20
20.662625
11
12.326184
21
35.401025
0
LINE
8
DEFAULT_255_2_778
10
12.326184
20
35.401025
11
0.233884
21
35.401025
0
LINE
8
DEFAULT_255_2_778
10
0.233884
20
35.401025
11
0.233884
21
118.800825
0
LINE
8
DEFAULT_255_2_778
10
0.233884
20
118.800825
11
0.233884
21
126.800725
0
LINE
8
DEFAULT_255_2_778
10
0.233884
20
126.800725
11
2.225384
21
126.800725
0
LINE
8
DEFAULT_255_2_778
10
2.225384
20
126.800725
11
2.225384
21
124.305225
0
LINE
8
DEFAULT_255_2_778
10
2.225384
20
124.305225
11
10.642584
21
124.305225
0
LINE
8
DEFAULT_255_2_778
10
10.642584
20
124.305225
11
10.642584
21
126.800725
0
LINE
8
DEFAULT_255_2_778
10
10.642584
20
126.800725
11
12.326384
21
126.800725
0
LINE
8
DEFAULT_255_2_778
10
12.326384
20
126.800725
11
12.326384
21
134.869225
0
LINE
8
DEFAULT_255_2_778
10
12.326384
20
134.869225
11
12.326384
21
146.813325
0
LINE
8
DEFAULT_255_2_778
10
12.326384
20
146.813325
11
47.126484
21
146.813325
0
LINE
8
DEFAULT_255_2_778
10
47.126484
20
146.813325
11
47.126284
21
134.869225
0
LINE
8
DEFAULT_255_2_778
10
12.3262076
20
20.6623828
11
13.7761076
21
21.4791828
0
LINE
8
DEFAULT_255_2_778
10
13.7761076
20
21.4791828
11
15.2260076
21
22.2959828
0
LINE
8
DEFAULT_255_2_778
10
15.2260076
20
22.2959828
11
16.6759076
21
23.1126828
0
LINE
8
DEFAULT_255_2_778
10
16.6759076
20
23.1126828
11
16.8259076
21
23.1126828
0
LINE
8
DEFAULT_255_2_778
10
16.8259076
20
23.1126828
11
16.8259076
21
132.3990828
0
LINE
8
DEFAULT_255_2_778
10
16.8259076
20
132.3990828
11
16.6042076
21
132.3990828
0
LINE
8
DEFAULT_255_2_778
10
16.6042076
20
132.3990828
11
13.5260076
21
134.1763828
0
LINE
8
DEFAULT_255_2_778
10
19.7091076
20
136.6173828
11
19.6564076
21
136.6168828
0
LINE
8
DEFAULT_255_2_778
10
19.6564076
20
136.6168828
11
19.6038076
21
136.6154828
0
LINE
8
DEFAULT_255_2_778
10
19.6038076
20
136.6154828
11
19.5511076
21
136.6131828
0
LINE
8
DEFAULT_255_2_778
10
19.5511076
20
136.6131828
11
19.4987076
21
136.6099828
0
LINE
8
DEFAULT_255_2_778
10
19.4987076
20
136.6099828
11
19.4464076
21
136.6057828
0
LINE
8
DEFAULT_255_2_778
10
19.4464076
20
136.6057828
11
19.3940076
21
136.6004828
0
LINE
8
DEFAULT_255_2_778
10
19.3940076
20
136.6004828
11
19.3418076
21
136.5943828
0
LINE
8
DEFAULT_255_2_778
10
19.3418076
20
136.5943828
11
19.2897076
21
136.5874828
0
LINE
8
DEFAULT_255_2_778
10
19.2897076
20
136.5874828
11
19.2379076
21
136.5795828
0
LINE
8
DEFAULT_255_2_778
10
19.2379076
20
136.5795828
11
19.1860076
21
136.5707828
0
LINE
8
DEFAULT_255_2_778
10
19.1860076
20
136.5707828
11
19.1344076
21
136.5609828
0
LINE
8
DEFAULT_255_2_778
10
19.1344076
20
136.5609828
11
19.0828076
21
136.5504828
0
LINE
8
DEFAULT_255_2_778
10
19.0828076
20
136.5504828
11
19.0315076
21
136.5387828
0
LINE
8
DEFAULT_255_2_778
10
19.0315076
20
136.5387828
11
18.9804076
21
136.5263828
0
LINE
8
DEFAULT_255_2_778
10
18.9804076
20
136.5263828
11
18.9296076
21
136.5131828
0
LINE
8
DEFAULT_255_2_778
10
18.9296076
20
136.5131828
11
18.8791076
21
136.4988828
0
LINE
8
DEFAULT_255_2_778
10
18.8791076
20
136.4988828
11
18.8288076
21
136.4837828
0
LINE
8
DEFAULT_255_2_778
10
18.8288076
20
136.4837828
11
18.7788076
21
136.4678828
0
LINE
8
DEFAULT_255_2_778
10
18.7788076
20
136.4678828
11
18.7291076
21
136.4511828
0
LINE
8
DEFAULT_255_2_778
10
18.7291076
20
136.4511828
11
18.6796076
21
136.4334828
0
LINE
8
DEFAULT_255_2_778
10
18.6796076
20
136.4334828
11
18.6304076
21
136.4149828
0
LINE
8
DEFAULT_255_2_778
10
18.6304076
20
136.4149828
11
18.5814076
21
136.3956828
0
LINE
8
DEFAULT_255_2_778
10
18.5814076
20
136.3956828
11
18.5330076
21
136.3755828
0
LINE
8
DEFAULT_255_2_778
10
18.5330076
20
136.3755828
11
18.4849076
21
136.3546828
0
LINE
8
DEFAULT_255_2_778
10
18.4849076
20
136.3546828
11
18.4370076
21
136.3329828
0
LINE
8
DEFAULT_255_2_778
10
18.4370076
20
136.3329828
11
18.3896076
21
136.3101828
0
LINE
8
DEFAULT_255_2_778
10
18.3896076
20
136.3101828
11
18.3425076
21
136.2868828
0
LINE
8
DEFAULT_255_2_778
10
18.3425076
20
136.2868828
11
18.2959076
21
136.2625828
0
LINE
8
DEFAULT_255_2_778
10
3.4340076
20
70.0259828
11
3.4340076
21
40.0759828
0
LINE
8
DEFAULT_255_2_778
10
3.4340076
20
40.0759828
11
7.7840076
21
40.0759828
0
LINE
8
DEFAULT_255_2_778
10
7.7840076
20
40.0759828
11
7.7840076
21
70.0259828
0
LINE
8
DEFAULT_255_2_778
10
0.2339076
20
117.8927828
11
3.5838076
21
117.8927828
0
LINE
8
DEFAULT_255_2_778
10
3.5838076
20
117.8927828
11
3.5838076
21
93.7088828
0
LINE
8
DEFAULT_255_2_778
10
3.5838076
20
93.7088828
11
0.2339076
21
93.7088828
0
LINE
8
DEFAULT_255_2_778
10
6.1589761
20
60.188328
11
6.8589761
21
60.188328
0
LINE
8
DEFAULT_255_2_778
10
6.8589761
20
60.188328
11
6.8589761
21
59.213328
0
LINE
8
DEFAULT_255_2_778
10
6.8589761
20
59.213328
11
6.1589761
21
59.213328
0
LINE
8
DEFAULT_255_2_778
10
6.1589761
20
59.213328
11
6.1589761
21
60.188328
0
LINE
8
DEFAULT_255_2_778
10
6.1589761
20
61.688228
11
6.8589761
21
61.688228
0
LINE
8
DEFAULT_255_2_778
10
6.8589761
20
61.688228
11
6.8589761
21
60.713228
0
LINE
8
DEFAULT_255_2_778
10
6.8589761
20
60.713228
11
6.1589761
21
60.713228
0
LINE
8
DEFAULT_255_2_778
10
6.1589761
20
60.713228
11
6.1589761
21
61.688228
0
LINE
8
DEFAULT_255_2_778
10
6.1589761
20
63.188128
11
6.8589761
21
63.188128
0
LINE
8
DEFAULT_255_2_778
10
6.8589761
20
63.188128
11
6.8589761
21
62.213128
0
LINE
8
DEFAULT_255_2_778
10
6.8589761
20
62.213128
11
6.1589761
21
62.213128
0
LINE
8
DEFAULT_255_2_778
10
6.1589761
20
62.213128
11
6.1589761
21
63.188128
0
LINE
8
DEFAULT_255_2_778
10
6.1589761
20
64.688028
11
6.8589761
21
64.688028
0
LINE
8
DEFAULT_255_2_778
10
6.8589761
20
64.688028
11
6.8589761
21
63.713028
0
LINE
8
DEFAULT_255_2_778
10
6.8589761
20
63.713028
11
6.1589761
21
63.713028
0
LINE
8
DEFAULT_255_2_778
10
6.1589761
20
63.713028
11
6.1589761
21
64.688028
0
LINE
8
DEFAULT_255_2_778
10
6.1589761
20
66.188028
11
6.8589761
21
66.188028
0
LINE
8
DEFAULT_255_2_778
10
6.8589761
20
66.188028
11
6.8589761
21
65.213028
0
LINE
8
DEFAULT_255_2_778
10
6.8589761
20
65.213028
11
6.1589761
21
65.213028
0
LINE
8
DEFAULT_255_2_778
10
6.1589761
20
65.213028
11
6.1589761
21
66.188028
0
LINE
8
DEFAULT_255_2_778
10
6.1589761
20
67.687928
11
6.8589761
21
67.687928
0
LINE
8
DEFAULT_255_2_778
10
6.8589761
20
67.687928
11
6.8589761
21
66.712928
0
LINE
8
DEFAULT_255_2_778
10
6.8589761
20
66.712928
11
6.1589761
21
66.712928
0
LINE
8
DEFAULT_255_2_778
10
6.1589761
20
66.712928
11
6.1589761
21
67.687928
0
LINE
8
DEFAULT_255_2_778
10
6.1589761
20
69.187828
11
6.8589761
21
69.187828
0
LINE
8
DEFAULT_255_2_778
10
6.8589761
20
69.187828
11
6.8589761
21
68.212828
0
LINE
8
DEFAULT_255_2_778
10
6.8589761
20
68.212828
11
6.1589761
21
68.212828
0
LINE
8
DEFAULT_255_2_778
10
6.1589761
20
68.212828
11
6.1589761
21
69.187828
0
LINE
8
DEFAULT_255_2_778
10
4.3589761
20
60.187728
11
5.0590761
21
60.187728
0
LINE
8
DEFAULT_255_2_778
10
5.0590761
20
60.187728
11
5.0590761
21
59.212728
0
LINE
8
DEFAULT_255_2_778
10
5.0590761
20
59.212728
11
4.3589761
21
59.212728
0
LINE
8
DEFAULT_255_2_778
10
4.3589761
20
59.212728
11
4.3589761
21
60.187728
0
LINE
8
DEFAULT_255_2_778
10
4.3589761
20
61.687728
11
5.0590761
21
61.687728
0
LINE
8
DEFAULT_255_2_778
10
5.0590761
20
61.687728
11
5.0590761
21
60.712728
0
LINE
8
DEFAULT_255_2_778
10
5.0590761
20
60.712728
11
4.3589761
21
60.712728
0
LINE
8
DEFAULT_255_2_778
10
4.3589761
20
60.712728
11
4.3589761
21
61.687728
0
LINE
8
DEFAULT_255_2_778
10
4.3589761
20
63.187628
11
5.0590761
21
63.187628
0
LINE
8
DEFAULT_255_2_778
10
5.0590761
20
63.187628
11
5.0590761
21
62.212628
0
LINE
8
DEFAULT_255_2_778
10
5.0590761
20
62.212628
11
4.3589761
21
62.212628
0
LINE
8
DEFAULT_255_2_778
10
4.3589761
20
62.212628
11
4.3589761
21
63.187628
0
LINE
8
DEFAULT_255_2_778
10
4.3589761
20
64.687528
11
5.0590761
21
64.687528
0
LINE
8
DEFAULT_255_2_778
10
5.0590761
20
64.687528
11
5.0590761
21
63.712528
0
LINE
8
DEFAULT_255_2_778
10
5.0590761
20
63.712528
11
4.3589761
21
63.712528
0
LINE
8
DEFAULT_255_2_778
10
4.3589761
20
63.712528
11
4.3589761
21
64.687528
0
LINE
8
DEFAULT_255_2_778
10
4.3589761
20
66.187428
11
5.0590761
21
66.187428
0
LINE
8
DEFAULT_255_2_778
10
5.0590761
20
66.187428
11
5.0590761
21
65.212428
0
LINE
8
DEFAULT_255_2_778
10
5.0590761
20
65.212428
11
4.3589761
21
65.212428
0
LINE
8
DEFAULT_255_2_778
10
4.3589761
20
65.212428
11
4.3589761
21
66.187428
0
LINE
8
DEFAULT_255_2_778
10
4.3589761
20
67.687328
11
5.0590761
21
67.687328
0
LINE
8
DEFAULT_255_2_778
10
5.0590761
20
67.687328
11
5.0590761
21
66.712428
0
LINE
8
DEFAULT_255_2_778
10
5.0590761
20
66.712428
11
4.3589761
21
66.712428
0
LINE
8
DEFAULT_255_2_778
10
4.3589761
20
66.712428
11
4.3589761
21
67.687328
0
LINE
8
DEFAULT_255_2_778
10
4.3589761
20
69.187328
11
5.0590761
21
69.187328
0
LINE
8
DEFAULT_255_2_778
10
5.0590761
20
69.187328
11
5.0590761
21
68.212328
0
LINE
8
DEFAULT_255_2_778
10
5.0590761
20
68.212328
11
4.3589761
21
68.212328
0
LINE
8
DEFAULT_255_2_778
10
4.3589761
20
68.212328
11
4.3589761
21
69.187328
0
LINE
8
DEFAULT_255_2_778
10
6.1589761
20
49.688328
11
6.8589761
21
49.688328
0
LINE
8
DEFAULT_255_2_778
10
6.8589761
20
49.688328
11
6.8589761
21
48.713328
0
LINE
8
DEFAULT_255_2_778
10
6.8589761
20
48.713328
11
6.1589761
21
48.713328
0
LINE
8
DEFAULT_255_2_778
10
6.1589761
20
48.713328
11
6.1589761
21
49.688328
0
LINE
8
DEFAULT_255_2_778
10
6.1589761
20
51.188228
11
6.8589761
21
51.188228
0
LINE
8
DEFAULT_255_2_778
10
6.8589761
20
51.188228
11
6.8589761
21
50.213228
0
LINE
8
DEFAULT_255_2_778
10
6.8589761
20
50.213228
11
6.1589761
21
50.213228
0
LINE
8
DEFAULT_255_2_778
10
6.1589761
20
50.213228
11
6.1589761
21
51.188228
0
LINE
8
DEFAULT_255_2_778
10
6.1589761
20
52.688128
11
6.8589761
21
52.688128
0
LINE
8
DEFAULT_255_2_778
10
6.8589761
20
52.688128
11
6.8589761
21
51.713128
0
LINE
8
DEFAULT_255_2_778
10
6.8589761
20
51.713128
11
6.1589761
21
51.713128
0
LINE
8
DEFAULT_255_2_778
10
6.1589761
20
51.713128
11
6.1589761
21
52.688128
0
LINE
8
DEFAULT_255_2_778
10
6.1589761
20
54.188028
11
6.8589761
21
54.188028
0
LINE
8
DEFAULT_255_2_778
10
6.8589761
20
54.188028
11
6.8589761
21
53.213028
0
LINE
8
DEFAULT_255_2_778
10
6.8589761
20
53.213028
11
6.1589761
21
53.213028
0
LINE
8
DEFAULT_255_2_778
10
6.1589761
20
53.213028
11
6.1589761
21
54.188028
0
LINE
8
DEFAULT_255_2_778
10
6.1589761
20
55.688028
11
6.8589761
21
55.688028
0
LINE
8
DEFAULT_255_2_778
10
6.8589761
20
55.688028
11
6.8589761
21
54.713028
0
LINE
8
DEFAULT_255_2_778
10
6.8589761
20
54.713028
11
6.1589761
21
54.713028
0
LINE
8
DEFAULT_255_2_778
10
6.1589761
20
54.713028
11
6.1589761
21
55.688028
0
LINE
8
DEFAULT_255_2_778
10
6.1589761
20
57.187928
11
6.8589761
21
57.187928
0
LINE
8
DEFAULT_255_2_778
10
6.8589761
20
57.187928
11
6.8589761
21
56.212928
0
LINE
8
DEFAULT_255_2_778
10
6.8589761
20
56.212928
11
6.1589761
21
56.212928
0
LINE
8
DEFAULT_255_2_778
10
6.1589761
20
56.212928
11
6.1589761
21
57.187928
0
LINE
8
DEFAULT_255_2_778
10
6.1589761
20
58.687828
11
6.8589761
21
58.687828
0
LINE
8
DEFAULT_255_2_778
10
6.8589761
20
58.687828
11
6.8589761
21
57.712828
0
LINE
8
DEFAULT_255_2_778
10
6.8589761
20
57.712828
11
6.1589761
21
57.712828
0
LINE
8
DEFAULT_255_2_778
10
6.1589761
20
57.712828
11
6.1589761
21
58.687828
0
LINE
8
DEFAULT_255_2_778
10
4.3589761
20
49.687728
11
5.0590761
21
49.687728
0
LINE
8
DEFAULT_255_2_778
10
5.0590761
20
49.687728
11
5.0590761
21
48.712728
0
LINE
8
DEFAULT_255_2_778
10
5.0590761
20
48.712728
11
4.3589761
21
48.712728
0
LINE
8
DEFAULT_255_2_778
10
4.3589761
20
48.712728
11
4.3589761
21
49.687728
0
LINE
8
DEFAULT_255_2_778
10
4.3589761
20
51.187728
11
5.0590761
21
51.187728
0
LINE
8
DEFAULT_255_2_778
10
5.0590761
20
51.187728
11
5.0590761
21
50.212728
0
LINE
8
DEFAULT_255_2_778
10
5.0590761
20
50.212728
11
4.3589761
21
50.212728
0
LINE
8
DEFAULT_255_2_778
10
4.3589761
20
50.212728
11
4.3589761
21
51.187728
0
LINE
8
DEFAULT_255_2_778
10
4.3589761
20
52.687628
11
5.0590761
21
52.687628
0
LINE
8
DEFAULT_255_2_778
10
5.0590761
20
52.687628
11
5.0590761
21
51.712628
0
LINE
8
DEFAULT_255_2_778
10
5.0590761
20
51.712628
11
4.3589761
21
51.712628
0
LINE
8
DEFAULT_255_2_778
10
4.3589761
20
51.712628
11
4.3589761
21
52.687628
0
LINE
8
DEFAULT_255_2_778
10
4.3589761
20
54.187528
11
5.0590761
21
54.187528
0
LINE
8
DEFAULT_255_2_778
10
5.0590761
20
54.187528
11
5.0590761
21
53.212528
0
LINE
8
DEFAULT_255_2_778
10
5.0590761
20
53.212528
11
4.3589761
21
53.212528
0
LINE
8
DEFAULT_255_2_778
10
4.3589761
20
53.212528
11
4.3589761
21
54.187528
0
LINE
8
DEFAULT_255_2_778
10
4.3589761
20
55.687428
11
5.0590761
21
55.687428
0
LINE
8
DEFAULT_255_2_778
10
5.0590761
20
55.687428
11
5.0590761
21
54.712428
0
LINE
8
DEFAULT_255_2_778
10
5.0590761
20
54.712428
11
4.3589761
21
54.712428
0
LINE
8
DEFAULT_255_2_778
10
4.3589761
20
54.712428
11
4.3589761
21
55.687428
0
LINE
8
DEFAULT_255_2_778
10
4.3589761
20
57.187328
11
5.0590761
21
57.187328
0
LINE
8
DEFAULT_255_2_778
10
5.0590761
20
57.187328
11
5.0590761
21
56.212428
0
LINE
8
DEFAULT_255_2_778
10
5.0590761
20
56.212428
11
4.3589761
21
56.212428
0
LINE
8
DEFAULT_255_2_778
10
4.3589761
20
56.212428
11
4.3589761
21
57.187328
0
LINE
8
DEFAULT_255_2_778
10
4.3589761
20
58.687328
11
5.0590761
21
58.687328
0
LINE
8
DEFAULT_255_2_778
10
5.0590761
20
58.687328
11
5.0590761
21
57.712328
0
LINE
8
DEFAULT_255_2_778
10
5.0590761
20
57.712328
11
4.3589761
21
57.712328
0
LINE
8
DEFAULT_255_2_778
10
4.3589761
20
57.712328
11
4.3589761
21
58.687328
0
ARC
8
DEFAULT_255_2_778
10
12.4334384
20
114.8519287
40
1.0280011
50
95.9753402
51
143.65969
0
ARC
8
DEFAULT_255_2_778
10
12.4304583
20
114.8520403
40
1.0255358
50
143.566049
51
180.0612218
0
ARC
8
DEFAULT_255_2_778
10
12.4324632
20
109.3503569
40
1.0275403
50
179.9616588
51
227.8272466
0
ARC
8
DEFAULT_255_2_778
10
12.4328532
20
109.348261
40
1.0262503
50
227.7325531
51
264.0472827
0
LINE
8
DEFAULT_255_2_778
10
6.1590231
20
42.1883445
11
6.8590231
21
42.1883445
0
LINE
8
DEFAULT_255_2_778
10
6.8590231
20
42.1883445
11
6.8590231
21
41.2133445
0
LINE
8
DEFAULT_255_2_778
10
6.8590231
20
41.2133445
11
6.1590231
21
41.2133445
0
LINE
8
DEFAULT_255_2_778
10
6.1590231
20
41.2133445
11
6.1590231
21
42.1883445
0
LINE
8
DEFAULT_255_2_778
10
6.1590231
20
43.6883445
11
6.8590231
21
43.6883445
0
LINE
8
DEFAULT_255_2_778
10
6.8590231
20
43.6883445
11
6.8590231
21
42.7133445
0
LINE
8
DEFAULT_255_2_778
10
6.8590231
20
42.7133445
11
6.1590231
21
42.7133445
0
LINE
8
DEFAULT_255_2_778
10
6.1590231
20
42.7133445
11
6.1590231
21
43.6883445
0
LINE
8
DEFAULT_255_2_778
10
6.1590231
20
45.1882445
11
6.8590231
21
45.1882445
0
LINE
8
DEFAULT_255_2_778
10
6.8590231
20
45.1882445
11
6.8590231
21
44.2132445
0
LINE
8
DEFAULT_255_2_778
10
6.8590231
20
44.2132445
11
6.1590231
21
44.2132445
0
LINE
8
DEFAULT_255_2_778
10
6.1590231
20
44.2132445
11
6.1590231
21
45.1882445
0
LINE
8
DEFAULT_255_2_778
10
6.1590231
20
46.6881445
11
6.8590231
21
46.6881445
0
LINE
8
DEFAULT_255_2_778
10
6.8590231
20
46.6881445
11
6.8590231
21
45.7131445
0
LINE
8
DEFAULT_255_2_778
10
6.8590231
20
45.7131445
11
6.1590231
21
45.7131445
0
LINE
8
DEFAULT_255_2_778
10
6.1590231
20
45.7131445
11
6.1590231
21
46.6881445
0
LINE
8
DEFAULT_255_2_778
10
6.1590231
20
48.1880445
11
6.8590231
21
48.1880445
0
LINE
8
DEFAULT_255_2_778
10
6.8590231
20
48.1880445
11
6.8590231
21
47.2130445
0
LINE
8
DEFAULT_255_2_778
10
6.8590231
20
47.2130445
11
6.1590231
21
47.2130445
0
LINE
8
DEFAULT_255_2_778
10
6.1590231
20
47.2130445
11
6.1590231
21
48.1880445
0
LINE
8
DEFAULT_255_2_778
10
4.3590231
20
42.1881445
11
5.0591231
21
42.1881445
0
LINE
8
DEFAULT_255_2_778
10
5.0591231
20
42.1881445
11
5.0591231
21
41.2131445
0
LINE
8
DEFAULT_255_2_778
10
5.0591231
20
41.2131445
11
4.3590231
21
41.2131445
0
LINE
8
DEFAULT_255_2_778
10
4.3590231
20
41.2131445
11
4.3590231
21
42.1881445
0
LINE
8
DEFAULT_255_2_778
10
4.3590231
20
43.6880445
11
5.0591231
21
43.6880445
0
LINE
8
DEFAULT_255_2_778
10
5.0591231
20
43.6880445
11
5.0591231
21
42.7130445
0
LINE
8
DEFAULT_255_2_778
10
5.0591231
20
42.7130445
11
4.3590231
21
42.7130445
0
LINE
8
DEFAULT_255_2_778
10
4.3590231
20
42.7130445
11
4.3590231
21
43.6880445
0
LINE
8
DEFAULT_255_2_778
10
4.3590231
20
45.1879445
11
5.0591231
21
45.1879445
0
LINE
8
DEFAULT_255_2_778
10
5.0591231
20
45.1879445
11
5.0591231
21
44.2129445
0
LINE
8
DEFAULT_255_2_778
10
5.0591231
20
44.2129445
11
4.3590231
21
44.2129445
0
LINE
8
DEFAULT_255_2_778
10
4.3590231
20
44.2129445
11
4.3590231
21
45.1879445
0
LINE
8
DEFAULT_255_2_778
10
4.3590231
20
46.6878445
11
5.0591231
21
46.6878445
0
LINE
8
DEFAULT_255_2_778
10
5.0591231
20
46.6878445
11
5.0591231
21
45.7128445
0
LINE
8
DEFAULT_255_2_778
10
5.0591231
20
45.7128445
11
4.3590231
21
45.7128445
0
LINE
8
DEFAULT_255_2_778
10
4.3590231
20
45.7128445
11
4.3590231
21
46.6878445
0
LINE
8
DEFAULT_255_2_778
10
4.3590231
20
48.1878445
11
5.0591231
21
48.1878445
0
LINE
8
DEFAULT_255_2_778
10
5.0591231
20
48.1878445
11
5.0591231
21
47.2128445
0
LINE
8
DEFAULT_255_2_778
10
5.0591231
20
47.2128445
11
4.3590231
21
47.2128445
0
LINE
8
DEFAULT_255_2_778
10
4.3590231
20
47.2128445
11
4.3590231
21
48.1878445
0
LINE
8
DEFAULT_255_2_778
10
6.3839231
20
106.3985445
11
7.5837231
21
106.3985445
0
LINE
8
DEFAULT_255_2_778
10
7.5837231
20
106.3985445
11
7.5837231
21
96.4533445
0
LINE
8
DEFAULT_255_2_778
10
7.5837231
20
96.4533445
11
6.3839231
21
96.4533445
0
LINE
8
DEFAULT_255_2_778
10
6.3839231
20
96.4533445
11
6.3839231
21
106.3985445
0
LINE
8
DEFAULT_255_2_778
10
12.7661231
20
20.9100445
11
12.7661231
21
21.0756445
0
LINE
8
DEFAULT_255_2_778
10
12.7661231
20
21.0756445
11
14.0864231
21
21.8493445
0
LINE
8
DEFAULT_255_2_778
10
14.0864231
20
21.8493445
11
15.4064231
21
22.6235445
0
LINE
8
DEFAULT_255_2_778
10
15.4064231
20
22.6235445
11
16.7262231
21
23.3982445
0
LINE
8
DEFAULT_255_2_778
10
11.8337231
20
93.7088445
11
9.8338231
21
93.7088445
0
LINE
8
DEFAULT_255_2_778
10
9.8338231
20
93.7088445
11
9.8338231
21
96.4507445
0
LINE
8
DEFAULT_255_2_778
10
9.8338231
20
96.4507445
11
10.2838231
21
96.4507445
0
LINE
8
DEFAULT_255_2_778
10
10.2838231
20
96.4507445
11
10.2838231
21
115.1506445
0
LINE
8
DEFAULT_255_2_778
10
10.2838231
20
115.1506445
11
9.8338231
21
115.1506445
0
LINE
8
DEFAULT_255_2_778
10
9.8338231
20
115.1506445
11
9.8338231
21
117.8925445
0
LINE
8
DEFAULT_255_2_778
10
9.8338231
20
117.8925445
11
12.3261231
21
117.8925445
0
LINE
8
DEFAULT_255_2_778
10
6.3836231
20
115.1506445
11
7.5835231
21
115.1506445
0
LINE
8
DEFAULT_255_2_778
10
7.5835231
20
115.1506445
11
7.5835231
21
107.3031445
0
LINE
8
DEFAULT_255_2_778
10
7.5835231
20
107.3031445
11
6.3836231
21
107.3031445
0
LINE
8
DEFAULT_255_2_778
10
6.3836231
20
107.3031445
11
6.3836231
21
115.1506445
0
LINE
8
DEFAULT_255_2_778
10
14.6264231
20
114.6942445
11
16.6264231
21
114.6942445
0
LINE
8
DEFAULT_255_2_778
10
16.6264231
20
114.6942445
11
16.6264231
21
111.9621445
0
LINE
8
DEFAULT_255_2_778
10
16.6264231
20
111.9621445
11
14.6264231
21
111.9621445
0
LINE
8
DEFAULT_255_2_778
10
14.6264231
20
111.9621445
11
14.6264231
21
114.6942445
0
LINE
8
DEFAULT_255_2_778
10
11.4049231
20
114.8509445
11
11.4049231
21
109.3510445
0
LINE
8
DEFAULT_255_2_778
10
16.7261994
20
132.399125
11
16.7261994
21
23.112725
0
LINE
8
DEFAULT_255_2_778
10
17.2262994
20
146.813325
11
17.2262994
21
135.413225
0
LINE
8
DEFAULT_255_2_778
10
14.2676994
20
-0.174875
11
14.2676994
21
-0.186575
0
LINE
8
DEFAULT_255_2_778
10
14.5261994
20
-0.110875
11
16.7261994
21
-0.110875
0
LINE
8
DEFAULT_255_2_778
10
16.7261994
20
-0.110875
11
16.7261994
21
4.484925
0
LINE
8
DEFAULT_255_2_778
10
16.7261994
20
4.484925
11
14.5261994
21
4.484925
0
LINE
8
DEFAULT_255_2_778
10
45.5271994
20
-0.186575
11
45.5271994
21
-0.174875
0
LINE
8
DEFAULT_255_2_778
10
42.7262994
20
23.112725
11
42.7262994
21
132.399125
0
LINE
8
DEFAULT_255_2_778
10
42.7262994
20
23.398125
11
44.0459994
21
22.623725
0
LINE
8
DEFAULT_255_2_778
10
44.0459994
20
22.623725
11
45.3659994
21
21.849525
0
LINE
8
DEFAULT_255_2_778
10
45.3659994
20
21.849525
11
46.6862994
21
21.075925
0
LINE
8
DEFAULT_255_2_778
10
46.6862994
20
21.075925
11
46.6862994
21
20.910025
0
LINE
8
DEFAULT_255_2_778
10
44.9262796
20
67.5634573
11
44.9262796
21
-0.1746427
0
LINE
8
DEFAULT_255_2_778
10
44.9262796
20
-0.1746427
11
46.8261796
21
-0.1746427
0
LINE
8
DEFAULT_255_2_778
10
46.8261796
20
-0.1746427
11
46.8261796
21
67.5634573
0
LINE
8
DEFAULT_255_2_778
10
44.8262796
20
66.0791573
11
42.8262796
21
66.0791573
0
LINE
8
DEFAULT_255_2_778
10
42.8262796
20
66.0791573
11
42.8262796
21
63.3629573
0
LINE
8
DEFAULT_255_2_778
10
42.8262796
20
63.3629573
11
44.8262796
21
63.3629573
0
LINE
8
DEFAULT_255_2_778
10
44.8262796
20
63.3629573
11
44.8262796
21
66.0791573
0
LINE
8
DEFAULT_255_2_778
10
44.8262796
20
71.4806573
11
42.8262796
21
71.4806573
0
LINE
8
DEFAULT_255_2_778
10
42.8262796
20
71.4806573
11
42.8262796
21
68.7631573
0
LINE
8
DEFAULT_255_2_778
10
42.8262796
20
68.7631573
11
44.8262796
21
68.7631573
0
LINE
8
DEFAULT_255_2_778
10
44.8262796
20
68.7631573
11
44.8262796
21
71.4806573
0
LINE
8
DEFAULT_255_2_778
10
14.5261796
20
3.6084573
11
12.6261796
21
3.6084573
0
LINE
8
DEFAULT_255_2_778
10
14.5261796
20
3.0220573
11
12.6261796
21
3.0220573
0
LINE
8
DEFAULT_255_2_778
10
12.6261796
20
-0.1748427
11
14.5261796
21
-0.1748427
0
LINE
8
DEFAULT_255_2_778
10
14.5261796
20
4.8366573
11
14.5261796
21
-0.1746427
0
LINE
8
DEFAULT_255_2_778
10
14.5261796
20
-0.1746427
11
12.6261796
21
-0.1746427
0
LINE
8
DEFAULT_255_2_778
10
12.6261796
20
-0.1746427
11
12.6261796
21
4.8138573
0
LINE
8
DEFAULT_255_2_778
10
16.7263796
20
4.4778573
11
14.5263796
21
4.4778573
0
LINE
8
DEFAULT_255_2_778
10
16.7263796
20
4.4132573
11
14.5263796
21
4.4132573
0
LINE
8
DEFAULT_255_2_778
10
16.7263796
20
4.2762573
11
14.5263796
21
4.2762573
0
LINE
8
DEFAULT_255_2_778
10
16.7263796
20
3.4517573
11
14.5263796
21
3.4517573
0
LINE
8
DEFAULT_255_2_778
10
16.7263796
20
0.7868573
11
14.5263796
21
0.7868573
0
LINE
8
DEFAULT_255_2_778
10
16.7263796
20
0.4199573
11
14.5263796
21
0.4199573
0
LINE
8
DEFAULT_255_2_778
10
16.7263796
20
-0.1105427
11
14.5263796
21
-0.1105427
0
LINE
8
DEFAULT_255_2_778
10
14.5263796
20
4.5143573
11
16.7263796
21
4.5143573
0
LINE
8
DEFAULT_255_2_778
10
16.7263796
20
4.5143573
11
16.7263796
21
4.9056573
0
LINE
8
DEFAULT_255_2_778
10
38.9762796
20
5.8637573
11
40.6262796
21
5.8637573
0
LINE
8
DEFAULT_255_2_778
10
38.9762796
20
7.8139573
11
38.9762796
21
5.6464573
0
LINE
8
DEFAULT_255_2_778
10
38.9762796
20
5.6464573
11
40.6262796
21
5.6464573
0
LINE
8
DEFAULT_255_2_778
10
40.6262796
20
5.6464573
11
40.6262796
21
7.8139573
0
LINE
8
DEFAULT_255_2_778
10
44.9263163
20
6.6120239
11
46.8262163
21
6.6120239
0
LINE
8
DEFAULT_255_2_778
10
44.9263163
20
5.7957239
11
46.8262163
21
5.7957239
0
LINE
8
DEFAULT_255_2_778
10
44.9263163
20
3.6084239
11
46.8262163
21
3.6084239
0
LINE
8
DEFAULT_255_2_778
10
44.9263163
20
3.0221239
11
46.8262163
21
3.0221239
0
LINE
8
DEFAULT_255_2_778
10
44.9263163
20
-0.1747761
11
46.8262163
21
-0.1747761
0
LINE
8
DEFAULT_255_2_778
10
42.7262163
20
7.6134239
11
44.9263163
21
7.6134239
0
LINE
8
DEFAULT_255_2_778
10
42.7262163
20
6.7152239
11
44.9263163
21
6.7152239
0
LINE
8
DEFAULT_255_2_778
10
42.7262163
20
4.4781239
11
44.9263163
21
4.4781239
0
LINE
8
DEFAULT_255_2_778
10
42.7262163
20
4.4136239
11
44.9263163
21
4.4136239
0
LINE
8
DEFAULT_255_2_778
10
42.7262163
20
4.2765239
11
44.9263163
21
4.2765239
0
LINE
8
DEFAULT_255_2_778
10
42.7262163
20
3.4521239
11
44.9263163
21
3.4521239
0
LINE
8
DEFAULT_255_2_778
10
42.7262163
20
0.7869239
11
44.9263163
21
0.7869239
0
LINE
8
DEFAULT_255_2_778
10
42.7262163
20
0.4199239
11
44.9263163
21
0.4199239
0
LINE
8
DEFAULT_255_2_778
10
42.7262163
20
-0.1105761
11
44.9263163
21
-0.1105761
0
LINE
8
DEFAULT_255_2_778
10
44.9263163
20
4.5144239
11
42.7262163
21
4.5144239
0
LINE
8
DEFAULT_255_2_778
10
42.7262163
20
4.5144239
11
42.7262163
21
7.8135239
0
LINE
8
DEFAULT_255_2_778
10
44.9263163
20
-0.1107761
11
42.7262163
21
-0.1107761
0
LINE
8
DEFAULT_255_2_778
10
42.7262163
20
-0.1107761
11
42.7262163
21
4.4850239
0
LINE
8
DEFAULT_255_2_778
10
42.7262163
20
4.4850239
11
44.9263163
21
4.4850239
0
LINE
8
DEFAULT_255_2_778
10
47.1263163
20
21.0757239
11
46.6863163
21
21.0757239
0
LINE
8
DEFAULT_255_2_778
10
12.7662163
20
21.0757239
11
12.3262163
21
21.0757239
0
LINE
8
DEFAULT_255_2_778
10
40.2262163
20
23.1093239
11
19.2262163
21
23.1093239
0
LINE
8
DEFAULT_255_2_778
10
16.8262163
20
23.5276239
11
16.7262163
21
23.5276239
0
LINE
8
DEFAULT_255_2_778
10
42.6262163
20
23.5276239
11
42.7262163
21
23.5276239
0
LINE
8
DEFAULT_255_2_778
10
42.8263163
20
24.5663239
11
44.8262163
21
24.5663239
0
LINE
8
DEFAULT_255_2_778
10
44.8262163
20
27.2672239
11
42.8263163
21
27.2672239
0
LINE
8
DEFAULT_255_2_778
10
42.8263163
20
27.2672239
11
42.8263163
21
24.5634239
0
LINE
8
DEFAULT_255_2_778
10
42.8263163
20
24.5634239
11
44.8262163
21
24.5634239
0
LINE
8
DEFAULT_255_2_778
10
44.8262163
20
24.5634239
11
44.8262163
21
27.2672239
0
LINE
8
DEFAULT_255_2_778
10
16.6262163
20
30.4681239
11
14.6262163
21
30.4681239
0
LINE
8
DEFAULT_255_2_778
10
16.6262163
20
24.5663239
11
14.6262163
21
24.5663239
0
LINE
8
DEFAULT_255_2_778
10
14.6262163
20
27.2672239
11
16.6262163
21
27.2672239
0
LINE
8
DEFAULT_255_2_778
10
16.6262163
20
27.2672239
11
16.6262163
21
24.5634239
0
LINE
8
DEFAULT_255_2_778
10
16.6262163
20
24.5634239
11
14.6262163
21
24.5634239
0
LINE
8
DEFAULT_255_2_778
10
14.6262163
20
24.5634239
11
14.6262163
21
27.2672239
0
LINE
8
DEFAULT_255_2_778
10
42.8263163
20
30.4679239
11
44.8262163
21
30.4679239
0
LINE
8
DEFAULT_255_2_778
10
44.8262163
20
33.1687239
11
42.8263163
21
33.1687239
0
LINE
8
DEFAULT_255_2_778
10
42.8263163
20
33.1687239
11
42.8263163
21
30.4631239
0
LINE
8
DEFAULT_255_2_778
10
42.8263163
20
30.4631239
11
44.8262163
21
30.4631239
0
LINE
8
DEFAULT_255_2_778
10
44.8262163
20
30.4631239
11
44.8262163
21
33.1687239
0
LINE
8
DEFAULT_255_2_778
10
16.6262163
20
36.3699239
11
14.6262163
21
36.3699239
0
LINE
8
DEFAULT_255_2_778
10
14.6262163
20
39.0708239
11
16.6262163
21
39.0708239
0
LINE
8
DEFAULT_255_2_778
10
16.6262163
20
39.0708239
11
16.6262163
21
36.3633239
0
LINE
8
DEFAULT_255_2_778
10
16.6262163
20
36.3633239
11
14.6262163
21
36.3633239
0
LINE
8
DEFAULT_255_2_778
10
14.6262163
20
36.3633239
11
14.6262163
21
39.0708239
0
LINE
8
DEFAULT_255_2_778
10
42.8263163
20
36.3699239
11
44.8262163
21
36.3699239
0
LINE
8
DEFAULT_255_2_778
10
44.8262163
20
39.0708239
11
42.8263163
21
39.0708239
0
LINE
8
DEFAULT_255_2_778
10
42.8263163
20
39.0708239
11
42.8263163
21
36.3633239
0
LINE
8
DEFAULT_255_2_778
10
42.8263163
20
36.3633239
11
44.8262163
21
36.3633239
0
LINE
8
DEFAULT_255_2_778
10
44.8262163
20
36.3633239
11
44.8262163
21
39.0708239
0
LINE
8
DEFAULT_255_2_778
10
9.1845163
20
36.8009239
11
0.2339163
21
36.8009239
0
LINE
8
DEFAULT_255_2_778
10
12.3264163
20
36.7417239
11
0.2339163
21
36.7417239
0
LINE
8
DEFAULT_255_2_778
10
9.1845163
20
38.2008239
11
11.8340163
21
38.2008239
0
LINE
8
DEFAULT_255_2_778
10
11.8340163
20
36.7949239
11
9.1845163
21
36.7949239
0
LINE
8
DEFAULT_255_2_778
10
9.1845163
20
36.7949239
11
9.1845163
21
39.7865239
0
LINE
8
DEFAULT_255_2_778
10
9.1845163
20
39.7865239
11
11.8338163
21
39.7865239
0
LINE
8
DEFAULT_255_2_778
10
16.6262163
20
41.7711239
11
14.6262163
21
41.7711239
0
LINE
8
DEFAULT_255_2_778
10
14.6262163
20
44.4723239
11
16.6262163
21
44.4723239
0
LINE
8
DEFAULT_255_2_778
10
16.6262163
20
44.4723239
11
16.6262163
21
41.7632239
0
LINE
8
DEFAULT_255_2_778
10
16.6262163
20
41.7632239
11
14.6262163
21
41.7632239
0
LINE
8
DEFAULT_255_2_778
10
14.6262163
20
41.7632239
11
14.6262163
21
44.4723239
0
LINE
8
DEFAULT_255_2_778
10
42.8263163
20
41.7711239
11
44.8262163
21
41.7711239
0
LINE
8
DEFAULT_255_2_778
10
44.8262163
20
44.4723239
11
42.8263163
21
44.4723239
0
LINE
8
DEFAULT_255_2_778
10
42.8263163
20
44.4723239
11
42.8263163
21
41.7632239
0
LINE
8
DEFAULT_255_2_778
10
42.8263163
20
41.7632239
11
44.8262163
21
41.7632239
0
LINE
8
DEFAULT_255_2_778
10
44.8262163
20
41.7632239
11
44.8262163
21
44.4723239
0
LINE
8
DEFAULT_255_2_778
10
16.6262163
20
47.1729239
11
14.6262163
21
47.1729239
0
LINE
8
DEFAULT_255_2_778
10
14.6262163
20
49.8740239
11
16.6262163
21
49.8740239
0
LINE
8
DEFAULT_255_2_778
10
16.6262163
20
49.8740239
11
16.6262163
21
47.1631239
0
LINE
8
DEFAULT_255_2_778
10
16.6262163
20
47.1631239
11
14.6262163
21
47.1631239
0
LINE
8
DEFAULT_255_2_778
10
14.6262163
20
47.1631239
11
14.6262163
21
49.8740239
0
LINE
8
DEFAULT_255_2_778
10
42.8263163
20
47.1729239
11
44.8262163
21
47.1729239
0
LINE
8
DEFAULT_255_2_778
10
44.8262163
20
49.8740239
11
42.8263163
21
49.8740239
0
LINE
8
DEFAULT_255_2_778
10
42.8263163
20
49.8740239
11
42.8263163
21
47.1631239
0
LINE
8
DEFAULT_255_2_778
10
42.8263163
20
47.1631239
11
44.8262163
21
47.1631239
0
LINE
8
DEFAULT_255_2_778
10
44.8262163
20
47.1631239
11
44.8262163
21
49.8740239
0
LINE
8
DEFAULT_255_2_778
10
16.6262163
20
52.5743239
11
14.6262163
21
52.5743239
0
LINE
8
DEFAULT_255_2_778
10
14.6262163
20
55.2755239
11
16.6262163
21
55.2755239
0
LINE
8
DEFAULT_255_2_778
10
16.6262163
20
55.2755239
11
16.6262163
21
52.5630239
0
LINE
8
DEFAULT_255_2_778
10
16.6262163
20
52.5630239
11
14.6262163
21
52.5630239
0
LINE
8
DEFAULT_255_2_778
10
14.6262163
20
52.5630239
11
14.6262163
21
55.2755239
0
LINE
8
DEFAULT_255_2_778
10
42.8263163
20
52.5743239
11
44.8262163
21
52.5743239
0
LINE
8
DEFAULT_255_2_778
10
44.8262163
20
55.2755239
11
42.8263163
21
55.2755239
0
LINE
8
DEFAULT_255_2_778
10
42.8263163
20
55.2755239
11
42.8263163
21
52.5630239
0
LINE
8
DEFAULT_255_2_778
10
42.8263163
20
52.5630239
11
44.8262163
21
52.5630239
0
LINE
8
DEFAULT_255_2_778
10
44.8262163
20
52.5630239
11
44.8262163
21
55.2755239
0
LINE
8
DEFAULT_255_2_778
10
16.6262163
20
63.3775239
11
14.6262163
21
63.3775239
0
LINE
8
DEFAULT_255_2_778
10
16.6262163
20
57.9761239
11
14.6262163
21
57.9761239
0
LINE
8
DEFAULT_255_2_778
10
14.6262163
20
60.6775239
11
16.6262163
21
60.6775239
0
LINE
8
DEFAULT_255_2_778
10
16.6262163
20
60.6775239
11
16.6262163
21
57.9631239
0
LINE
8
DEFAULT_255_2_778
10
16.6262163
20
57.9631239
11
14.6262163
21
57.9631239
0
LINE
8
DEFAULT_255_2_778
10
14.6262163
20
57.9631239
11
14.6262163
21
60.6775239
0
LINE
8
DEFAULT_255_2_778
10
42.8263163
20
63.3775239
11
44.8262163
21
63.3775239
0
LINE
8
DEFAULT_255_2_778
10
42.8263163
20
57.9761239
11
44.8262163
21
57.9761239
0
LINE
8
DEFAULT_255_2_778
10
44.8262163
20
60.6775239
11
42.8263163
21
60.6775239
0
LINE
8
DEFAULT_255_2_778
10
42.8263163
20
60.6775239
11
42.8263163
21
57.9631239
0
LINE
8
DEFAULT_255_2_778
10
42.8263163
20
57.9631239
11
44.8262163
21
57.9631239
0
LINE
8
DEFAULT_255_2_778
10
44.8262163
20
57.9631239
11
44.8262163
21
60.6775239
0
LINE
8
DEFAULT_255_2_778
10
16.6262163
20
68.7793239
11
14.6262163
21
68.7793239
0
LINE
8
DEFAULT_255_2_778
10
14.6262163
20
71.4807239
11
16.6262163
21
71.4807239
0
LINE
8
DEFAULT_255_2_778
10
16.6262163
20
71.4807239
11
16.6262163
21
68.7631239
0
LINE
8
DEFAULT_255_2_778
10
16.6262163
20
68.7631239
11
14.6262163
21
68.7631239
0
LINE
8
DEFAULT_255_2_778
10
14.6262163
20
68.7631239
11
14.6262163
21
71.4807239
0
LINE
8
DEFAULT_255_2_778
10
42.8263163
20
68.7793239
11
44.8262163
21
68.7793239
0
LINE
8
DEFAULT_255_2_778
10
4.6987163
20
73.9297239
11
6.5688163
21
73.9297239
0
LINE
8
DEFAULT_255_2_778
10
4.6987163
20
73.2528239
11
6.5691163
21
73.2528239
0
LINE
8
DEFAULT_255_2_778
10
16.6262163
20
74.1807239
11
14.6262163
21
74.1807239
0
LINE
8
DEFAULT_255_2_778
10
14.6262163
20
76.8824239
11
16.6262163
21
76.8824239
0
LINE
8
DEFAULT_255_2_778
10
16.6262163
20
76.8824239
11
16.6262163
21
74.1630239
0
LINE
8
DEFAULT_255_2_778
10
16.6262163
20
74.1630239
11
14.6262163
21
74.1630239
0
LINE
8
DEFAULT_255_2_778
10
14.6262163
20
74.1630239
11
14.6262163
21
76.8824239
0
LINE
8
DEFAULT_255_2_778
10
42.8263163
20
74.1807239
11
44.8262163
21
74.1807239
0
LINE
8
DEFAULT_255_2_778
10
44.8262163
20
76.8824239
11
42.8263163
21
76.8824239
0
LINE
8
DEFAULT_255_2_778
10
42.8263163
20
76.8824239
11
42.8263163
21
74.1630239
0
LINE
8
DEFAULT_255_2_778
10
42.8263163
20
74.1630239
11
44.8262163
21
74.1630239
0
LINE
8
DEFAULT_255_2_778
10
44.8262163
20
74.1630239
11
44.8262163
21
76.8824239
0
LINE
8
DEFAULT_255_2_778
10
11.8340163
20
75.9466239
11
6.5691163
21
75.9466239
0
LINE
8
DEFAULT_255_2_778
10
11.8340163
20
72.2154239
11
9.1845163
21
72.2154239
0
LINE
8
DEFAULT_255_2_778
10
9.1845163
20
72.2154239
11
9.1845163
21
75.1010239
0
LINE
8
DEFAULT_255_2_778
10
6.5691163
20
75.5232239
11
11.8340163
21
75.5232239
0
LINE
8
DEFAULT_255_2_778
10
6.5691163
20
75.1010239
11
11.8340163
21
75.1010239
0
LINE
8
DEFAULT_255_2_778
10
4.6987277
20
75.946633
11
0.2339277
21
75.946633
0
LINE
8
DEFAULT_255_2_778
10
1.7063277
20
75.101033
11
4.6987277
21
75.101033
0
LINE
8
DEFAULT_255_2_778
10
11.8338277
20
78.765733
11
6.5691277
21
78.765733
0
LINE
8
DEFAULT_255_2_778
10
6.5691277
20
78.765733
11
6.5691277
21
73.101033
0
LINE
8
DEFAULT_255_2_778
10
6.5691277
20
73.101033
11
4.6990277
21
73.101033
0
LINE
8
DEFAULT_255_2_778
10
4.6990277
20
73.101033
11
4.6990277
21
78.765733
0
LINE
8
DEFAULT_255_2_778
10
4.6990277
20
78.765733
11
0.2339277
21
78.765733
0
LINE
8
DEFAULT_255_2_778
10
8.5339277
20
71.225933
11
2.6839277
21
71.225933
0
LINE
8
DEFAULT_255_2_778
10
2.6839277
20
71.225933
11
2.6839277
21
70.025733
0
LINE
8
DEFAULT_255_2_778
10
2.6839277
20
70.025733
11
8.5339277
21
70.025733
0
LINE
8
DEFAULT_255_2_778
10
8.5339277
20
70.025733
11
8.5339277
21
71.225933
0
LINE
8
DEFAULT_255_2_778
10
0.2339277
20
74.153533
11
1.7063277
21
74.153533
0
LINE
8
DEFAULT_255_2_778
10
1.7063277
20
74.153533
11
1.7063277
21
75.523033
0
LINE
8
DEFAULT_255_2_778
10
1.7063277
20
75.523033
11
4.6987277
21
75.523033
0
LINE
8
DEFAULT_255_2_778
10
42.8263277
20
79.582533
11
44.8262277
21
79.582533
0
LINE
8
DEFAULT_255_2_778
10
44.8262277
20
82.284133
11
42.8263277
21
82.284133
0
LINE
8
DEFAULT_255_2_778
10
42.8263277
20
82.284133
11
42.8263277
21
79.562933
0
LINE
8
DEFAULT_255_2_778
10
42.8263277
20
79.562933
11
44.8262277
21
79.562933
0
LINE
8
DEFAULT_255_2_778
10
44.8262277
20
79.562933
11
44.8262277
21
82.284133
0
LINE
8
DEFAULT_255_2_778
10
16.6262277
20
84.984033
11
14.6262277
21
84.984033
0
LINE
8
DEFAULT_255_2_778
10
16.6262277
20
79.582533
11
14.6262277
21
79.582533
0
LINE
8
DEFAULT_255_2_778
10
14.6262277
20
82.284133
11
16.6262277
21
82.284133
0
LINE
8
DEFAULT_255_2_778
10
16.6262277
20
82.284133
11
16.6262277
21
79.562933
0
LINE
8
DEFAULT_255_2_778
10
16.6262277
20
79.562933
11
14.6262277
21
79.562933
0
LINE
8
DEFAULT_255_2_778
10
14.6262277
20
79.562933
11
14.6262277
21
82.284133
0
LINE
8
DEFAULT_255_2_778
10
42.8263277
20
84.983733
11
44.8262277
21
84.983733
0
LINE
8
DEFAULT_255_2_778
10
44.8262277
20
87.685633
11
42.8263277
21
87.685633
0
LINE
8
DEFAULT_255_2_778
10
42.8263277
20
87.685633
11
42.8263277
21
84.962833
0
LINE
8
DEFAULT_255_2_778
10
42.8263277
20
84.962833
11
44.8262277
21
84.962833
0
LINE
8
DEFAULT_255_2_778
10
44.8262277
20
84.962833
11
44.8262277
21
87.685633
0
LINE
8
DEFAULT_255_2_778
10
16.6262277
20
90.385433
11
14.6262277
21
90.385433
0
LINE
8
DEFAULT_255_2_778
10
42.8263277
20
90.385233
11
44.8262277
21
90.385233
0
LINE
8
DEFAULT_255_2_778
10
44.8262277
20
93.087333
11
42.8263277
21
93.087333
0
LINE
8
DEFAULT_255_2_778
10
42.8263277
20
93.087333
11
42.8263277
21
90.362733
0
LINE
8
DEFAULT_255_2_778
10
42.8263277
20
90.362733
11
44.8262277
21
90.362733
0
LINE
8
DEFAULT_255_2_778
10
44.8262277
20
90.362733
11
44.8262277
21
93.087333
0
LINE
8
DEFAULT_255_2_778
10
11.8338277
20
94.318533
11
9.8338277
21
94.318533
0
LINE
8
DEFAULT_255_2_778
10
12.3264277
20
94.672233
11
11.8340277
21
94.672233
0
LINE
8
DEFAULT_255_2_778
10
12.3264277
20
94.201033
11
11.8340277
21
94.201033
0
LINE
8
DEFAULT_255_2_778
10
12.32617
20
94.800795
11
9.83377
21
94.800795
0
LINE
8
DEFAULT_255_2_778
10
14.62617
20
98.489095
11
16.62617
21
98.489095
0
LINE
8
DEFAULT_255_2_778
10
16.62617
20
98.489095
11
16.62617
21
95.762595
0
LINE
8
DEFAULT_255_2_778
10
16.62617
20
95.762595
11
14.62617
21
95.762595
0
LINE
8
DEFAULT_255_2_778
10
14.62617
20
95.762595
11
14.62617
21
98.489095
0
LINE
8
DEFAULT_255_2_778
10
14.62617
20
93.087395
11
16.62617
21
93.087395
0
LINE
8
DEFAULT_255_2_778
10
16.62617
20
93.087395
11
16.62617
21
90.362695
0
LINE
8
DEFAULT_255_2_778
10
16.62617
20
90.362695
11
14.62617
21
90.362695
0
LINE
8
DEFAULT_255_2_778
10
14.62617
20
90.362695
11
14.62617
21
93.087395
0
LINE
8
DEFAULT_255_2_778
10
11.83377
20
94.800795
11
11.83377
21
36.774495
0
LINE
8
DEFAULT_255_2_778
10
11.83377
20
36.774495
11
12.32617
21
36.774495
0
LINE
8
DEFAULT_255_2_778
10
3.58377
20
94.800795
11
0.23387
21
94.800795
0
LINE
8
DEFAULT_255_2_778
10
3.58377
20
94.318495
11
0.23387
21
94.318495
0
LINE
8
DEFAULT_255_2_778
10
16.6262277
20
95.7869203
11
14.6262277
21
95.7869203
0
LINE
8
DEFAULT_255_2_778
10
42.8263277
20
95.7869203
11
44.8262277
21
95.7869203
0
LINE
8
DEFAULT_255_2_778
10
44.8262277
20
98.4891203
11
42.8263277
21
98.4891203
0
LINE
8
DEFAULT_255_2_778
10
42.8263277
20
98.4891203
11
42.8263277
21
95.7626203
0
LINE
8
DEFAULT_255_2_778
10
42.8263277
20
95.7626203
11
44.8262277
21
95.7626203
0
LINE
8
DEFAULT_255_2_778
10
44.8262277
20
95.7626203
11
44.8262277
21
98.4891203
0
LINE
8
DEFAULT_255_2_778
10
16.6262277
20
106.5898203
11
14.6262277
21
106.5898203
0
LINE
8
DEFAULT_255_2_778
10
16.6262277
20
101.1884203
11
14.6262277
21
101.1884203
0
LINE
8
DEFAULT_255_2_778
10
14.6262277
20
103.8908203
11
16.6262277
21
103.8908203
0
LINE
8
DEFAULT_255_2_778
10
16.6262277
20
103.8908203
11
16.6262277
21
101.1624203
0
LINE
8
DEFAULT_255_2_778
10
16.6262277
20
101.1624203
11
14.6262277
21
101.1624203
0
LINE
8
DEFAULT_255_2_778
10
14.6262277
20
101.1624203
11
14.6262277
21
103.8908203
0
LINE
8
DEFAULT_255_2_778
10
42.8263277
20
106.5898203
11
44.8262277
21
106.5898203
0
LINE
8
DEFAULT_255_2_778
10
42.8263277
20
101.1884203
11
44.8262277
21
101.1884203
0
LINE
8
DEFAULT_255_2_778
10
44.8262277
20
103.8908203
11
42.8263277
21
103.8908203
0
LINE
8
DEFAULT_255_2_778
10
42.8263277
20
103.8908203
11
42.8263277
21
101.1624203
0
LINE
8
DEFAULT_255_2_778
10
42.8263277
20
101.1624203
11
44.8262277
21
101.1624203
0
LINE
8
DEFAULT_255_2_778
10
44.8262277
20
101.1624203
11
44.8262277
21
103.8908203
0
LINE
8
DEFAULT_255_2_778
10
16.6262277
20
111.9916203
11
14.6262277
21
111.9916203
0
LINE
8
DEFAULT_255_2_778
10
42.8263277
20
111.9913203
11
44.8262277
21
111.9913203
0
LINE
8
DEFAULT_255_2_778
10
44.8262277
20
114.6943203
11
42.8263277
21
114.6943203
0
LINE
8
DEFAULT_255_2_778
10
42.8263277
20
114.6943203
11
42.8263277
21
111.9622203
0
LINE
8
DEFAULT_255_2_778
10
42.8263277
20
111.9622203
11
44.8262277
21
111.9622203
0
LINE
8
DEFAULT_255_2_778
10
44.8262277
20
111.9622203
11
44.8262277
21
114.6943203
0
LINE
8
DEFAULT_255_2_778
10
12.3264277
20
117.2832203
11
9.8340277
21
117.2832203
0
LINE
8
DEFAULT_255_2_778
10
12.3264277
20
116.8009203
11
9.8340277
21
116.8009203
0
LINE
8
DEFAULT_255_2_778
10
3.5838277
20
117.2832203
11
0.2339277
21
117.2832203
0
LINE
8
DEFAULT_255_2_778
10
3.5838277
20
116.8009203
11
0.2339277
21
116.8009203
0
LINE
8
DEFAULT_255_2_778
10
16.6262277
20
117.3928203
11
14.6262277
21
117.3928203
0
LINE
8
DEFAULT_255_2_778
10
14.6262277
20
120.0960203
11
16.6262277
21
120.0960203
0
LINE
8
DEFAULT_255_2_778
10
16.6262277
20
120.0960203
11
16.6262277
21
117.3621203
0
LINE
8
DEFAULT_255_2_778
10
16.6262277
20
117.3621203
11
14.6262277
21
117.3621203
0
LINE
8
DEFAULT_255_2_778
10
14.6262277
20
117.3621203
11
14.6262277
21
120.0960203
0
LINE
8
DEFAULT_255_2_778
10
42.8263277
20
117.3928203
11
44.8262277
21
117.3928203
0
LINE
8
DEFAULT_255_2_778
10
44.8262277
20
120.0960203
11
42.8263277
21
120.0960203
0
LINE
8
DEFAULT_255_2_778
10
42.8263277
20
120.0960203
11
42.8263277
21
117.3621203
0
LINE
8
DEFAULT_255_2_778
10
42.8263277
20
117.3621203
11
44.8262277
21
117.3621203
0
LINE
8
DEFAULT_255_2_778
10
44.8262277
20
117.3621203
11
44.8262277
21
120.0960203
0
LINE
8
DEFAULT_255_2_778
10
41.1552277
20
136.2631203
11
41.1086277
21
136.2872203
0
LINE
8
DEFAULT_255_2_778
10
41.1086277
20
136.2872203
11
41.0615277
21
136.3105203
0
LINE
8
DEFAULT_255_2_778
10
41.0615277
20
136.3105203
11
41.0141277
21
136.3330203
0
LINE
8
DEFAULT_255_2_778
10
41.0141277
20
136.3330203
11
40.9665277
21
136.3547203
0
LINE
8
DEFAULT_255_2_778
10
40.9665277
20
136.3547203
11
40.9183277
21
136.3756203
0
LINE
8
DEFAULT_255_2_778
10
40.9183277
20
136.3756203
11
40.8699277
21
136.3957203
0
LINE
8
DEFAULT_255_2_778
10
40.8699277
20
136.3957203
11
40.8210277
21
136.4150203
0
LINE
8
DEFAULT_255_2_778
10
40.8210277
20
136.4150203
11
40.7718277
21
136.4335203
0
LINE
8
DEFAULT_255_2_778
10
40.7718277
20
136.4335203
11
40.7223277
21
136.4512203
0
LINE
8
DEFAULT_255_2_778
10
40.7223277
20
136.4512203
11
40.6726277
21
136.4679203
0
LINE
8
DEFAULT_255_2_778
10
40.6726277
20
136.4679203
11
40.6225277
21
136.4838203
0
LINE
8
DEFAULT_255_2_778
10
40.6225277
20
136.4838203
11
40.5723277
21
136.4989203
0
LINE
8
DEFAULT_255_2_778
10
40.5723277
20
136.4989203
11
40.5217277
21
136.5129203
0
LINE
8
DEFAULT_255_2_778
10
40.5217277
20
136.5129203
11
40.4709277
21
136.5261203
0
LINE
8
DEFAULT_255_2_778
10
40.4709277
20
136.5261203
11
40.4199277
21
136.5386203
0
LINE
8
DEFAULT_255_2_778
10
40.4199277
20
136.5386203
11
40.3685277
21
136.5502203
0
LINE
8
DEFAULT_255_2_778
10
40.3685277
20
136.5502203
11
40.3172277
21
136.5608203
0
LINE
8
DEFAULT_255_2_778
10
40.3172277
20
136.5608203
11
40.2656277
21
136.5706203
0
LINE
8
DEFAULT_255_2_778
10
40.2656277
20
136.5706203
11
40.2138277
21
136.5793203
0
LINE
8
DEFAULT_255_2_778
10
40.2138277
20
136.5793203
11
40.1619277
21
136.5872203
0
LINE
8
DEFAULT_255_2_778
10
40.1619277
20
136.5872203
11
40.1100277
21
136.5941203
0
LINE
8
DEFAULT_255_2_778
10
40.1100277
20
136.5941203
11
40.0579277
21
136.6002203
0
LINE
8
DEFAULT_255_2_778
10
40.0579277
20
136.6002203
11
40.0058277
21
136.6055203
0
LINE
8
DEFAULT_255_2_778
10
40.0058277
20
136.6055203
11
39.9534277
21
136.6097203
0
LINE
8
DEFAULT_255_2_778
10
39.9534277
20
136.6097203
11
39.9010277
21
136.6132203
0
LINE
8
DEFAULT_255_2_778
10
39.9010277
20
136.6132203
11
39.8486277
21
136.6155203
0
LINE
8
DEFAULT_255_2_778
10
39.8486277
20
136.6155203
11
39.7963277
21
136.6169203
0
LINE
8
DEFAULT_255_2_778
10
39.7963277
20
136.6169203
11
39.7439277
21
136.6174203
0
LINE
8
DEFAULT_255_2_778
10
16.6262277
20
128.1960203
11
14.6262277
21
128.1960203
0
LINE
8
DEFAULT_255_2_778
10
16.6262277
20
122.7945203
11
14.6262277
21
122.7945203
0
LINE
8
DEFAULT_255_2_778
10
14.6262277
20
125.4980203
11
16.6262277
21
125.4980203
0
LINE
8
DEFAULT_255_2_778
10
16.6262277
20
125.4980203
11
16.6262277
21
122.7622203
0
LINE
8
DEFAULT_255_2_778
10
16.6262277
20
122.7622203
11
14.6262277
21
122.7622203
0
LINE
8
DEFAULT_255_2_778
10
14.6262277
20
122.7622203
11
14.6262277
21
125.4980203
0
LINE
8
DEFAULT_255_2_778
10
42.8263277
20
128.1960203
11
44.8262277
21
128.1960203
0
LINE
8
DEFAULT_255_2_778
10
42.8263277
20
122.7945203
11
44.8262277
21
122.7945203
0
LINE
8
DEFAULT_255_2_778
10
44.8262277
20
125.4980203
11
42.8263277
21
125.4980203
0
LINE
8
DEFAULT_255_2_778
10
42.8263277
20
125.4980203
11
42.8263277
21
122.7622203
0
LINE
8
DEFAULT_255_2_778
10
42.8263277
20
122.7622203
11
44.8262277
21
122.7622203
0
LINE
8
DEFAULT_255_2_778
10
44.8262277
20
122.7622203
11
44.8262277
21
125.4980203
0
LINE
8
DEFAULT_255_2_778
10
41.3763277
20
132.2076203
11
33.2264277
21
132.2076203
0
LINE
8
DEFAULT_255_2_778
10
26.2263277
20
132.2076203
11
18.0763277
21
132.2076203
0
LINE
8
DEFAULT_255_2_778
10
42.2261253
20
136.2623468
11
17.2262253
21
136.2623468
0
LINE
8
DEFAULT_255_2_778
10
33.2261253
20
133.7911468
11
26.2263253
21
133.7911468
0
LINE
8
DEFAULT_255_2_778
10
33.2263253
20
133.7969468
11
33.2263253
21
131.6638468
0
LINE
8
DEFAULT_255_2_778
10
33.2263253
20
131.6638468
11
26.2263253
21
131.6638468
0
LINE
8
DEFAULT_255_2_778
10
26.2263253
20
131.6638468
11
26.2263253
21
133.7969468
0
LINE
8
DEFAULT_255_2_778
10
17.2262253
20
140.3133468
11
17.3262253
21
140.3133468
0
LINE
8
DEFAULT_255_2_778
10
17.3262253
20
140.0633468
11
17.2262253
21
140.0633468
0
LINE
8
DEFAULT_255_2_778
10
17.3262253
20
138.8081468
11
17.2262253
21
138.8081468
0
ARC
8
DEFAULT_255_2_778
10
33.726394
20
133.8139733
40
2.8992422
50
57.6152073
51
76.2472961
0
ARC
8
DEFAULT_255_2_778
10
33.7263144
20
133.8129485
40
2.9003413
50
103.7562708
51
122.3812352
0
ARC
8
DEFAULT_255_2_778
10
25.7260578
20
133.8129495
40
2.9003403
50
57.6187631
51
76.2437344
0
ARC
8
DEFAULT_255_2_778
10
25.7259777
20
133.8139733
40
2.8992422
50
103.7527039
51
122.3847927
0
LINE
8
DEFAULT_255_2_778
10
42.1261358
20
140.3132967
11
42.2261358
21
140.3132967
0
LINE
8
DEFAULT_255_2_778
10
42.1261358
20
140.0632967
11
42.2261358
21
140.0632967
0
LINE
8
DEFAULT_255_2_778
10
42.1261358
20
138.8080967
11
42.2261358
21
138.8080967
0
LINE
8
DEFAULT_255_2_778
10
42.2261358
20
146.3132967
11
42.1261358
21
146.3132967
0
LINE
8
DEFAULT_255_2_778
10
17.3262358
20
146.3132967
11
17.2262358
21
146.3132967
0
LINE
8
DEFAULT_255_2_778
10
31.2261358
20
136.6300967
11
31.2261358
21
136.2622967
0
LINE
8
DEFAULT_255_2_778
10
28.2260358
20
136.6300967
11
28.2260358
21
136.2622967
0
LINE
8
DEFAULT_255_2_778
10
13.2188358
20
130.1834967
11
13.2188358
21
130.1961967
0
LINE
8
DEFAULT_255_2_778
10
13.673738
20
130.1835213
11
13.673738
21
130.1962213
0
LINE
8
DEFAULT_255_2_778
10
13.673738
20
130.1962213
11
13.682938
21
130.1859213
0
LINE
8
DEFAULT_255_2_778
10
13.682938
20
130.1859213
11
13.691938
21
130.1753213
0
LINE
8
DEFAULT_255_2_778
10
13.691938
20
130.1753213
11
13.700438
21
130.1644213
0
LINE
8
DEFAULT_255_2_778
10
13.700438
20
130.1644213
11
13.708638
21
130.1533213
0
LINE
8
DEFAULT_255_2_778
10
13.708638
20
130.1533213
11
13.716338
21
130.1420213
0
LINE
8
DEFAULT_255_2_778
10
13.716338
20
130.1420213
11
13.723438
21
130.1303213
0
LINE
8
DEFAULT_255_2_778
10
13.723438
20
130.1303213
11
13.730338
21
130.1184213
0
LINE
8
DEFAULT_255_2_778
10
13.730338
20
130.1184213
11
13.736938
21
130.1065213
0
LINE
8
DEFAULT_255_2_778
10
13.736938
20
130.1065213
11
13.743038
21
130.0943213
0
LINE
8
DEFAULT_255_2_778
10
13.743038
20
130.0943213
11
13.748838
21
130.0819213
0
LINE
8
DEFAULT_255_2_778
10
13.748838
20
130.0819213
11
13.754438
21
130.0695213
0
LINE
8
DEFAULT_255_2_778
10
13.754438
20
130.0695213
11
13.759438
21
130.0568213
0
LINE
8
DEFAULT_255_2_778
10
13.759438
20
130.0568213
11
13.768638
21
130.0311213
0
LINE
8
DEFAULT_255_2_778
10
13.768638
20
130.0311213
11
13.776838
21
130.0049213
0
LINE
8
DEFAULT_255_2_778
10
13.776838
20
130.0049213
11
13.783738
21
129.9784213
0
LINE
8
DEFAULT_255_2_778
10
13.783738
20
129.9784213
11
13.789538
21
129.9517213
0
LINE
8
DEFAULT_255_2_778
10
13.789538
20
129.9517213
11
13.794638
21
129.9247213
0
LINE
8
DEFAULT_255_2_778
10
13.794638
20
129.9247213
11
13.798838
21
129.8977213
0
LINE
8
DEFAULT_255_2_778
10
13.798838
20
129.8977213
11
13.802538
21
129.8705213
0
LINE
8
DEFAULT_255_2_778
10
13.802538
20
129.8705213
11
13.805738
21
129.8432213
0
LINE
8
DEFAULT_255_2_778
10
13.805738
20
129.8432213
11
13.808338
21
129.8160213
0
LINE
8
DEFAULT_255_2_778
10
13.808338
20
129.8160213
11
13.810438
21
129.7885213
0
LINE
8
DEFAULT_255_2_778
10
13.810438
20
129.7885213
11
13.812038
21
129.7610213
0
LINE
8
DEFAULT_255_2_778
10
13.812038
20
129.7610213
11
13.813438
21
129.7334213
0
LINE
8
DEFAULT_255_2_778
10
13.813438
20
129.7334213
11
13.814438
21
129.7059213
0
LINE
8
DEFAULT_255_2_778
10
13.814438
20
129.7059213
11
13.815238
21
129.6784213
0
LINE
8
DEFAULT_255_2_778
10
13.815238
20
129.6784213
11
13.815738
21
129.6509213
0
LINE
8
DEFAULT_255_2_778
10
13.815738
20
129.6509213
11
13.816338
21
129.6234213
0
LINE
8
DEFAULT_255_2_778
10
13.816338
20
129.6234213
11
13.816838
21
129.5959213
0
LINE
8
DEFAULT_255_2_778
10
13.816838
20
129.5959213
11
13.817338
21
129.5411213
0
LINE
8
DEFAULT_255_2_778
10
13.817338
20
129.5411213
11
13.817938
21
129.4863213
0
LINE
8
DEFAULT_255_2_778
10
13.817938
20
129.4863213
11
13.818138
21
129.4315213
0
LINE
8
DEFAULT_255_2_778
10
13.818138
20
129.4315213
11
13.818138
21
129.3768213
0
LINE
8
DEFAULT_255_2_778
10
13.818138
20
129.3768213
11
13.818138
21
129.2945213
0
LINE
8
DEFAULT_255_2_778
10
13.818138
20
129.2945213
11
13.817938
21
129.2670213
0
LINE
8
DEFAULT_255_2_778
10
13.817938
20
129.2670213
11
13.817638
21
129.2395213
0
LINE
8
DEFAULT_255_2_778
10
13.817638
20
129.2395213
11
13.817338
21
129.2119213
0
LINE
8
DEFAULT_255_2_778
10
13.817338
20
129.2119213
11
13.816838
21
129.1844213
0
LINE
8
DEFAULT_255_2_778
10
13.816838
20
129.1844213
11
13.816038
21
129.1569213
0
LINE
8
DEFAULT_255_2_778
10
13.816038
20
129.1569213
11
13.814938
21
129.1294213
0
LINE
8
DEFAULT_255_2_778
10
13.814938
20
129.1294213
11
13.813638
21
129.1019213
0
LINE
8
DEFAULT_255_2_778
10
13.813638
20
129.1019213
11
13.812038
21
129.0746213
0
LINE
8
DEFAULT_255_2_778
10
13.812038
20
129.0746213
11
13.810238
21
129.0471213
0
LINE
8
DEFAULT_255_2_778
10
13.810238
20
129.0471213
11
13.808138
21
129.0199213
0
LINE
8
DEFAULT_255_2_778
10
13.808138
20
129.0199213
11
13.805438
21
128.9926213
0
LINE
8
DEFAULT_255_2_778
10
13.805438
20
128.9926213
11
13.802538
21
128.9654213
0
LINE
8
DEFAULT_255_2_778
10
13.802538
20
128.9654213
11
13.798838
21
128.9381213
0
LINE
8
DEFAULT_255_2_778
10
13.798838
20
128.9381213
11
13.794638
21
128.9111213
0
LINE
8
DEFAULT_255_2_778
10
13.794638
20
128.9111213
11
13.789538
21
128.8841213
0
LINE
8
DEFAULT_255_2_778
10
13.789538
20
128.8841213
11
13.783738
21
128.8574213
0
LINE
8
DEFAULT_255_2_778
10
13.783738
20
128.8574213
11
13.777138
21
128.8307213
0
LINE
8
DEFAULT_255_2_778
10
13.777138
20
128.8307213
11
13.769438
21
128.8042213
0
LINE
8
DEFAULT_255_2_778
10
13.769438
20
128.8042213
11
13.761038
21
128.7780213
0
LINE
8
DEFAULT_255_2_778
10
13.761038
20
128.7780213
11
13.751438
21
128.7524213
0
LINE
8
DEFAULT_255_2_778
10
13.751438
20
128.7524213
11
13.746238
21
128.7397213
0
LINE
8
DEFAULT_255_2_778
10
13.746238
20
128.7397213
11
13.740638
21
128.7272213
0
LINE
8
DEFAULT_255_2_778
10
13.740638
20
128.7272213
11
13.734538
21
128.7148213
0
LINE
8
DEFAULT_255_2_778
10
13.734538
20
128.7148213
11
13.728238
21
128.7026213
0
LINE
8
DEFAULT_255_2_778
10
13.728238
20
128.7026213
11
13.721338
21
128.6907213
0
LINE
8
DEFAULT_255_2_778
10
13.721338
20
128.6907213
11
13.713938
21
128.6791213
0
LINE
8
DEFAULT_255_2_778
10
13.713938
20
128.6791213
11
13.705938
21
128.6677213
0
LINE
8
DEFAULT_255_2_778
10
13.705938
20
128.6677213
11
13.697738
21
128.6566213
0
LINE
8
DEFAULT_255_2_778
10
13.697738
20
128.6566213
11
13.689038
21
128.6457213
0
LINE
8
DEFAULT_255_2_778
10
13.689038
20
128.6457213
11
13.679738
21
128.6354213
0
LINE
8
DEFAULT_255_2_778
10
13.679738
20
128.6354213
11
13.670238
21
128.6254213
0
LINE
8
DEFAULT_255_2_778
10
13.670238
20
128.6254213
11
13.660238
21
128.6158213
0
LINE
8
DEFAULT_255_2_778
10
13.660238
20
128.6158213
11
13.649638
21
128.6068213
0
LINE
8
DEFAULT_255_2_778
10
13.649638
20
128.6068213
11
13.638738
21
128.5984213
0
LINE
8
DEFAULT_255_2_778
10
13.638738
20
128.5984213
11
13.627438
21
128.5907213
0
LINE
8
DEFAULT_255_2_778
10
13.627438
20
128.5907213
11
13.615738
21
128.5836213
0
LINE
8
DEFAULT_255_2_778
10
13.615738
20
128.5836213
11
13.603538
21
128.5772213
0
LINE
8
DEFAULT_255_2_778
10
13.603538
20
128.5772213
11
13.591138
21
128.5714213
0
LINE
8
DEFAULT_255_2_778
10
13.591138
20
128.5714213
11
13.578438
21
128.5664213
0
LINE
8
DEFAULT_255_2_778
10
13.578438
20
128.5664213
11
13.565438
21
128.5619213
0
LINE
8
DEFAULT_255_2_778
10
13.565438
20
128.5619213
11
13.552238
21
128.5579213
0
LINE
8
DEFAULT_255_2_778
10
13.552238
20
128.5579213
11
13.538738
21
128.5545213
0
LINE
8
DEFAULT_255_2_778
10
13.538738
20
128.5545213
11
13.525238
21
128.5518213
0
LINE
8
DEFAULT_255_2_778
10
13.525238
20
128.5518213
11
13.511538
21
128.5494213
0
LINE
8
DEFAULT_255_2_778
10
13.511538
20
128.5494213
11
13.497738
21
128.5476213
0
LINE
8
DEFAULT_255_2_778
10
13.497738
20
128.5476213
11
13.483938
21
128.5463213
0
LINE
8
DEFAULT_255_2_778
10
13.483938
20
128.5463213
11
13.470238
21
128.5455213
0
LINE
8
DEFAULT_255_2_778
10
13.470238
20
128.5455213
11
13.456438
21
128.5449213
0
LINE
8
DEFAULT_255_2_778
10
13.456438
20
128.5449213
11
13.442738
21
128.5449213
0
LINE
8
DEFAULT_255_2_778
10
13.442738
20
128.5449213
11
13.428938
21
128.5452213
0
LINE
8
DEFAULT_255_2_778
10
13.428938
20
128.5452213
11
13.415238
21
128.5457213
0
LINE
8
DEFAULT_255_2_778
10
13.415238
20
128.5457213
11
13.401438
21
128.5468213
0
LINE
8
DEFAULT_255_2_778
10
13.401438
20
128.5468213
11
13.387638
21
128.5481213
0
LINE
8
DEFAULT_255_2_778
10
13.387638
20
128.5481213
11
13.373938
21
128.5500213
0
LINE
8
DEFAULT_255_2_778
10
13.373938
20
128.5500213
11
13.360438
21
128.5523213
0
LINE
8
DEFAULT_255_2_778
10
13.360438
20
128.5523213
11
13.346938
21
128.5552213
0
LINE
8
DEFAULT_255_2_778
10
13.346938
20
128.5552213
11
13.333738
21
128.5587213
0
LINE
8
DEFAULT_255_2_778
10
13.333738
20
128.5587213
11
13.320438
21
128.5627213
0
LINE
8
DEFAULT_255_2_778
10
13.320438
20
128.5627213
11
13.307538
21
128.5674213
0
LINE
8
DEFAULT_255_2_778
10
13.307538
20
128.5674213
11
13.294838
21
128.5727213
0
LINE
8
DEFAULT_255_2_778
10
13.294838
20
128.5727213
11
13.282338
21
128.5788213
0
LINE
8
DEFAULT_255_2_778
10
13.282338
20
128.5788213
11
13.270238
21
128.5854213
0
LINE
8
DEFAULT_255_2_778
10
13.270238
20
128.5854213
11
13.258538
21
128.5926213
0
LINE
8
DEFAULT_255_2_778
10
13.258538
20
128.5926213
11
13.247138
21
128.6005213
0
LINE
8
DEFAULT_255_2_778
10
13.247138
20
128.6005213
11
13.236338
21
128.6090213
0
LINE
8
DEFAULT_255_2_778
10
13.236338
20
128.6090213
11
13.225738
21
128.6180213
0
LINE
8
DEFAULT_255_2_778
10
13.225738
20
128.6180213
11
13.215738
21
128.6277213
0
LINE
8
DEFAULT_255_2_778
10
13.215738
20
128.6277213
11
13.206138
21
128.6381213
0
LINE
8
DEFAULT_255_2_778
10
13.206138
20
128.6381213
11
13.197138
21
128.6486213
0
LINE
8
DEFAULT_255_2_778
10
13.197138
20
128.6486213
11
13.188738
21
128.6595213
0
LINE
8
DEFAULT_255_2_778
10
13.188738
20
128.6595213
11
13.180738
21
128.6709213
0
LINE
8
DEFAULT_255_2_778
10
13.180738
20
128.6709213
11
13.173138
21
128.6825213
0
LINE
8
DEFAULT_255_2_778
10
13.173138
20
128.6825213
11
13.165938
21
128.6944213
0
LINE
8
DEFAULT_255_2_778
10
13.165938
20
128.6944213
11
13.159338
21
128.7066213
0
LINE
8
DEFAULT_255_2_778
10
13.159338
20
128.7066213
11
13.153038
21
128.7190213
0
LINE
8
DEFAULT_255_2_778
10
13.153038
20
128.7190213
11
13.147138
21
128.7315213
0
LINE
8
DEFAULT_255_2_778
10
13.147138
20
128.7315213
11
13.141838
21
128.7442213
0
LINE
8
DEFAULT_255_2_778
10
13.141838
20
128.7442213
11
13.136838
21
128.7571213
0
LINE
8
DEFAULT_255_2_778
10
13.136838
20
128.7571213
11
13.128938
21
128.7804213
0
LINE
8
DEFAULT_255_2_778
10
13.128938
20
128.7804213
11
13.121738
21
128.8040213
0
LINE
8
DEFAULT_255_2_778
10
13.121738
20
128.8040213
11
13.115138
21
128.8275213
0
LINE
8
DEFAULT_255_2_778
10
13.115138
20
128.8275213
11
13.109338
21
128.8511213
0
LINE
8
DEFAULT_255_2_778
10
13.109338
20
128.8511213
11
13.104038
21
128.8749213
0
LINE
8
DEFAULT_255_2_778
10
13.104038
20
128.8749213
11
13.099538
21
128.8987213
0
LINE
8
DEFAULT_255_2_778
10
13.099538
20
128.8987213
11
13.095538
21
128.9225213
0
LINE
8
DEFAULT_255_2_778
10
13.095538
20
128.9225213
11
13.092138
21
128.9466213
0
LINE
8
DEFAULT_255_2_778
10
13.092138
20
128.9466213
11
13.088938
21
128.9706213
0
LINE
8
DEFAULT_255_2_778
10
13.088938
20
128.9706213
11
13.086338
21
128.9947213
0
LINE
8
DEFAULT_255_2_778
10
13.086338
20
128.9947213
11
13.083938
21
129.0188213
0
LINE
8
DEFAULT_255_2_778
10
13.083938
20
129.0188213
11
13.082038
21
129.0431213
0
LINE
8
DEFAULT_255_2_778
10
13.082038
20
129.0431213
11
13.078938
21
129.0918213
0
LINE
8
DEFAULT_255_2_778
10
13.078938
20
129.0918213
11
13.076838
21
129.1405213
0
LINE
8
DEFAULT_255_2_778
10
13.076838
20
129.1405213
11
13.075438
21
129.1892213
0
LINE
8
DEFAULT_255_2_778
10
13.075438
20
129.1892213
11
13.074638
21
129.2381213
0
LINE
8
DEFAULT_255_2_778
10
13.074638
20
129.2381213
11
13.074438
21
129.2871213
0
LINE
8
DEFAULT_255_2_778
10
13.074438
20
129.2871213
11
13.074438
21
129.3360213
0
LINE
8
DEFAULT_255_2_778
10
13.074438
20
129.3360213
11
13.074438
21
129.4829213
0
LINE
8
DEFAULT_255_2_778
10
13.074438
20
129.4829213
11
13.074638
21
129.5318213
0
LINE
8
DEFAULT_255_2_778
10
13.074638
20
129.5318213
11
13.075238
21
129.5808213
0
LINE
8
DEFAULT_255_2_778
10
13.075238
20
129.5808213
11
13.076038
21
129.6297213
0
LINE
8
DEFAULT_255_2_778
10
13.076038
20
129.6297213
11
13.077338
21
129.6784213
0
LINE
8
DEFAULT_255_2_778
10
13.077338
20
129.6784213
11
13.079138
21
129.7271213
0
LINE
8
DEFAULT_255_2_778
10
13.079138
20
129.7271213
11
13.081838
21
129.7758213
0
LINE
8
DEFAULT_255_2_778
10
13.081838
20
129.7758213
11
13.083438
21
129.8001213
0
LINE
8
DEFAULT_255_2_778
10
13.083438
20
129.8001213
11
13.085238
21
129.8245213
0
LINE
8
DEFAULT_255_2_778
10
13.085238
20
129.8245213
11
13.087638
21
129.8485213
0
LINE
8
DEFAULT_255_2_778
10
13.087638
20
129.8485213
11
13.090238
21
129.8726213
0
LINE
8
DEFAULT_255_2_778
10
13.090238
20
129.8726213
11
13.093438
21
129.8967213
0
LINE
8
DEFAULT_255_2_778
10
13.093438
20
129.8967213
11
13.097138
21
129.9208213
0
LINE
8
DEFAULT_255_2_778
10
13.097138
20
129.9208213
11
13.101438
21
129.9446213
0
LINE
8
DEFAULT_255_2_778
10
13.101438
20
129.9446213
11
13.106438
21
129.9684213
0
LINE
8
DEFAULT_255_2_778
10
13.106438
20
129.9684213
11
13.112238
21
129.9922213
0
LINE
8
DEFAULT_255_2_778
10
13.112238
20
129.9922213
11
13.118838
21
130.0160213
0
LINE
8
DEFAULT_255_2_778
10
13.118838
20
130.0160213
11
13.126238
21
130.0396213
0
LINE
8
DEFAULT_255_2_778
10
13.126238
20
130.0396213
11
13.134438
21
130.0631213
0
LINE
8
DEFAULT_255_2_778
10
13.134438
20
130.0631213
11
13.137138
21
130.0697213
0
LINE
8
DEFAULT_255_2_778
10
13.137138
20
130.0697213
11
13.140038
21
130.0763213
0
LINE
8
DEFAULT_255_2_778
10
13.140038
20
130.0763213
11
13.142938
21
130.0830213
0
LINE
8
DEFAULT_255_2_778
10
13.142938
20
130.0830213
11
13.145838
21
130.0896213
0
LINE
8
DEFAULT_255_2_778
10
13.145838
20
130.0896213
11
13.149038
21
130.0962213
0
LINE
8
DEFAULT_255_2_778
10
13.149038
20
130.0962213
11
13.150638
21
130.0994213
0
LINE
8
DEFAULT_255_2_778
10
13.150638
20
130.0994213
11
13.152238
21
130.1025213
0
LINE
8
DEFAULT_255_2_778
10
13.152238
20
130.1025213
11
13.153738
21
130.1057213
0
LINE
8
DEFAULT_255_2_778
10
13.153738
20
130.1057213
11
13.155338
21
130.1089213
0
LINE
8
DEFAULT_255_2_778
10
13.155338
20
130.1089213
11
13.156938
21
130.1121213
0
LINE
8
DEFAULT_255_2_778
10
13.156938
20
130.1121213
11
13.158838
21
130.1152213
0
LINE
8
DEFAULT_255_2_778
10
13.158838
20
130.1152213
11
13.160638
21
130.1184213
0
LINE
8
DEFAULT_255_2_778
10
13.160638
20
130.1184213
11
13.162538
21
130.1216213
0
LINE
8
DEFAULT_255_2_778
10
13.162538
20
130.1216213
11
13.164338
21
130.1248213
0
LINE
8
DEFAULT_255_2_778
10
13.164338
20
130.1248213
11
13.166238
21
130.1279213
0
LINE
8
DEFAULT_255_2_778
10
13.166238
20
130.1279213
11
13.168038
21
130.1311213
0
LINE
8
DEFAULT_255_2_778
10
13.168038
20
130.1311213
11
13.169938
21
130.1340213
0
LINE
8
DEFAULT_255_2_778
10
13.169938
20
130.1340213
11
13.171738
21
130.1369213
0
LINE
8
DEFAULT_255_2_778
10
13.171738
20
130.1369213
11
13.173938
21
130.1398213
0
LINE
8
DEFAULT_255_2_778
10
13.173938
20
130.1398213
11
13.176038
21
130.1427213
0
LINE
8
DEFAULT_255_2_778
10
13.176038
20
130.1427213
11
13.178138
21
130.1457213
0
LINE
8
DEFAULT_255_2_778
10
13.178138
20
130.1457213
11
13.180238
21
130.1486213
0
LINE
8
DEFAULT_255_2_778
10
13.180238
20
130.1486213
11
13.182338
21
130.1515213
0
LINE
8
DEFAULT_255_2_778
10
13.182338
20
130.1515213
11
13.184438
21
130.1544213
0
LINE
8
DEFAULT_255_2_778
10
13.184438
20
130.1544213
11
13.186638
21
130.1573213
0
LINE
8
DEFAULT_255_2_778
10
13.186638
20
130.1573213
11
13.188738
21
130.1602213
0
LINE
8
DEFAULT_255_2_778
10
13.188738
20
130.1602213
11
13.190838
21
130.1631213
0
LINE
8
DEFAULT_255_2_778
10
13.190838
20
130.1631213
11
13.192938
21
130.1660213
0
LINE
8
DEFAULT_255_2_778
10
13.192938
20
130.1660213
11
13.195338
21
130.1689213
0
LINE
8
DEFAULT_255_2_778
10
13.195338
20
130.1689213
11
13.197738
21
130.1716213
0
LINE
8
DEFAULT_255_2_778
10
13.197738
20
130.1716213
11
13.200138
21
130.1742213
0
LINE
8
DEFAULT_255_2_778
10
13.200138
20
130.1742213
11
13.202438
21
130.1769213
0
LINE
8
DEFAULT_255_2_778
10
13.202438
20
130.1769213
11
13.204838
21
130.1795213
0
LINE
8
DEFAULT_255_2_778
10
13.204838
20
130.1795213
11
13.207238
21
130.1822213
0
LINE
8
DEFAULT_255_2_778
10
13.207238
20
130.1822213
11
13.209638
21
130.1848213
0
LINE
8
DEFAULT_255_2_778
10
13.209638
20
130.1848213
11
13.212038
21
130.1875213
0
LINE
8
DEFAULT_255_2_778
10
13.212038
20
130.1875213
11
13.214338
21
130.1901213
0
LINE
8
DEFAULT_255_2_778
10
13.214338
20
130.1901213
11
13.217038
21
130.1928213
0
LINE
8
DEFAULT_255_2_778
10
13.217038
20
130.1928213
11
13.224138
21
130.1996213
0
LINE
8
DEFAULT_255_2_778
10
13.224138
20
130.1996213
11
13.228638
21
130.2039213
0
LINE
8
DEFAULT_255_2_778
10
13.228638
20
130.2039213
11
13.233438
21
130.2081213
0
LINE
8
DEFAULT_255_2_778
10
13.233438
20
130.2081213
11
13.238238
21
130.2121213
0
LINE
8
DEFAULT_255_2_778
10
13.238238
20
130.2121213
11
13.242938
21
130.2160213
0
LINE
8
DEFAULT_255_2_778
10
13.242938
20
130.2160213
11
13.247938
21
130.2197213
0
LINE
8
DEFAULT_255_2_778
10
13.247938
20
130.2197213
11
13.253038
21
130.2234213
0
LINE
8
DEFAULT_255_2_778
10
13.253038
20
130.2234213
11
13.258038
21
130.2269213
0
LINE
8
DEFAULT_255_2_778
10
13.258038
20
130.2269213
11
13.263338
21
130.2303213
0
LINE
8
DEFAULT_255_2_778
10
13.263338
20
130.2303213
11
13.268638
21
130.2335213
0
LINE
8
DEFAULT_255_2_778
10
13.268638
20
130.2335213
11
13.274138
21
130.2367213
0
LINE
8
DEFAULT_255_2_778
10
13.274138
20
130.2367213
11
13.279738
21
130.2396213
0
LINE
8
DEFAULT_255_2_778
10
13.279738
20
130.2396213
11
13.285238
21
130.2425213
0
LINE
8
DEFAULT_255_2_778
10
13.285238
20
130.2425213
11
13.291138
21
130.2451213
0
LINE
8
DEFAULT_255_2_778
10
13.291138
20
130.2451213
11
13.296938
21
130.2478213
0
LINE
8
DEFAULT_255_2_778
10
13.296938
20
130.2478213
11
13.302738
21
130.2502213
0
LINE
8
DEFAULT_255_2_778
10
13.302738
20
130.2502213
11
13.308538
21
130.2526213
0
LINE
8
DEFAULT_255_2_778
10
13.308538
20
130.2526213
11
13.314438
21
130.2547213
0
LINE
8
DEFAULT_255_2_778
10
13.314438
20
130.2547213
11
13.320238
21
130.2568213
0
LINE
8
DEFAULT_255_2_778
10
13.320238
20
130.2568213
11
13.326338
21
130.2586213
0
LINE
8
DEFAULT_255_2_778
10
13.326338
20
130.2586213
11
13.332338
21
130.2605213
0
LINE
8
DEFAULT_255_2_778
10
13.332338
20
130.2605213
11
13.338438
21
130.2621213
0
LINE
8
DEFAULT_255_2_778
10
13.338438
20
130.2621213
11
13.344538
21
130.2637213
0
LINE
8
DEFAULT_255_2_778
10
13.344538
20
130.2637213
11
13.350638
21
130.2650213
0
LINE
8
DEFAULT_255_2_778
10
13.350638
20
130.2650213
11
13.356738
21
130.2663213
0
LINE
8
DEFAULT_255_2_778
10
13.356738
20
130.2663213
11
13.362838
21
130.2676213
0
LINE
8
DEFAULT_255_2_778
10
13.362838
20
130.2676213
11
13.368938
21
130.2687213
0
LINE
8
DEFAULT_255_2_778
10
13.368938
20
130.2687213
11
13.374938
21
130.2697213
0
LINE
8
DEFAULT_255_2_778
10
13.374938
20
130.2697213
11
13.381338
21
130.2705213
0
LINE
8
DEFAULT_255_2_778
10
13.381338
20
130.2705213
11
13.387638
21
130.2713213
0
LINE
8
DEFAULT_255_2_778
10
13.387638
20
130.2713213
11
13.393738
21
130.2721213
0
LINE
8
DEFAULT_255_2_778
10
13.393738
20
130.2721213
11
13.400138
21
130.2727213
0
LINE
8
DEFAULT_255_2_778
10
13.400138
20
130.2727213
11
13.406438
21
130.2732213
0
LINE
8
DEFAULT_255_2_778
10
13.406438
20
130.2732213
11
13.412838
21
130.2737213
0
LINE
8
DEFAULT_255_2_778
10
13.412838
20
130.2737213
11
13.419138
21
130.2740213
0
LINE
8
DEFAULT_255_2_778
10
13.419138
20
130.2740213
11
13.425538
21
130.2742213
0
LINE
8
DEFAULT_255_2_778
10
13.425538
20
130.2742213
11
13.431638
21
130.2742213
0
LINE
8
DEFAULT_255_2_778
10
13.431638
20
130.2742213
11
13.437638
21
130.2742213
0
LINE
8
DEFAULT_255_2_778
10
13.437638
20
130.2742213
11
13.444038
21
130.2742213
0
LINE
8
DEFAULT_255_2_778
10
13.444038
20
130.2742213
11
13.450138
21
130.2742213
0
LINE
8
DEFAULT_255_2_778
10
13.450138
20
130.2742213
11
13.456238
21
130.2742213
0
LINE
8
DEFAULT_255_2_778
10
13.456238
20
130.2742213
11
13.462338
21
130.2742213
0
LINE
8
DEFAULT_255_2_778
10
13.462338
20
130.2742213
11
13.468338
21
130.2740213
0
LINE
8
DEFAULT_255_2_778
10
13.468338
20
130.2740213
11
13.474738
21
130.2737213
0
LINE
8
DEFAULT_255_2_778
10
13.474738
20
130.2737213
11
13.480838
21
130.2735213
0
LINE
8
DEFAULT_255_2_778
10
13.480838
20
130.2735213
11
13.487138
21
130.2729213
0
LINE
8
DEFAULT_255_2_778
10
13.487138
20
130.2729213
11
13.493238
21
130.2724213
0
LINE
8
DEFAULT_255_2_778
10
13.493238
20
130.2724213
11
13.499338
21
130.2719213
0
LINE
8
DEFAULT_255_2_778
10
13.499338
20
130.2719213
11
13.505638
21
130.2711213
0
LINE
8
DEFAULT_255_2_778
10
13.505638
20
130.2711213
11
13.511738
21
130.2703213
0
LINE
8
DEFAULT_255_2_778
10
13.511738
20
130.2703213
11
13.518138
21
130.2692213
0
LINE
8
DEFAULT_255_2_778
10
13.518138
20
130.2692213
11
13.524238
21
130.2682213
0
LINE
8
DEFAULT_255_2_778
10
13.524238
20
130.2682213
11
13.530338
21
130.2671213
0
LINE
8
DEFAULT_255_2_778
10
13.530338
20
130.2671213
11
13.536338
21
130.2658213
0
LINE
8
DEFAULT_255_2_778
10
13.536338
20
130.2658213
11
13.542438
21
130.2645213
0
LINE
8
DEFAULT_255_2_778
10
13.542438
20
130.2645213
11
13.548538
21
130.2629213
0
LINE
8
DEFAULT_255_2_778
10
13.548538
20
130.2629213
11
13.554638
21
130.2613213
0
LINE
8
DEFAULT_255_2_778
10
13.554638
20
130.2613213
11
13.560738
21
130.2597213
0
LINE
8
DEFAULT_255_2_778
10
13.560738
20
130.2597213
11
13.566838
21
130.2578213
0
LINE
8
DEFAULT_255_2_778
10
13.566838
20
130.2578213
11
13.572838
21
130.2560213
0
LINE
8
DEFAULT_255_2_778
10
13.572838
20
130.2560213
11
13.578738
21
130.2539213
0
LINE
8
DEFAULT_255_2_778
10
13.578738
20
130.2539213
11
13.584538
21
130.2518213
0
LINE
8
DEFAULT_255_2_778
10
13.584538
20
130.2518213
11
13.590338
21
130.2494213
0
LINE
8
DEFAULT_255_2_778
10
13.590338
20
130.2494213
11
13.596138
21
130.2470213
0
LINE
8
DEFAULT_255_2_778
10
13.596138
20
130.2470213
11
13.602038
21
130.2443213
0
LINE
8
DEFAULT_255_2_778
10
13.602038
20
130.2443213
11
13.607538
21
130.2417213
0
LINE
8
DEFAULT_255_2_778
10
13.607538
20
130.2417213
11
13.613138
21
130.2388213
0
LINE
8
DEFAULT_255_2_778
10
13.613138
20
130.2388213
11
13.618638
21
130.2359213
0
LINE
8
DEFAULT_255_2_778
10
13.618638
20
130.2359213
11
13.624238
21
130.2327213
0
LINE
8
DEFAULT_255_2_778
10
13.624238
20
130.2327213
11
13.629538
21
130.2295213
0
LINE
8
DEFAULT_255_2_778
10
13.629538
20
130.2295213
11
13.634838
21
130.2261213
0
LINE
8
DEFAULT_255_2_778
10
13.634838
20
130.2261213
11
13.640138
21
130.2227213
0
LINE
8
DEFAULT_255_2_778
10
13.640138
20
130.2227213
11
13.645138
21
130.2189213
0
LINE
8
DEFAULT_255_2_778
10
13.645138
20
130.2189213
11
13.650138
21
130.2152213
0
LINE
8
DEFAULT_255_2_778
10
13.650138
20
130.2152213
11
13.655138
21
130.2113213
0
LINE
8
DEFAULT_255_2_778
10
13.655138
20
130.2113213
11
13.659938
21
130.2073213
0
LINE
8
DEFAULT_255_2_778
10
13.659938
20
130.2073213
11
13.664738
21
130.2031213
0
LINE
8
DEFAULT_255_2_778
10
13.664738
20
130.2031213
11
13.669438
21
130.1988213
0
LINE
8
DEFAULT_255_2_778
10
13.669438
20
130.1988213
11
13.673938
21
130.1943213
0
LINE
8
DEFAULT_255_2_778
10
13.121738
20
128.5116213
11
13.121738
21
128.5243213
0
LINE
8
DEFAULT_255_2_778
10
13.121738
20
128.5243213
11
13.128638
21
128.5177213
0
LINE
8
DEFAULT_255_2_778
10
13.128638
20
128.5177213
11
13.135538
21
128.5111213
0
LINE
8
DEFAULT_255_2_778
10
13.135538
20
128.5111213
11
13.142638
21
128.5047213
0
LINE
8
DEFAULT_255_2_778
10
13.142638
20
128.5047213
11
13.149838
21
128.4986213
0
LINE
8
DEFAULT_255_2_778
10
13.149838
20
128.4986213
11
13.157238
21
128.4928213
0
LINE
8
DEFAULT_255_2_778
10
13.157238
20
128.4928213
11
13.164638
21
128.4870213
0
LINE
8
DEFAULT_255_2_778
10
13.164638
20
128.4870213
11
13.172338
21
128.4814213
0
LINE
8
DEFAULT_255_2_778
10
13.172338
20
128.4814213
11
13.179938
21
128.4761213
0
LINE
8
DEFAULT_255_2_778
10
13.179938
20
128.4761213
11
13.187938
21
128.4708213
0
LINE
8
DEFAULT_255_2_778
10
13.187938
20
128.4708213
11
13.195838
21
128.4658213
0
LINE
8
DEFAULT_255_2_778
10
13.195838
20
128.4658213
11
13.204038
21
128.4611213
0
LINE
8
DEFAULT_255_2_778
10
13.204038
20
128.4611213
11
13.212238
21
128.4566213
0
LINE
8
DEFAULT_255_2_778
10
13.212238
20
128.4566213
11
13.220738
21
128.4521213
0
LINE
8
DEFAULT_255_2_778
10
13.220738
20
128.4521213
11
13.229238
21
128.4478213
0
LINE
8
DEFAULT_255_2_778
10
13.229238
20
128.4478213
11
13.237938
21
128.4439213
0
LINE
8
DEFAULT_255_2_778
10
13.237938
20
128.4439213
11
13.246638
21
128.4402213
0
LINE
8
DEFAULT_255_2_778
10
13.246638
20
128.4402213
11
13.255338
21
128.4365213
0
LINE
8
DEFAULT_255_2_778
10
13.255338
20
128.4365213
11
13.264138
21
128.4330213
0
LINE
8
DEFAULT_255_2_778
10
13.264138
20
128.4330213
11
13.273138
21
128.4298213
0
LINE
8
DEFAULT_255_2_778
10
13.273138
20
128.4298213
11
13.282138
21
128.4269213
0
LINE
8
DEFAULT_255_2_778
10
13.282138
20
128.4269213
11
13.291138
21
128.4243213
0
LINE
8
DEFAULT_255_2_778
10
13.291138
20
128.4243213
11
13.300138
21
128.4216213
0
LINE
8
DEFAULT_255_2_778
10
13.300138
20
128.4216213
11
13.309338
21
128.4193213
0
LINE
8
DEFAULT_255_2_778
10
13.309338
20
128.4193213
11
13.318638
21
128.4171213
0
LINE
8
DEFAULT_255_2_778
10
13.318638
20
128.4171213
11
13.327838
21
128.4150213
0
LINE
8
DEFAULT_255_2_778
10
13.327838
20
128.4150213
11
13.337138
21
128.4132213
0
LINE
8
DEFAULT_255_2_778
10
13.337138
20
128.4132213
11
13.346438
21
128.4116213
0
LINE
8
DEFAULT_255_2_778
10
13.346438
20
128.4116213
11
13.355938
21
128.4100213
0
LINE
8
DEFAULT_255_2_778
10
13.355938
20
128.4100213
11
13.365438
21
128.4087213
0
LINE
8
DEFAULT_255_2_778
10
13.365438
20
128.4087213
11
13.374938
21
128.4076213
0
LINE
8
DEFAULT_255_2_778
10
13.374938
20
128.4076213
11
13.384538
21
128.4066213
0
LINE
8
DEFAULT_255_2_778
10
13.384538
20
128.4066213
11
13.394038
21
128.4058213
0
LINE
8
DEFAULT_255_2_778
10
13.394038
20
128.4058213
11
13.403538
21
128.4050213
0
LINE
8
DEFAULT_255_2_778
10
13.403538
20
128.4050213
11
13.413038
21
128.4044213
0
LINE
8
DEFAULT_255_2_778
10
13.413038
20
128.4044213
11
13.422638
21
128.4039213
0
LINE
8
DEFAULT_255_2_778
10
13.422638
20
128.4039213
11
13.432138
21
128.4036213
0
LINE
8
DEFAULT_255_2_778
10
13.432138
20
128.4036213
11
13.441438
21
128.4036213
0
LINE
8
DEFAULT_255_2_778
10
13.441438
20
128.4036213
11
13.450938
21
128.4036213
0
LINE
8
DEFAULT_255_2_778
10
13.450938
20
128.4036213
11
13.460138
21
128.4036213
0
LINE
8
DEFAULT_255_2_778
10
13.460138
20
128.4036213
11
13.469738
21
128.4039213
0
LINE
8
DEFAULT_255_2_778
10
13.469738
20
128.4039213
11
13.478938
21
128.4042213
0
LINE
8
DEFAULT_255_2_778
10
13.478938
20
128.4042213
11
13.488238
21
128.4047213
0
LINE
8
DEFAULT_255_2_778
10
13.488238
20
128.4047213
11
13.497438
21
128.4055213
0
LINE
8
DEFAULT_255_2_778
10
13.497438
20
128.4055213
11
13.506738
21
128.4063213
0
LINE
8
DEFAULT_255_2_778
10
13.506738
20
128.4063213
11
13.516038
21
128.4073213
0
LINE
8
DEFAULT_255_2_778
10
13.516038
20
128.4073213
11
13.525238
21
128.4084213
0
LINE
8
DEFAULT_255_2_778
10
13.525238
20
128.4084213
11
13.534538
21
128.4097213
0
LINE
8
DEFAULT_255_2_778
10
13.534538
20
128.4097213
11
13.543738
21
128.4113213
0
LINE
8
DEFAULT_255_2_778
10
13.543738
20
128.4113213
11
13.553038
21
128.4129213
0
LINE
8
DEFAULT_255_2_778
10
13.553038
20
128.4129213
11
13.562338
21
128.4148213
0
LINE
8
DEFAULT_255_2_778
10
13.562338
20
128.4148213
11
13.571538
21
128.4169213
0
LINE
8
DEFAULT_255_2_778
10
13.571538
20
128.4169213
11
13.580838
21
128.4190213
0
LINE
8
DEFAULT_255_2_778
10
13.580838
20
128.4190213
11
13.590038
21
128.4214213
0
LINE
8
DEFAULT_255_2_778
10
13.590038
20
128.4214213
11
13.599038
21
128.4240213
0
LINE
8
DEFAULT_255_2_778
10
13.599038
20
128.4240213
11
13.608038
21
128.4269213
0
LINE
8
DEFAULT_255_2_778
10
13.608038
20
128.4269213
11
13.617038
21
128.4298213
0
LINE
8
DEFAULT_255_2_778
10
13.617038
20
128.4298213
11
13.626038
21
128.4330213
0
LINE
8
DEFAULT_255_2_778
10
13.626038
20
128.4330213
11
13.634838
21
128.4365213
0
LINE
8
DEFAULT_255_2_778
10
13.634838
20
128.4365213
11
13.643538
21
128.4399213
0
LINE
8
DEFAULT_255_2_778
10
13.643538
20
128.4399213
11
13.652238
21
128.4436213
0
LINE
8
DEFAULT_255_2_778
10
13.652238
20
128.4436213
11
13.660738
21
128.4476213
0
LINE
8
DEFAULT_255_2_778
10
13.660738
20
128.4476213
11
13.669238
21
128.4518213
0
LINE
8
DEFAULT_255_2_778
10
13.669238
20
128.4518213
11
13.677638
21
128.4563213
0
LINE
8
DEFAULT_255_2_778
10
13.677638
20
128.4563213
11
13.685838
21
128.4608213
0
LINE
8
DEFAULT_255_2_778
10
13.685838
20
128.4608213
11
13.694038
21
128.4656213
0
LINE
8
DEFAULT_255_2_778
10
13.694038
20
128.4656213
11
13.702038
21
128.4706213
0
LINE
8
DEFAULT_255_2_778
10
13.702038
20
128.4706213
11
13.709938
21
128.4759213
0
LINE
8
DEFAULT_255_2_778
10
13.709938
20
128.4759213
11
13.717638
21
128.4812213
0
LINE
8
DEFAULT_255_2_778
10
13.717638
20
128.4812213
11
13.725238
21
128.4867213
0
LINE
8
DEFAULT_255_2_778
10
13.725238
20
128.4867213
11
13.732738
21
128.4925213
0
LINE
8
DEFAULT_255_2_778
10
13.732738
20
128.4925213
11
13.740138
21
128.4986213
0
LINE
8
DEFAULT_255_2_778
10
13.740138
20
128.4986213
11
13.747238
21
128.5047213
0
LINE
8
DEFAULT_255_2_778
10
13.747238
20
128.5047213
11
13.754438
21
128.5111213
0
LINE
8
DEFAULT_255_2_778
10
13.754438
20
128.5111213
11
13.761238
21
128.5177213
0
LINE
8
DEFAULT_255_2_778
10
13.761238
20
128.5177213
11
13.768138
21
128.5243213
0
LINE
8
DEFAULT_255_2_778
10
13.768138
20
128.5243213
11
13.779838
21
128.5365213
0
LINE
8
DEFAULT_255_2_778
10
13.779838
20
128.5365213
11
13.790938
21
128.5489213
0
LINE
8
DEFAULT_255_2_778
10
13.790938
20
128.5489213
11
13.801738
21
128.5616213
0
LINE
8
DEFAULT_255_2_778
10
13.801738
20
128.5616213
11
13.812038
21
128.5748213
0
LINE
8
DEFAULT_255_2_778
10
13.812038
20
128.5748213
11
13.821838
21
128.5883213
0
LINE
8
DEFAULT_255_2_778
10
13.821838
20
128.5883213
11
13.831138
21
128.6021213
0
LINE
8
DEFAULT_255_2_778
10
13.831138
20
128.6021213
11
13.840138
21
128.6161213
0
LINE
8
DEFAULT_255_2_778
10
13.840138
20
128.6161213
11
13.848538
21
128.6304213
0
LINE
8
DEFAULT_255_2_778
10
13.848538
20
128.6304213
11
13.856538
21
128.6449213
0
LINE
8
DEFAULT_255_2_778
10
13.856538
20
128.6449213
11
13.864238
21
128.6598213
0
LINE
8
DEFAULT_255_2_778
10
13.864238
20
128.6598213
11
13.871338
21
128.6748213
0
LINE
8
DEFAULT_255_2_778
10
13.871338
20
128.6748213
11
13.878238
21
128.6899213
0
LINE
8
DEFAULT_255_2_778
10
13.878238
20
128.6899213
11
13.890638
21
128.7209213
0
LINE
8
DEFAULT_255_2_778
10
13.890638
20
128.7209213
11
13.901738
21
128.7524213
0
LINE
8
DEFAULT_255_2_778
10
13.901738
20
128.7524213
11
13.911338
21
128.7841213
0
LINE
8
DEFAULT_255_2_778
10
13.911338
20
128.7841213
11
13.919738
21
128.8164213
0
LINE
8
DEFAULT_255_2_778
10
13.919738
20
128.8164213
11
13.926938
21
128.8489213
0
LINE
8
DEFAULT_255_2_778
10
13.926938
20
128.8489213
11
13.932938
21
128.8815213
0
LINE
8
DEFAULT_255_2_778
10
13.932938
20
128.8815213
11
13.938038
21
128.9143213
0
LINE
8
DEFAULT_255_2_778
10
13.938038
20
128.9143213
11
13.942238
21
128.9474213
0
LINE
8
DEFAULT_255_2_778
10
13.942238
20
128.9474213
11
13.945638
21
128.9804213
0
LINE
8
DEFAULT_255_2_778
10
13.945638
20
128.9804213
11
13.948638
21
129.0135213
0
LINE
8
DEFAULT_255_2_778
10
13.948638
20
129.0135213
11
13.950738
21
129.0468213
0
LINE
8
DEFAULT_255_2_778
10
13.950738
20
129.0468213
11
13.952338
21
129.0802213
0
LINE
8
DEFAULT_255_2_778
10
13.952338
20
129.0802213
11
13.953638
21
129.1135213
0
LINE
8
DEFAULT_255_2_778
10
13.953638
20
129.1135213
11
13.954438
21
129.1469213
0
LINE
8
DEFAULT_255_2_778
10
13.954438
20
129.1469213
11
13.954938
21
129.1799213
0
LINE
8
DEFAULT_255_2_778
10
13.954938
20
129.1799213
11
13.955438
21
129.2130213
0
LINE
8
DEFAULT_255_2_778
10
13.955438
20
129.2130213
11
13.955738
21
129.2463213
0
LINE
8
DEFAULT_255_2_778
10
13.955738
20
129.2463213
11
13.956038
21
129.2794213
0
LINE
8
DEFAULT_255_2_778
10
13.956038
20
129.2794213
11
13.956238
21
129.3125213
0
LINE
8
DEFAULT_255_2_778
10
13.956238
20
129.3125213
11
13.956538
21
129.3456213
0
LINE
8
DEFAULT_255_2_778
10
13.956538
20
129.3456213
11
13.956538
21
129.3786213
0
LINE
8
DEFAULT_255_2_778
10
13.956538
20
129.3786213
11
13.956538
21
129.4450213
0
LINE
8
DEFAULT_255_2_778
10
13.956538
20
129.4450213
11
13.956538
21
129.5115213
0
LINE
8
DEFAULT_255_2_778
10
13.956538
20
129.5115213
11
13.956238
21
129.5779213
0
LINE
8
DEFAULT_255_2_778
10
13.956238
20
129.5779213
11
13.956038
21
129.6112213
0
LINE
8
DEFAULT_255_2_778
10
13.956038
20
129.6112213
11
13.955438
21
129.6445213
0
LINE
8
DEFAULT_255_2_778
10
13.955438
20
129.6445213
11
13.954638
21
129.6779213
0
LINE
8
DEFAULT_255_2_778
10
13.954638
20
129.6779213
11
13.953638
21
129.7112213
0
LINE
8
DEFAULT_255_2_778
10
13.953638
20
129.7112213
11
13.952338
21
129.7443213
0
LINE
8
DEFAULT_255_2_778
10
13.952338
20
129.7443213
11
13.950438
21
129.7774213
0
LINE
8
DEFAULT_255_2_778
10
13.950438
20
129.7774213
11
13.948038
21
129.8104213
0
LINE
8
DEFAULT_255_2_778
10
13.948038
20
129.8104213
11
13.945138
21
129.8435213
0
LINE
8
DEFAULT_255_2_778
10
13.945138
20
129.8435213
11
13.941738
21
129.8763213
0
LINE
8
DEFAULT_255_2_778
10
13.941738
20
129.8763213
11
13.937438
21
129.9091213
0
LINE
8
DEFAULT_255_2_778
10
13.937438
20
129.9091213
11
13.932738
21
129.9419213
0
LINE
8
DEFAULT_255_2_778
10
13.932738
20
129.9419213
11
13.926938
21
129.9745213
0
LINE
8
DEFAULT_255_2_778
10
13.926938
20
129.9745213
11
13.920038
21
130.0068213
0
LINE
8
DEFAULT_255_2_778
10
13.920038
20
130.0068213
11
13.912038
21
130.0390213
0
LINE
8
DEFAULT_255_2_778
10
13.912038
20
130.0390213
11
13.902838
21
130.0710213
0
LINE
8
DEFAULT_255_2_778
10
13.902838
20
130.0710213
11
13.892238
21
130.1028213
0
LINE
8
DEFAULT_255_2_778
10
13.892238
20
130.1028213
11
13.886438
21
130.1184213
0
LINE
8
DEFAULT_255_2_778
10
13.886438
20
130.1184213
11
13.880338
21
130.1340213
0
LINE
8
DEFAULT_255_2_778
10
13.880338
20
130.1340213
11
13.873738
21
130.1494213
0
LINE
8
DEFAULT_255_2_778
10
13.873738
20
130.1494213
11
13.866538
21
130.1644213
0
LINE
8
DEFAULT_255_2_778
10
13.866538
20
130.1644213
11
13.859138
21
130.1793213
0
LINE
8
DEFAULT_255_2_778
10
13.859138
20
130.1793213
11
13.851238
21
130.1938213
0
LINE
8
DEFAULT_255_2_778
10
13.851238
20
130.1938213
11
13.842738
21
130.2081213
0
LINE
8
DEFAULT_255_2_778
10
13.842738
20
130.2081213
11
13.833738
21
130.2221213
0
LINE
8
DEFAULT_255_2_778
10
13.833738
20
130.2221213
11
13.824238
21
130.2359213
0
LINE
8
DEFAULT_255_2_778
10
13.824238
20
130.2359213
11
13.814138
21
130.2491213
0
LINE
8
DEFAULT_255_2_778
10
13.814138
20
130.2491213
11
13.803638
21
130.2621213
0
LINE
8
DEFAULT_255_2_778
10
13.803638
20
130.2621213
11
13.792738
21
130.2748213
0
LINE
8
DEFAULT_255_2_778
10
13.792738
20
130.2748213
11
13.781338
21
130.2869213
0
LINE
8
DEFAULT_255_2_778
10
13.781338
20
130.2869213
11
13.769438
21
130.2986213
0
LINE
8
DEFAULT_255_2_778
10
13.769438
20
130.2986213
11
13.757038
21
130.3100213
0
LINE
8
DEFAULT_255_2_778
10
13.757038
20
130.3100213
11
13.744338
21
130.3208213
0
LINE
8
DEFAULT_255_2_778
10
13.744338
20
130.3208213
11
13.731138
21
130.3311213
0
LINE
8
DEFAULT_255_2_778
10
13.731138
20
130.3311213
11
13.717638
21
130.3407213
0
LINE
8
DEFAULT_255_2_778
10
13.717638
20
130.3407213
11
13.703638
21
130.3497213
0
LINE
8
DEFAULT_255_2_778
10
13.703638
20
130.3497213
11
13.689338
21
130.3581213
0
LINE
8
DEFAULT_255_2_778
10
13.689338
20
130.3581213
11
13.674438
21
130.3661213
0
LINE
8
DEFAULT_255_2_778
10
13.674438
20
130.3661213
11
13.659438
21
130.3735213
0
LINE
8
DEFAULT_255_2_778
10
13.659438
20
130.3735213
11
13.644038
21
130.3801213
0
LINE
8
DEFAULT_255_2_778
10
13.644038
20
130.3801213
11
13.628438
21
130.3862213
0
LINE
8
DEFAULT_255_2_778
10
13.628438
20
130.3862213
11
13.612538
21
130.3917213
0
LINE
8
DEFAULT_255_2_778
10
13.612538
20
130.3917213
11
13.596438
21
130.3965213
0
LINE
8
DEFAULT_255_2_778
10
13.596438
20
130.3965213
11
13.580038
21
130.4007213
0
LINE
8
DEFAULT_255_2_778
10
13.580038
20
130.4007213
11
13.563638
21
130.4044213
0
LINE
8
DEFAULT_255_2_778
10
13.563638
20
130.4044213
11
13.547238
21
130.4076213
0
LINE
8
DEFAULT_255_2_778
10
13.547238
20
130.4076213
11
13.530838
21
130.4102213
0
LINE
8
DEFAULT_255_2_778
10
13.530838
20
130.4102213
11
13.514138
21
130.4124213
0
LINE
8
DEFAULT_255_2_778
10
13.514138
20
130.4124213
11
13.497438
21
130.4139213
0
LINE
8
DEFAULT_255_2_778
10
13.497438
20
130.4139213
11
13.480838
21
130.4150213
0
LINE
8
DEFAULT_255_2_778
10
13.480838
20
130.4150213
11
13.464138
21
130.4155213
0
LINE
8
DEFAULT_255_2_778
10
13.464138
20
130.4155213
11
13.430538
21
130.4155213
0
LINE
8
DEFAULT_255_2_778
10
13.430538
20
130.4155213
11
13.413838
21
130.4150213
0
LINE
8
DEFAULT_255_2_778
10
13.413838
20
130.4150213
11
13.397238
21
130.4139213
0
LINE
8
DEFAULT_255_2_778
10
13.397238
20
130.4139213
11
13.380538
21
130.4124213
0
LINE
8
DEFAULT_255_2_778
10
13.380538
20
130.4124213
11
13.363838
21
130.4102213
0
LINE
8
DEFAULT_255_2_778
10
13.363838
20
130.4102213
11
13.347238
21
130.4076213
0
LINE
8
DEFAULT_255_2_778
10
13.347238
20
130.4076213
11
13.330838
21
130.4047213
0
LINE
8
DEFAULT_255_2_778
10
13.330838
20
130.4047213
11
13.314438
21
130.4010213
0
LINE
8
DEFAULT_255_2_778
10
13.314438
20
130.4010213
11
13.298238
21
130.3967213
0
LINE
8
DEFAULT_255_2_778
10
13.298238
20
130.3967213
11
13.282138
21
130.3920213
0
LINE
8
DEFAULT_255_2_778
10
13.282138
20
130.3920213
11
13.266238
21
130.3867213
0
LINE
8
DEFAULT_255_2_778
10
13.266238
20
130.3867213
11
13.250638
21
130.3806213
0
LINE
8
DEFAULT_255_2_778
10
13.250638
20
130.3806213
11
13.235238
21
130.3740213
0
LINE
8
DEFAULT_255_2_778
10
13.235238
20
130.3740213
11
13.220238
21
130.3666213
0
LINE
8
DEFAULT_255_2_778
10
13.220238
20
130.3666213
11
13.205338
21
130.3586213
0
LINE
8
DEFAULT_255_2_778
10
13.205338
20
130.3586213
11
13.191138
21
130.3502213
0
LINE
8
DEFAULT_255_2_778
10
13.191138
20
130.3502213
11
13.177038
21
130.3412213
0
LINE
8
DEFAULT_255_2_778
10
13.177038
20
130.3412213
11
13.163538
21
130.3317213
0
LINE
8
DEFAULT_255_2_778
10
13.163538
20
130.3317213
11
13.150338
21
130.3216213
0
LINE
8
DEFAULT_255_2_778
10
13.150338
20
130.3216213
11
13.137638
21
130.3108213
0
LINE
8
DEFAULT_255_2_778
10
13.137638
20
130.3108213
11
13.125238
21
130.2996213
0
LINE
8
DEFAULT_255_2_778
10
13.125238
20
130.2996213
11
13.113338
21
130.2880213
0
LINE
8
DEFAULT_255_2_778
10
13.113338
20
130.2880213
11
13.101938
21
130.2758213
0
LINE
8
DEFAULT_255_2_778
10
13.101938
20
130.2758213
11
13.090838
21
130.2634213
0
LINE
8
DEFAULT_255_2_778
10
13.090838
20
130.2634213
11
13.080238
21
130.2504213
0
LINE
8
DEFAULT_255_2_778
10
13.080238
20
130.2504213
11
13.070138
21
130.2372213
0
LINE
8
DEFAULT_255_2_778
10
13.070138
20
130.2372213
11
13.060438
21
130.2234213
0
LINE
8
DEFAULT_255_2_778
10
13.060438
20
130.2234213
11
13.051138
21
130.2094213
0
LINE
8
DEFAULT_255_2_778
10
13.051138
20
130.2094213
11
13.042438
21
130.1951213
0
LINE
8
DEFAULT_255_2_778
10
13.042438
20
130.1951213
11
13.034238
21
130.1803213
0
LINE
8
DEFAULT_255_2_778
10
13.034238
20
130.1803213
11
13.026538
21
130.1652213
0
LINE
8
DEFAULT_255_2_778
10
13.026538
20
130.1652213
11
13.019338
21
130.1502213
0
LINE
8
DEFAULT_255_2_778
10
13.019338
20
130.1502213
11
13.012738
21
130.1345213
0
LINE
8
DEFAULT_255_2_778
10
13.012738
20
130.1345213
11
13.004038
21
130.1123213
0
LINE
8
DEFAULT_255_2_778
10
13.004038
20
130.1123213
11
12.995838
21
130.0898213
0
LINE
8
DEFAULT_255_2_778
10
12.995838
20
130.0898213
11
12.988438
21
130.0673213
0
LINE
8
DEFAULT_255_2_778
10
12.988438
20
130.0673213
11
12.981538
21
130.0446213
0
LINE
8
DEFAULT_255_2_778
10
12.981538
20
130.0446213
11
12.975238
21
130.0216213
0
LINE
8
DEFAULT_255_2_778
10
12.975238
20
130.0216213
11
12.969638
21
129.9986213
0
LINE
8
DEFAULT_255_2_778
10
12.969638
20
129.9986213
11
12.964638
21
129.9755213
0
LINE
8
DEFAULT_255_2_778
10
12.964638
20
129.9755213
11
12.960138
21
129.9522213
0
LINE
8
DEFAULT_255_2_778
10
12.960138
20
129.9522213
11
12.955838
21
129.9290213
0
LINE
8
DEFAULT_255_2_778
10
12.955838
20
129.9290213
11
12.952138
21
129.9054213
0
LINE
8
DEFAULT_255_2_778
10
12.952138
20
129.9054213
11
12.949038
21
129.8819213
0
LINE
8
DEFAULT_255_2_778
10
12.949038
20
129.8819213
11
12.946138
21
129.8583213
0
LINE
8
DEFAULT_255_2_778
10
12.946138
20
129.8583213
11
12.943738
21
129.8348213
0
LINE
8
DEFAULT_255_2_778
10
12.943738
20
129.8348213
11
12.941638
21
129.8112213
0
LINE
8
DEFAULT_255_2_778
10
12.941638
20
129.8112213
11
12.938438
21
129.7639213
0
LINE
8
DEFAULT_255_2_778
10
12.938438
20
129.7639213
11
12.936338
21
129.7162213
0
LINE
8
DEFAULT_255_2_778
10
12.936338
20
129.7162213
11
12.934938
21
129.6686213
0
LINE
8
DEFAULT_255_2_778
10
12.934938
20
129.6686213
11
12.933938
21
129.6210213
0
LINE
8
DEFAULT_255_2_778
10
12.933938
20
129.6210213
11
12.933438
21
129.5734213
0
LINE
8
DEFAULT_255_2_778
10
12.933438
20
129.5734213
11
12.933138
21
129.5257213
0
LINE
8
DEFAULT_255_2_778
10
12.933138
20
129.5257213
11
12.933138
21
129.4781213
0
LINE
8
DEFAULT_255_2_778
10
12.933138
20
129.4781213
11
12.933138
21
129.4305213
0
LINE
8
DEFAULT_255_2_778
10
12.933138
20
129.4305213
11
12.933938
21
129.2403213
0
LINE
8
DEFAULT_255_2_778
10
12.933938
20
129.2403213
11
12.934438
21
129.1926213
0
LINE
8
DEFAULT_255_2_778
10
12.934438
20
129.1926213
11
12.935238
21
129.1450213
0
LINE
8
DEFAULT_255_2_778
10
12.935238
20
129.1450213
11
12.936838
21
129.0976213
0
LINE
8
DEFAULT_255_2_778
10
12.936838
20
129.0976213
11
12.939238
21
129.0503213
0
LINE
8
DEFAULT_255_2_778
10
12.939238
20
129.0503213
11
12.942638
21
129.0029213
0
LINE
8
DEFAULT_255_2_778
10
12.942638
20
129.0029213
11
12.944738
21
128.9794213
0
LINE
8
DEFAULT_255_2_778
10
12.944738
20
128.9794213
11
12.947138
21
128.9558213
0
LINE
8
DEFAULT_255_2_778
10
12.947138
20
128.9558213
11
12.950038
21
128.9323213
0
LINE
8
DEFAULT_255_2_778
10
12.950038
20
128.9323213
11
12.953238
21
128.9087213
0
LINE
8
DEFAULT_255_2_778
10
12.953238
20
128.9087213
11
12.956938
21
128.8852213
0
LINE
8
DEFAULT_255_2_778
10
12.956938
20
128.8852213
11
12.961138
21
128.8619213
0
LINE
8
DEFAULT_255_2_778
10
12.961138
20
128.8619213
11
12.965938
21
128.8386213
0
LINE
8
DEFAULT_255_2_778
10
12.965938
20
128.8386213
11
12.971238
21
128.8156213
0
LINE
8
DEFAULT_255_2_778
10
12.971238
20
128.8156213
11
12.977038
21
128.7926213
0
LINE
8
DEFAULT_255_2_778
10
12.977038
20
128.7926213
11
12.983438
21
128.7698213
0
LINE
8
DEFAULT_255_2_778
10
12.983438
20
128.7698213
11
12.990238
21
128.7471213
0
LINE
8
DEFAULT_255_2_778
10
12.990238
20
128.7471213
11
12.997638
21
128.7246213
0
LINE
8
DEFAULT_255_2_778
10
12.997638
20
128.7246213
11
13.005838
21
128.7024213
0
LINE
8
DEFAULT_255_2_778
10
13.005838
20
128.7024213
11
13.014838
21
128.6804213
0
LINE
8
DEFAULT_255_2_778
10
13.014838
20
128.6804213
11
13.024938
21
128.6590213
0
LINE
8
DEFAULT_255_2_778
10
13.024938
20
128.6590213
11
13.035738
21
128.6381213
0
LINE
8
DEFAULT_255_2_778
10
13.035738
20
128.6381213
11
13.047738
21
128.6177213
0
LINE
8
DEFAULT_255_2_778
10
13.047738
20
128.6177213
11
13.060638
21
128.5978213
0
LINE
8
DEFAULT_255_2_778
10
13.060638
20
128.5978213
11
13.074638
21
128.5785213
0
LINE
8
DEFAULT_255_2_778
10
13.074638
20
128.5785213
11
13.089538
21
128.5600213
0
LINE
8
DEFAULT_255_2_778
10
13.089538
20
128.5600213
11
13.105338
21
128.5423213
0
LINE
8
DEFAULT_255_2_778
10
13.105338
20
128.5423213
11
13.122338
21
128.5254213
0
LINE
8
DEFAULT_255_2_778
10
13.768138
20
128.5134213
11
13.768138
21
128.5261213
0
LINE
8
DEFAULT_255_2_778
10
13.526038
20
134.1763213
11
12.326138
21
134.8690213
0
LINE
8
DEFAULT_255_2_778
10
13.526338
20
134.0607213
11
13.526338
21
134.1763213
0
LINE
8
DEFAULT_255_2_778
10
26.226338
20
132.3134213
11
18.076338
21
132.3134213
0
LINE
8
DEFAULT_255_2_778
10
18.076338
20
132.3134213
11
18.076338
21
129.3337213
0
LINE
8
DEFAULT_255_2_778
10
18.076338
20
129.3337213
11
19.226238
21
129.3337213
0
LINE
8
DEFAULT_255_2_778
10
19.226238
20
129.3337213
11
19.226238
21
20.3632213
0
LINE
8
DEFAULT_255_2_778
10
19.226238
20
20.3632213
11
40.226238
21
20.3632213
0
LINE
8
DEFAULT_255_2_778
10
40.226238
20
20.3632213
11
40.226238
21
129.3337213
0
LINE
8
DEFAULT_255_2_778
10
40.226238
20
129.3337213
11
41.376338
21
129.3337213
0
LINE
8
DEFAULT_255_2_778
10
41.376338
20
129.3337213
11
41.376338
21
132.3134213
0
LINE
8
DEFAULT_255_2_778
10
41.376338
20
132.3134213
11
33.226438
21
132.3134213
0
LINE
8
DEFAULT_255_2_778
10
2.225438
20
118.8009213
11
10.642638
21
118.8009213
0
LINE
8
DEFAULT_255_2_778
10
10.642638
20
118.8009213
11
10.642638
21
124.3052213
0
LINE
8
DEFAULT_255_2_778
10
2.2254163
20
118.8009024
11
2.2254163
21
124.3052024
0
LINE
8
DEFAULT_255_2_778
10
12.3262163
20
35.4008024
11
12.3262163
21
126.8008024
0
LINE
8
DEFAULT_255_2_778
10
2.2254163
20
118.8009024
11
0.2339163
21
118.8009024
0
LINE
8
DEFAULT_255_2_778
10
12.3262163
20
4.8136024
11
12.6270163
21
4.8136024
0
LINE
8
DEFAULT_255_2_778
10
12.6270163
20
4.8136024
11
13.5543163
21
4.8202024
0
LINE
8
DEFAULT_255_2_778
10
13.5543163
20
4.8202024
11
14.4809163
21
4.8350024
0
LINE
8
DEFAULT_255_2_778
10
14.4809163
20
4.8350024
11
15.4064163
21
4.8580024
0
LINE
8
DEFAULT_255_2_778
10
15.4064163
20
4.8580024
11
16.3309163
21
4.8890024
0
LINE
8
DEFAULT_255_2_778
10
16.3309163
20
4.8890024
11
17.2543163
21
4.9282024
0
LINE
8
DEFAULT_255_2_778
10
17.2543163
20
4.9282024
11
18.1769163
21
4.9753024
0
LINE
8
DEFAULT_255_2_778
10
18.1769163
20
4.9753024
11
19.0984163
21
5.0303024
0
LINE
8
DEFAULT_255_2_778
10
19.0984163
20
5.0303024
11
20.0189163
21
5.0935024
0
LINE
8
DEFAULT_255_2_778
10
20.0189163
20
5.0935024
11
20.6259163
21
5.1406024
0
LINE
8
DEFAULT_255_2_778
10
47.1263163
20
7.8134024
11
38.8263163
21
7.8134024
0
LINE
8
DEFAULT_255_2_778
10
45.9264163
20
134.1763024
11
47.1263163
21
134.8690024
0
LINE
8
DEFAULT_255_2_778
10
45.9264066
20
134.0607252
11
45.9264066
21
134.1763252
0
LINE
8
DEFAULT_255_2_778
10
20.6264066
20
5.1406252
11
20.6264066
21
2.2132252
0
LINE
8
DEFAULT_255_2_778
10
20.6264066
20
2.2132252
11
38.8263066
21
2.2132252
0
LINE
8
DEFAULT_255_2_778
10
38.8263066
20
2.2132252
11
38.8263066
21
3.8132252
0
LINE
8
DEFAULT_255_2_778
10
21.9287054
20
5.2504219
11
22.6238054
21
4.9247219
0
LINE
8
DEFAULT_255_2_778
10
22.6238054
20
4.9247219
11
23.3384054
21
4.6437219
0
LINE
8
DEFAULT_255_2_778
10
23.3384054
20
4.6437219
11
24.0697054
21
4.4088219
0
LINE
8
DEFAULT_255_2_778
10
24.0697054
20
4.4088219
11
24.8148054
21
4.2209219
0
LINE
8
DEFAULT_255_2_778
10
24.8148054
20
4.2209219
11
25.5704054
21
4.0810219
0
LINE
8
DEFAULT_255_2_778
10
25.5704054
20
4.0810219
11
33.9254054
21
4.0810219
0
LINE
8
DEFAULT_255_2_778
10
33.9254054
20
4.0810219
11
34.9084054
21
4.2802219
0
LINE
8
DEFAULT_255_2_778
10
34.9084054
20
4.2802219
11
35.8712054
21
4.5593219
0
LINE
8
DEFAULT_255_2_778
10
35.8712054
20
4.5593219
11
36.8075054
21
4.9162219
0
LINE
8
DEFAULT_255_2_778
10
36.8075054
20
4.9162219
11
37.7111054
21
5.3486219
0
LINE
8
DEFAULT_255_2_778
10
37.7111054
20
5.3486219
11
38.5755054
21
5.8534219
0
LINE
8
DEFAULT_255_2_778
10
37.8260857
20
5.8536593
11
38.8262857
21
5.8536593
0
LINE
8
DEFAULT_255_2_778
10
37.8263857
20
7.8134593
11
37.8263857
21
5.8531593
0
LINE
8
DEFAULT_255_2_778
10
37.8263857
20
5.8531593
11
38.8264857
21
5.8531593
0
LINE
8
DEFAULT_255_2_778
10
38.8262857
20
7.8134593
11
38.8262857
21
3.8134593
0
LINE
8
DEFAULT_255_2_778
10
28.9760857
20
3.8132593
11
28.9760857
21
3.4089593
0
LINE
8
DEFAULT_255_2_778
10
28.9760857
20
3.4089593
11
30.4759857
21
3.4089593
0
LINE
8
DEFAULT_255_2_778
10
30.4759857
20
3.4089593
11
30.4759857
21
3.8132593
0
LINE
8
DEFAULT_255_2_778
10
38.8262857
20
7.8134593
11
37.3262857
21
7.8134593
0
LINE
8
DEFAULT_255_2_778
10
37.3262857
20
7.8134593
11
36.4243857
21
7.5980593
0
LINE
8
DEFAULT_255_2_778
10
36.4243857
20
7.5980593
11
35.5213857
21
7.3906593
0
LINE
8
DEFAULT_255_2_778
10
35.5213857
20
7.3906593
11
34.6172857
21
7.1914593
0
LINE
8
DEFAULT_255_2_778
10
34.6172857
20
7.1914593
11
33.7120857
21
7.0001593
0
LINE
8
DEFAULT_255_2_778
10
33.7120857
20
7.0001593
11
32.8061857
21
6.8170593
0
LINE
8
DEFAULT_255_2_778
10
32.8061857
20
6.8170593
11
31.8991857
21
6.6418593
0
LINE
8
DEFAULT_255_2_778
10
31.8991857
20
6.6418593
11
30.9911857
21
6.4749593
0
LINE
8
DEFAULT_255_2_778
10
30.9911857
20
6.4749593
11
30.0822857
21
6.3159593
0
LINE
8
DEFAULT_255_2_778
10
30.0822857
20
6.3159593
11
29.1723857
21
6.1648593
0
LINE
8
DEFAULT_255_2_778
10
29.1723857
20
6.1648593
11
28.2614857
21
6.0216593
0
LINE
8
DEFAULT_255_2_778
10
28.2614857
20
6.0216593
11
27.3496857
21
5.8867593
0
LINE
8
DEFAULT_255_2_778
10
27.3496857
20
5.8867593
11
26.4368857
21
5.7597593
0
LINE
8
DEFAULT_255_2_778
10
26.4368857
20
5.7597593
11
25.5229857
21
5.6406593
0
LINE
8
DEFAULT_255_2_778
10
25.5229857
20
5.6406593
11
24.6082857
21
5.5295593
0
LINE
8
DEFAULT_255_2_778
10
24.6082857
20
5.5295593
11
23.6925857
21
5.4263593
0
LINE
8
DEFAULT_255_2_778
10
23.6925857
20
5.4263593
11
22.7757857
21
5.3311593
0
LINE
8
DEFAULT_255_2_778
10
22.7757857
20
5.3311593
11
21.8582857
21
5.2440593
0
LINE
8
DEFAULT_255_2_778
10
21.8582857
20
5.2440593
11
20.9395857
21
5.1649593
0
LINE
8
DEFAULT_255_2_778
10
20.9395857
20
5.1649593
11
20.6268857
21
5.1408593
0
ARC
8
DEFAULT_255_2_778
10
35.6509238
20
6.6886826
40
0.6245793
50
0.0724139
51
38.7677138
0
ARC
8
DEFAULT_255_2_778
10
12.4334054
20
104.3520618
40
1.0278947
50
95.9752563
51
143.662637
0
ARC
8
DEFAULT_255_2_778
10
12.4308117
20
104.3518884
40
1.0259095
50
143.5690034
51
180.0511816
0
ARC
8
DEFAULT_255_2_778
10
12.4326445
20
96.850525
40
1.0277421
50
179.9695046
51
227.6636364
0
ARC
8
DEFAULT_255_2_778
10
12.4325948
20
96.8480162
40
1.0258555
50
227.5713254
51
264.0583405
0
LINE
8
DEFAULT_255_2_778
10
20.6264026
20
3.813272
11
38.8263026
21
3.813272
0
LINE
8
DEFAULT_255_2_778
10
34.3763026
20
7.151172
11
34.3787026
21
6.702972
0
LINE
8
DEFAULT_255_2_778
10
34.3787026
20
6.702972
11
34.3816026
21
6.666472
0
LINE
8
DEFAULT_255_2_778
10
34.3816026
20
6.666472
11
34.3855026
21
6.629972
0
LINE
8
DEFAULT_255_2_778
10
34.3855026
20
6.629972
11
34.3906026
21
6.593472
0
LINE
8
DEFAULT_255_2_778
10
34.3906026
20
6.593472
11
34.3969026
21
6.557172
0
LINE
8
DEFAULT_255_2_778
10
34.3969026
20
6.557172
11
34.4043026
21
6.521272
0
LINE
8
DEFAULT_255_2_778
10
34.4043026
20
6.521272
11
34.4223026
21
6.449772
0
LINE
8
DEFAULT_255_2_778
10
34.4223026
20
6.449772
11
34.4448026
21
6.379372
0
LINE
8
DEFAULT_255_2_778
10
34.4448026
20
6.379372
11
34.4715026
21
6.310672
0
LINE
8
DEFAULT_255_2_778
10
34.4715026
20
6.310672
11
34.5025026
21
6.243472
0
LINE
8
DEFAULT_255_2_778
10
34.5025026
20
6.243472
11
34.5567026
21
6.146572
0
LINE
8
DEFAULT_255_2_778
10
34.5567026
20
6.146572
11
34.6197026
21
6.055072
0
LINE
8
DEFAULT_255_2_778
10
34.6197026
20
6.055072
11
34.6909026
21
5.969572
0
LINE
8
DEFAULT_255_2_778
10
34.6909026
20
5.969572
11
34.7975026
21
5.865872
0
LINE
8
DEFAULT_255_2_778
10
34.7975026
20
5.865872
11
34.9166026
21
5.775372
0
LINE
8
DEFAULT_255_2_778
10
34.9166026
20
5.775372
11
35.0793026
21
5.682772
0
LINE
8
DEFAULT_255_2_778
10
35.0793026
20
5.682772
11
35.2544026
21
5.615072
0
LINE
8
DEFAULT_255_2_778
10
35.2544026
20
5.615072
11
35.4383026
21
5.573772
0
LINE
8
DEFAULT_255_2_778
10
35.4383026
20
5.573772
11
35.6262026
21
5.559772
0
LINE
8
DEFAULT_255_2_778
10
35.6262026
20
5.559772
11
35.8143026
21
5.573772
0
LINE
8
DEFAULT_255_2_778
10
35.8143026
20
5.573772
11
35.9982026
21
5.615072
0
LINE
8
DEFAULT_255_2_778
10
35.9982026
20
5.615072
11
36.1736026
21
5.682772
0
LINE
8
DEFAULT_255_2_778
10
36.1736026
20
5.682772
11
36.3363026
21
5.775372
0
LINE
8
DEFAULT_255_2_778
10
36.3363026
20
5.775372
11
36.4554026
21
5.865872
0
LINE
8
DEFAULT_255_2_778
10
36.4554026
20
5.865872
11
36.5620026
21
5.969572
0
LINE
8
DEFAULT_255_2_778
10
36.5620026
20
5.969572
11
36.6332026
21
6.055072
0
LINE
8
DEFAULT_255_2_778
10
36.6332026
20
6.055072
11
36.6962026
21
6.146572
0
LINE
8
DEFAULT_255_2_778
10
36.6962026
20
6.146572
11
36.7504026
21
6.243472
0
LINE
8
DEFAULT_255_2_778
10
36.7504026
20
6.243472
11
36.7814026
21
6.310672
0
LINE
8
DEFAULT_255_2_778
10
36.7814026
20
6.310672
11
36.8081026
21
6.379372
0
LINE
8
DEFAULT_255_2_778
10
36.8081026
20
6.379372
11
36.8306026
21
6.449772
0
LINE
8
DEFAULT_255_2_778
10
36.8306026
20
6.449772
11
36.8486026
21
6.521272
0
LINE
8
DEFAULT_255_2_778
10
36.8486026
20
6.521272
11
36.8560026
21
6.557172
0
LINE
8
DEFAULT_255_2_778
10
36.8560026
20
6.557172
11
36.8623026
21
6.593472
0
LINE
8
DEFAULT_255_2_778
10
36.8623026
20
6.593472
11
36.8673026
21
6.629972
0
LINE
8
DEFAULT_255_2_778
10
36.8673026
20
6.629972
11
36.8713026
21
6.666472
0
LINE
8
DEFAULT_255_2_778
10
36.8713026
20
6.666472
11
36.8742026
21
6.702972
0
LINE
8
DEFAULT_255_2_778
10
36.8742026
20
6.702972
11
36.8766026
21
7.705472
0
LINE
8
DEFAULT_255_2_778
10
34.9872026
20
7.289872
11
35.5767026
21
6.552972
0
LINE
8
DEFAULT_255_2_778
10
35.5767026
20
6.552972
11
35.7738026
21
6.703272
0
LINE
8
DEFAULT_255_2_778
10
35.7738026
20
6.703272
11
35.3891026
21
7.184272
0
LINE
8
DEFAULT_255_2_778
10
35.3891026
20
7.184272
11
35.6050026
21
7.349072
0
LINE
8
DEFAULT_255_2_778
10
35.6050026
20
7.349072
11
35.9940026
21
6.841072
0
LINE
8
DEFAULT_255_2_778
10
35.9940026
20
6.841072
11
36.0196026
21
6.755372
0
LINE
8
DEFAULT_255_2_778
10
36.0196026
20
6.755372
11
36.0244026
21
6.715972
0
LINE
8
DEFAULT_255_2_778
10
36.0244026
20
6.715972
11
36.0223026
21
6.640872
0
LINE
8
DEFAULT_255_2_778
10
36.0223026
20
6.640872
11
36.0164026
21
6.607272
0
LINE
8
DEFAULT_255_2_778
10
36.0164026
20
6.607272
11
36.0003026
21
6.552972
0
LINE
8
DEFAULT_255_2_778
10
36.0003026
20
6.552972
11
35.9582026
21
6.472572
0
LINE
8
DEFAULT_255_2_778
10
35.9582026
20
6.472572
11
35.8627026
21
6.374972
0
LINE
8
DEFAULT_255_2_778
10
35.8627026
20
6.374972
11
35.7050026
21
6.306972
0
LINE
8
DEFAULT_255_2_778
10
35.7050026
20
6.306972
11
35.5214026
21
6.313272
0
LINE
8
DEFAULT_255_2_778
10
35.5214026
20
6.313272
11
35.3685026
21
6.392072
0
LINE
8
DEFAULT_255_2_778
10
35.3685026
20
6.392072
11
35.3121026
21
6.449272
0
LINE
8
DEFAULT_255_2_778
10
35.3121026
20
6.449272
11
35.1150026
21
6.298972
0
LINE
8
DEFAULT_255_2_778
10
35.1150026
20
6.298972
11
35.2103026
21
6.202972
0
LINE
8
DEFAULT_255_2_778
10
35.2103026
20
6.202972
11
35.3418026
21
6.119572
0
LINE
8
DEFAULT_255_2_778
10
35.3418026
20
6.119572
11
35.5071026
21
6.066172
0
LINE
8
DEFAULT_255_2_778
10
35.5071026
20
6.066172
11
35.6997026
21
6.059572
0
LINE
8
DEFAULT_255_2_778
10
35.6997026
20
6.059572
11
35.8855026
21
6.108272
0
LINE
8
DEFAULT_255_2_778
10
35.8855026
20
6.108272
11
36.0334026
21
6.195772
0
LINE
8
DEFAULT_255_2_778
10
36.0334026
20
6.195772
11
36.1292026
21
6.288672
0
LINE
8
DEFAULT_255_2_778
10
36.1292026
20
6.288672
11
36.1940026
21
6.382072
0
LINE
8
DEFAULT_255_2_778
10
36.1940026
20
6.382072
11
36.2273026
21
6.450072
0
LINE
8
DEFAULT_255_2_778
10
36.2273026
20
6.450072
11
36.2469026
21
6.503272
0
LINE
8
DEFAULT_255_2_778
10
36.2469026
20
6.503272
11
36.2614026
21
6.557972
0
LINE
8
DEFAULT_255_2_778
10
36.2614026
20
6.557972
11
36.2683026
21
6.595272
0
LINE
8
DEFAULT_255_2_778
10
36.2683026
20
6.595272
11
36.2728026
21
6.632872
0
LINE
8
DEFAULT_255_2_778
10
36.2728026
20
6.632872
11
36.2755026
21
6.689472
0
LINE
8
DEFAULT_255_2_778
10
36.1379026
20
7.079772
11
35.8225026
21
7.474272
0
LINE
8
DEFAULT_255_2_778
10
36.1167026
20
7.562672
11
36.4025026
21
7.199872
0
LINE
8
DEFAULT_255_2_778
10
36.4025026
20
7.199872
11
36.5996026
21
7.352572
0
LINE
8
DEFAULT_255_2_778
10
36.5996026
20
7.352572
11
36.3847026
21
7.625072
0
LINE
8
DEFAULT_255_2_778
10
44.8263026
20
106.562272
11
42.8263026
21
106.562272
0
LINE
8
DEFAULT_255_2_778
10
42.8263026
20
106.562272
11
42.8263026
21
109.292572
0
LINE
8
DEFAULT_255_2_778
10
42.8263026
20
109.292572
11
44.8263026
21
109.292572
0
LINE
8
DEFAULT_255_2_778
10
44.8263026
20
109.292572
11
44.8263026
21
106.562272
0
LINE
8
DEFAULT_255_2_778
10
44.8263026
20
128.161872
11
42.8263026
21
128.161872
0
LINE
8
DEFAULT_255_2_778
10
42.8263026
20
128.161872
11
42.8263026
21
130.899472
0
LINE
8
DEFAULT_255_2_778
10
42.8263026
20
130.899472
11
44.8263026
21
130.899472
0
LINE
8
DEFAULT_255_2_778
10
44.8263026
20
130.899472
11
44.8263026
21
128.161872
0
LINE
8
DEFAULT_255_2_778
10
47.1263026
20
134.493872
11
46.6762026
21
134.493872
0
LINE
8
DEFAULT_255_2_778
10
46.6762026
20
134.493872
11
42.7263026
21
132.213372
0
LINE
8
DEFAULT_255_2_778
10
14.6262026
20
106.562272
11
16.6262026
21
106.562272
0
LINE
8
DEFAULT_255_2_778
10
16.6262026
20
106.562272
11
16.6262026
21
109.292572
0
LINE
8
DEFAULT_255_2_778
10
16.6262026
20
109.292572
11
14.6262026
21
109.292572
0
LINE
8
DEFAULT_255_2_778
10
14.6262026
20
109.292572
11
14.6262026
21
106.562272
0
LINE
8
DEFAULT_255_2_778
10
11.4049026
20
104.350972
11
11.4049026
21
96.851072
0
LINE
8
DEFAULT_255_2_778
10
17.2263026
20
135.998772
11
42.2262026
21
135.998772
0
LINE
8
DEFAULT_255_2_778
10
42.2262026
20
146.813372
11
42.2262026
21
135.998772
0
LINE
8
DEFAULT_255_2_778
10
42.2262026
20
135.396572
11
42.2262026
21
135.413272
0
LINE
8
DEFAULT_255_2_778
10
42.2262026
20
135.413272
11
42.2262026
21
135.998772
0
LINE
8
DEFAULT_255_2_778
10
42.2257026
20
135.380172
11
42.2262026
21
135.396572
0
LINE
8
DEFAULT_255_2_778
10
42.2249026
20
135.363772
11
42.2257026
21
135.380172
0
LINE
8
DEFAULT_255_2_778
10
42.2241026
20
135.347372
11
42.2252026
21
135.363772
0
LINE
8
DEFAULT_255_2_778
10
42.2212026
20
135.314572
11
42.2228026
21
135.330972
0
LINE
8
DEFAULT_255_2_778
10
42.2228026
20
135.330972
11
42.2241026
21
135.347372
0
LINE
8
DEFAULT_255_2_778
10
42.2196026
20
135.298172
11
42.2214026
21
135.314572
0
LINE
8
DEFAULT_255_2_778
10
42.2151026
20
135.265872
11
42.2175026
21
135.282072
0
LINE
8
DEFAULT_255_2_778
10
42.2175026
20
135.282072
11
42.2196026
21
135.298172
0
LINE
8
DEFAULT_255_2_778
10
42.2125026
20
135.249772
11
42.2151026
21
135.265872
0
LINE
8
DEFAULT_255_2_778
10
42.2095026
20
135.233572
11
42.2125026
21
135.249772
0
LINE
8
DEFAULT_255_2_778
10
42.2066026
20
135.217772
11
42.2098026
21
135.233872
0
LINE
8
DEFAULT_255_2_778
10
42.1995026
20
135.185772
11
42.2032026
21
135.201572
0
LINE
8
DEFAULT_255_2_778
10
42.2032026
20
135.201572
11
42.2066026
21
135.217472
0
LINE
8
DEFAULT_255_2_778
10
42.1955026
20
135.169872
11
42.1995026
21
135.185772
0
LINE
8
DEFAULT_255_2_778
10
42.1916026
20
135.153972
11
42.1958026
21
135.169872
0
LINE
8
DEFAULT_255_2_778
10
42.1871026
20
135.138072
11
42.1916026
21
135.153972
0
LINE
8
DEFAULT_255_2_778
10
42.1775026
20
135.106572
11
42.1826026
21
135.122272
0
LINE
8
DEFAULT_255_2_778
10
42.1826026
20
135.122272
11
42.1873026
21
135.138072
0
LINE
8
DEFAULT_255_2_778
10
42.1722026
20
135.090972
11
42.1775026
21
135.106572
0
LINE
8
DEFAULT_255_2_778
10
42.1667026
20
135.075372
11
42.1722026
21
135.090972
0
LINE
8
DEFAULT_255_2_778
10
42.1611026
20
135.059772
11
42.1669026
21
135.075372
0
LINE
8
DEFAULT_255_2_778
10
42.1550026
20
135.044472
11
42.1611026
21
135.059772
0
LINE
8
DEFAULT_255_2_778
10
42.1490026
20
135.029072
11
42.1550026
21
135.044472
0
LINE
8
DEFAULT_255_2_778
10
42.1217026
20
134.969272
11
42.1288026
21
134.984072
0
LINE
8
DEFAULT_255_2_778
10
42.1288026
20
134.984072
11
42.1357026
21
134.998972
0
LINE
8
DEFAULT_255_2_778
10
42.1357026
20
134.998972
11
42.1423026
21
135.013972
0
LINE
8
DEFAULT_255_2_778
10
42.1423026
20
135.013972
11
42.1487026
21
135.029072
0
LINE
8
DEFAULT_255_2_778
10
42.1143026
20
134.954772
11
42.1217026
21
134.969272
0
LINE
8
DEFAULT_255_2_778
10
42.0907026
20
134.911572
11
42.0987026
21
134.925872
0
LINE
8
DEFAULT_255_2_778
10
42.0987026
20
134.925872
11
42.1066026
21
134.940172
0
LINE
8
DEFAULT_255_2_778
10
42.1066026
20
134.940172
11
42.1143026
21
134.954772
0
LINE
8
DEFAULT_255_2_778
10
42.0825026
20
134.897372
11
42.0907026
21
134.911372
0
LINE
8
DEFAULT_255_2_778
10
42.0653026
20
134.869572
11
42.0741026
21
134.883272
0
LINE
8
DEFAULT_255_2_778
10
42.0741026
20
134.883272
11
42.0825026
21
134.897372
0
LINE
8
DEFAULT_255_2_778
10
42.0563026
20
134.855772
11
42.0653026
21
134.869572
0
LINE
8
DEFAULT_255_2_778
10
42.0471026
20
134.842272
11
42.0563026
21
134.855772
0
LINE
8
DEFAULT_255_2_778
10
42.0376026
20
134.828572
11
42.0471026
21
134.842072
0
LINE
8
DEFAULT_255_2_778
10
41.9868026
20
134.763172
11
41.9973026
21
134.775872
0
LINE
8
DEFAULT_255_2_778
10
41.9973026
20
134.775872
11
42.0077026
21
134.788872
0
LINE
8
DEFAULT_255_2_778
10
42.0077026
20
134.788872
11
42.0180026
21
134.801772
0
LINE
8
DEFAULT_255_2_778
10
42.0180026
20
134.801772
11
42.0280026
21
134.815072
0
LINE
8
DEFAULT_255_2_778
10
42.0280026
20
134.815072
11
42.0378026
21
134.828272
0
LINE
8
DEFAULT_255_2_778
10
41.9759026
20
134.750972
11
41.9868026
21
134.763472
0
LINE
8
DEFAULT_255_2_778
10
41.9071026
20
134.680072
11
41.9190026
21
134.691272
0
LINE
8
DEFAULT_255_2_778
10
41.9190026
20
134.691272
11
41.9307026
21
134.702572
0
LINE
8
DEFAULT_255_2_778
10
41.9307026
20
134.702572
11
41.9423026
21
134.714272
0
LINE
8
DEFAULT_255_2_778
10
41.9423026
20
134.714272
11
41.9537026
21
134.726172
0
LINE
8
DEFAULT_255_2_778
10
41.9537026
20
134.726172
11
41.9648026
21
134.738272
0
LINE
8
DEFAULT_255_2_778
10
41.9648026
20
134.738272
11
41.9759026
21
134.750772
0
LINE
8
DEFAULT_255_2_778
10
41.8950026
20
134.669272
11
41.9071026
21
134.680372
0
LINE
8
DEFAULT_255_2_778
10
41.8315026
20
134.617172
11
41.8444026
21
134.627172
0
LINE
8
DEFAULT_255_2_778
10
41.8444026
20
134.627172
11
41.8574026
21
134.637472
0
LINE
8
DEFAULT_255_2_778
10
41.8574026
20
134.637472
11
41.8701026
21
134.647872
0
LINE
8
DEFAULT_255_2_778
10
41.8701026
20
134.647872
11
41.8825026
21
134.658372
0
LINE
8
DEFAULT_255_2_778
10
41.8825026
20
134.658372
11
41.8947026
21
134.669272
0
LINE
8
DEFAULT_255_2_778
10
41.8182026
20
134.607372
11
41.8315026
21
134.617172
0
LINE
8
DEFAULT_255_2_778
10
41.8050026
20
134.597872
11
41.8185026
21
134.607372
0
LINE
8
DEFAULT_255_2_778
10
41.7915026
20
134.588572
11
41.8050026
21
134.597872
0
LINE
8
DEFAULT_255_2_778
10
41.7497026
20
134.561272
11
41.7637026
21
134.570072
0
LINE
8
DEFAULT_255_2_778
10
41.7637026
20
134.570072
11
41.7777026
21
134.579072
0
LINE
8
DEFAULT_255_2_778
10
41.7777026
20
134.579072
11
41.7915026
21
134.588272
0
LINE
8
DEFAULT_255_2_778
10
41.7354026
20
134.553072
11
41.7497026
21
134.561572
0
LINE
8
DEFAULT_255_2_778
10
41.7063026
20
134.536472
11
41.7209026
21
134.544372
0
LINE
8
DEFAULT_255_2_778
10
41.7209026
20
134.544372
11
41.7351026
21
134.552572
0
LINE
8
DEFAULT_255_2_778
10
41.6918026
20
134.528772
11
41.7063026
21
134.536472
0
LINE
8
DEFAULT_255_2_778
10
41.6772026
20
134.521072
11
41.6920026
21
134.528772
0
LINE
8
DEFAULT_255_2_778
10
41.6624026
20
134.513972
11
41.6772026
21
134.521372
0
LINE
8
DEFAULT_255_2_778
10
41.6473026
20
134.506772
11
41.6621026
21
134.513972
0
LINE
8
DEFAULT_255_2_778
10
41.6325026
20
134.500172
11
41.6476026
21
134.507072
0
LINE
8
DEFAULT_255_2_778
10
41.6171026
20
134.493572
11
41.6322026
21
134.500172
0
LINE
8
DEFAULT_255_2_778
10
41.6021026
20
134.487272
11
41.6174026
21
134.493572
0
LINE
8
DEFAULT_255_2_778
10
41.5401026
20
134.464472
11
41.5558026
21
134.469772
0
LINE
8
DEFAULT_255_2_778
10
41.5558026
20
134.469772
11
41.5714026
21
134.475372
0
LINE
8
DEFAULT_255_2_778
10
41.5714026
20
134.475372
11
41.5867026
21
134.481172
0
LINE
8
DEFAULT_255_2_778
10
41.5867026
20
134.481172
11
41.6021026
21
134.487272
0
LINE
8
DEFAULT_255_2_778
10
41.5245026
20
134.459472
11
41.5401026
21
134.464472
0
LINE
8
DEFAULT_255_2_778
10
41.4608026
20
134.441672
11
41.4769026
21
134.445672
0
LINE
8
DEFAULT_255_2_778
10
41.4769026
20
134.445672
11
41.4928026
21
134.449972
0
LINE
8
DEFAULT_255_2_778
10
41.4928026
20
134.449972
11
41.5087026
21
134.454372
0
LINE
8
DEFAULT_255_2_778
10
41.5087026
20
134.454372
11
41.5245026
21
134.459172
0
LINE
8
DEFAULT_255_2_778
10
41.4444026
20
134.437972
11
41.4605026
21
134.441672
0
LINE
8
DEFAULT_255_2_778
10
41.4118026
20
134.431172
11
41.4282026
21
134.434272
0
LINE
8
DEFAULT_255_2_778
10
41.4282026
20
134.434272
11
41.4444026
21
134.437772
0
LINE
8
DEFAULT_255_2_778
10
41.3954026
20
134.428272
11
41.4118026
21
134.431172
0
LINE
8
DEFAULT_255_2_778
10
41.3626026
20
134.422972
11
41.3790026
21
134.425272
0
LINE
8
DEFAULT_255_2_778
10
41.3790026
20
134.425272
11
41.3954026
21
134.427972
0
LINE
8
DEFAULT_255_2_778
10
41.3462026
20
134.420772
11
41.3626026
21
134.422972
0
LINE
8
DEFAULT_255_2_778
10
41.3298026
20
134.418972
11
41.3462026
21
134.420772
0
LINE
8
DEFAULT_255_2_778
10
41.3131026
20
134.417372
11
41.3298026
21
134.418972
0
LINE
8
DEFAULT_255_2_778
10
41.2801026
20
134.414772
11
41.2967026
21
134.415772
0
LINE
8
DEFAULT_255_2_778
10
41.2967026
20
134.415772
11
41.3134026
21
134.417072
0
LINE
8
DEFAULT_255_2_778
10
41.2634026
20
134.413972
11
41.2801026
21
134.414772
0
LINE
8
DEFAULT_255_2_778
10
18.2095026
20
134.413372
11
18.2261026
21
134.413172
0
LINE
8
DEFAULT_255_2_778
10
18.2261026
20
134.413172
11
41.2303026
21
134.413172
0
LINE
8
DEFAULT_255_2_778
10
41.2303026
20
134.413172
11
41.2470026
21
134.413372
0
LINE
8
DEFAULT_255_2_778
10
41.2470026
20
134.413372
11
41.2637026
21
134.413972
0
LINE
8
DEFAULT_255_2_778
10
18.1928119
20
134.4139364
11
18.2094119
21
134.4134364
0
LINE
8
DEFAULT_255_2_778
10
18.1594119
20
134.4158364
11
18.1761119
21
134.4147364
0
LINE
8
DEFAULT_255_2_778
10
18.1761119
20
134.4147364
11
18.1928119
21
134.4139364
0
LINE
8
DEFAULT_255_2_778
10
18.1428119
20
134.4169364
11
18.1594119
21
134.4155364
0
LINE
8
DEFAULT_255_2_778
10
18.0769119
20
134.4251364
11
18.0933119
21
134.4227364
0
LINE
8
DEFAULT_255_2_778
10
18.0933119
20
134.4227364
11
18.1097119
21
134.4206364
0
LINE
8
DEFAULT_255_2_778
10
18.1097119
20
134.4206364
11
18.1261119
21
134.4187364
0
LINE
8
DEFAULT_255_2_778
10
18.1261119
20
134.4187364
11
18.1428119
21
134.4171364
0
LINE
8
DEFAULT_255_2_778
10
18.0602119
20
134.4277364
11
18.0766119
21
134.4251364
0
LINE
8
DEFAULT_255_2_778
10
18.0438119
20
134.4306364
11
18.0602119
21
134.4277364
0
LINE
8
DEFAULT_255_2_778
10
18.0277119
20
134.4338364
11
18.0441119
21
134.4306364
0
LINE
8
DEFAULT_255_2_778
10
17.9949119
20
134.4412364
11
18.0110119
21
134.4375364
0
LINE
8
DEFAULT_255_2_778
10
18.0110119
20
134.4375364
11
18.0274119
21
134.4341364
0
LINE
8
DEFAULT_255_2_778
10
17.9787119
20
134.4452364
11
17.9949119
21
134.4412364
0
LINE
8
DEFAULT_255_2_778
10
17.9467119
20
134.4542364
11
17.9626119
21
134.4497364
0
LINE
8
DEFAULT_255_2_778
10
17.9626119
20
134.4497364
11
17.9787119
21
134.4454364
0
LINE
8
DEFAULT_255_2_778
10
17.9311119
20
134.4589364
11
17.9470119
21
134.4542364
0
LINE
8
DEFAULT_255_2_778
10
17.9152119
20
134.4640364
11
17.9308119
21
134.4589364
0
LINE
8
DEFAULT_255_2_778
10
17.8996119
20
134.4692364
11
17.9152119
21
134.4640364
0
LINE
8
DEFAULT_255_2_778
10
17.8840119
20
134.4748364
11
17.8996119
21
134.4692364
0
LINE
8
DEFAULT_255_2_778
10
17.8687119
20
134.4806364
11
17.8840119
21
134.4748364
0
LINE
8
DEFAULT_255_2_778
10
17.8380119
20
134.4928364
11
17.8533119
21
134.4864364
0
LINE
8
DEFAULT_255_2_778
10
17.8533119
20
134.4864364
11
17.8687119
21
134.4804364
0
LINE
8
DEFAULT_255_2_778
10
17.8229119
20
134.4994364
11
17.8380119
21
134.4928364
0
LINE
8
DEFAULT_255_2_778
10
17.8078119
20
134.5063364
11
17.8229119
21
134.4994364
0
LINE
8
DEFAULT_255_2_778
10
17.7930119
20
134.5132364
11
17.8078119
21
134.5063364
0
LINE
8
DEFAULT_255_2_778
10
17.7340119
20
134.5439364
11
17.7485119
21
134.5359364
0
LINE
8
DEFAULT_255_2_778
10
17.7485119
20
134.5359364
11
17.7631119
21
134.5282364
0
LINE
8
DEFAULT_255_2_778
10
17.7631119
20
134.5282364
11
17.7779119
21
134.5208364
0
LINE
8
DEFAULT_255_2_778
10
17.7779119
20
134.5208364
11
17.7927119
21
134.5134364
0
LINE
8
DEFAULT_255_2_778
10
17.7197119
20
134.5521364
11
17.7342119
21
134.5439364
0
LINE
8
DEFAULT_255_2_778
10
17.7054119
20
134.5605364
11
17.7197119
21
134.5521364
0
LINE
8
DEFAULT_255_2_778
10
17.6911119
20
134.5693364
11
17.7054119
21
134.5605364
0
LINE
8
DEFAULT_255_2_778
10
17.6229119
20
134.6164364
11
17.6361119
21
134.6066364
0
LINE
8
DEFAULT_255_2_778
10
17.6361119
20
134.6066364
11
17.6496119
21
134.5970364
0
LINE
8
DEFAULT_255_2_778
10
17.6496119
20
134.5970364
11
17.6633119
21
134.5878364
0
LINE
8
DEFAULT_255_2_778
10
17.6633119
20
134.5878364
11
17.6771119
21
134.5785364
0
LINE
8
DEFAULT_255_2_778
10
17.6771119
20
134.5785364
11
17.6911119
21
134.5695364
0
LINE
8
DEFAULT_255_2_778
10
17.6099119
20
134.6261364
11
17.6229119
21
134.6161364
0
LINE
8
DEFAULT_255_2_778
10
17.5969119
20
134.6365364
11
17.6099119
21
134.6264364
0
LINE
8
DEFAULT_255_2_778
10
17.5842119
20
134.6468364
11
17.5969119
21
134.6365364
0
LINE
8
DEFAULT_255_2_778
10
17.5117119
20
134.7137364
11
17.5234119
21
134.7021364
0
LINE
8
DEFAULT_255_2_778
10
17.5234119
20
134.7021364
11
17.5353119
21
134.6907364
0
LINE
8
DEFAULT_255_2_778
10
17.5353119
20
134.6907364
11
17.5472119
21
134.6796364
0
LINE
8
DEFAULT_255_2_778
10
17.5472119
20
134.6796364
11
17.5594119
21
134.6685364
0
LINE
8
DEFAULT_255_2_778
10
17.5594119
20
134.6685364
11
17.5718119
21
134.6576364
0
LINE
8
DEFAULT_255_2_778
10
17.5718119
20
134.6576364
11
17.5842119
21
134.6470364
0
LINE
8
DEFAULT_255_2_778
10
17.5004119
20
134.7256364
11
17.5117119
21
134.7137364
0
LINE
8
DEFAULT_255_2_778
10
17.4567119
20
134.7751364
11
17.4673119
21
134.7624364
0
LINE
8
DEFAULT_255_2_778
10
17.4673119
20
134.7624364
11
17.4781119
21
134.7500364
0
LINE
8
DEFAULT_255_2_778
10
17.4781119
20
134.7500364
11
17.4892119
21
134.7375364
0
LINE
8
DEFAULT_255_2_778
10
17.4892119
20
134.7375364
11
17.5004119
21
134.7254364
0
LINE
8
DEFAULT_255_2_778
10
17.4461119
20
134.7881364
11
17.4564119
21
134.7751364
0
LINE
8
DEFAULT_255_2_778
10
17.4361119
20
134.8013364
11
17.4464119
21
134.7883364
0
LINE
8
DEFAULT_255_2_778
10
17.4260119
20
134.8145364
11
17.4361119
21
134.8013364
0
LINE
8
DEFAULT_255_2_778
10
17.4162119
20
134.8278364
11
17.4260119
21
134.8143364
0
LINE
8
DEFAULT_255_2_778
10
17.4067119
20
134.8412364
11
17.4162119
21
134.8278364
0
LINE
8
DEFAULT_255_2_778
10
17.3548119
20
134.9251364
11
17.3630119
21
134.9108364
0
LINE
8
DEFAULT_255_2_778
10
17.3630119
20
134.9108364
11
17.3712119
21
134.8968364
0
LINE
8
DEFAULT_255_2_778
10
17.3712119
20
134.8968364
11
17.3797119
21
134.8828364
0
LINE
8
DEFAULT_255_2_778
10
17.3797119
20
134.8828364
11
17.3884119
21
134.8690364
0
LINE
8
DEFAULT_255_2_778
10
17.3884119
20
134.8690364
11
17.3974119
21
134.8553364
0
LINE
8
DEFAULT_255_2_778
10
17.3974119
20
134.8553364
11
17.4067119
21
134.8415364
0
LINE
8
DEFAULT_255_2_778
10
17.3469119
20
134.9394364
11
17.3548119
21
134.9251364
0
LINE
8
DEFAULT_255_2_778
10
17.3392119
20
134.9540364
11
17.3469119
21
134.9394364
0
LINE
8
DEFAULT_255_2_778
10
17.3318119
20
134.9685364
11
17.3392119
21
134.9540364
0
LINE
8
DEFAULT_255_2_778
10
17.3247119
20
134.9833364
11
17.3318119
21
134.9685364
0
LINE
8
DEFAULT_255_2_778
10
17.3178119
20
134.9984364
11
17.3247119
21
134.9836364
0
LINE
8
DEFAULT_255_2_778
10
17.3109119
20
135.0132364
11
17.3175119
21
134.9981364
0
LINE
8
DEFAULT_255_2_778
10
17.3046119
20
135.0286364
11
17.3109119
21
135.0135364
0
LINE
8
DEFAULT_255_2_778
10
17.2924119
20
135.0593364
11
17.2985119
21
135.0439364
0
LINE
8
DEFAULT_255_2_778
10
17.2985119
20
135.0439364
11
17.3048119
21
135.0286364
0
LINE
8
DEFAULT_255_2_778
10
17.2866119
20
135.0749364
11
17.2924119
21
135.0593364
0
LINE
8
DEFAULT_255_2_778
10
17.2810119
20
135.0905364
11
17.2866119
21
135.0749364
0
LINE
8
DEFAULT_255_2_778
10
17.2757119
20
135.1061364
11
17.2810119
21
135.0905364
0
LINE
8
DEFAULT_255_2_778
10
17.2659119
20
135.1376364
11
17.2707119
21
135.1217364
0
LINE
8
DEFAULT_255_2_778
10
17.2707119
20
135.1217364
11
17.2757119
21
135.1058364
0
LINE
8
DEFAULT_255_2_778
10
17.2617119
20
135.1535364
11
17.2662119
21
135.1376364
0
LINE
8
DEFAULT_255_2_778
10
17.2575119
20
135.1693364
11
17.2617119
21
135.1535364
0
LINE
8
DEFAULT_255_2_778
10
17.2535119
20
135.1852364
11
17.2575119
21
135.1693364
0
LINE
8
DEFAULT_255_2_778
10
17.2464119
20
135.2172364
11
17.2498119
21
135.2011364
0
LINE
8
DEFAULT_255_2_778
10
17.2498119
20
135.2011364
11
17.2535119
21
135.1852364
0
LINE
8
DEFAULT_255_2_778
10
17.2432119
20
135.2334364
11
17.2464119
21
135.2172364
0
LINE
8
DEFAULT_255_2_778
10
17.2403119
20
135.2495364
11
17.2432119
21
135.2334364
0
LINE
8
DEFAULT_255_2_778
10
17.2376119
20
135.2656364
11
17.2403119
21
135.2495364
0
LINE
8
DEFAULT_255_2_778
10
17.2331119
20
135.2982364
11
17.2352119
21
135.2820364
0
LINE
8
DEFAULT_255_2_778
10
17.2352119
20
135.2820364
11
17.2376119
21
135.2659364
0
LINE
8
DEFAULT_255_2_778
10
17.2313119
20
135.3143364
11
17.2331119
21
135.2979364
0
LINE
8
DEFAULT_255_2_778
10
17.2286119
20
135.3471364
11
17.2299119
21
135.3307364
0
LINE
8
DEFAULT_255_2_778
10
17.2299119
20
135.3307364
11
17.2315119
21
135.3143364
0
LINE
8
DEFAULT_255_2_778
10
17.2276119
20
135.3635364
11
17.2286119
21
135.3471364
0
LINE
8
DEFAULT_255_2_778
10
17.2268119
20
135.3802364
11
17.2276119
21
135.3638364
0
LINE
8
DEFAULT_255_2_778
10
17.2265119
20
135.3966364
11
17.2270119
21
135.3802364
0
LINE
8
DEFAULT_255_2_778
10
17.2262119
20
135.4133364
11
17.2262119
21
135.3966364
0
LINE
8
DEFAULT_255_2_778
10
17.2382119
20
146.7893364
11
17.2382119
21
136.6063364
0
LINE
8
DEFAULT_255_2_778
10
17.2382119
20
136.6063364
11
42.0381119
21
136.6063364
0
LINE
8
DEFAULT_255_2_778
10
42.0381119
20
136.6063364
11
42.0381119
21
146.7893364
0
LINE
8
DEFAULT_255_2_778
10
12.3264119
20
76.1347364
11
11.8340119
21
76.1347364
0
LINE
8
DEFAULT_255_2_778
10
12.3264119
20
70.3448364
11
11.8340119
21
70.3448364
0
LINE
8
DEFAULT_255_2_778
10
9.1845119
20
74.5623364
11
11.8338119
21
74.5623364
0
LINE
8
DEFAULT_255_2_778
10
30.7263366
20
141.8500812
11
30.7263366
21
143.8486812
0
LINE
8
DEFAULT_255_2_778
10
30.7263366
20
143.8486812
11
28.7263366
21
143.8486812
0
LINE
8
DEFAULT_255_2_778
10
28.7263366
20
143.8486812
11
28.7263366
21
141.8500812
0
LINE
8
DEFAULT_255_2_778
10
34.7262366
20
141.8500812
11
34.7262366
21
143.8486812
0
LINE
8
DEFAULT_255_2_778
10
34.7262366
20
143.8486812
11
32.7262366
21
143.8486812
0
LINE
8
DEFAULT_255_2_778
10
32.7262366
20
143.8486812
11
32.7262366
21
141.8500812
0
LINE
8
DEFAULT_255_2_778
10
24.7263366
20
141.8502812
11
24.7263366
21
141.8121812
0
LINE
8
DEFAULT_255_2_778
10
24.7263366
20
141.8121812
11
26.7263366
21
141.8121812
0
LINE
8
DEFAULT_255_2_778
10
26.7263366
20
141.8121812
11
26.7263366
21
141.8502812
0
LINE
8
DEFAULT_255_2_778
10
26.7263366
20
141.8502812
11
26.7263366
21
143.8489812
0
LINE
8
DEFAULT_255_2_778
10
26.7263366
20
143.8489812
11
24.7263366
21
143.8489812
0
LINE
8
DEFAULT_255_2_778
10
24.7263366
20
143.8489812
11
24.7263366
21
141.8502812
0
ARC
8
DEFAULT_255_2_778
10
13.3420838
20
108.9263391
40
0.060408
50
287.4331127
51
299.7744162
0
ARC
8
DEFAULT_255_2_778
10
13.3344507
20
108.9298375
40
0.0659323
50
269.7661132
51
281.3989829
0
ARC
8
DEFAULT_255_2_778
10
13.5484447
20
65.5982747
40
0.310911
50
299.5501761
51
312.9234548
0
ARC
8
DEFAULT_255_2_778
10
13.5645073
20
65.5780491
40
0.2851687
50
313.327706
51
320.6680537
0
ARC
8
DEFAULT_255_2_778
10
13.5597636
20
65.5780673
40
0.2888649
50
321.2616261
51
328.4697168
0
ARC
8
DEFAULT_255_2_778
10
13.6033951
20
65.5429658
40
0.2343516
50
339.1371463
51
348.0660481
0
ARC
8
DEFAULT_255_2_778
10
13.5088085
20
65.5619276
40
0.3308164
50
348.2404669
51
359.9225049
0
ARC
8
DEFAULT_255_2_778
10
13.5204871
20
65.561467
40
0.3191375
50
0.0023646
51
0.9405634
0
ARC
8
DEFAULT_255_2_778
10
13.4258926
20
65.6248891
40
0.40884
50
12.1453107
51
22.3272233
0
ARC
8
DEFAULT_255_2_778
10
13.5345227
20
65.6726027
40
0.2900113
50
28.9554551
51
36.1561042
0
ARC
8
DEFAULT_255_2_778
10
13.5587101
20
65.6893723
40
0.2605893
50
36.3166553
51
44.3410827
0
ARC
8
DEFAULT_255_2_778
10
13.5539898
20
65.6740174
40
0.2754335
50
53.5626994
51
61.0810849
0
ARC
8
DEFAULT_255_2_778
10
13.5565399
20
65.6755246
40
0.2728852
50
61.3967295
51
68.252021
0
ARC
8
DEFAULT_255_2_778
10
13.4802155
20
65.4941402
40
0.4696538
50
67.8025209
51
68.298281
0
ARC
8
DEFAULT_255_2_778
10
13.5341213
20
65.608781
40
0.3432919
50
69.5824873
51
81.7330606
0
ARC
8
DEFAULT_255_2_778
10
13.5171376
20
65.4306539
40
0.5225917
50
90.7078426
51
92.3078443
0
ARC
8
DEFAULT_255_2_778
10
13.5168911
20
65.4341503
40
0.5190882
50
92.2961998
51
98.7437556
0
ARC
8
DEFAULT_255_2_778
10
13.4586124
20
65.7009058
40
0.244264
50
110.4969451
51
118.3341516
0
ARC
8
DEFAULT_255_2_778
10
13.4725383
20
65.6794831
40
0.2697377
50
118.7780994
51
125.8187875
0
ARC
8
DEFAULT_255_2_778
10
13.4891197
20
65.6597771
40
0.2954266
50
126.1897962
51
132.7242196
0
ARC
8
DEFAULT_255_2_778
10
13.4595208
20
65.6966955
40
0.2482453
50
133.4867881
51
141.1529773
0
ARC
8
DEFAULT_255_2_778
10
13.5176602
20
65.6534737
40
0.3206484
50
141.6542754
51
153.5879609
0
ARC
8
DEFAULT_255_2_778
10
13.4920424
20
65.6677322
40
0.4197133
50
137.1808405
51
153.7288297
0
ARC
8
DEFAULT_255_2_778
10
13.4564019
20
65.6955125
40
0.3748977
50
118.0721316
51
127.3070593
0
ARC
8
DEFAULT_255_2_778
10
13.4854015
20
65.6156853
40
0.4599368
50
101.4266903
51
108.9840753
0
ARC
8
DEFAULT_255_2_778
10
13.5030801
20
65.5268573
40
0.5505066
50
95.0750919
51
101.398604
0
ARC
8
DEFAULT_255_2_778
10
13.5155216
20
65.4326243
40
0.6452814
50
83.0071646
51
90.0035576
0
ARC
8
DEFAULT_255_2_778
10
13.5352678
20
65.5938879
40
0.4828134
50
73.6623976
51
83.0031573
0
ARC
8
DEFAULT_255_2_778
10
13.56837
20
65.6930498
40
0.3781574
50
50.3478805
51
62.3123052
0
ARC
8
DEFAULT_255_2_778
10
13.5691587
20
65.6960208
40
0.3753688
50
38.1909803
51
50.1511887
0
ARC
8
DEFAULT_255_2_778
10
13.4691385
20
65.6395425
40
0.4905359
50
17.7274753
51
26.929833
0
ARC
8
DEFAULT_255_2_778
10
13.3795447
20
65.6111042
40
0.5845346
50
10.009771
51
17.7086117
0
ARC
8
DEFAULT_255_2_778
10
13.4487693
20
65.5604293
40
0.5189242
50
350.9836788
51
359.6109446
0
ARC
8
DEFAULT_255_2_778
10
13.6474218
20
65.530029
40
0.317964
50
343.6847195
51
350.7841483
0
ARC
8
DEFAULT_255_2_778
10
13.6770678
20
65.5212198
40
0.2870372
50
335.898245
51
343.7099252
0
ARC
8
DEFAULT_255_2_778
10
13.6927352
20
65.4968282
40
0.2621245
50
322.2097834
51
330.8143795
0
ARC
8
DEFAULT_255_2_778
10
13.6165196
20
65.5536654
40
0.3571873
50
316.2366863
51
322.4963763
0
ARC
8
DEFAULT_255_2_778
10
13.5850413
20
65.5825693
40
0.3999765
50
305.1440751
51
310.7597751
0
ARC
8
DEFAULT_255_2_778
10
13.6272402
20
64.8319404
40
0.3575645
50
40.6362022
51
49.7897981
0
ARC
8
DEFAULT_255_2_778
10
13.6378122
20
64.8433993
40
0.3420839
50
30.7892224
51
40.3329434
0
ARC
8
DEFAULT_255_2_778
10
13.6325914
20
64.8437746
40
0.3463897
50
20.8576341
51
30.2938468
0
ARC
8
DEFAULT_255_2_778
10
13.6015689
20
64.830649
40
0.3800546
50
12.4533405
51
21.0415542
0
ARC
8
DEFAULT_255_2_778
10
13.5713737
20
64.8254087
40
0.4106718
50
4.3147359
51
12.2587932
0
ARC
8
DEFAULT_255_2_778
10
13.49474
20
64.6993283
40
0.4731099
50
324.2039835
51
337.9617903
0
ARC
8
DEFAULT_255_2_778
10
13.5445581
20
64.6671179
40
0.4138733
50
315.882156
51
323.7869147
0
ARC
8
DEFAULT_255_2_778
10
13.5651602
20
64.6462521
40
0.3845578
50
307.5596283
51
315.9771862
0
ARC
8
DEFAULT_255_2_778
10
13.5717938
20
64.6352838
40
0.371822
50
299.0396224
51
307.7796058
0
ARC
8
DEFAULT_255_2_778
10
13.5479412
20
64.6755746
40
0.4186281
50
291.3989264
51
299.2170311
0
ARC
8
DEFAULT_255_2_778
10
13.5307017
20
64.7221675
40
0.4682999
50
284.3139206
51
291.2828434
0
ARC
8
DEFAULT_255_2_778
10
13.514763
20
64.786802
40
0.5348687
50
278.1275775
51
284.2565027
0
ARC
8
DEFAULT_255_2_778
10
13.4952813
20
64.9140688
40
0.6636127
50
269.7558181
51
278.2392489
0
ARC
8
DEFAULT_255_2_778
10
13.4925539
20
65.082886
40
0.832424
50
268.9349738
51
269.9930589
0
ARC
8
DEFAULT_255_2_778
10
13.4609416
20
64.6583146
40
0.4057563
50
240.1170198
51
248.1885623
0
ARC
8
DEFAULT_255_2_778
10
13.4139629
20
64.5749509
40
0.3100711
50
229.5470468
51
239.9688756
0
ARC
8
DEFAULT_255_2_778
10
13.3751484
20
64.5372649
40
0.255936
50
217.9685393
51
224.3655836
0
ARC
8
DEFAULT_255_2_778
10
13.5732846
20
64.6780874
40
0.4989409
50
203.7167375
51
210.2271681
0
ARC
8
DEFAULT_255_2_778
10
13.5078198
20
64.6492985
40
0.3012506
50
203.3692942
51
214.9773902
0
ARC
8
DEFAULT_255_2_778
10
13.4589526
20
64.6151658
40
0.2416432
50
214.9882032
51
222.2138835
0
ARC
8
DEFAULT_255_2_778
10
13.4368509
20
64.5948509
40
0.2116242
50
222.1608422
51
230.4790297
0
ARC
8
DEFAULT_255_2_778
10
13.4269428
20
64.5853462
40
0.1979937
50
230.9404923
51
239.8112377
0
ARC
8
DEFAULT_255_2_778
10
13.4290817
20
64.5866129
40
0.2001679
50
239.4643433
51
248.2418297
0
ARC
8
DEFAULT_255_2_778
10
13.4654786
20
64.6906446
40
0.3106207
50
254.7893536
51
260.4757096
0
ARC
8
DEFAULT_255_2_778
10
13.4873605
20
64.8234378
40
0.4452043
50
260.5262167
51
268.4066762
0
ARC
8
DEFAULT_255_2_778
10
13.4918446
20
64.952512
40
0.5743539
50
268.3175541
51
270.0037885
0
ARC
8
DEFAULT_255_2_778
10
13.4916553
20
64.977925
40
0.5997668
50
270.0217077
51
274.2479313
0
ARC
8
DEFAULT_255_2_778
10
13.5043166
20
64.8317709
40
0.4530801
50
274.020247
51
281.762788
0
ARC
8
DEFAULT_255_2_778
10
13.5228103
20
64.7416753
40
0.3611063
50
281.8042896
51
291.5043277
0
ARC
8
DEFAULT_255_2_778
10
13.5513476
20
64.6695036
40
0.2834975
50
291.485184
51
303.8305431
0
ARC
8
DEFAULT_255_2_778
10
13.5469971
20
64.6722464
40
0.2882056
50
304.2454259
51
310.3198343
0
ARC
8
DEFAULT_255_2_778
10
13.58086
20
64.630684
40
0.2346078
50
310.5822566
51
318.1001258
0
ARC
8
DEFAULT_255_2_778
10
13.5480521
20
64.6630583
40
0.2806561
50
317.6537522
51
330.1120468
0
ARC
8
DEFAULT_255_2_778
10
13.4582126
20
64.7156556
40
0.3847577
50
329.9877833
51
339.0693591
0
ARC
8
DEFAULT_255_2_778
10
13.3770578
20
64.7447583
40
0.4709575
50
339.2894631
51
346.6988758
0
ARC
8
DEFAULT_255_2_778
10
12.9266422
20
64.8242169
40
0.9288609
50
352.0972382
51
359.6106967
0
ARC
8
DEFAULT_255_2_778
10
13.5573253
20
64.8193301
40
0.2981597
50
359.72627
51
0.0078201
0
ARC
8
DEFAULT_255_2_778
10
13.550287
20
64.8197146
40
0.3051981
50
359.9354623
51
11.7576694
0
ARC
8
DEFAULT_255_2_778
10
13.6078366
20
64.8317091
40
0.2464119
50
11.754006
51
19.3132857
0
ARC
8
DEFAULT_255_2_778
10
13.2939517
20
64.7110874
40
0.5826126
50
20.2988729
51
20.6139655
0
ARC
8
DEFAULT_255_2_778
10
13.6413212
20
64.8447441
40
0.2104461
50
19.8513783
51
27.680766
0
ARC
8
DEFAULT_255_2_778
10
13.628492
20
64.8509259
40
0.2181559
50
33.0825668
51
41.5790467
0
ARC
8
DEFAULT_255_2_778
10
13.5845686
20
64.8218054
40
0.2704387
50
40.0181538
51
53.6448892
0
ARC
8
DEFAULT_255_2_778
10
13.4982422
20
64.7012955
40
0.4187395
50
62.7331547
51
71.5041364
0
ARC
8
DEFAULT_255_2_778
10
13.357132
20
86.9621856
40
0.5721708
50
350.0992809
51
359.9013473
0
ARC
8
DEFAULT_255_2_778
10
13.3863976
20
86.9611763
40
0.5429045
50
0.0025441
51
0.499126
0
ARC
8
DEFAULT_255_2_778
10
13.476418
20
86.965853
40
0.4528636
50
0.0066691
51
2.1861351
0
ARC
8
DEFAULT_255_2_778
10
13.4540991
20
86.9649113
40
0.4752021
50
2.1969396
51
6.3543985
0
ARC
8
DEFAULT_255_2_778
10
13.493832
20
86.9670701
40
0.43548
50
6.6506923
51
13.442468
0
ARC
8
DEFAULT_255_2_778
10
13.6482689
20
87.0050342
40
0.2764505
50
13.2306
51
34.396489
0
ARC
8
DEFAULT_255_2_778
10
13.6883562
20
87.0293908
40
0.2296273
50
35.0323281
51
53.8908227
0
ARC
8
DEFAULT_255_2_778
10
13.6245481
20
86.9801271
40
0.2868234
50
93.1911277
51
108.1330653
0
ARC
8
DEFAULT_255_2_778
10
13.6829852
20
86.9507081
40
0.3464604
50
141.092941
51
153.6278689
0
ARC
8
DEFAULT_255_2_778
10
13.6901373
20
86.9540668
40
0.4737405
50
140.1223535
51
154.0720052
0
ARC
8
DEFAULT_255_2_778
10
13.7147684
20
87.0621002
40
0.3120238
50
46.492364
51
62.5545113
0
ARC
8
DEFAULT_255_2_778
10
13.6511566
20
86.9992549
40
0.4014083
50
35.3689445
51
46.0826297
0
ARC
8
DEFAULT_255_2_778
10
13.4460672
20
86.9610679
40
0.6063981
50
5.4921352
51
12.6344866
0
ARC
8
DEFAULT_255_2_778
10
13.3284663
20
86.9625808
40
0.7240485
50
352.5983314
51
358.5457709
0
ARC
8
DEFAULT_255_2_778
10
13.4434006
20
86.9328456
40
0.6054796
50
339.7022748
51
346.8410022
0
ARC
8
DEFAULT_255_2_778
10
13.3789764
20
86.9513786
40
0.6723506
50
333.8449889
51
340.1255056
0
ARC
8
DEFAULT_255_2_778
10
13.403312
20
86.9359777
40
0.5209916
50
332.8460112
51
340.8191891
0
LINE
8
DEFAULT_255_2_778
10
34.7262816
20
141.8503057
11
32.7263816
21
141.8503057
0
LINE
8
DEFAULT_255_2_778
10
30.7263816
20
141.8503057
11
28.7263816
21
141.8503057
0
LINE
8
DEFAULT_255_2_778
10
26.7263816
20
141.8503057
11
24.7263816
21
141.8503057
0
LINE
8
DEFAULT_255_2_778
10
30.7263816
20
141.8500057
11
30.7263816
21
141.8119057
0
LINE
8
DEFAULT_255_2_778
10
30.7263816
20
141.8119057
11
28.7263816
21
141.8119057
0
LINE
8
DEFAULT_255_2_778
10
28.7263816
20
141.8119057
11
28.7263816
21
141.8500057
0
LINE
8
DEFAULT_255_2_778
10
34.7262816
20
141.8500057
11
34.7262816
21
141.8119057
0
LINE
8
DEFAULT_255_2_778
10
34.7262816
20
141.8119057
11
32.7263816
21
141.8119057
0
LINE
8
DEFAULT_255_2_778
10
32.7263816
20
141.8119057
11
32.7263816
21
141.8500057
0
LINE
8
DEFAULT_255_2_778
10
13.6612816
20
109.1536057
11
13.5903816
21
109.0777057
0
LINE
8
DEFAULT_255_2_778
10
13.5903816
20
109.0777057
11
13.5180816
21
109.0028057
0
LINE
8
DEFAULT_255_2_778
10
13.5180816
20
109.0028057
11
13.4434816
21
108.9303057
0
LINE
8
DEFAULT_255_2_778
10
13.4434816
20
108.9303057
11
13.4040816
21
108.8964057
0
LINE
8
DEFAULT_255_2_778
10
13.4040816
20
108.8964057
11
13.3831816
21
108.8808057
0
LINE
8
DEFAULT_255_2_778
10
13.3831816
20
108.8808057
11
13.3720816
21
108.8739057
0
LINE
8
DEFAULT_255_2_778
10
13.3601816
20
108.8687057
11
13.3474816
21
108.8652057
0
LINE
8
DEFAULT_255_2_778
10
13.3341816
20
108.8639057
11
13.3265816
21
108.9912057
0
LINE
8
DEFAULT_255_2_778
10
13.3265816
20
108.9912057
11
13.3114816
21
108.9861057
0
LINE
8
DEFAULT_255_2_778
10
13.3114816
20
108.9861057
11
13.3222816
21
108.9938057
0
LINE
8
DEFAULT_255_2_778
10
13.3222816
20
108.9938057
11
13.3326816
21
109.0020057
0
LINE
8
DEFAULT_255_2_778
10
13.3326816
20
109.0020057
11
13.3529816
21
109.0192057
0
LINE
8
DEFAULT_255_2_778
10
13.3529816
20
109.0192057
11
13.3921816
21
109.0552057
0
LINE
8
DEFAULT_255_2_778
10
13.3921816
20
109.0552057
11
13.4667816
21
109.1311057
0
LINE
8
DEFAULT_255_2_778
10
13.4667816
20
109.1311057
11
13.5392816
21
109.2089057
0
LINE
8
DEFAULT_255_2_778
10
13.5392816
20
109.2089057
11
13.6109816
21
109.2878057
0
LINE
8
DEFAULT_255_2_778
10
13.6109816
20
109.2878057
11
13.6284816
21
109.3079057
0
LINE
8
DEFAULT_255_2_778
10
13.6284816
20
109.3079057
11
13.7069816
21
109.3079057
0
LINE
8
DEFAULT_255_2_778
10
13.7069816
20
109.3079057
11
13.7855816
21
109.3079057
0
LINE
8
DEFAULT_255_2_778
10
13.7855816
20
109.3079057
11
13.7855816
21
107.5153057
0
LINE
8
DEFAULT_255_2_778
10
13.7855816
20
107.5153057
11
13.7231816
21
107.5153057
0
LINE
8
DEFAULT_255_2_778
10
13.7231816
20
107.5153057
11
13.6606816
21
107.5153057
0
LINE
8
DEFAULT_255_2_778
10
13.6606816
20
107.5153057
11
13.6606816
21
109.1533057
0
LINE
8
DEFAULT_255_2_778
10
13.4977816
20
65.2539057
11
13.5670816
21
65.2751057
0
LINE
8
DEFAULT_255_2_778
10
13.5670816
20
65.2751057
11
13.6014816
21
65.2860057
0
LINE
8
DEFAULT_255_2_778
10
13.6014816
20
65.2860057
11
13.6358816
21
65.2973057
0
LINE
8
DEFAULT_255_2_778
10
13.6358816
20
65.2973057
11
13.6694816
21
65.3111057
0
LINE
8
DEFAULT_255_2_778
10
13.6694816
20
65.3111057
11
13.7017816
21
65.3278057
0
LINE
8
DEFAULT_255_2_778
10
13.8059816
20
65.4270057
11
13.8149816
21
65.4429057
0
LINE
8
DEFAULT_255_2_778
10
13.8149816
20
65.4429057
11
13.8223816
21
65.4595057
0
LINE
8
DEFAULT_255_2_778
10
13.8395816
20
65.5667057
11
13.8363816
21
65.6392057
0
LINE
8
DEFAULT_255_2_778
10
13.8363816
20
65.6392057
11
13.8321816
21
65.6752057
0
LINE
8
DEFAULT_255_2_778
10
13.8321816
20
65.6752057
11
13.8255816
21
65.7109057
0
LINE
8
DEFAULT_255_2_778
10
13.8040816
20
65.7802057
11
13.7882816
21
65.8130057
0
LINE
8
DEFAULT_255_2_778
10
13.7450816
20
65.8715057
11
13.7315816
21
65.8842057
0
LINE
8
DEFAULT_255_2_778
10
13.7315816
20
65.8842057
11
13.7175816
21
65.8956057
0
LINE
8
DEFAULT_255_2_778
10
13.5834816
20
65.9485057
11
13.5471816
21
65.9522057
0
LINE
8
DEFAULT_255_2_778
10
13.5471816
20
65.9522057
11
13.5106816
21
65.9532057
0
LINE
8
DEFAULT_255_2_778
10
13.4379816
20
65.9472057
11
13.4051816
21
65.9400057
0
LINE
8
DEFAULT_255_2_778
10
13.4051816
20
65.9400057
11
13.3730816
21
65.9297057
0
LINE
8
DEFAULT_255_2_778
10
13.2304816
20
65.7961057
11
13.1156816
21
65.8535057
0
LINE
8
DEFAULT_255_2_778
10
13.1841816
20
65.9530057
11
13.2058816
21
65.9744057
0
LINE
8
DEFAULT_255_2_778
10
13.2058816
20
65.9744057
11
13.2291816
21
65.9937057
0
LINE
8
DEFAULT_255_2_778
10
13.2799816
20
66.0263057
11
13.3074816
21
66.0395057
0
LINE
8
DEFAULT_255_2_778
10
13.3074816
20
66.0395057
11
13.3357816
21
66.0506057
0
LINE
8
DEFAULT_255_2_778
10
13.4543816
20
66.0752057
11
13.5154816
21
66.0779057
0
LINE
8
DEFAULT_255_2_778
10
13.6710816
20
66.0572057
11
13.7083816
21
66.0443057
0
LINE
8
DEFAULT_255_2_778
10
13.7083816
20
66.0443057
11
13.7440816
21
66.0279057
0
LINE
8
DEFAULT_255_2_778
10
13.8641816
20
65.9281057
11
13.8869816
21
65.8958057
0
LINE
8
DEFAULT_255_2_778
10
13.8869816
20
65.8958057
11
13.9064816
21
65.8617057
0
LINE
8
DEFAULT_255_2_778
10
13.9551816
20
65.7127057
11
13.9649816
21
65.6355057
0
LINE
8
DEFAULT_255_2_778
10
13.9649816
20
65.6355057
11
13.9670816
21
65.5963057
0
LINE
8
DEFAULT_255_2_778
10
13.9670816
20
65.5963057
11
13.9676816
21
65.5569057
0
LINE
8
DEFAULT_255_2_778
10
13.9390816
20
65.4040057
11
13.9215816
21
65.3690057
0
LINE
8
DEFAULT_255_2_778
10
13.8744816
20
65.3066057
11
13.8461816
21
65.2796057
0
LINE
8
DEFAULT_255_2_778
10
13.8152816
20
65.2555057
11
13.7988816
21
65.2447057
0
LINE
8
DEFAULT_255_2_778
10
13.7988816
20
65.2447057
11
13.7821816
21
65.2344057
0
LINE
8
DEFAULT_255_2_778
10
13.7821816
20
65.2344057
11
13.7133816
21
65.1963057
0
LINE
8
DEFAULT_255_2_778
10
13.7133816
20
65.1963057
11
13.8120816
21
65.1389057
0
LINE
8
DEFAULT_255_2_778
10
13.8120816
20
65.1389057
11
13.8355816
21
65.1227057
0
LINE
8
DEFAULT_255_2_778
10
13.8355816
20
65.1227057
11
13.8580816
21
65.1050057
0
LINE
8
DEFAULT_255_2_778
10
13.9808816
20
64.8563057
11
13.9824816
21
64.8280057
0
LINE
8
DEFAULT_255_2_778
10
13.9824816
20
64.8280057
11
13.9824816
21
64.7997057
0
LINE
8
DEFAULT_255_2_778
10
13.9824816
20
64.7997057
11
13.9803816
21
64.7428057
0
LINE
8
DEFAULT_255_2_778
10
13.9803816
20
64.7428057
11
13.9750816
21
64.6861057
0
LINE
8
DEFAULT_255_2_778
10
13.9750816
20
64.6861057
11
13.9657816
21
64.6303057
0
LINE
8
DEFAULT_255_2_778
10
13.9657816
20
64.6303057
11
13.9519816
21
64.5756057
0
LINE
8
DEFAULT_255_2_778
10
13.9519816
20
64.5756057
11
13.9332816
21
64.5218057
0
LINE
8
DEFAULT_255_2_778
10
13.4770816
20
64.2506057
11
13.4201816
21
64.2541057
0
LINE
8
DEFAULT_255_2_778
10
13.4201816
20
64.2541057
11
13.3918816
21
64.2581057
0
LINE
8
DEFAULT_255_2_778
10
13.3918816
20
64.2581057
11
13.3640816
21
64.2639057
0
LINE
8
DEFAULT_255_2_778
10
13.3640816
20
64.2639057
11
13.3368816
21
64.2718057
0
LINE
8
DEFAULT_255_2_778
10
13.3368816
20
64.2718057
11
13.3101816
21
64.2816057
0
LINE
8
DEFAULT_255_2_778
10
13.2127816
20
64.3390057
11
13.1921816
21
64.3583057
0
LINE
8
DEFAULT_255_2_778
10
13.1733816
20
64.3798057
11
13.1648816
21
64.3911057
0
LINE
8
DEFAULT_255_2_778
10
13.1648816
20
64.3911057
11
13.1569816
21
64.4028057
0
LINE
8
DEFAULT_255_2_778
10
13.1569816
20
64.4028057
11
13.1421816
21
64.4269057
0
LINE
8
DEFAULT_255_2_778
10
13.1164816
20
64.4774057
11
13.2312816
21
64.5298057
0
LINE
8
DEFAULT_255_2_778
10
13.3548816
20
64.4007057
11
13.3839816
21
64.3909057
0
LINE
8
DEFAULT_255_2_778
10
13.8353816
20
64.6364057
11
13.8466816
21
64.6965057
0
LINE
8
DEFAULT_255_2_778
10
13.8276816
20
64.9425057
11
13.8112816
21
64.9700057
0
LINE
8
DEFAULT_255_2_778
10
13.7448816
20
65.0396057
11
13.7181816
21
65.0576057
0
LINE
8
DEFAULT_255_2_778
10
13.7181816
20
65.0576057
11
13.6900816
21
65.0735057
0
LINE
8
DEFAULT_255_2_778
10
13.6310816
20
65.0984057
11
13.6001816
21
65.1079057
0
LINE
8
DEFAULT_255_2_778
10
13.6001816
20
65.1079057
11
13.5688816
21
65.1164057
0
LINE
8
DEFAULT_255_2_778
10
13.5688816
20
65.1164057
11
13.5056816
21
65.1296057
0
LINE
8
DEFAULT_255_2_778
10
13.5056816
20
65.1296057
11
13.4982816
21
65.2542057
0
LINE
8
DEFAULT_255_2_778
10
13.8953816
20
86.7646057
11
13.9101816
21
86.8138057
0
LINE
8
DEFAULT_255_2_778
10
13.9101816
20
86.8138057
11
13.9207816
21
86.8638057
0
LINE
8
DEFAULT_255_2_778
10
13.8236816
20
87.2149057
11
13.7913816
21
87.2345057
0
LINE
8
DEFAULT_255_2_778
10
13.7913816
20
87.2345057
11
13.7567816
21
87.2490057
0
LINE
8
DEFAULT_255_2_778
10
13.7567816
20
87.2490057
11
13.7204816
21
87.2588057
0
LINE
8
DEFAULT_255_2_778
10
13.7204816
20
87.2588057
11
13.6834816
21
87.2646057
0
LINE
8
DEFAULT_255_2_778
10
13.6834816
20
87.2646057
11
13.6461816
21
87.2670057
0
LINE
8
DEFAULT_255_2_778
10
13.6461816
20
87.2670057
11
13.6085816
21
87.2665057
0
LINE
8
DEFAULT_255_2_778
10
13.5352816
20
87.2527057
11
13.5175816
21
87.2464057
0
LINE
8
DEFAULT_255_2_778
10
13.5175816
20
87.2464057
11
13.5003816
21
87.2387057
0
LINE
8
DEFAULT_255_2_778
10
13.5003816
20
87.2387057
11
13.4683816
21
87.2199057
0
LINE
8
DEFAULT_255_2_778
10
13.4683816
20
87.2199057
11
13.4389816
21
87.1961057
0
LINE
8
DEFAULT_255_2_778
10
13.4389816
20
87.1961057
11
13.4133816
21
87.1683057
0
LINE
8
DEFAULT_255_2_778
10
13.3725816
20
87.1046057
11
13.2640816
21
87.1612057
0
LINE
8
DEFAULT_255_2_778
10
13.3265816
20
87.2578057
11
13.3670816
21
87.2990057
0
LINE
8
DEFAULT_255_2_778
10
13.3670816
20
87.2990057
11
13.4130816
21
87.3332057
0
LINE
8
DEFAULT_255_2_778
10
13.4130816
20
87.3332057
11
13.4381816
21
87.3472057
0
LINE
8
DEFAULT_255_2_778
10
13.4381816
20
87.3472057
11
13.4643816
21
87.3594057
0
LINE
8
DEFAULT_255_2_778
10
13.4643816
20
87.3594057
11
13.5188816
21
87.3771057
0
LINE
8
DEFAULT_255_2_778
10
13.5188816
20
87.3771057
11
13.5754816
21
87.3871057
0
LINE
8
DEFAULT_255_2_778
10
13.5754816
20
87.3871057
11
13.6329816
21
87.3903057
0
LINE
8
DEFAULT_255_2_778
10
13.6329816
20
87.3903057
11
13.6911816
21
87.3877057
0
LINE
8
DEFAULT_255_2_778
10
13.6911816
20
87.3877057
11
13.7487816
21
87.3784057
0
LINE
8
DEFAULT_255_2_778
10
13.7487816
20
87.3784057
11
13.7771816
21
87.3710057
0
LINE
8
DEFAULT_255_2_778
10
13.7771816
20
87.3710057
11
13.8048816
21
87.3620057
0
LINE
8
DEFAULT_255_2_778
10
13.8048816
20
87.3620057
11
13.8585816
21
87.3390057
0
LINE
8
DEFAULT_255_2_778
10
13.9784816
20
87.2316057
11
13.9982816
21
87.1995057
0
LINE
8
DEFAULT_255_2_778
10
13.9982816
20
87.1995057
11
14.0149816
21
87.1654057
0
LINE
8
DEFAULT_255_2_778
10
14.0149816
20
87.1654057
11
14.0281816
21
87.1302057
0
LINE
8
DEFAULT_255_2_778
10
14.0281816
20
87.1302057
11
14.0377816
21
87.0937057
0
LINE
8
DEFAULT_255_2_778
10
14.0496816
20
87.0191057
11
14.0522816
21
86.9442057
0
LINE
8
DEFAULT_255_2_778
10
14.0464816
20
86.8693057
11
14.0406816
21
86.8320057
0
LINE
8
DEFAULT_255_2_778
10
14.0406816
20
86.8320057
11
14.0329816
21
86.7950057
0
LINE
8
DEFAULT_255_2_778
10
13.9824816
20
86.6550057
11
13.9477816
21
86.5907057
0
LINE
8
DEFAULT_255_2_778
10
13.9477816
20
86.5907057
11
13.9093816
21
86.5291057
0
LINE
8
DEFAULT_255_2_778
10
13.9093816
20
86.5291057
11
13.8683816
21
86.4690057
0
LINE
8
DEFAULT_255_2_778
10
13.8683816
20
86.4690057
11
13.7818816
21
86.3518057
0
LINE
8
DEFAULT_255_2_778
10
13.7818816
20
86.3518057
11
13.7368816
21
86.2941057
0
LINE
8
DEFAULT_255_2_778
10
13.7368816
20
86.2941057
11
13.6913816
21
86.2370057
0
LINE
8
DEFAULT_255_2_778
10
13.6913816
20
86.2370057
11
13.5993816
21
86.1237057
0
LINE
8
DEFAULT_255_2_778
10
13.5993816
20
86.1237057
11
13.5059816
21
86.0116057
0
LINE
8
DEFAULT_255_2_778
10
13.5059816
20
86.0116057
11
13.3193816
21
85.7869057
0
LINE
8
DEFAULT_255_2_778
10
13.3193816
20
85.7869057
11
13.3193816
21
85.7277057
0
LINE
8
DEFAULT_255_2_778
10
13.3193816
20
85.7277057
11
14.1245816
21
85.7277057
0
LINE
8
DEFAULT_255_2_778
10
14.1245816
20
85.7277057
11
14.1245816
21
85.6046057
0
LINE
8
DEFAULT_255_2_778
10
14.1245816
20
85.6046057
11
13.1984816
21
85.6046057
0
LINE
8
DEFAULT_255_2_778
10
13.1984816
20
85.6046057
11
13.1984816
21
85.8314057
0
LINE
8
DEFAULT_255_2_778
10
13.1984816
20
85.8314057
11
13.2130816
21
85.8486057
0
LINE
8
DEFAULT_255_2_778
10
13.2130816
20
85.8486057
11
13.3056816
21
85.9579057
0
LINE
8
DEFAULT_255_2_778
10
13.3056816
20
85.9579057
11
13.3982816
21
86.0671057
0
LINE
8
DEFAULT_255_2_778
10
13.3982816
20
86.0671057
11
13.4439816
21
86.1222057
0
LINE
8
DEFAULT_255_2_778
10
13.4439816
20
86.1222057
11
13.4895816
21
86.1775057
0
LINE
8
DEFAULT_255_2_778
10
13.4895816
20
86.1775057
11
13.5805816
21
86.2881057
0
LINE
8
DEFAULT_255_2_778
10
13.5805816
20
86.2881057
11
13.6255816
21
86.3439057
0
LINE
8
DEFAULT_255_2_778
10
13.6255816
20
86.3439057
11
13.6694816
21
86.4005057
0
LINE
8
DEFAULT_255_2_778
10
13.6694816
20
86.4005057
11
13.7122816
21
86.4579057
0
LINE
8
DEFAULT_255_2_778
10
13.7122816
20
86.4579057
11
13.7538816
21
86.5161057
0
LINE
8
DEFAULT_255_2_778
10
13.7538816
20
86.5161057
11
13.7937816
21
86.5754057
0
LINE
8
DEFAULT_255_2_778
10
13.7937816
20
86.5754057
11
13.8318816
21
86.6357057
0
LINE
8
DEFAULT_255_2_778
10
13.8318816
20
86.6357057
11
13.8668816
21
86.6982057
0
LINE
8
DEFAULT_255_2_778
10
14.6261816
20
84.9628057
11
16.6261816
21
84.9628057
0
LINE
8
DEFAULT_255_2_778
10
16.6261816
20
84.9628057
11
16.6261816
21
87.6856057
0
LINE
8
DEFAULT_255_2_778
10
16.6261816
20
87.6856057
11
14.6261816
21
87.6856057
0
LINE
8
DEFAULT_255_2_778
10
14.6261816
20
87.6856057
11
14.6261816
21
84.9628057
0
LINE
8
DEFAULT_255_2_778
10
14.6261816
20
63.3630057
11
16.6261816
21
63.3630057
0
LINE
8
DEFAULT_255_2_778
10
16.6261816
20
63.3630057
11
16.6261816
21
66.0792057
0
LINE
8
DEFAULT_255_2_778
10
16.6261816
20
66.0792057
11
14.6261816
21
66.0792057
0
LINE
8
DEFAULT_255_2_778
10
14.6261816
20
66.0792057
11
14.6261816
21
63.3630057
0
LINE
8
DEFAULT_255_2_778
10
14.6261816
20
30.4631057
11
16.6261816
21
30.4631057
0
LINE
8
DEFAULT_255_2_778
10
16.6261816
20
30.4631057
11
16.6261816
21
33.1687057
0
LINE
8
DEFAULT_255_2_778
10
16.6261816
20
33.1687057
11
14.6261816
21
33.1687057
0
LINE
8
DEFAULT_255_2_778
10
14.6261816
20
33.1687057
11
14.6261816
21
30.4631057
0
LINE
8
DEFAULT_255_2_778
10
18.8597816
20
145.7563057
11
18.5456816
21
144.8229057
0
LINE
8
DEFAULT_255_2_778
10
18.5456816
20
144.8229057
11
19.1740816
21
144.8229057
0
LINE
8
DEFAULT_255_2_778
10
19.1740816
20
144.8229057
11
18.8597816
21
145.7563057
0
LINE
8
DEFAULT_255_2_778
10
18.7936816
20
145.8873057
11
18.9425816
21
145.8873057
0
LINE
8
DEFAULT_255_2_778
10
18.9425816
20
145.8873057
11
19.4553816
21
144.3316057
0
LINE
8
DEFAULT_255_2_778
10
19.4553816
20
144.3316057
11
19.3397816
21
144.2823057
0
LINE
8
DEFAULT_255_2_778
10
19.3397816
20
144.2823057
11
19.2074816
21
144.7081057
0
LINE
8
DEFAULT_255_2_778
10
19.2074816
20
144.7081057
11
18.5128816
21
144.7081057
0
LINE
8
DEFAULT_255_2_778
10
18.5128816
20
144.7081057
11
18.3639816
21
144.2823057
0
LINE
8
DEFAULT_255_2_778
10
18.3639816
20
144.2823057
11
18.2647816
21
144.3316057
0
LINE
8
DEFAULT_255_2_778
10
18.2647816
20
144.3316057
11
18.7936816
21
145.8873057
0
LINE
8
DEFAULT_255_2_778
10
19.7196918
20
144.2998385
11
19.8305918
21
144.2998385
0
LINE
8
DEFAULT_255_2_778
10
19.8305918
20
144.2998385
11
19.8305918
21
145.9117385
0
LINE
8
DEFAULT_255_2_778
10
19.8305918
20
145.9117385
11
19.7196918
21
145.9117385
0
LINE
8
DEFAULT_255_2_778
10
19.7196918
20
145.9117385
11
19.7196918
21
144.2998385
0
LINE
8
DEFAULT_255_2_778
10
22.2509918
20
145.4859385
11
22.3440918
21
145.4261385
0
LINE
8
DEFAULT_255_2_778
10
22.3440918
20
145.4261385
11
22.0355918
21
144.9401385
0
LINE
8
DEFAULT_255_2_778
10
22.0355918
20
144.9401385
11
22.3662918
21
144.4054385
0
LINE
8
DEFAULT_255_2_778
10
22.3662918
20
144.4054385
11
22.2707918
21
144.3477385
0
LINE
8
DEFAULT_255_2_778
10
22.2707918
20
144.3477385
11
21.9688918
21
144.8337385
0
LINE
8
DEFAULT_255_2_778
10
21.9688918
20
144.8337385
11
21.6669918
21
144.3522385
0
LINE
8
DEFAULT_255_2_778
10
21.6669918
20
144.3522385
11
21.5714918
21
144.4120385
0
LINE
8
DEFAULT_255_2_778
10
21.5714918
20
144.4120385
11
21.9043918
21
144.9401385
0
LINE
8
DEFAULT_255_2_778
10
21.9043918
20
144.9401385
11
21.5981918
21
145.4306385
0
LINE
8
DEFAULT_255_2_778
10
21.5981918
20
145.4306385
11
21.6937918
21
145.4904385
0
LINE
8
DEFAULT_255_2_778
10
21.6937918
20
145.4904385
11
21.9709918
21
145.0443385
0
LINE
8
DEFAULT_255_2_778
10
21.9709918
20
145.0443385
11
22.2506918
21
145.4859385
0
LINE
8
DEFAULT_255_2_778
10
22.7433918
20
145.8542385
11
22.6300918
21
145.8542385
0
LINE
8
DEFAULT_255_2_778
10
22.6300918
20
145.8542385
11
22.6300918
21
144.9255385
0
LINE
8
DEFAULT_255_2_778
10
22.6300918
20
144.9255385
11
22.6329918
21
144.6930385
0
LINE
8
DEFAULT_255_2_778
10
22.6329918
20
144.6930385
11
22.6993918
21
144.4715385
0
LINE
8
DEFAULT_255_2_778
10
22.6993918
20
144.4715385
11
22.8700918
21
144.3125385
0
LINE
8
DEFAULT_255_2_778
10
22.8700918
20
144.3125385
11
23.0965918
21
144.2564385
0
LINE
8
DEFAULT_255_2_778
10
23.0965918
20
144.2564385
11
23.3227918
21
144.3125385
0
LINE
8
DEFAULT_255_2_778
10
23.3227918
20
144.3125385
11
23.4910918
21
144.4723385
0
LINE
8
DEFAULT_255_2_778
10
23.4910918
20
144.4723385
11
23.5576918
21
144.6927385
0
LINE
8
DEFAULT_255_2_778
10
23.5576918
20
144.6927385
11
23.5600918
21
145.8540385
0
LINE
8
DEFAULT_255_2_778
10
23.5600918
20
145.8540385
11
23.4468918
21
145.8540385
0
LINE
8
DEFAULT_255_2_778
10
23.4468918
20
145.8540385
11
23.4468918
21
144.8033385
0
LINE
8
DEFAULT_255_2_778
10
23.4468918
20
144.8033385
11
23.4240918
21
144.5940385
0
LINE
8
DEFAULT_255_2_778
10
23.4240918
20
144.5940385
11
23.2970918
21
144.4281385
0
LINE
8
DEFAULT_255_2_778
10
23.2970918
20
144.4281385
11
23.0957918
21
144.3683385
0
LINE
8
DEFAULT_255_2_778
10
23.0957918
20
144.3683385
11
22.8927918
21
144.4281385
0
LINE
8
DEFAULT_255_2_778
10
22.8927918
20
144.4281385
11
22.7652918
21
144.5943385
0
LINE
8
DEFAULT_255_2_778
10
22.7652918
20
144.5943385
11
22.7430918
21
144.8033385
0
LINE
8
DEFAULT_255_2_778
10
22.7430918
20
144.8033385
11
22.7433918
21
145.8540385
0
LINE
8
DEFAULT_255_2_778
10
23.6883918
20
144.1596385
11
23.7971918
21
144.1289385
0
LINE
8
DEFAULT_255_2_778
10
24.3363918
20
145.9762385
11
24.3363918
21
145.9889385
0
LINE
8
DEFAULT_255_2_778
10
24.3363918
20
145.9889385
11
23.7971918
21
144.1289385
0
LINE
8
DEFAULT_255_2_778
10
23.7971918
20
144.1289385
11
23.7971918
21
144.1162385
0
LINE
8
DEFAULT_255_2_778
10
23.7971918
20
144.1162385
11
24.3363918
21
145.9762385
0
LINE
8
DEFAULT_255_2_778
10
24.3363918
20
145.9889385
11
24.2276918
21
146.0196385
0
LINE
8
DEFAULT_255_2_778
10
24.2276918
20
146.0196385
11
23.6883918
21
144.1596385
0
LINE
8
DEFAULT_255_2_778
10
23.6883918
20
144.1596385
11
23.6883918
21
144.1469385
0
LINE
8
DEFAULT_255_2_778
10
23.6883918
20
144.1469385
11
23.7971918
21
144.1159385
0
LINE
8
DEFAULT_255_2_778
10
24.6144918
20
145.8873385
11
24.7253918
21
145.8873385
0
LINE
8
DEFAULT_255_2_778
10
24.7253918
20
145.8873385
11
24.7253918
21
144.2919385
0
LINE
8
DEFAULT_255_2_778
10
24.7253918
20
144.2919385
11
24.6144918
21
144.2919385
0
LINE
8
DEFAULT_255_2_778
10
24.6144918
20
144.2919385
11
24.6144918
21
145.8873385
0
LINE
8
DEFAULT_255_2_778
10
25.6727918
20
144.3125385
11
25.7836918
21
144.3125385
0
LINE
8
DEFAULT_255_2_778
10
26.4538918
20
144.2998385
11
26.4538918
21
144.3125385
0
LINE
8
DEFAULT_255_2_778
10
26.5670918
20
144.2998385
11
26.4538918
21
144.2998385
0
LINE
8
DEFAULT_255_2_778
10
26.5670564
20
144.312551
11
26.5670564
21
145.895251
0
LINE
8
DEFAULT_255_2_778
10
26.5670564
20
145.895251
11
26.4538564
21
145.895251
0
LINE
8
DEFAULT_255_2_778
10
26.4538564
20
145.895251
11
26.4538564
21
145.208351
0
LINE
8
DEFAULT_255_2_778
10
26.4538564
20
145.208351
11
25.7836564
21
145.208351
0
LINE
8
DEFAULT_255_2_778
10
25.7836564
20
145.208351
11
25.7836564
21
145.895251
0
LINE
8
DEFAULT_255_2_778
10
25.7836564
20
145.895251
11
25.6727564
21
145.895251
0
LINE
8
DEFAULT_255_2_778
10
25.6727564
20
145.895251
11
25.6727564
21
144.299851
0
LINE
8
DEFAULT_255_2_778
10
25.6727564
20
144.299851
11
25.7836564
21
144.299851
0
LINE
8
DEFAULT_255_2_778
10
25.7836564
20
144.299851
11
25.7836564
21
145.096251
0
LINE
8
DEFAULT_255_2_778
10
25.7836564
20
145.096251
11
26.4538564
21
145.096251
0
LINE
8
DEFAULT_255_2_778
10
26.4538564
20
145.096251
11
26.4538564
21
144.312551
0
LINE
8
DEFAULT_255_2_778
10
26.5670564
20
144.312551
11
26.5670564
21
144.299851
0
LINE
8
DEFAULT_255_2_778
10
20.5271564
20
144.896451
11
20.4978564
21
144.835851
0
LINE
8
DEFAULT_255_2_778
10
20.7928564
20
145.458651
11
20.5147564
21
144.862051
0
LINE
8
DEFAULT_255_2_778
10
20.4930564
20
144.826051
11
20.4930564
21
144.797451
0
LINE
8
DEFAULT_255_2_778
10
20.4930564
20
144.797451
11
21.0110564
21
144.797451
0
LINE
8
DEFAULT_255_2_778
10
21.0110564
20
144.797451
11
21.0110564
21
145.744151
0
LINE
8
DEFAULT_255_2_778
10
21.0110564
20
145.744151
11
20.9288564
21
145.744151
0
LINE
8
DEFAULT_255_2_778
10
20.9288564
20
145.744151
11
20.7742564
21
145.415051
0
LINE
8
DEFAULT_255_2_778
10
20.3753564
20
144.850151
11
20.3753564
21
144.687151
0
LINE
8
DEFAULT_255_2_778
10
20.3753564
20
144.687151
11
21.0110564
21
144.687151
0
LINE
8
DEFAULT_255_2_778
10
21.0110564
20
144.687151
11
21.0110564
21
144.266751
0
LINE
8
DEFAULT_255_2_778
10
21.0110564
20
144.266751
11
21.1312564
21
144.266751
0
LINE
8
DEFAULT_255_2_778
10
21.1312564
20
144.266751
11
21.1312564
21
144.687151
0
LINE
8
DEFAULT_255_2_778
10
21.1312564
20
144.687151
11
21.3807564
21
144.687151
0
LINE
8
DEFAULT_255_2_778
10
21.3807564
20
144.687151
11
21.3807564
21
144.797251
0
LINE
8
DEFAULT_255_2_778
10
21.3807564
20
144.797251
11
21.1312564
21
144.797251
0
LINE
8
DEFAULT_255_2_778
10
21.1312564
20
144.797251
11
21.1312564
21
145.854251
0
LINE
8
DEFAULT_255_2_778
10
21.1312564
20
145.854251
11
20.8510564
21
145.854251
0
LINE
8
DEFAULT_255_2_778
10
20.8510564
20
145.854251
11
20.3753564
21
144.850151
0
LINE
8
DEFAULT_255_2_778
10
26.8245564
20
145.887351
11
27.6182564
21
145.887351
0
LINE
8
DEFAULT_255_2_778
10
27.6182564
20
145.887351
11
27.6182564
21
145.769351
0
LINE
8
DEFAULT_255_2_778
10
27.6182564
20
145.769351
11
26.9425564
21
145.769351
0
LINE
8
DEFAULT_255_2_778
10
26.9425564
20
145.769351
11
26.9425564
21
145.158351
0
LINE
8
DEFAULT_255_2_778
10
26.9425564
20
145.158351
11
27.5767564
21
145.158351
0
LINE
8
DEFAULT_255_2_778
10
27.5767564
20
145.158351
11
27.5767564
21
145.042751
0
LINE
8
DEFAULT_255_2_778
10
27.5767564
20
145.042751
11
26.9425564
21
145.042751
0
LINE
8
DEFAULT_255_2_778
10
26.9425564
20
145.042751
11
26.9425564
21
144.223651
0
LINE
8
DEFAULT_255_2_778
10
26.9425564
20
144.223651
11
26.8245564
21
144.223651
0
LINE
8
DEFAULT_255_2_778
10
26.8245564
20
144.223651
11
26.8245564
21
145.887351
0
LINE
8
DEFAULT_255_2_778
10
28.6300564
20
139.669651
11
28.7697564
21
139.669651
0
LINE
8
DEFAULT_255_2_778
10
28.7697564
20
139.669651
11
28.7697564
21
141.274851
0
LINE
8
DEFAULT_255_2_778
10
28.7697564
20
141.274851
11
28.6564564
21
141.274851
0
LINE
8
DEFAULT_255_2_778
10
28.6564564
20
141.274851
11
28.6564564
21
139.865351
0
LINE
8
DEFAULT_255_2_778
10
28.6564564
20
139.865351
11
28.6530564
21
139.871751
0
LINE
8
DEFAULT_255_2_778
10
28.6530564
20
139.871751
11
28.6448564
21
139.886851
0
LINE
8
DEFAULT_255_2_778
10
28.6448564
20
139.886851
11
28.6295564
21
139.914851
0
LINE
8
DEFAULT_255_2_778
10
28.6295564
20
139.914851
11
28.5530564
21
140.052451
0
LINE
8
DEFAULT_255_2_778
10
28.5530564
20
140.052451
11
28.5244564
21
140.103551
0
LINE
8
DEFAULT_255_2_778
10
28.5244564
20
140.103551
11
28.5040564
21
140.139751
0
LINE
8
DEFAULT_255_2_778
10
28.5040564
20
140.139751
11
28.4826564
21
140.177651
0
LINE
8
DEFAULT_255_2_778
10
28.4826564
20
140.177651
11
28.4604564
21
140.217051
0
LINE
8
DEFAULT_255_2_778
10
28.4604564
20
140.217051
11
28.4144564
21
140.299551
0
LINE
8
DEFAULT_255_2_778
10
28.4144564
20
140.299551
11
28.3781564
21
140.364651
0
LINE
8
DEFAULT_255_2_778
10
28.3781564
20
140.364651
11
28.3281564
21
140.454351
0
LINE
8
DEFAULT_255_2_778
10
28.3281564
20
140.454351
11
28.2532564
21
140.588751
0
LINE
8
DEFAULT_255_2_778
10
28.2532564
20
140.588751
11
28.1519564
21
140.771351
0
LINE
8
DEFAULT_255_2_778
10
28.1519564
20
140.771351
11
28.0169564
21
141.014451
0
LINE
8
DEFAULT_255_2_778
10
28.0169564
20
141.014451
11
27.9318564
21
141.168451
0
LINE
8
DEFAULT_255_2_778
10
27.9318564
20
141.168451
11
27.9026564
21
141.221151
0
LINE
8
DEFAULT_255_2_778
10
27.9026564
20
141.221151
11
27.8730564
21
141.274551
0
LINE
8
DEFAULT_255_2_778
10
27.8730564
20
141.274551
11
27.7288564
21
141.274551
0
LINE
8
DEFAULT_255_2_778
10
27.7288564
20
141.274551
11
27.7288564
21
139.669651
0
LINE
8
DEFAULT_255_2_778
10
27.7288564
20
139.669651
11
27.8397564
21
139.669651
0
LINE
8
DEFAULT_255_2_778
10
27.8397564
20
139.669651
11
27.8397564
21
141.096251
0
LINE
8
DEFAULT_255_2_778
10
27.8397564
20
141.096251
11
27.8429564
21
141.090151
0
LINE
8
DEFAULT_255_2_778
10
27.8429564
20
141.090151
11
27.8463564
21
141.083251
0
LINE
8
DEFAULT_255_2_778
10
27.8463564
20
141.083251
11
27.8503564
21
141.075651
0
LINE
8
DEFAULT_255_2_778
10
27.8503564
20
141.075651
11
27.8595564
21
141.058151
0
LINE
8
DEFAULT_255_2_778
10
27.8595564
20
141.058151
11
27.8706564
21
141.037751
0
LINE
8
DEFAULT_255_2_778
10
27.8706564
20
141.037751
11
27.8836564
21
141.014451
0
LINE
8
DEFAULT_255_2_778
10
27.8836564
20
141.014451
11
27.8984564
21
140.988251
0
LINE
8
DEFAULT_255_2_778
10
27.8984564
20
140.988251
11
27.9064564
21
140.974251
0
LINE
8
DEFAULT_255_2_778
10
27.9064564
20
140.974251
11
27.9500564
21
140.896751
0
LINE
8
DEFAULT_255_2_778
10
27.9500564
20
140.896751
11
27.9595564
21
140.879851
0
LINE
8
DEFAULT_255_2_778
10
27.9595564
20
140.879851
11
28.0328564
21
140.749351
0
LINE
8
DEFAULT_255_2_778
10
28.0328564
20
140.749351
11
28.1024564
21
140.624751
0
LINE
8
DEFAULT_255_2_778
10
28.1024564
20
140.624751
11
28.1394564
21
140.558351
0
LINE
8
DEFAULT_255_2_778
10
28.1394564
20
140.558351
11
28.1646564
21
140.513351
0
LINE
8
DEFAULT_255_2_778
10
28.1646564
20
140.513351
11
28.1897564
21
140.468351
0
LINE
8
DEFAULT_255_2_778
10
28.1897564
20
140.468351
11
28.3175564
21
140.240351
0
LINE
8
DEFAULT_255_2_778
10
28.3175564
20
140.240351
11
28.4535564
21
139.997151
0
LINE
8
DEFAULT_255_2_778
10
28.4535564
20
139.997151
11
28.4818564
21
139.946351
0
LINE
8
DEFAULT_255_2_778
10
28.4818564
20
139.946351
11
28.5107564
21
139.894751
0
LINE
8
DEFAULT_255_2_778
10
28.5107564
20
139.894751
11
28.5398564
21
139.842651
0
LINE
8
DEFAULT_255_2_778
10
28.5398564
20
139.842651
11
28.5694564
21
139.789751
0
LINE
8
DEFAULT_255_2_778
10
28.5694564
20
139.789751
11
28.5993564
21
139.736051
0
LINE
8
DEFAULT_255_2_778
10
28.5993564
20
139.736051
11
28.6297564
21
139.681751
0
LINE
8
DEFAULT_255_2_778
10
28.6297564
20
139.681751
11
28.6297564
21
139.669651
0
LINE
8
DEFAULT_255_2_778
10
28.6297564
20
139.669651
11
28.5993564
21
139.723851
0
LINE
8
DEFAULT_255_2_778
10
28.5993564
20
139.723851
11
28.5694564
21
139.777551
0
LINE
8
DEFAULT_255_2_778
10
28.5694564
20
139.777551
11
28.5398564
21
139.830451
0
LINE
8
DEFAULT_255_2_778
10
28.5398564
20
139.830451
11
28.5107564
21
139.882551
0
LINE
8
DEFAULT_255_2_778
10
28.5107564
20
139.882551
11
28.4818564
21
139.933951
0
LINE
8
DEFAULT_255_2_778
10
28.4818564
20
139.933951
11
28.4535564
21
139.984751
0
LINE
8
DEFAULT_255_2_778
10
28.4535564
20
139.984751
11
28.3175564
21
140.227851
0
LINE
8
DEFAULT_255_2_778
10
28.3175564
20
140.227851
11
28.1897564
21
140.455951
0
LINE
8
DEFAULT_255_2_778
10
28.1897564
20
140.455951
11
28.1646564
21
140.500951
0
LINE
8
DEFAULT_255_2_778
10
28.1646564
20
140.500951
11
28.1394564
21
140.545951
0
LINE
8
DEFAULT_255_2_778
10
28.1394564
20
140.545951
11
28.1024564
21
140.612351
0
LINE
8
DEFAULT_255_2_778
10
28.1024564
20
140.612351
11
28.0328564
21
140.736951
0
LINE
8
DEFAULT_255_2_778
10
28.0328564
20
140.736951
11
27.9595564
21
140.867351
0
LINE
8
DEFAULT_255_2_778
10
27.9595564
20
140.867351
11
27.9500564
21
140.884351
0
LINE
8
DEFAULT_255_2_778
10
27.9500564
20
140.884351
11
27.8907564
21
140.989351
0
LINE
8
DEFAULT_255_2_778
10
27.8907564
20
140.989351
11
27.8767564
21
141.014251
0
LINE
8
DEFAULT_255_2_778
10
27.8767564
20
141.014251
11
27.8645564
21
141.035951
0
LINE
8
DEFAULT_255_2_778
10
27.8645564
20
141.035951
11
27.8542564
21
141.054651
0
LINE
8
DEFAULT_255_2_778
10
27.8542564
20
141.054651
11
27.8497564
21
141.062951
0
LINE
8
DEFAULT_255_2_778
10
27.8497564
20
141.062951
11
27.8458564
21
141.070351
0
LINE
8
DEFAULT_255_2_778
10
27.8458564
20
141.070351
11
27.8423564
21
141.077151
0
LINE
8
DEFAULT_255_2_778
10
27.8423564
20
141.077151
11
27.8391564
21
141.083251
0
LINE
8
DEFAULT_255_2_778
10
20.0779564
20
139.651351
11
19.2812564
21
139.651351
0
LINE
8
DEFAULT_255_2_778
10
32.5744583
20
140.196974
11
32.0685583
21
140.196974
0
LINE
8
DEFAULT_255_2_778
10
32.0685583
20
140.309374
11
32.5744583
21
140.309374
0
LINE
8
DEFAULT_255_2_778
10
32.5744583
20
140.309374
11
32.5744583
21
140.184274
0
LINE
8
DEFAULT_255_2_778
10
32.5744583
20
140.184274
11
32.0685583
21
140.184274
0
LINE
8
DEFAULT_255_2_778
10
32.0685583
20
140.184274
11
32.0685583
21
140.309374
0
LINE
8
DEFAULT_255_2_778
10
26.6149583
20
140.196974
11
26.1090583
21
140.196974
0
LINE
8
DEFAULT_255_2_778
10
26.1090583
20
140.309374
11
26.6149583
21
140.309374
0
LINE
8
DEFAULT_255_2_778
10
26.6149583
20
140.309374
11
26.6149583
21
140.184274
0
LINE
8
DEFAULT_255_2_778
10
26.6149583
20
140.184274
11
26.1090583
21
140.184274
0
LINE
8
DEFAULT_255_2_778
10
26.1090583
20
140.184274
11
26.1090583
21
140.309374
0
LINE
8
DEFAULT_255_2_778
10
19.3921323
20
141.10925
11
20.0776323
21
141.10925
0
LINE
8
DEFAULT_255_2_778
10
20.0776323
20
141.12195
11
20.0776323
21
141.10925
0
LINE
8
DEFAULT_255_2_778
10
19.3921344
20
141.1219281
11
19.3921344
21
141.1092281
0
LINE
8
DEFAULT_255_2_778
10
19.3921344
20
140.4305281
11
19.3921344
21
140.4178281
0
LINE
8
DEFAULT_255_2_778
10
20.0358344
20
140.4305281
11
19.3921344
21
140.4305281
0
LINE
8
DEFAULT_255_2_778
10
20.0358344
20
140.4178281
11
19.3921344
21
140.4178281
0
ARC
8
DEFAULT_255_2_778
10
18.7376677
20
140.1736278
40
0.3687719
50
147.1032497
51
159.3766611
0
ARC
8
DEFAULT_255_2_778
10
18.7091444
20
140.237003
40
0.3073837
50
131.1618509
51
138.8385547
0
ARC
8
DEFAULT_255_2_778
10
18.6811553
20
140.268424
40
0.2653063
50
122.1621624
51
131.0774654
0
ARC
8
DEFAULT_255_2_778
10
18.6707422
20
140.2838753
40
0.2466837
50
112.4779415
51
122.0250855
0
ARC
8
DEFAULT_255_2_778
10
18.6775744
20
140.261543
40
0.2701722
50
97.0479903
51
103.2549328
0
ARC
8
DEFAULT_255_2_778
10
18.6740907
20
140.2881743
40
0.2433147
50
94.2572938
51
97.0033344
0
ARC
8
DEFAULT_255_2_778
10
18.7002161
20
140.2557422
40
0.2779905
50
90.0040029
51
90.5952402
0
ARC
8
DEFAULT_255_2_778
10
18.7000683
20
140.2551328
40
0.2785999
50
78.7903271
51
89.9736037
0
ARC
8
DEFAULT_255_2_778
10
18.707665
20
140.3033546
40
0.2298293
50
63.9964949
51
78.3110193
0
ARC
8
DEFAULT_255_2_778
10
18.7434425
20
140.3776446
40
0.1473747
50
52.6617482
51
63.8351507
0
ARC
8
DEFAULT_255_2_778
10
18.72369
20
140.3462301
40
0.1843621
50
44.7910993
51
53.7025657
0
ARC
8
DEFAULT_255_2_778
10
18.6942309
20
140.3207227
40
0.223255
50
36.7871581
51
44.1103388
0
ARC
8
DEFAULT_255_2_778
10
18.6831388
20
140.3144028
40
0.2359283
50
29.4269962
51
36.4032027
0
ARC
8
DEFAULT_255_2_778
10
18.6022969
20
140.271006
40
0.3276672
50
19.0987125
51
29.0910937
0
ARC
8
DEFAULT_255_2_778
10
18.6221708
20
140.0291599
40
0.3029933
50
319.284853
51
324.756705
0
ARC
8
DEFAULT_255_2_778
10
18.6151006
20
140.036206
40
0.3129493
50
308.5964625
51
319.1514136
0
ARC
8
DEFAULT_255_2_778
10
18.6921845
20
139.9454252
40
0.1939451
50
286.026174
51
307.5288253
0
ARC
8
DEFAULT_255_2_778
10
18.6693881
20
140.0178349
40
0.2698409
50
278.7265585
51
286.4338048
0
ARC
8
DEFAULT_255_2_778
10
18.6635338
20
140.0542987
40
0.306771
50
272.0164867
51
278.7740618
0
ARC
8
DEFAULT_255_2_778
10
18.6561112
20
140.0259732
40
0.2788555
50
266.2407187
51
269.9829258
0
ARC
8
DEFAULT_255_2_778
10
18.6547083
20
139.9834968
40
0.2363826
50
248.3316947
51
265.9049951
0
ARC
8
DEFAULT_255_2_778
10
18.6499013
20
139.9676582
40
0.2198926
50
238.4756786
51
247.9719165
0
ARC
8
DEFAULT_255_2_778
10
18.7184945
20
140.0745303
40
0.3468667
50
227.4940478
51
238.047714
0
ARC
8
DEFAULT_255_2_778
10
18.7141585
20
140.071423
40
0.3416481
50
216.9782465
51
227.6780243
0
ARC
8
DEFAULT_255_2_778
10
18.7642017
20
140.1028437
40
0.4012528
50
198.0648786
51
207.2022753
0
ARC
8
DEFAULT_255_2_778
10
18.7775463
20
140.1100523
40
0.4161839
50
187.0713813
51
198.4386831
0
ARC
8
DEFAULT_255_2_778
10
18.7182916
20
140.100095
40
0.3561634
50
179.9963506
51
186.6552104
0
ARC
8
DEFAULT_255_2_778
10
19.0107466
20
140.1183016
40
0.6482308
50
170.6498853
51
177.9563839
0
ARC
8
DEFAULT_255_2_778
10
18.7545125
20
140.1628713
40
0.3881671
50
158.8355141
51
170.9964578
0
ARC
8
DEFAULT_255_2_778
10
18.6410109
20
140.2753885
40
0.3399041
50
136.9734566
51
145.457991
0
ARC
8
DEFAULT_255_2_778
10
18.6418653
20
140.2767402
40
0.3398453
50
145.7273874
51
154.1876028
0
ARC
8
DEFAULT_255_2_778
10
18.6958515
20
140.8317693
40
0.330671
50
151.1116862
51
157.3299605
0
ARC
8
DEFAULT_255_2_778
10
18.6322333
20
140.8673867
40
0.2577627
50
143.1652899
51
151.2119645
0
ARC
8
DEFAULT_255_2_778
10
18.6238289
20
140.8765928
40
0.2455281
50
135.2600455
51
143.7089783
0
ARC
8
DEFAULT_255_2_778
10
18.5917699
20
140.9099232
40
0.1994704
50
114.8549123
51
125.1510107
0
ARC
8
DEFAULT_255_2_778
10
18.6248436
20
140.8077687
40
0.3071099
50
98.9759796
51
105.7021949
0
ARC
8
DEFAULT_255_2_778
10
18.635693
20
140.7163473
40
0.3991203
50
93.269786
51
98.4667778
0
ARC
8
DEFAULT_255_2_778
10
18.6383027
20
140.7998267
40
0.3156801
50
74.9771763
51
88.0166365
0
ARC
8
DEFAULT_255_2_778
10
18.6486367
20
140.8358995
40
0.2781623
50
67.6240404
51
75.1070742
0
ARC
8
DEFAULT_255_2_778
10
18.6498801
20
140.8450124
40
0.2692721
50
59.4550187
51
67.1305332
0
ARC
8
DEFAULT_255_2_778
10
18.678469
20
140.8812817
40
0.2231493
50
42.5622022
51
51.74713
0
ARC
8
DEFAULT_255_2_778
10
18.6591544
20
140.8615826
40
0.2507038
50
34.6762654
51
42.8924628
0
ARC
8
DEFAULT_255_2_778
10
18.6375082
20
140.8507994
40
0.2746618
50
26.3520265
51
33.9570694
0
ARC
8
DEFAULT_255_2_778
10
18.6603833
20
140.8590262
40
0.3626093
50
27.1189283
51
39.4884358
0
ARC
8
DEFAULT_255_2_778
10
18.6588471
20
140.8564404
40
0.3654407
50
39.6481593
51
45.8200064
0
ARC
8
DEFAULT_255_2_778
10
18.6760284
20
140.8713865
40
0.3427535
50
46.1385347
51
52.7220401
0
ARC
8
DEFAULT_255_2_778
10
18.6530869
20
140.8447368
40
0.37786
50
52.4015689
51
58.3558497
0
ARC
8
DEFAULT_255_2_778
10
18.6584776
20
140.8526458
40
0.368299
50
58.4242802
51
64.518316
0
ARC
8
DEFAULT_255_2_778
10
18.5899523
20
140.9139471
40
0.3047206
50
105.2642453
51
112.6247298
0
ARC
8
DEFAULT_255_2_778
10
18.5985032
20
140.8931981
40
0.3271623
50
112.6091289
51
119.47438
0
ARC
8
DEFAULT_255_2_778
10
18.599421
20
140.8894917
40
0.3308421
50
119.2969179
51
126.1561407
0
ARC
8
DEFAULT_255_2_778
10
18.5921136
20
140.9007574
40
0.3174357
50
126.2908915
51
133.3948661
0
ARC
8
DEFAULT_255_2_778
10
18.5834251
20
140.910512
40
0.3043788
50
133.4679489
51
140.8656823
0
ARC
8
DEFAULT_255_2_778
10
18.6833034
20
140.8377592
40
0.4282464
50
147.0289023
51
157.4745526
0
ARC
8
DEFAULT_255_2_778
10
18.7330138
20
140.0562559
40
0.4754286
50
201.4214119
51
211.3344241
0
ARC
8
DEFAULT_255_2_778
10
18.6110881
20
139.9699556
40
0.3257308
50
216.847796
51
224.1141264
0
ARC
8
DEFAULT_255_2_778
10
18.6079788
20
139.965026
40
0.32007
50
223.8680183
51
231.2473815
0
ARC
8
DEFAULT_255_2_778
10
18.6059525
20
139.9368975
40
0.295274
50
244.2620722
51
252.2895519
0
ARC
8
DEFAULT_255_2_778
10
18.6379263
20
140.0383081
40
0.4016052
50
252.3453926
51
258.3207348
0
ARC
8
DEFAULT_255_2_778
10
18.671792
20
140.029383
40
0.3924463
50
283.3981248
51
289.4434547
0
ARC
8
DEFAULT_255_2_778
10
18.6978321
20
139.9565117
40
0.3150629
50
289.3892809
51
296.9715385
0
ARC
8
DEFAULT_255_2_778
10
18.698104
20
139.9622337
40
0.3200517
50
296.4635473
51
311.2260149
0
ARC
8
DEFAULT_255_2_778
10
18.6844991
20
139.977948
40
0.3408369
50
311.2052191
51
318.210935
0
ARC
8
DEFAULT_255_2_778
10
18.6866852
20
139.9758664
40
0.3378198
50
318.2270983
51
325.27217
0
ARC
8
DEFAULT_255_2_778
10
18.67501
20
139.9851199
40
0.352688
50
325.1171771
51
331.866467
0
ARC
8
DEFAULT_255_2_778
10
18.4948146
20
140.0651743
40
0.5502296
50
337.7372966
51
346.3170123
0
ARC
8
DEFAULT_255_2_778
10
18.479775
20
140.2271242
40
0.5668371
50
11.900959
51
20.2932661
0
ARC
8
DEFAULT_255_2_778
10
18.6563328
20
140.2947978
40
0.3776376
50
26.2491574
51
32.5567345
0
ARC
8
DEFAULT_255_2_778
10
18.7057112
20
140.3295529
40
0.3173275
50
32.0653618
51
47.049321
0
ARC
8
DEFAULT_255_2_778
10
18.7234142
20
140.348685
40
0.2912616
50
47.0338733
51
63.3122004
0
ARC
8
DEFAULT_255_2_778
10
18.7025466
20
140.2868071
40
0.3566778
50
71.4820433
51
78.176642
0
ARC
8
DEFAULT_255_2_778
10
18.6950584
20
140.229171
40
0.4146497
50
78.7956948
51
90.0541468
0
ARC
8
DEFAULT_255_2_778
10
18.6946116
20
140.2212087
40
0.4226118
50
89.9925516
51
90.2011159
0
ARC
8
DEFAULT_255_2_778
10
18.6800503
20
140.2471679
40
0.3953939
50
93.7445102
51
104.7581134
0
ARC
8
DEFAULT_255_2_778
10
18.668783
20
140.2902373
40
0.3508751
50
104.7704926
51
110.9497111
0
ARC
8
DEFAULT_255_2_778
10
18.6662184
20
140.2966717
40
0.3439492
50
110.9339812
51
123.4904217
0
ARC
8
DEFAULT_255_2_778
10
18.6429471
20
140.3267452
40
0.3060402
50
122.9637204
51
130.048904
0
ARC
8
DEFAULT_255_2_778
10
18.710232
20
140.2406284
40
0.4152746
50
129.5101487
51
139.9538895
0
LINE
8
DEFAULT_255_2_778
10
20.0358282
20
140.4305177
11
20.0358282
21
140.4178177
0
LINE
8
DEFAULT_255_2_778
10
18.4280282
20
140.3739177
11
18.4518282
21
140.4075177
0
LINE
8
DEFAULT_255_2_778
10
18.4518282
20
140.4075177
11
18.4645282
21
140.4237177
0
LINE
8
DEFAULT_255_2_778
10
18.4645282
20
140.4237177
11
18.4777282
21
140.4393177
0
LINE
8
DEFAULT_255_2_778
10
18.5764282
20
140.5118177
11
18.5957282
21
140.5189177
0
LINE
8
DEFAULT_255_2_778
10
18.5957282
20
140.5189177
11
18.6156282
21
140.5245177
0
LINE
8
DEFAULT_255_2_778
10
18.6560282
20
140.5308177
11
18.6664282
21
140.5316177
0
LINE
8
DEFAULT_255_2_778
10
18.6664282
20
140.5316177
11
18.6767282
21
140.5324177
0
LINE
8
DEFAULT_255_2_778
10
18.6767282
20
140.5324177
11
18.6973282
21
140.5337177
0
LINE
8
DEFAULT_255_2_778
10
18.9119282
20
140.3782177
11
18.9204282
21
140.3506177
0
LINE
8
DEFAULT_255_2_778
10
18.9204282
20
140.3506177
11
18.9270282
21
140.3229177
0
LINE
8
DEFAULT_255_2_778
10
18.9270282
20
140.3229177
11
18.9360282
21
140.2670177
0
LINE
8
DEFAULT_255_2_778
10
18.9360282
20
140.2670177
11
18.9407282
21
140.2107177
0
LINE
8
DEFAULT_255_2_778
10
18.9407282
20
140.2107177
11
18.9421282
21
140.1541177
0
LINE
8
DEFAULT_255_2_778
10
18.9421282
20
140.1541177
11
18.9399282
21
140.0972177
0
LINE
8
DEFAULT_255_2_778
10
18.9399282
20
140.0972177
11
18.9344282
21
140.0408177
0
LINE
8
DEFAULT_255_2_778
10
18.9344282
20
140.0408177
11
18.9304282
21
140.0128177
0
LINE
8
DEFAULT_255_2_778
10
18.9304282
20
140.0128177
11
18.9249282
21
139.9850177
0
LINE
8
DEFAULT_255_2_778
10
18.9249282
20
139.9850177
11
18.9174282
21
139.9575177
0
LINE
8
DEFAULT_255_2_778
10
18.9174282
20
139.9575177
11
18.9082282
21
139.9302177
0
LINE
8
DEFAULT_255_2_778
10
18.9082282
20
139.9302177
11
18.8973282
21
139.9038177
0
LINE
8
DEFAULT_255_2_778
10
18.8973282
20
139.9038177
11
18.8846282
21
139.8784177
0
LINE
8
DEFAULT_255_2_778
10
18.8846282
20
139.8784177
11
18.8696282
21
139.8543177
0
LINE
8
DEFAULT_255_2_778
10
18.6743282
20
139.7477177
11
18.6560282
21
139.7471177
0
LINE
8
DEFAULT_255_2_778
10
18.4412282
20
139.8659177
11
18.4232282
21
139.8919177
0
LINE
8
DEFAULT_255_2_778
10
18.4232282
20
139.8919177
11
18.4073282
21
139.9194177
0
LINE
8
DEFAULT_255_2_778
10
18.3621282
20
140.1001177
11
18.3629282
21
140.1414177
0
LINE
8
DEFAULT_255_2_778
10
18.3925282
20
140.3030177
11
18.3925282
21
140.3035177
0
LINE
8
DEFAULT_255_2_778
10
18.3359282
20
140.4247177
11
18.3375282
21
140.5689177
0
LINE
8
DEFAULT_255_2_778
10
18.3375282
20
140.5689177
11
18.3433282
21
140.7129177
0
LINE
8
DEFAULT_255_2_778
10
18.3433282
20
140.7129177
11
18.3494282
21
140.7846177
0
LINE
8
DEFAULT_255_2_778
10
18.3494282
20
140.7846177
11
18.3605282
21
140.8557177
0
LINE
8
DEFAULT_255_2_778
10
18.3605282
20
140.8557177
11
18.3684282
21
140.8909177
0
LINE
8
DEFAULT_255_2_778
10
18.3684282
20
140.8909177
11
18.3785282
21
140.9256177
0
LINE
8
DEFAULT_255_2_778
10
18.3785282
20
140.9256177
11
18.3907282
21
140.9592177
0
LINE
8
DEFAULT_255_2_778
10
18.4494282
20
141.0494177
11
18.4626282
21
141.0618177
0
LINE
8
DEFAULT_255_2_778
10
18.4626282
20
141.0618177
11
18.4769282
21
141.0730177
0
LINE
8
DEFAULT_255_2_778
10
18.5079282
20
141.0909177
11
18.5245282
21
141.0978177
0
LINE
8
DEFAULT_255_2_778
10
18.5245282
20
141.0978177
11
18.5417282
21
141.1034177
0
LINE
8
DEFAULT_255_2_778
10
18.6129282
20
141.1148177
11
18.6492282
21
141.1153177
0
LINE
8
DEFAULT_255_2_778
10
18.7867282
20
141.0769177
11
18.8021282
21
141.0674177
0
LINE
8
DEFAULT_255_2_778
10
18.8021282
20
141.0674177
11
18.8166282
21
141.0565177
0
LINE
8
DEFAULT_255_2_778
10
18.8836282
20
140.9727177
11
18.9831282
21
141.0243177
0
LINE
8
DEFAULT_255_2_778
10
18.8169282
20
141.1851177
11
18.7989282
21
141.1931177
0
LINE
8
DEFAULT_255_2_778
10
18.7989282
20
141.1931177
11
18.7807282
21
141.2002177
0
LINE
8
DEFAULT_255_2_778
10
18.7807282
20
141.2002177
11
18.7431282
21
141.2113177
0
LINE
8
DEFAULT_255_2_778
10
18.7431282
20
141.2113177
11
18.7045282
21
141.2187177
0
LINE
8
DEFAULT_255_2_778
10
18.7045282
20
141.2187177
11
18.6653282
21
141.2227177
0
LINE
8
DEFAULT_255_2_778
10
18.6653282
20
141.2227177
11
18.6261282
21
141.2235177
0
LINE
8
DEFAULT_255_2_778
10
18.6261282
20
141.2235177
11
18.5872282
21
141.2214177
0
LINE
8
DEFAULT_255_2_778
10
18.5872282
20
141.2214177
11
18.5484282
21
141.2164177
0
LINE
8
DEFAULT_255_2_778
10
18.5484282
20
141.2164177
11
18.5290282
21
141.2127177
0
LINE
8
DEFAULT_255_2_778
10
18.5290282
20
141.2127177
11
18.5097282
21
141.2079177
0
LINE
8
DEFAULT_255_2_778
10
18.3473282
20
141.1026177
11
18.3351282
21
141.0870177
0
LINE
8
DEFAULT_255_2_778
10
18.3351282
20
141.0870177
11
18.3240282
21
141.0708177
0
LINE
8
DEFAULT_255_2_778
10
18.2877282
20
141.0018177
11
18.2742282
21
140.9647177
0
LINE
8
DEFAULT_255_2_778
10
18.2742282
20
140.9647177
11
18.2631282
21
140.9272177
0
LINE
8
DEFAULT_255_2_778
10
18.2631282
20
140.9272177
11
18.2470282
21
140.8512177
0
LINE
8
DEFAULT_255_2_778
10
18.2470282
20
140.8512177
11
18.2369282
21
140.7745177
0
LINE
8
DEFAULT_255_2_778
10
18.2369282
20
140.7745177
11
18.2274282
21
140.6192177
0
LINE
8
DEFAULT_255_2_778
10
18.2274282
20
140.6192177
11
18.2253282
21
140.4541177
0
LINE
8
DEFAULT_255_2_778
10
18.2253282
20
140.4541177
11
18.2256282
21
140.3715177
0
LINE
8
DEFAULT_255_2_778
10
18.2256282
20
140.3715177
11
18.2269282
21
140.2890177
0
LINE
8
DEFAULT_255_2_778
10
18.2269282
20
140.2890177
11
18.2279282
21
140.2477177
0
LINE
8
DEFAULT_255_2_778
10
18.2279282
20
140.2477177
11
18.2298282
21
140.2064177
0
LINE
8
DEFAULT_255_2_778
10
18.2298282
20
140.2064177
11
18.2364282
21
140.1239177
0
LINE
8
DEFAULT_255_2_778
10
18.2364282
20
140.1239177
11
18.2475282
21
140.0419177
0
LINE
8
DEFAULT_255_2_778
10
18.2475282
20
140.0419177
11
18.2653282
21
139.9612177
0
LINE
8
DEFAULT_255_2_778
10
18.2653282
20
139.9612177
11
18.2769282
21
139.9215177
0
LINE
8
DEFAULT_255_2_778
10
18.2769282
20
139.9215177
11
18.2904282
21
139.8826177
0
LINE
8
DEFAULT_255_2_778
10
18.3269282
20
139.8090177
11
18.3383282
21
139.7916177
0
LINE
8
DEFAULT_255_2_778
10
18.3383282
20
139.7916177
11
18.3504282
21
139.7746177
0
LINE
8
DEFAULT_255_2_778
10
18.4076282
20
139.7154177
11
18.4243282
21
139.7027177
0
LINE
8
DEFAULT_255_2_778
10
18.4243282
20
139.7027177
11
18.4417282
21
139.6910177
0
LINE
8
DEFAULT_255_2_778
10
18.4417282
20
139.6910177
11
18.4595282
21
139.6805177
0
LINE
8
DEFAULT_255_2_778
10
18.4595282
20
139.6805177
11
18.4777282
21
139.6709177
0
LINE
8
DEFAULT_255_2_778
10
18.5566282
20
139.6450177
11
18.5976282
21
139.6389177
0
LINE
8
DEFAULT_255_2_778
10
18.5976282
20
139.6389177
11
18.6388282
21
139.6363177
0
LINE
8
DEFAULT_255_2_778
10
18.6388282
20
139.6363177
11
18.6804282
21
139.6365177
0
LINE
8
DEFAULT_255_2_778
10
18.6804282
20
139.6365177
11
18.7219282
21
139.6402177
0
LINE
8
DEFAULT_255_2_778
10
18.7219282
20
139.6402177
11
18.7627282
21
139.6476177
0
LINE
8
DEFAULT_255_2_778
10
18.9860282
20
139.8188177
11
18.9955282
21
139.8376177
0
LINE
8
DEFAULT_255_2_778
10
18.9955282
20
139.8376177
11
19.0040282
21
139.8567177
0
LINE
8
DEFAULT_255_2_778
10
19.0294282
20
139.9350177
11
19.0378282
21
139.9755177
0
LINE
8
DEFAULT_255_2_778
10
19.0378282
20
139.9755177
11
19.0442282
21
140.0165177
0
LINE
8
DEFAULT_255_2_778
10
19.0442282
20
140.0165177
11
19.0511282
21
140.0985177
0
LINE
8
DEFAULT_255_2_778
10
19.0511282
20
140.0985177
11
19.0521282
21
140.1805177
0
LINE
8
DEFAULT_255_2_778
10
19.0521282
20
140.1805177
11
19.0471282
21
140.2623177
0
LINE
8
DEFAULT_255_2_778
10
19.0471282
20
140.2623177
11
19.0344282
21
140.3440177
0
LINE
8
DEFAULT_255_2_778
10
19.0114282
20
140.4237177
11
18.9950282
21
140.4618177
0
LINE
8
DEFAULT_255_2_778
10
18.8542282
20
140.6089177
11
18.8354282
21
140.6176177
0
LINE
8
DEFAULT_255_2_778
10
18.8354282
20
140.6176177
11
18.8158282
21
140.6250177
0
LINE
8
DEFAULT_255_2_778
10
18.6931282
20
140.6438177
11
18.6542282
21
140.6417177
0
LINE
8
DEFAULT_255_2_778
10
18.3923282
20
140.5078177
11
18.3925282
21
140.5073177
0
ARC
8
DEFAULT_255_2_778
10
20.7450162
20
140.7788805
40
0.5069771
50
20.8590112
51
49.5651995
0
ARC
8
DEFAULT_255_2_778
10
20.8077704
20
140.8286847
40
0.4286467
50
51.6325284
51
88.1155895
0
ARC
8
DEFAULT_255_2_778
10
20.8587842
20
140.5939045
40
0.664222
50
93.186229
51
111.1390806
0
ARC
8
DEFAULT_255_2_778
10
20.7463603
20
140.8834811
40
0.353588
50
111.06977
51
180.2315641
0
ARC
8
DEFAULT_255_2_778
10
21.031412
20
140.8398809
40
0.6400276
50
176.2220662
51
180.0489527
0
ARC
8
DEFAULT_255_2_778
10
21.1191613
20
140.8395855
40
0.7277769
50
180.0197962
51
182.2904536
0
ARC
8
DEFAULT_255_2_778
10
20.7832159
20
140.8384731
40
0.3922489
50
184.089548
51
225.9730708
0
ARC
8
DEFAULT_255_2_778
10
21.099402
20
141.1372195
40
0.8270347
50
224.6071629
51
239.9534133
0
ARC
8
DEFAULT_255_2_778
10
21.5074309
20
141.8220477
40
1.624169
50
239.5900143
51
248.508424
0
ARC
8
DEFAULT_255_2_778
10
21.850843
20
142.6499134
40
2.5203408
50
248.1393565
51
251.1601828
0
ARC
8
DEFAULT_255_2_778
10
20.9270623
20
140.0452367
40
0.2453545
50
34.8222862
51
63.3885959
0
ARC
8
DEFAULT_255_2_778
10
20.9914071
20
140.0963857
40
0.1634086
50
359.3981075
51
32.9823619
0
ARC
8
DEFAULT_255_2_778
10
20.9035133
20
140.0992836
40
0.2513356
50
338.576239
51
358.9479929
0
ARC
8
DEFAULT_255_2_778
10
20.755293
20
140.1506371
40
0.4081214
50
333.259019
51
339.4655339
0
ARC
8
DEFAULT_255_2_778
10
20.7500684
20
140.1128028
40
0.3974099
50
315.0253409
51
338.4764591
0
ARC
8
DEFAULT_255_2_778
10
20.8351231
20
140.0381955
40
0.2846033
50
268.1892214
51
313.5480008
0
ARC
8
DEFAULT_255_2_778
10
20.8304628
20
140.2421027
40
0.4883876
50
256.6824181
51
269.4916843
0
ARC
8
DEFAULT_255_2_778
10
20.8948468
20
140.5237526
40
0.7772973
50
248.4301467
51
256.8464273
0
ARC
8
DEFAULT_255_2_778
10
20.9503936
20
140.6778477
40
0.9410353
50
248.615304
51
248.7342092
0
ARC
8
DEFAULT_255_2_778
10
20.7759248
20
140.0719366
40
0.3186345
50
199.2283124
51
238.0405924
0
ARC
8
DEFAULT_255_2_778
10
15.8603928
20
153.6455184
40
14.4359649
50
288.22723
51
288.6426676
0
ARC
8
DEFAULT_255_2_778
10
20.9100526
20
140.1080399
40
0.5619496
50
198.052354
51
220.2438252
0
ARC
8
DEFAULT_255_2_778
10
20.7620466
20
139.9938366
40
0.3752913
50
221.5334562
51
272.2112107
0
ARC
8
DEFAULT_255_2_778
10
20.7762911
20
140.1796621
40
0.5608374
50
270.0240559
51
273.0125427
0
ARC
8
DEFAULT_255_2_778
10
20.7353219
20
140.3831246
40
0.7667677
50
275.2712611
51
291.6243933
0
ARC
8
DEFAULT_255_2_778
10
20.8902515
20
140.0168205
40
0.3692601
50
290.22233
51
359.465161
0
ARC
8
DEFAULT_255_2_778
10
20.6627177
20
140.0491315
40
0.5978482
50
356.57104
51
0.0352864
0
ARC
8
DEFAULT_255_2_778
10
20.8789461
20
140.092446
40
0.3840286
50
353.5791085
51
359.9255653
0
ARC
8
DEFAULT_255_2_778
10
20.9348863
20
140.0900032
40
0.3280937
50
0.3394791
51
57.3071643
0
ARC
8
DEFAULT_255_2_778
10
20.6816639
20
139.7517879
40
0.7501199
50
54.9826371
51
70.3415626
0
ARC
8
DEFAULT_255_2_778
10
20.5131989
20
139.3323655
40
1.2018979
50
69.505041
51
72.6374501
0
ARC
8
DEFAULT_255_2_778
10
21.3864174
20
141.6122635
40
1.2441533
50
236.6146468
51
245.5703379
0
ARC
8
DEFAULT_255_2_778
10
21.0348704
20
141.0864717
40
0.6116928
50
221.3837253
51
237.0091553
0
ARC
8
DEFAULT_255_2_778
10
20.7817312
20
140.8722935
40
0.2802487
50
181.3627581
51
222.7439027
0
ARC
8
DEFAULT_255_2_778
10
20.7818681
20
140.863331
40
0.2803158
50
159.4864495
51
179.5303752
0
ARC
8
DEFAULT_255_2_778
10
20.8492456
20
140.8418219
40
0.3509754
50
157.5944472
51
160.0522535
0
ARC
8
DEFAULT_255_2_778
10
20.7779135
20
140.8512481
40
0.282041
50
89.7985621
51
153.8387595
0
ARC
8
DEFAULT_255_2_778
10
20.8099867
20
140.6349448
40
0.4993108
50
89.9572444
51
93.5689166
0
ARC
8
DEFAULT_255_2_778
10
20.8076472
20
140.4901639
40
0.6440974
50
82.1196463
51
89.7587416
0
ARC
8
DEFAULT_255_2_778
10
20.7870815
20
140.319513
40
0.8159622
50
80.5062927
51
82.3320986
0
ARC
8
DEFAULT_255_2_778
10
20.8546327
20
140.9211981
40
0.2138777
50
22.8173883
51
71.7346888
0
ARC
8
DEFAULT_255_2_778
10
20.5938632
20
140.7804079
40
0.5096444
50
14.63788
51
26.0397333
0
ARC
8
DEFAULT_255_2_778
10
22.1859594
20
138.1826401
40
2.9397132
50
109.5347193
51
111.952873
0
ARC
8
DEFAULT_255_2_778
10
21.6145918
20
139.7742025
40
1.2487257
50
108.4564378
51
109.2458497
0
ARC
8
DEFAULT_255_2_778
10
23.4632893
20
140.3221404
40
0.2856514
50
144.8418222
51
174.9067494
0
ARC
8
DEFAULT_255_2_778
10
23.3892197
20
140.3570967
40
0.2054483
50
87.2588357
51
140.914111
0
ARC
8
DEFAULT_255_2_778
10
23.4063622
20
140.1996232
40
0.3627605
50
89.9938276
51
91.1557721
0
ARC
8
DEFAULT_255_2_778
10
23.4048306
20
140.122723
40
0.4396636
50
82.7097573
51
89.7953045
0
ARC
8
DEFAULT_255_2_778
10
23.4017517
20
140.0851565
40
0.4773202
50
82.6923201
51
82.9153909
0
ARC
8
DEFAULT_255_2_778
10
23.408493
20
140.3575765
40
0.2081427
50
19.1794702
51
74.9711088
0
ARC
8
DEFAULT_255_2_778
10
23.0694496
20
140.2089461
40
0.5779244
50
5.9967374
51
22.0552706
0
ARC
8
DEFAULT_255_2_778
10
22.4247243
20
140.1251529
40
1.2279798
50
359.6692778
51
6.7423193
0
ARC
8
DEFAULT_255_2_778
10
21.8471635
20
140.1189968
40
1.8055203
50
358.1095997
51
359.9704254
0
ARC
8
DEFAULT_255_2_778
10
21.6770259
20
140.1236428
40
1.9757187
50
358.0205575
51
358.1376995
0
ARC
8
DEFAULT_255_2_778
10
23.2069038
20
140.0933961
40
0.4462824
50
332.5619089
51
355.1159295
0
ARC
8
DEFAULT_255_2_778
10
23.3939824
20
140.0008985
40
0.2376621
50
271.322038
51
331.5706553
0
ARC
8
DEFAULT_255_2_778
10
23.3327226
20
140.1689989
40
0.4111527
50
270.3150201
51
279.3422579
0
ARC
8
DEFAULT_255_2_778
10
23.3205964
20
139.9566254
40
0.1992929
50
198.5573589
51
274.1397341
0
ARC
8
DEFAULT_255_2_778
10
22.7470864
20
140.6149697
40
0.8178345
50
289.5951958
51
298.049938
0
ARC
8
DEFAULT_255_2_778
10
23.3579499
20
139.9948054
40
0.36862
50
204.0637362
51
237.2696238
0
ARC
8
DEFAULT_255_2_778
10
23.3352039
20
139.984988
40
0.3483374
50
239.5444267
51
271.406316
0
ARC
8
DEFAULT_255_2_778
10
23.3410656
20
140.1967797
40
0.5600305
50
270.2749317
51
279.6765078
0
ARC
8
DEFAULT_255_2_778
10
23.3200386
20
140.3382161
40
0.7029955
50
279.4282859
51
281.6890553
0
ARC
8
DEFAULT_255_2_778
10
23.3163426
20
140.052912
40
0.4287791
50
289.9249381
51
353.7013637
0
ARC
8
DEFAULT_255_2_778
10
23.0780029
20
140.0983103
40
0.6709291
50
352.0806594
51
0.1838767
0
ARC
8
DEFAULT_255_2_778
10
22.8972856
20
140.099317
40
0.8516437
50
0.0771309
51
4.7000171
0
ARC
8
DEFAULT_255_2_778
10
22.6348538
20
140.1810376
40
1.111276
50
359.384486
51
9.9573172
0
ARC
8
DEFAULT_255_2_778
10
23.2521245
20
140.2957864
40
0.4835026
50
9.2124759
51
30.3921948
0
ARC
8
DEFAULT_255_2_778
10
23.4578349
20
140.4147397
40
0.2458844
50
30.7336209
51
66.2495574
0
ARC
8
DEFAULT_255_2_778
10
23.3664064
20
140.1285981
40
0.5455289
50
69.5660186
51
81.7193914
0
ARC
8
DEFAULT_255_2_778
10
23.3897267
20
140.2727696
40
0.3995086
50
82.0511818
51
89.879268
0
ARC
8
DEFAULT_255_2_778
10
23.3895483
20
140.3507745
40
0.3215045
50
89.818182
51
143.3919833
0
ARC
8
DEFAULT_255_2_778
10
32.6567327
20
140.5317025
40
9.5252732
50
178.3486346
51
179.9350536
0
ARC
8
DEFAULT_255_2_778
10
37.8007001
20
140.3874873
40
14.6712606
50
177.1752706
51
178.3645776
0
LINE
8
DEFAULT_255_2_778
10
23.1472657
20
141.1104996
11
23.7301657
21
141.1104996
0
ARC
8
DEFAULT_255_2_778
10
24.4239279
20
141.1213772
40
0.6938475
50
173.9884018
51
180.8982755
0
ARC
8
DEFAULT_255_2_778
10
23.7652968
20
141.1989891
40
0.0317877
50
127.2277597
51
188.9501685
0
ARC
8
DEFAULT_255_2_778
10
24.2683321
20
139.8844645
40
0.2606699
50
218.8643642
51
224.5490369
0
ARC
8
DEFAULT_255_2_778
10
24.2959976
20
139.9161578
40
0.3026421
50
230.1241124
51
239.9101437
0
ARC
8
DEFAULT_255_2_778
10
24.315904
20
139.9530471
40
0.3445428
50
240.1214978
51
248.8101378
0
ARC
8
DEFAULT_255_2_778
10
24.3355021
20
140.0180169
40
0.4132811
50
256.8337023
51
264.1342573
0
ARC
8
DEFAULT_255_2_778
10
24.3621742
20
140.2362484
40
0.632759
50
268.5231175
51
270.0016536
0
ARC
8
DEFAULT_255_2_778
10
24.361763
20
140.2566286
40
0.6531394
50
270.0376754
51
277.7788883
0
ARC
8
DEFAULT_255_2_778
10
24.4009063
20
140.0268134
40
0.4195665
50
283.9376714
51
291.1463735
0
ARC
8
DEFAULT_255_2_778
10
24.4018343
20
140.025145
40
0.4176759
50
291.1102039
51
298.3025222
0
ARC
8
DEFAULT_255_2_778
10
24.4044616
20
139.9985674
40
0.3938385
50
307.4725834
51
315.0037415
0
ARC
8
DEFAULT_255_2_778
10
24.3837496
20
140.0056885
40
0.4139158
50
323.5202709
51
337.8307084
0
ARC
8
DEFAULT_255_2_778
10
24.3101489
20
140.0411837
40
0.4954955
50
337.2411547
51
343.2277642
0
ARC
8
DEFAULT_255_2_778
10
24.0607012
20
140.0973693
40
0.7513231
50
348.5093412
51
356.3087818
0
ARC
8
DEFAULT_255_2_778
10
24.4303302
20
140.1222194
40
0.3815761
50
4.4310451
51
12.1452783
0
ARC
8
DEFAULT_255_2_778
10
24.5022777
20
140.1401731
40
0.3070374
50
21.3390352
51
30.9979653
0
ARC
8
DEFAULT_255_2_778
10
24.4945451
20
140.1298963
40
0.3192043
50
41.1873149
51
50.5275075
0
ARC
8
DEFAULT_255_2_778
10
24.092938
20
139.5286717
40
1.0425919
50
57.3993707
51
63.1786737
0
ARC
8
DEFAULT_255_2_778
10
24.472049
20
140.7851601
40
0.3294243
50
304.1690379
51
310.4023402
0
ARC
8
DEFAULT_255_2_778
10
24.471238
20
140.7916606
40
0.3349194
50
309.7872036
51
315.9032696
0
ARC
8
DEFAULT_255_2_778
10
24.5128409
20
140.7560457
40
0.2802785
50
315.2137647
51
322.622733
0
ARC
8
DEFAULT_255_2_778
10
24.498978
20
140.7673976
40
0.2981866
50
322.5064329
51
336.2281067
0
ARC
8
DEFAULT_255_2_778
10
24.5056274
20
140.7637293
40
0.2907174
50
343.4256969
51
350.3905979
0
ARC
8
DEFAULT_255_2_778
10
24.3454984
20
140.7887194
40
0.452776
50
350.6551884
51
359.6431732
0
ARC
8
DEFAULT_255_2_778
10
24.2646411
20
140.8327169
40
0.5311516
50
10.1587827
51
17.8353784
0
ARC
8
DEFAULT_255_2_778
10
24.3390736
20
140.8544354
40
0.4536492
50
18.1034742
51
27.0867563
0
ARC
8
DEFAULT_255_2_778
10
24.4321608
20
140.9029477
40
0.3486789
50
38.7301258
51
50.4748892
0
ARC
8
DEFAULT_255_2_778
10
24.4571928
20
140.9331099
40
0.3094826
50
50.4957361
51
57.216796
0
ARC
8
DEFAULT_255_2_778
10
24.4444685
20
140.9216545
40
0.326034
50
56.4268526
51
62.7866221
0
ARC
8
DEFAULT_255_2_778
10
24.4231749
20
140.8795097
40
0.3732516
50
62.8382543
51
73.9985992
0
ARC
8
DEFAULT_255_2_778
10
24.3987035
20
140.7973325
40
0.4589915
50
73.8899753
51
82.9968281
0
ARC
8
DEFAULT_255_2_778
10
24.3842728
20
140.6658034
40
0.5913013
50
83.162874
51
89.9987059
0
ARC
8
DEFAULT_255_2_778
10
24.3842397
20
140.693775
40
0.5633297
50
89.9952661
51
90.241454
0
ARC
8
DEFAULT_255_2_778
10
24.3788392
20
140.6846367
40
0.5724709
50
89.6970917
51
89.9999812
0
ARC
8
DEFAULT_255_2_778
10
24.3791846
20
140.6817872
40
0.5753207
50
90.0343804
51
100.8623168
0
ARC
8
DEFAULT_255_2_778
10
24.3556744
20
140.8170573
40
0.4380502
50
101.176576
51
108.4880491
0
ARC
8
DEFAULT_255_2_778
10
24.3111109
20
140.9233835
40
0.3220803
50
116.9448807
51
126.8248018
0
ARC
8
DEFAULT_255_2_778
10
24.3340788
20
140.8968499
40
0.356995
50
136.1648377
51
145.0223692
0
ARC
8
DEFAULT_255_2_778
10
24.3833563
20
140.8645233
40
0.415907
50
145.2649658
51
152.9136022
0
ARC
8
DEFAULT_255_2_778
10
24.3651893
20
140.8782583
40
0.2756578
50
140.7684633
51
153.3272009
0
ARC
8
DEFAULT_255_2_778
10
24.3137193
20
140.9209744
40
0.208774
50
132.5402056
51
140.9153576
0
ARC
8
DEFAULT_255_2_778
10
24.3572919
20
140.8713272
40
0.2748177
50
125.8435707
51
132.2353196
0
ARC
8
DEFAULT_255_2_778
10
24.3445361
20
140.8860139
40
0.2554489
50
118.597208
51
125.4533006
0
ARC
8
DEFAULT_255_2_778
10
24.356229
20
140.8455058
40
0.2966143
50
98.8362611
51
110.8482512
0
ARC
8
DEFAULT_255_2_778
10
24.4005454
20
140.5043126
40
0.6406234
50
95.0624598
51
98.0652265
0
ARC
8
DEFAULT_255_2_778
10
24.382196
20
140.7118426
40
0.4322839
50
90.6402309
51
95.0670967
0
ARC
8
DEFAULT_255_2_778
10
24.3843309
20
140.6302368
40
0.5139101
50
90.0066729
51
90.7765728
0
ARC
8
DEFAULT_255_2_778
10
24.3863943
20
140.7550667
40
0.3890859
50
81.5207238
51
90.3126697
0
ARC
8
DEFAULT_255_2_778
10
24.39603
20
140.804227
40
0.3390499
50
76.2067945
51
81.9062867
0
ARC
8
DEFAULT_255_2_778
10
24.4054256
20
140.8401876
40
0.3018868
50
69.9618756
51
76.3113702
0
ARC
8
DEFAULT_255_2_778
10
24.4021737
20
140.8454025
40
0.2981411
50
62.5594181
51
69.0313381
0
ARC
8
DEFAULT_255_2_778
10
24.4332471
20
140.9085372
40
0.2277955
50
53.774677
51
62.1778726
0
ARC
8
DEFAULT_255_2_778
10
24.4350494
20
140.911843
40
0.2240643
50
45.1881115
51
53.6468879
0
ARC
8
DEFAULT_255_2_778
10
24.4431946
20
140.9157801
40
0.2155515
50
37.1657342
51
45.9865211
0
ARC
8
DEFAULT_255_2_778
10
24.3975184
20
140.8827489
40
0.2719083
50
23.0246526
51
36.897765
0
ARC
8
DEFAULT_255_2_778
10
24.310097
20
140.8456345
40
0.366882
50
12.7972724
51
23.0191608
0
ARC
8
DEFAULT_255_2_778
10
24.160399
20
140.8128659
40
0.5201213
50
5.4537828
51
12.6646671
0
ARC
8
DEFAULT_255_2_778
10
24.3596759
20
140.7925625
40
0.3217204
50
359.9975796
51
0.7902413
0
ARC
8
DEFAULT_255_2_778
10
24.3696138
20
140.7922162
40
0.3117827
50
348.901585
51
0.0611401
0
ARC
8
DEFAULT_255_2_778
10
24.4651324
20
140.7764816
40
0.215042
50
339.2800698
51
348.1165135
0
ARC
8
DEFAULT_255_2_778
10
24.5051755
20
140.7599686
40
0.1717513
50
328.7230539
51
339.7062952
0
ARC
8
DEFAULT_255_2_778
10
24.4327786
20
140.8030857
40
0.2560128
50
321.4386859
51
328.8877427
0
ARC
8
DEFAULT_255_2_778
10
24.4284177
20
140.8079966
40
0.2624865
50
313.9119442
51
321.1938521
0
ARC
8
DEFAULT_255_2_778
10
24.4298939
20
140.8096218
40
0.2626425
50
306.133434
51
313.4340539
0
ARC
8
DEFAULT_255_2_778
10
24.4022
20
140.8487966
40
0.3106129
50
299.7785501
51
305.9981637
0
ARC
8
DEFAULT_255_2_778
10
24.3637228
20
140.9177157
40
0.3895419
50
289.79848
51
299.6561488
0
ARC
8
DEFAULT_255_2_778
10
24.3703516
20
140.0073535
40
0.3812663
50
62.9455381
51
71.8741229
0
ARC
8
DEFAULT_255_2_778
10
24.4429432
20
140.1084666
40
0.2568872
50
40.8818274
51
53.9646979
0
ARC
8
DEFAULT_255_2_778
10
24.4713159
20
140.1322365
40
0.2198792
50
33.4074815
51
41.0377902
0
ARC
8
DEFAULT_255_2_778
10
24.4851032
20
140.1309483
40
0.2089759
50
19.8475982
51
27.7962233
0
ARC
8
DEFAULT_255_2_778
10
24.4709414
20
140.1273308
40
0.223529
50
12.0247688
51
19.4872987
0
ARC
8
DEFAULT_255_2_778
10
24.4128071
20
140.1169235
40
0.2825626
50
0.0939806
51
11.6329355
0
ARC
8
DEFAULT_255_2_778
10
24.4280825
20
140.1173484
40
0.2672868
50
359.7108788
51
0.0082597
0
ARC
8
DEFAULT_255_2_778
10
23.8600573
20
140.1211243
40
0.8353241
50
352.1059607
51
359.6484916
0
ARC
8
DEFAULT_255_2_778
10
24.2632136
20
140.0517412
40
0.4257054
50
339.0457805
51
346.5051695
0
ARC
8
DEFAULT_255_2_778
10
24.3617663
20
140.0126878
40
0.3197064
50
329.3699371
51
339.2655067
0
ARC
8
DEFAULT_255_2_778
10
24.4359197
20
139.9598898
40
0.2283984
50
310.3395699
51
317.3342849
0
ARC
8
DEFAULT_255_2_778
10
24.4348374
20
139.959521
40
0.2288203
50
303.5402244
51
310.6059222
0
ARC
8
DEFAULT_255_2_778
10
24.4107268
20
139.9974256
40
0.2737367
50
291.5931784
51
303.3629297
0
ARC
8
DEFAULT_255_2_778
10
24.3727638
20
140.1356788
40
0.4175806
50
273.9687739
51
281.7170788
0
ARC
8
DEFAULT_255_2_778
10
24.3616544
20
139.9955274
40
0.2779746
50
269.9798516
51
272.4146416
0
ARC
8
DEFAULT_255_2_778
10
24.3615821
20
140.0153654
40
0.2978125
50
269.5447288
51
269.9950979
0
ARC
8
DEFAULT_255_2_778
10
24.3618205
20
140.0309242
40
0.3133729
50
266.9351621
51
269.5237453
0
ARC
8
DEFAULT_255_2_778
10
24.3551517
20
140.1243155
40
0.406441
50
260.628059
51
268.5780376
0
ARC
8
DEFAULT_255_2_778
10
24.3167821
20
139.9446239
40
0.2225846
50
248.2400022
51
255.530386
0
ARC
8
DEFAULT_255_2_778
10
24.3034184
20
139.9157732
40
0.1908431
50
240.3007628
51
248.755204
0
ARC
8
DEFAULT_255_2_778
10
24.2968206
20
139.9039122
40
0.1772714
50
231.1269558
51
240.2537449
0
ARC
8
DEFAULT_255_2_778
10
24.3152855
20
139.9264585
40
0.2064131
50
215.4638696
51
231.0643179
0
ARC
8
DEFAULT_255_2_778
10
24.3708285
20
139.966889
40
0.2751103
50
203.9297763
51
215.6105858
0
ARC
8
DEFAULT_255_2_778
10
24.4034565
20
139.9829679
40
0.4273508
50
204.1687415
51
211.0573141
0
LINE
8
DEFAULT_255_2_778
10
19.2838657
20
141.2239996
11
20.0805657
21
141.2239996
0
LINE
8
DEFAULT_255_2_778
10
20.0805657
20
141.2239996
11
20.0805657
21
141.1107996
0
LINE
8
DEFAULT_255_2_778
10
20.0805657
20
141.1107996
11
19.3947657
21
141.1107996
0
LINE
8
DEFAULT_255_2_778
10
19.3947657
20
141.1107996
11
19.3947657
21
140.5249996
0
LINE
8
DEFAULT_255_2_778
10
19.3947657
20
140.5249996
11
20.0381657
21
140.5249996
0
LINE
8
DEFAULT_255_2_778
10
20.0381657
20
140.5249996
11
20.0381657
21
140.4140996
0
LINE
8
DEFAULT_255_2_778
10
20.0381657
20
140.4140996
11
19.3947657
21
140.4140996
0
LINE
8
DEFAULT_255_2_778
10
19.3947657
20
140.4140996
11
19.3947657
21
139.7394996
0
LINE
8
DEFAULT_255_2_778
10
19.3947657
20
139.7394996
11
20.0805657
21
139.7394996
0
LINE
8
DEFAULT_255_2_778
10
20.0805657
20
139.7394996
11
20.0805657
21
139.6285996
0
LINE
8
DEFAULT_255_2_778
10
20.0805657
20
139.6285996
11
19.2838657
21
139.6285996
0
LINE
8
DEFAULT_255_2_778
10
19.2838657
20
139.6285996
11
19.2838657
21
141.2239996
0
LINE
8
DEFAULT_255_2_778
10
21.2192657
20
140.9586996
11
21.2187657
21
140.9593996
0
LINE
8
DEFAULT_255_2_778
10
21.4997657
20
141.2239996
11
21.4997657
21
141.1258996
0
LINE
8
DEFAULT_255_2_778
10
21.4997657
20
141.1258996
11
22.1871657
21
141.1258996
0
LINE
8
DEFAULT_255_2_778
10
22.1871657
20
141.1258996
11
21.7452657
21
139.6692996
0
LINE
8
DEFAULT_255_2_778
10
21.7452657
20
139.6692996
11
21.8434657
21
139.6364996
0
LINE
8
DEFAULT_255_2_778
10
21.8434657
20
139.6364996
11
22.2934657
21
141.0602996
0
LINE
8
DEFAULT_255_2_778
10
22.2934657
20
141.0602996
11
22.2934657
21
141.2239996
0
LINE
8
DEFAULT_255_2_778
10
22.2934657
20
141.2239996
11
21.4997657
21
141.2239996
0
LINE
8
DEFAULT_255_2_778
10
23.7457657
20
141.2239996
11
23.0210657
21
141.2239996
0
LINE
8
DEFAULT_255_2_778
10
23.0210657
20
141.2239996
11
23.0210657
21
140.3474996
0
LINE
8
DEFAULT_255_2_778
10
23.0210657
20
140.3474996
11
23.1787657
21
140.3474996
0
LINE
8
DEFAULT_255_2_778
10
23.7460657
20
141.2242996
11
23.7457657
21
141.2239996
0
LINE
8
DEFAULT_255_2_778
10
24.0505657
20
139.7417996
11
24.0577657
21
139.7311996
0
LINE
8
DEFAULT_255_2_778
10
24.0577657
20
139.7311996
11
24.0653657
21
139.7208996
0
LINE
8
DEFAULT_255_2_778
10
24.0825657
20
139.7015996
11
24.1019657
21
139.6838996
0
LINE
8
DEFAULT_255_2_778
10
24.1913657
20
139.6317996
11
24.2162657
21
139.6227996
0
LINE
8
DEFAULT_255_2_778
10
24.2162657
20
139.6227996
11
24.2413657
21
139.6155996
0
LINE
8
DEFAULT_255_2_778
10
24.2932657
20
139.6068996
11
24.3458657
21
139.6036996
0
LINE
8
DEFAULT_255_2_778
10
24.4501657
20
139.6094996
11
24.5019657
21
139.6195996
0
LINE
8
DEFAULT_255_2_778
10
24.5998657
20
139.6573996
11
24.6226657
21
139.6708996
0
LINE
8
DEFAULT_255_2_778
10
24.6226657
20
139.6708996
11
24.6440657
21
139.6859996
0
LINE
8
DEFAULT_255_2_778
10
24.6829657
20
139.7200996
11
24.7003657
21
139.7391996
0
LINE
8
DEFAULT_255_2_778
10
24.7003657
20
139.7391996
11
24.7165657
21
139.7595996
0
LINE
8
DEFAULT_255_2_778
10
24.7845657
20
139.8981996
11
24.7969657
21
139.9476996
0
LINE
8
DEFAULT_255_2_778
10
24.8104657
20
140.0489996
11
24.8123657
21
140.1002996
0
LINE
8
DEFAULT_255_2_778
10
24.8123657
20
140.1002996
11
24.8120657
21
140.1259996
0
LINE
8
DEFAULT_255_2_778
10
24.8120657
20
140.1259996
11
24.8107657
21
140.1516996
0
LINE
8
DEFAULT_255_2_778
10
24.8033657
20
140.2024996
11
24.7967657
21
140.2275996
0
LINE
8
DEFAULT_255_2_778
10
24.7967657
20
140.2275996
11
24.7882657
21
140.2518996
0
LINE
8
DEFAULT_255_2_778
10
24.7654657
20
140.2982996
11
24.7509657
21
140.3198996
0
LINE
8
DEFAULT_255_2_778
10
24.7509657
20
140.3198996
11
24.7347657
21
140.3400996
0
LINE
8
DEFAULT_255_2_778
10
24.6974657
20
140.3762996
11
24.6765657
21
140.3923996
0
LINE
8
DEFAULT_255_2_778
10
24.6765657
20
140.3923996
11
24.6546657
21
140.4069996
0
LINE
8
DEFAULT_255_2_778
10
24.5633657
20
140.4590996
11
24.6265657
21
140.4934996
0
LINE
8
DEFAULT_255_2_778
10
24.6265657
20
140.4934996
11
24.6419657
21
140.5027996
0
LINE
8
DEFAULT_255_2_778
10
24.6419657
20
140.5027996
11
24.6570657
21
140.5125996
0
LINE
8
DEFAULT_255_2_778
10
24.7718657
20
140.6471996
11
24.7787657
21
140.6638996
0
LINE
8
DEFAULT_255_2_778
10
24.7787657
20
140.6638996
11
24.7842657
21
140.6807996
0
LINE
8
DEFAULT_255_2_778
10
24.7982657
20
140.7858996
11
24.7980657
21
140.8210996
0
LINE
8
DEFAULT_255_2_778
10
24.7980657
20
140.8210996
11
24.7961657
21
140.8562996
0
LINE
8
DEFAULT_255_2_778
10
24.7961657
20
140.8562996
11
24.7874657
21
140.9263996
0
LINE
8
DEFAULT_255_2_778
10
24.7429657
20
141.0609996
11
24.7250657
21
141.0919996
0
LINE
8
DEFAULT_255_2_778
10
24.7250657
20
141.0919996
11
24.7041657
21
141.1210996
0
LINE
8
DEFAULT_255_2_778
10
24.2167657
20
141.2324996
11
24.1902657
21
141.2223996
0
LINE
8
DEFAULT_255_2_778
10
24.1902657
20
141.2223996
11
24.1651657
21
141.2104996
0
LINE
8
DEFAULT_255_2_778
10
24.1180657
20
141.1811996
11
24.0963657
21
141.1633996
0
LINE
8
DEFAULT_255_2_778
10
24.0963657
20
141.1633996
11
24.0765657
21
141.1440996
0
LINE
8
DEFAULT_255_2_778
10
24.0130657
20
141.0538996
11
24.1188657
21
141.0019996
0
LINE
8
DEFAULT_255_2_778
10
24.2222657
20
141.1102996
11
24.2360657
21
141.1168996
0
LINE
8
DEFAULT_255_2_778
10
24.2360657
20
141.1168996
11
24.2506657
21
141.1226996
0
LINE
8
DEFAULT_255_2_778
10
24.6781657
20
140.8622996
11
24.6813657
21
140.7969996
0
LINE
8
DEFAULT_255_2_778
10
24.4956657
20
140.5511996
11
24.4635657
21
140.5405996
0
LINE
8
DEFAULT_255_2_778
10
24.4635657
20
140.5405996
11
24.4310657
21
140.5305996
0
LINE
8
DEFAULT_255_2_778
10
24.4310657
20
140.5305996
11
24.3659657
21
140.5109996
0
LINE
8
DEFAULT_255_2_778
10
24.3659657
20
140.5109996
11
24.3728657
21
140.3982996
0
LINE
8
DEFAULT_255_2_778
10
24.3728657
20
140.3982996
11
24.4315657
21
140.3860996
0
LINE
8
DEFAULT_255_2_778
10
24.4315657
20
140.3860996
11
24.4604657
21
140.3783996
0
LINE
8
DEFAULT_255_2_778
10
24.4604657
20
140.3783996
11
24.4889657
21
140.3696996
0
LINE
8
DEFAULT_255_2_778
10
24.5437657
20
140.3468996
11
24.5694657
21
140.3325996
0
LINE
8
DEFAULT_255_2_778
10
24.5694657
20
140.3325996
11
24.5940657
21
140.3161996
0
LINE
8
DEFAULT_255_2_778
10
24.6548657
20
140.2532996
11
24.6699657
21
140.2283996
0
LINE
8
DEFAULT_255_2_778
10
24.6874657
20
140.0063996
11
24.6771657
21
139.9523996
0
LINE
8
DEFAULT_255_2_778
10
24.6368657
20
139.8497996
11
24.6215657
21
139.8264996
0
LINE
8
DEFAULT_255_2_778
10
24.6215657
20
139.8264996
11
24.6038657
21
139.8050996
0
LINE
8
DEFAULT_255_2_778
10
24.5114657
20
139.7428996
11
24.4847657
21
139.7335996
0
LINE
8
DEFAULT_255_2_778
10
24.4847657
20
139.7335996
11
24.4575657
21
139.7267996
0
LINE
8
DEFAULT_255_2_778
10
24.4016657
20
139.7190996
11
24.3733657
21
139.7177996
0
LINE
8
DEFAULT_255_2_778
10
24.2889657
20
139.7232996
11
24.2611657
21
139.7290996
0
LINE
8
DEFAULT_255_2_778
10
24.1193657
20
139.8552996
11
24.0135657
21
139.8079996
0
ARC
8
DEFAULT_255_2_778
10
30.4728388
20
140.0858563
40
0.3356196
50
270.0031713
51
270.6348143
0
ARC
8
DEFAULT_255_2_778
10
30.4730493
20
140.0897986
40
0.3395619
50
256.9121518
51
269.9676262
0
ARC
8
DEFAULT_255_2_778
10
30.5086896
20
140.0179644
40
0.2956029
50
199.1575558
51
214.8005979
0
ARC
8
DEFAULT_255_2_778
10
30.7656492
20
140.1190101
40
0.5716001
50
192.8016076
51
200.2726773
0
ARC
8
DEFAULT_255_2_778
10
31.603121
20
140.2606572
40
1.4215708
50
181.9309506
51
187.9045887
0
ARC
8
DEFAULT_255_2_778
10
30.7626039
20
140.7739297
40
0.571482
50
161.8175441
51
169.2466917
0
ARC
8
DEFAULT_255_2_778
10
30.4977184
20
140.8766833
40
0.2871109
50
135.1251838
51
149.9265676
0
ARC
8
DEFAULT_255_2_778
10
30.4321199
20
140.9444575
40
0.1928136
50
120.9848386
51
135.643576
0
ARC
8
DEFAULT_255_2_778
10
30.515432
20
140.9352322
40
0.2027642
50
45.1797965
51
59.2324606
0
ARC
8
DEFAULT_255_2_778
10
30.4270131
20
140.8610405
40
0.3178859
50
26.2740105
51
43.3011823
0
ARC
8
DEFAULT_255_2_778
10
30.3728169
20
140.8345491
40
0.3782097
50
19.076138
51
26.2382201
0
ARC
8
DEFAULT_255_2_778
10
30.0149166
20
140.165827
40
0.7500795
50
345.2738507
51
352.4873097
0
ARC
8
DEFAULT_255_2_778
10
30.3902658
20
140.0496341
40
0.3566962
50
332.8845242
51
340.43026
0
ARC
8
DEFAULT_255_2_778
10
30.4503898
20
140.0179598
40
0.4006962
50
315.0065631
51
330.9442057
0
ARC
8
DEFAULT_255_2_778
10
30.1389178
20
140.139856
40
0.7357283
50
343.1227176
51
351.7636046
0
ARC
8
DEFAULT_255_2_778
10
30.2144989
20
140.7849382
40
0.6569101
50
11.9143908
51
21.5338195
0
ARC
8
DEFAULT_255_2_778
10
30.443469
20
140.8731048
40
0.4115652
50
21.8165503
51
29.5620876
0
ARC
8
DEFAULT_255_2_778
10
30.4723712
20
140.8110938
40
0.4454832
50
89.4615933
51
103.8862639
0
ARC
8
DEFAULT_255_2_778
10
31.1062248
20
140.6955894
40
1.036066
50
167.566709
51
173.6790853
0
ARC
8
DEFAULT_255_2_778
10
30.9103921
20
140.1600358
40
0.8367874
50
188.6657368
51
196.2800341
0
ARC
8
DEFAULT_255_2_778
10
30.4672547
20
139.998296
40
0.363668
50
208.8612134
51
226.4641733
0
ARC
8
DEFAULT_255_2_778
10
30.4336914
20
139.9460214
40
0.3028781
50
224.2549177
51
237.6125813
0
ARC
8
DEFAULT_255_2_778
10
30.5100649
20
139.9540471
40
0.3134613
50
302.4934486
51
315.5302547
0
LINE
8
DEFAULT_255_2_778
10
30.3961573
20
139.7590573
11
30.3574573
21
139.7717573
0
LINE
8
DEFAULT_255_2_778
10
30.3574573
20
139.7717573
11
30.3220573
21
139.7912573
0
LINE
8
DEFAULT_255_2_778
10
30.3220573
20
139.7912573
11
30.3058573
21
139.8037573
0
LINE
8
DEFAULT_255_2_778
10
30.3058573
20
139.8037573
11
30.2913573
21
139.8177573
0
LINE
8
DEFAULT_255_2_778
10
30.2913573
20
139.8177573
11
30.2659573
21
139.8492573
0
LINE
8
DEFAULT_255_2_778
10
30.2082573
20
139.9923573
11
30.1950573
21
140.0651573
0
LINE
8
DEFAULT_255_2_778
10
30.1823573
20
140.2127573
11
30.1812573
21
140.2498573
0
LINE
8
DEFAULT_255_2_778
10
30.1812573
20
140.2498573
11
30.1804573
21
140.2868573
0
LINE
8
DEFAULT_255_2_778
10
30.1804573
20
140.2868573
11
30.1794573
21
140.3612573
0
LINE
8
DEFAULT_255_2_778
10
30.1794573
20
140.3612573
11
30.1791573
21
140.4355573
0
LINE
8
DEFAULT_255_2_778
10
30.1791573
20
140.4355573
11
30.1791573
21
140.5098573
0
LINE
8
DEFAULT_255_2_778
10
30.1791573
20
140.5098573
11
30.1812573
21
140.6585573
0
LINE
8
DEFAULT_255_2_778
10
30.1812573
20
140.6585573
11
30.1905573
21
140.8067573
0
LINE
8
DEFAULT_255_2_778
10
30.1905573
20
140.8067573
11
30.1950573
21
140.8438573
0
LINE
8
DEFAULT_255_2_778
10
30.1950573
20
140.8438573
11
30.2011573
21
140.8805573
0
LINE
8
DEFAULT_255_2_778
10
30.2196573
20
140.9522573
11
30.2326573
21
140.9872573
0
LINE
8
DEFAULT_255_2_778
10
30.2326573
20
140.9872573
11
30.2492573
21
141.0205573
0
LINE
8
DEFAULT_255_2_778
10
30.3328573
20
141.1097573
11
30.3548573
21
141.1210573
0
LINE
8
DEFAULT_255_2_778
10
30.3548573
20
141.1210573
11
30.3781573
21
141.1298573
0
LINE
8
DEFAULT_255_2_778
10
30.3781573
20
141.1298573
11
30.4021573
21
141.1361573
0
LINE
8
DEFAULT_255_2_778
10
30.4021573
20
141.1361573
11
30.4268573
21
141.1403573
0
LINE
8
DEFAULT_255_2_778
10
30.4268573
20
141.1403573
11
30.4760573
21
141.1435573
0
LINE
8
DEFAULT_255_2_778
10
30.4760573
20
141.1435573
11
30.5252573
21
141.1403573
0
LINE
8
DEFAULT_255_2_778
10
30.5252573
20
141.1403573
11
30.5736573
21
141.1295573
0
LINE
8
DEFAULT_255_2_778
10
30.5736573
20
141.1295573
11
30.5969573
21
141.1208573
0
LINE
8
DEFAULT_255_2_778
10
30.5969573
20
141.1208573
11
30.6191573
21
141.1094573
0
LINE
8
DEFAULT_255_2_778
10
30.7302573
20
140.9581573
11
30.7440573
21
140.9131573
0
LINE
8
DEFAULT_255_2_778
10
30.7440573
20
140.9131573
11
30.7538573
21
140.8673573
0
LINE
8
DEFAULT_255_2_778
10
30.7538573
20
140.8673573
11
30.7607573
21
140.8207573
0
LINE
8
DEFAULT_255_2_778
10
30.7607573
20
140.8207573
11
30.7689573
21
140.7268573
0
LINE
8
DEFAULT_255_2_778
10
30.7689573
20
140.7268573
11
30.7710573
21
140.6797573
0
LINE
8
DEFAULT_255_2_778
10
30.7710573
20
140.6797573
11
30.7720573
21
140.6326573
0
LINE
8
DEFAULT_255_2_778
10
30.7720573
20
140.6326573
11
30.7734573
21
140.5384573
0
LINE
8
DEFAULT_255_2_778
10
30.7734573
20
140.5384573
11
30.7736573
21
140.4442573
0
LINE
8
DEFAULT_255_2_778
10
30.7736573
20
140.4442573
11
30.7734573
21
140.3500573
0
LINE
8
DEFAULT_255_2_778
10
30.7734573
20
140.3500573
11
30.7718573
21
140.2558573
0
LINE
8
DEFAULT_255_2_778
10
30.7718573
20
140.2558573
11
30.7704573
21
140.2088573
0
LINE
8
DEFAULT_255_2_778
10
30.7704573
20
140.2088573
11
30.7681573
21
140.1617573
0
LINE
8
DEFAULT_255_2_778
10
30.7681573
20
140.1617573
11
30.7585573
21
140.0677573
0
LINE
8
DEFAULT_255_2_778
10
30.7403573
20
139.9751573
11
30.7263573
21
139.9301573
0
LINE
8
DEFAULT_255_2_778
10
30.7077573
20
139.8870573
11
30.6834573
21
139.8468573
0
LINE
8
DEFAULT_255_2_778
10
30.6834573
20
139.8468573
11
30.6686573
21
139.8280573
0
LINE
8
DEFAULT_255_2_778
10
30.6686573
20
139.8280573
11
30.6524573
21
139.8106573
0
LINE
8
DEFAULT_255_2_778
10
30.6524573
20
139.8106573
11
30.6345573
21
139.7949573
0
LINE
8
DEFAULT_255_2_778
10
30.6345573
20
139.7949573
11
30.6143573
21
139.7817573
0
LINE
8
DEFAULT_255_2_778
10
30.6143573
20
139.7817573
11
30.5707573
21
139.7627573
0
LINE
8
DEFAULT_255_2_778
10
30.5707573
20
139.7627573
11
30.5474573
21
139.7566573
0
LINE
8
DEFAULT_255_2_778
10
30.5474573
20
139.7566573
11
30.5239573
21
139.7526573
0
LINE
8
DEFAULT_255_2_778
10
30.5239573
20
139.7526573
11
30.4765573
21
139.7502573
0
LINE
8
DEFAULT_255_2_778
10
30.8006573
20
139.8233573
11
30.8133573
21
139.8481573
0
LINE
8
DEFAULT_255_2_778
10
30.8133573
20
139.8481573
11
30.8244573
21
139.8738573
0
LINE
8
DEFAULT_255_2_778
10
30.8244573
20
139.8738573
11
30.8429573
21
139.9262573
0
LINE
8
DEFAULT_255_2_778
10
30.8670573
20
140.0344573
11
30.8744573
21
140.0897573
0
LINE
8
DEFAULT_255_2_778
10
30.8744573
20
140.0897573
11
30.8792573
21
140.1450573
0
LINE
8
DEFAULT_255_2_778
10
30.8792573
20
140.1450573
11
30.8818573
21
140.2005573
0
LINE
8
DEFAULT_255_2_778
10
30.8818573
20
140.2005573
11
30.8824573
21
140.2283573
0
LINE
8
DEFAULT_255_2_778
10
30.8824573
20
140.2283573
11
30.8829573
21
140.2561573
0
LINE
8
DEFAULT_255_2_778
10
30.8829573
20
140.2561573
11
30.8842573
21
140.3670573
0
LINE
8
DEFAULT_255_2_778
10
30.8842573
20
140.3670573
11
30.8845573
21
140.4778573
0
LINE
8
DEFAULT_255_2_778
10
30.8845573
20
140.4778573
11
30.8837573
21
140.5890573
0
LINE
8
DEFAULT_255_2_778
10
30.8837573
20
140.5890573
11
30.8829573
21
140.6445573
0
LINE
8
DEFAULT_255_2_778
10
30.8829573
20
140.6445573
11
30.8816573
21
140.7001573
0
LINE
8
DEFAULT_255_2_778
10
30.8816573
20
140.7001573
11
30.8742573
21
140.8107573
0
LINE
8
DEFAULT_255_2_778
10
30.8742573
20
140.8107573
11
30.8673573
21
140.8657573
0
LINE
8
DEFAULT_255_2_778
10
30.8673573
20
140.8657573
11
30.8572573
21
140.9205573
0
LINE
8
DEFAULT_255_2_778
10
30.8014573
20
141.0761573
11
30.7704573
21
141.1224573
0
LINE
8
DEFAULT_255_2_778
10
30.7704573
20
141.1224573
11
30.7331573
21
141.1639573
0
LINE
8
DEFAULT_255_2_778
10
30.7331573
20
141.1639573
11
30.7122573
21
141.1824573
0
LINE
8
DEFAULT_255_2_778
10
30.7122573
20
141.1824573
11
30.6898573
21
141.1988573
0
LINE
8
DEFAULT_255_2_778
10
30.6898573
20
141.1988573
11
30.6411573
21
141.2253573
0
LINE
8
DEFAULT_255_2_778
10
30.6411573
20
141.2253573
11
30.6149573
21
141.2353573
0
LINE
8
DEFAULT_255_2_778
10
30.6149573
20
141.2353573
11
30.5879573
21
141.2433573
0
LINE
8
DEFAULT_255_2_778
10
30.5879573
20
141.2433573
11
30.5329573
21
141.2533573
0
LINE
8
DEFAULT_255_2_778
10
30.5329573
20
141.2533573
11
30.4765573
21
141.2565573
0
LINE
8
DEFAULT_255_2_778
10
30.3654573
20
141.2435573
11
30.3122573
21
141.2253573
0
LINE
8
DEFAULT_255_2_778
10
30.3122573
20
141.2253573
11
30.2630573
21
141.1986573
0
LINE
8
DEFAULT_255_2_778
10
30.2630573
20
141.1986573
11
30.2402573
21
141.1819573
0
LINE
8
DEFAULT_255_2_778
10
30.2402573
20
141.1819573
11
30.2191573
21
141.1634573
0
LINE
8
DEFAULT_255_2_778
10
30.2191573
20
141.1634573
11
30.1818573
21
141.1218573
0
LINE
8
DEFAULT_255_2_778
10
30.1818573
20
141.1218573
11
30.1653573
21
141.0988573
0
LINE
8
DEFAULT_255_2_778
10
30.1653573
20
141.0988573
11
30.1508573
21
141.0750573
0
LINE
8
DEFAULT_255_2_778
10
30.1508573
20
141.0750573
11
30.1381573
21
141.0504573
0
LINE
8
DEFAULT_255_2_778
10
30.1381573
20
141.0504573
11
30.1270573
21
141.0250573
0
LINE
8
DEFAULT_255_2_778
10
30.1270573
20
141.0250573
11
30.1087573
21
140.9723573
0
LINE
8
DEFAULT_255_2_778
10
30.1087573
20
140.9723573
11
30.0944573
21
140.9186573
0
LINE
8
DEFAULT_255_2_778
10
30.0764573
20
140.8096573
11
30.0685573
21
140.6993573
0
LINE
8
DEFAULT_255_2_778
10
30.0685573
20
140.6993573
11
30.0672573
21
140.6437573
0
LINE
8
DEFAULT_255_2_778
10
30.0672573
20
140.6437573
11
30.0664573
21
140.5882573
0
LINE
8
DEFAULT_255_2_778
10
30.0664573
20
140.5882573
11
30.0656573
21
140.4770573
0
LINE
8
DEFAULT_255_2_778
10
30.0656573
20
140.4770573
11
30.0659573
21
140.3659573
0
LINE
8
DEFAULT_255_2_778
10
30.0659573
20
140.3659573
11
30.0672573
21
140.2548573
0
LINE
8
DEFAULT_255_2_778
10
30.0672573
20
140.2548573
11
30.0685573
21
140.1992573
0
LINE
8
DEFAULT_255_2_778
10
30.0685573
20
140.1992573
11
30.0712573
21
140.1439573
0
LINE
8
DEFAULT_255_2_778
10
30.0712573
20
140.1439573
11
30.0831573
21
140.0339573
0
LINE
8
DEFAULT_255_2_778
10
30.1071573
20
139.9254573
11
30.1251573
21
139.8730573
0
LINE
8
DEFAULT_255_2_778
10
30.1251573
20
139.8730573
11
30.1360573
21
139.8476573
0
LINE
8
DEFAULT_255_2_778
10
30.1360573
20
139.8476573
11
30.1487573
21
139.8227573
0
LINE
8
DEFAULT_255_2_778
10
30.2714573
20
139.6902573
11
30.3024573
21
139.6730573
0
LINE
8
DEFAULT_255_2_778
10
30.3024573
20
139.6730573
11
30.3352573
21
139.6592573
0
LINE
8
DEFAULT_255_2_778
10
30.3352573
20
139.6592573
11
30.4040573
21
139.6423573
0
LINE
8
DEFAULT_255_2_778
10
30.4040573
20
139.6423573
11
30.4746573
21
139.6370573
0
LINE
8
DEFAULT_255_2_778
10
30.4746573
20
139.6370573
11
30.5453573
21
139.6417573
0
LINE
8
DEFAULT_255_2_778
10
30.5453573
20
139.6417573
11
30.5802573
21
139.6486573
0
LINE
8
DEFAULT_255_2_778
10
30.5802573
20
139.6486573
11
30.6143573
21
139.6587573
0
LINE
8
DEFAULT_255_2_778
10
30.6143573
20
139.6587573
11
30.6472573
21
139.6722573
0
LINE
8
DEFAULT_255_2_778
10
30.6472573
20
139.6722573
11
30.6784573
21
139.6896573
0
LINE
8
DEFAULT_255_2_778
10
30.7337573
20
139.7344573
11
30.7337573
21
139.7346573
0
ARC
8
DEFAULT_255_2_778
10
31.4650388
20
140.0858563
40
0.3356196
50
270.0031713
51
270.6348143
0
ARC
8
DEFAULT_255_2_778
10
31.4652493
20
140.0897986
40
0.3395619
50
256.9121518
51
269.9676262
0
ARC
8
DEFAULT_255_2_778
10
31.5008896
20
140.0179644
40
0.2956029
50
199.1575558
51
214.8005979
0
ARC
8
DEFAULT_255_2_778
10
31.7578492
20
140.1190101
40
0.5716001
50
192.8016076
51
200.2726773
0
ARC
8
DEFAULT_255_2_778
10
32.595321
20
140.2606572
40
1.4215708
50
181.9309506
51
187.9045887
0
ARC
8
DEFAULT_255_2_778
10
31.7548039
20
140.7739297
40
0.571482
50
161.8175441
51
169.2466917
0
ARC
8
DEFAULT_255_2_778
10
31.4899184
20
140.8766833
40
0.2871109
50
135.1251838
51
149.9265676
0
ARC
8
DEFAULT_255_2_778
10
31.4243199
20
140.9444575
40
0.1928136
50
120.9848386
51
135.643576
0
ARC
8
DEFAULT_255_2_778
10
31.507632
20
140.9352322
40
0.2027642
50
45.1797965
51
59.2324606
0
ARC
8
DEFAULT_255_2_778
10
31.4192131
20
140.8610405
40
0.3178859
50
26.2740105
51
43.3011823
0
ARC
8
DEFAULT_255_2_778
10
31.3650169
20
140.8345491
40
0.3782097
50
19.076138
51
26.2382201
0
ARC
8
DEFAULT_255_2_778
10
31.0071166
20
140.165827
40
0.7500795
50
345.2738507
51
352.4873097
0
ARC
8
DEFAULT_255_2_778
10
31.3824658
20
140.0496341
40
0.3566962
50
332.8845242
51
340.43026
0
ARC
8
DEFAULT_255_2_778
10
31.4425898
20
140.0179598
40
0.4006962
50
315.0065631
51
330.9442057
0
ARC
8
DEFAULT_255_2_778
10
31.1311178
20
140.139856
40
0.7357283
50
343.1227176
51
351.7636046
0
ARC
8
DEFAULT_255_2_778
10
31.2066989
20
140.7849382
40
0.6569101
50
11.9143908
51
21.5338195
0
ARC
8
DEFAULT_255_2_778
10
31.435669
20
140.8731048
40
0.4115652
50
21.8165503
51
29.5620876
0
ARC
8
DEFAULT_255_2_778
10
31.4645712
20
140.8110938
40
0.4454832
50
89.4615933
51
103.8862639
0
ARC
8
DEFAULT_255_2_778
10
32.0984248
20
140.6955894
40
1.036066
50
167.566709
51
173.6790853
0
ARC
8
DEFAULT_255_2_778
10
31.9025921
20
140.1600358
40
0.8367874
50
188.6657368
51
196.2800341
0
ARC
8
DEFAULT_255_2_778
10
31.4594547
20
139.998296
40
0.363668
50
208.8612134
51
226.4641733
0
ARC
8
DEFAULT_255_2_778
10
31.4258914
20
139.9460214
40
0.3028781
50
224.2549177
51
237.6125813
0
ARC
8
DEFAULT_255_2_778
10
31.5022649
20
139.9540471
40
0.3134613
50
302.4934486
51
315.5302547
0
LINE
8
DEFAULT_255_2_778
10
31.3883573
20
139.7590573
11
31.3496573
21
139.7717573
0
LINE
8
DEFAULT_255_2_778
10
31.3496573
20
139.7717573
11
31.3142573
21
139.7912573
0
LINE
8
DEFAULT_255_2_778
10
31.3142573
20
139.7912573
11
31.2980573
21
139.8037573
0
LINE
8
DEFAULT_255_2_778
10
31.2980573
20
139.8037573
11
31.2835573
21
139.8177573
0
LINE
8
DEFAULT_255_2_778
10
31.2835573
20
139.8177573
11
31.2581573
21
139.8492573
0
LINE
8
DEFAULT_255_2_778
10
31.2004573
20
139.9923573
11
31.1872573
21
140.0651573
0
LINE
8
DEFAULT_255_2_778
10
31.1745573
20
140.2127573
11
31.1734573
21
140.2498573
0
LINE
8
DEFAULT_255_2_778
10
31.1734573
20
140.2498573
11
31.1726573
21
140.2868573
0
LINE
8
DEFAULT_255_2_778
10
31.1726573
20
140.2868573
11
31.1716573
21
140.3612573
0
LINE
8
DEFAULT_255_2_778
10
31.1716573
20
140.3612573
11
31.1713573
21
140.4355573
0
LINE
8
DEFAULT_255_2_778
10
31.1713573
20
140.4355573
11
31.1713573
21
140.5098573
0
LINE
8
DEFAULT_255_2_778
10
31.1713573
20
140.5098573
11
31.1734573
21
140.6585573
0
LINE
8
DEFAULT_255_2_778
10
31.1734573
20
140.6585573
11
31.1827573
21
140.8067573
0
LINE
8
DEFAULT_255_2_778
10
31.1827573
20
140.8067573
11
31.1872573
21
140.8438573
0
LINE
8
DEFAULT_255_2_778
10
31.1872573
20
140.8438573
11
31.1933573
21
140.8805573
0
LINE
8
DEFAULT_255_2_778
10
31.2118573
20
140.9522573
11
31.2248573
21
140.9872573
0
LINE
8
DEFAULT_255_2_778
10
31.2248573
20
140.9872573
11
31.2414573
21
141.0205573
0
LINE
8
DEFAULT_255_2_778
10
31.3250573
20
141.1097573
11
31.3470573
21
141.1210573
0
LINE
8
DEFAULT_255_2_778
10
31.3470573
20
141.1210573
11
31.3703573
21
141.1298573
0
LINE
8
DEFAULT_255_2_778
10
31.3703573
20
141.1298573
11
31.3943573
21
141.1361573
0
LINE
8
DEFAULT_255_2_778
10
31.3943573
20
141.1361573
11
31.4190573
21
141.1403573
0
LINE
8
DEFAULT_255_2_778
10
31.4190573
20
141.1403573
11
31.4682573
21
141.1435573
0
LINE
8
DEFAULT_255_2_778
10
31.4682573
20
141.1435573
11
31.5174573
21
141.1403573
0
LINE
8
DEFAULT_255_2_778
10
31.5174573
20
141.1403573
11
31.5658573
21
141.1295573
0
LINE
8
DEFAULT_255_2_778
10
31.5658573
20
141.1295573
11
31.5891573
21
141.1208573
0
LINE
8
DEFAULT_255_2_778
10
31.5891573
20
141.1208573
11
31.6113573
21
141.1094573
0
LINE
8
DEFAULT_255_2_778
10
31.7224573
20
140.9581573
11
31.7362573
21
140.9131573
0
LINE
8
DEFAULT_255_2_778
10
31.7362573
20
140.9131573
11
31.7460573
21
140.8673573
0
LINE
8
DEFAULT_255_2_778
10
31.7460573
20
140.8673573
11
31.7529573
21
140.8207573
0
LINE
8
DEFAULT_255_2_778
10
31.7529573
20
140.8207573
11
31.7611573
21
140.7268573
0
LINE
8
DEFAULT_255_2_778
10
31.7611573
20
140.7268573
11
31.7632573
21
140.6797573
0
LINE
8
DEFAULT_255_2_778
10
31.7632573
20
140.6797573
11
31.7642573
21
140.6326573
0
LINE
8
DEFAULT_255_2_778
10
31.7642573
20
140.6326573
11
31.7656573
21
140.5384573
0
LINE
8
DEFAULT_255_2_778
10
31.7656573
20
140.5384573
11
31.7658573
21
140.4442573
0
LINE
8
DEFAULT_255_2_778
10
31.7658573
20
140.4442573
11
31.7656573
21
140.3500573
0
LINE
8
DEFAULT_255_2_778
10
31.7656573
20
140.3500573
11
31.7640573
21
140.2558573
0
LINE
8
DEFAULT_255_2_778
10
31.7640573
20
140.2558573
11
31.7626573
21
140.2088573
0
LINE
8
DEFAULT_255_2_778
10
31.7626573
20
140.2088573
11
31.7603573
21
140.1617573
0
LINE
8
DEFAULT_255_2_778
10
31.7603573
20
140.1617573
11
31.7507573
21
140.0677573
0
LINE
8
DEFAULT_255_2_778
10
31.7325573
20
139.9751573
11
31.7185573
21
139.9301573
0
LINE
8
DEFAULT_255_2_778
10
31.6999573
20
139.8870573
11
31.6756573
21
139.8468573
0
LINE
8
DEFAULT_255_2_778
10
31.6756573
20
139.8468573
11
31.6608573
21
139.8280573
0
LINE
8
DEFAULT_255_2_778
10
31.6608573
20
139.8280573
11
31.6446573
21
139.8106573
0
LINE
8
DEFAULT_255_2_778
10
31.6446573
20
139.8106573
11
31.6267573
21
139.7949573
0
LINE
8
DEFAULT_255_2_778
10
31.6267573
20
139.7949573
11
31.6065573
21
139.7817573
0
LINE
8
DEFAULT_255_2_778
10
31.6065573
20
139.7817573
11
31.5629573
21
139.7627573
0
LINE
8
DEFAULT_255_2_778
10
31.5629573
20
139.7627573
11
31.5396573
21
139.7566573
0
LINE
8
DEFAULT_255_2_778
10
31.5396573
20
139.7566573
11
31.5161573
21
139.7526573
0
LINE
8
DEFAULT_255_2_778
10
31.5161573
20
139.7526573
11
31.4687573
21
139.7502573
0
LINE
8
DEFAULT_255_2_778
10
31.7928573
20
139.8233573
11
31.8055573
21
139.8481573
0
LINE
8
DEFAULT_255_2_778
10
31.8055573
20
139.8481573
11
31.8166573
21
139.8738573
0
LINE
8
DEFAULT_255_2_778
10
31.8166573
20
139.8738573
11
31.8351573
21
139.9262573
0
LINE
8
DEFAULT_255_2_778
10
31.8592573
20
140.0344573
11
31.8666573
21
140.0897573
0
LINE
8
DEFAULT_255_2_778
10
31.8666573
20
140.0897573
11
31.8714573
21
140.1450573
0
LINE
8
DEFAULT_255_2_778
10
31.8714573
20
140.1450573
11
31.8740573
21
140.2005573
0
LINE
8
DEFAULT_255_2_778
10
31.8740573
20
140.2005573
11
31.8746573
21
140.2283573
0
LINE
8
DEFAULT_255_2_778
10
31.8746573
20
140.2283573
11
31.8751573
21
140.2561573
0
LINE
8
DEFAULT_255_2_778
10
31.8751573
20
140.2561573
11
31.8764573
21
140.3670573
0
LINE
8
DEFAULT_255_2_778
10
31.8764573
20
140.3670573
11
31.8767573
21
140.4778573
0
LINE
8
DEFAULT_255_2_778
10
31.8767573
20
140.4778573
11
31.8759573
21
140.5890573
0
LINE
8
DEFAULT_255_2_778
10
31.8759573
20
140.5890573
11
31.8751573
21
140.6445573
0
LINE
8
DEFAULT_255_2_778
10
31.8751573
20
140.6445573
11
31.8738573
21
140.7001573
0
LINE
8
DEFAULT_255_2_778
10
31.8738573
20
140.7001573
11
31.8664573
21
140.8107573
0
LINE
8
DEFAULT_255_2_778
10
31.8664573
20
140.8107573
11
31.8595573
21
140.8657573
0
LINE
8
DEFAULT_255_2_778
10
31.8595573
20
140.8657573
11
31.8494573
21
140.9205573
0
LINE
8
DEFAULT_255_2_778
10
31.7936573
20
141.0761573
11
31.7626573
21
141.1224573
0
LINE
8
DEFAULT_255_2_778
10
31.7626573
20
141.1224573
11
31.7253573
21
141.1639573
0
LINE
8
DEFAULT_255_2_778
10
31.7253573
20
141.1639573
11
31.7044573
21
141.1824573
0
LINE
8
DEFAULT_255_2_778
10
31.7044573
20
141.1824573
11
31.6820573
21
141.1988573
0
LINE
8
DEFAULT_255_2_778
10
31.6820573
20
141.1988573
11
31.6333573
21
141.2253573
0
LINE
8
DEFAULT_255_2_778
10
31.6333573
20
141.2253573
11
31.6071573
21
141.2353573
0
LINE
8
DEFAULT_255_2_778
10
31.6071573
20
141.2353573
11
31.5801573
21
141.2433573
0
LINE
8
DEFAULT_255_2_778
10
31.5801573
20
141.2433573
11
31.5251573
21
141.2533573
0
LINE
8
DEFAULT_255_2_778
10
31.5251573
20
141.2533573
11
31.4687573
21
141.2565573
0
LINE
8
DEFAULT_255_2_778
10
31.3576573
20
141.2435573
11
31.3044573
21
141.2253573
0
LINE
8
DEFAULT_255_2_778
10
31.3044573
20
141.2253573
11
31.2552573
21
141.1986573
0
LINE
8
DEFAULT_255_2_778
10
31.2552573
20
141.1986573
11
31.2324573
21
141.1819573
0
LINE
8
DEFAULT_255_2_778
10
31.2324573
20
141.1819573
11
31.2113573
21
141.1634573
0
LINE
8
DEFAULT_255_2_778
10
31.2113573
20
141.1634573
11
31.1740573
21
141.1218573
0
LINE
8
DEFAULT_255_2_778
10
31.1740573
20
141.1218573
11
31.1575573
21
141.0988573
0
LINE
8
DEFAULT_255_2_778
10
31.1575573
20
141.0988573
11
31.1430573
21
141.0750573
0
LINE
8
DEFAULT_255_2_778
10
31.1430573
20
141.0750573
11
31.1303573
21
141.0504573
0
LINE
8
DEFAULT_255_2_778
10
31.1303573
20
141.0504573
11
31.1192573
21
141.0250573
0
LINE
8
DEFAULT_255_2_778
10
31.1192573
20
141.0250573
11
31.1009573
21
140.9723573
0
LINE
8
DEFAULT_255_2_778
10
31.1009573
20
140.9723573
11
31.0866573
21
140.9186573
0
LINE
8
DEFAULT_255_2_778
10
31.0686573
20
140.8096573
11
31.0607573
21
140.6993573
0
LINE
8
DEFAULT_255_2_778
10
31.0607573
20
140.6993573
11
31.0594573
21
140.6437573
0
LINE
8
DEFAULT_255_2_778
10
31.0594573
20
140.6437573
11
31.0586573
21
140.5882573
0
LINE
8
DEFAULT_255_2_778
10
31.0586573
20
140.5882573
11
31.0578573
21
140.4770573
0
LINE
8
DEFAULT_255_2_778
10
31.0578573
20
140.4770573
11
31.0581573
21
140.3659573
0
LINE
8
DEFAULT_255_2_778
10
31.0581573
20
140.3659573
11
31.0594573
21
140.2548573
0
LINE
8
DEFAULT_255_2_778
10
31.0594573
20
140.2548573
11
31.0607573
21
140.1992573
0
LINE
8
DEFAULT_255_2_778
10
31.0607573
20
140.1992573
11
31.0634573
21
140.1439573
0
LINE
8
DEFAULT_255_2_778
10
31.0634573
20
140.1439573
11
31.0753573
21
140.0339573
0
LINE
8
DEFAULT_255_2_778
10
31.0993573
20
139.9254573
11
31.1173573
21
139.8730573
0
LINE
8
DEFAULT_255_2_778
10
31.1173573
20
139.8730573
11
31.1282573
21
139.8476573
0
LINE
8
DEFAULT_255_2_778
10
31.1282573
20
139.8476573
11
31.1409573
21
139.8227573
0
LINE
8
DEFAULT_255_2_778
10
31.2636573
20
139.6902573
11
31.2946573
21
139.6730573
0
LINE
8
DEFAULT_255_2_778
10
31.2946573
20
139.6730573
11
31.3274573
21
139.6592573
0
LINE
8
DEFAULT_255_2_778
10
31.3274573
20
139.6592573
11
31.3962573
21
139.6423573
0
LINE
8
DEFAULT_255_2_778
10
31.3962573
20
139.6423573
11
31.4668573
21
139.6370573
0
LINE
8
DEFAULT_255_2_778
10
31.4668573
20
139.6370573
11
31.5375573
21
139.6417573
0
LINE
8
DEFAULT_255_2_778
10
31.5375573
20
139.6417573
11
31.5724573
21
139.6486573
0
LINE
8
DEFAULT_255_2_778
10
31.5724573
20
139.6486573
11
31.6065573
21
139.6587573
0
LINE
8
DEFAULT_255_2_778
10
31.6065573
20
139.6587573
11
31.6394573
21
139.6722573
0
LINE
8
DEFAULT_255_2_778
10
31.6394573
20
139.6722573
11
31.6706573
21
139.6896573
0
LINE
8
DEFAULT_255_2_778
10
31.7259573
20
139.7344573
11
31.7259573
21
139.7346573
0
ARC
8
DEFAULT_255_2_778
10
33.1517388
20
140.0528563
40
0.3356196
50
270.0031713
51
270.6348143
0
ARC
8
DEFAULT_255_2_778
10
33.1519493
20
140.0567986
40
0.3395619
50
256.9121518
51
269.9676262
0
ARC
8
DEFAULT_255_2_778
10
33.1875896
20
139.9849644
40
0.2956029
50
199.1575558
51
214.8005979
0
ARC
8
DEFAULT_255_2_778
10
33.4445492
20
140.0860101
40
0.5716001
50
192.8016076
51
200.2726773
0
ARC
8
DEFAULT_255_2_778
10
34.282021
20
140.2276572
40
1.4215708
50
181.9309506
51
187.9045887
0
ARC
8
DEFAULT_255_2_778
10
33.4415039
20
140.7409297
40
0.571482
50
161.8175441
51
169.2466917
0
ARC
8
DEFAULT_255_2_778
10
33.1766184
20
140.8436833
40
0.2871109
50
135.1251838
51
149.9265676
0
ARC
8
DEFAULT_255_2_778
10
33.1110199
20
140.9114575
40
0.1928136
50
120.9848386
51
135.643576
0
ARC
8
DEFAULT_255_2_778
10
33.194332
20
140.9022322
40
0.2027642
50
45.1797965
51
59.2324606
0
ARC
8
DEFAULT_255_2_778
10
33.1059131
20
140.8280405
40
0.3178859
50
26.2740105
51
43.3011823
0
ARC
8
DEFAULT_255_2_778
10
33.0517169
20
140.8015491
40
0.3782097
50
19.076138
51
26.2382201
0
ARC
8
DEFAULT_255_2_778
10
32.6938166
20
140.132827
40
0.7500795
50
345.2738507
51
352.4873097
0
ARC
8
DEFAULT_255_2_778
10
33.0691658
20
140.0166341
40
0.3566962
50
332.8845242
51
340.43026
0
ARC
8
DEFAULT_255_2_778
10
33.1292898
20
139.9849598
40
0.4006962
50
315.0065631
51
330.9442057
0
ARC
8
DEFAULT_255_2_778
10
32.8178178
20
140.106856
40
0.7357283
50
343.1227176
51
351.7636046
0
ARC
8
DEFAULT_255_2_778
10
32.8933989
20
140.7519382
40
0.6569101
50
11.9143908
51
21.5338195
0
ARC
8
DEFAULT_255_2_778
10
33.122369
20
140.8401048
40
0.4115652
50
21.8165503
51
29.5620876
0
ARC
8
DEFAULT_255_2_778
10
33.1512712
20
140.7780938
40
0.4454832
50
89.4615933
51
103.8862639
0
ARC
8
DEFAULT_255_2_778
10
33.7851248
20
140.6625894
40
1.036066
50
167.566709
51
173.6790853
0
ARC
8
DEFAULT_255_2_778
10
33.5892921
20
140.1270358
40
0.8367874
50
188.6657368
51
196.2800341
0
ARC
8
DEFAULT_255_2_778
10
33.1461547
20
139.965296
40
0.363668
50
208.8612134
51
226.4641733
0
ARC
8
DEFAULT_255_2_778
10
33.1125914
20
139.9130214
40
0.3028781
50
224.2549177
51
237.6125813
0
ARC
8
DEFAULT_255_2_778
10
33.1889649
20
139.9210471
40
0.3134613
50
302.4934486
51
315.5302547
0
LINE
8
DEFAULT_255_2_778
10
33.0750573
20
139.7260573
11
33.0363573
21
139.7387573
0
LINE
8
DEFAULT_255_2_778
10
33.0363573
20
139.7387573
11
33.0009573
21
139.7582573
0
LINE
8
DEFAULT_255_2_778
10
33.0009573
20
139.7582573
11
32.9847573
21
139.7707573
0
LINE
8
DEFAULT_255_2_778
10
32.9847573
20
139.7707573
11
32.9702573
21
139.7847573
0
LINE
8
DEFAULT_255_2_778
10
32.9702573
20
139.7847573
11
32.9448573
21
139.8162573
0
LINE
8
DEFAULT_255_2_778
10
32.8871573
20
139.9593573
11
32.8739573
21
140.0321573
0
LINE
8
DEFAULT_255_2_778
10
32.8612573
20
140.1797573
11
32.8601573
21
140.2168573
0
LINE
8
DEFAULT_255_2_778
10
32.8601573
20
140.2168573
11
32.8593573
21
140.2538573
0
LINE
8
DEFAULT_255_2_778
10
32.8593573
20
140.2538573
11
32.8583573
21
140.3282573
0
LINE
8
DEFAULT_255_2_778
10
32.8583573
20
140.3282573
11
32.8580573
21
140.4025573
0
LINE
8
DEFAULT_255_2_778
10
32.8580573
20
140.4025573
11
32.8580573
21
140.4768573
0
LINE
8
DEFAULT_255_2_778
10
32.8580573
20
140.4768573
11
32.8601573
21
140.6255573
0
LINE
8
DEFAULT_255_2_778
10
32.8601573
20
140.6255573
11
32.8694573
21
140.7737573
0
LINE
8
DEFAULT_255_2_778
10
32.8694573
20
140.7737573
11
32.8739573
21
140.8108573
0
LINE
8
DEFAULT_255_2_778
10
32.8739573
20
140.8108573
11
32.8800573
21
140.8475573
0
LINE
8
DEFAULT_255_2_778
10
32.8985573
20
140.9192573
11
32.9115573
21
140.9542573
0
LINE
8
DEFAULT_255_2_778
10
32.9115573
20
140.9542573
11
32.9281573
21
140.9875573
0
LINE
8
DEFAULT_255_2_778
10
33.0117573
20
141.0767573
11
33.0337573
21
141.0880573
0
LINE
8
DEFAULT_255_2_778
10
33.0337573
20
141.0880573
11
33.0570573
21
141.0968573
0
LINE
8
DEFAULT_255_2_778
10
33.0570573
20
141.0968573
11
33.0810573
21
141.1031573
0
LINE
8
DEFAULT_255_2_778
10
33.0810573
20
141.1031573
11
33.1057573
21
141.1073573
0
LINE
8
DEFAULT_255_2_778
10
33.1057573
20
141.1073573
11
33.1549573
21
141.1105573
0
LINE
8
DEFAULT_255_2_778
10
33.1549573
20
141.1105573
11
33.2041573
21
141.1073573
0
LINE
8
DEFAULT_255_2_778
10
33.2041573
20
141.1073573
11
33.2525573
21
141.0965573
0
LINE
8
DEFAULT_255_2_778
10
33.2525573
20
141.0965573
11
33.2758573
21
141.0878573
0
LINE
8
DEFAULT_255_2_778
10
33.2758573
20
141.0878573
11
33.2980573
21
141.0764573
0
LINE
8
DEFAULT_255_2_778
10
33.4091573
20
140.9251573
11
33.4229573
21
140.8801573
0
LINE
8
DEFAULT_255_2_778
10
33.4229573
20
140.8801573
11
33.4327573
21
140.8343573
0
LINE
8
DEFAULT_255_2_778
10
33.4327573
20
140.8343573
11
33.4396573
21
140.7877573
0
LINE
8
DEFAULT_255_2_778
10
33.4396573
20
140.7877573
11
33.4478573
21
140.6938573
0
LINE
8
DEFAULT_255_2_778
10
33.4478573
20
140.6938573
11
33.4499573
21
140.6467573
0
LINE
8
DEFAULT_255_2_778
10
33.4499573
20
140.6467573
11
33.4509573
21
140.5996573
0
LINE
8
DEFAULT_255_2_778
10
33.4509573
20
140.5996573
11
33.4523573
21
140.5054573
0
LINE
8
DEFAULT_255_2_778
10
33.4523573
20
140.5054573
11
33.4525573
21
140.4112573
0
LINE
8
DEFAULT_255_2_778
10
33.4525573
20
140.4112573
11
33.4523573
21
140.3170573
0
LINE
8
DEFAULT_255_2_778
10
33.4523573
20
140.3170573
11
33.4507573
21
140.2228573
0
LINE
8
DEFAULT_255_2_778
10
33.4507573
20
140.2228573
11
33.4493573
21
140.1758573
0
LINE
8
DEFAULT_255_2_778
10
33.4493573
20
140.1758573
11
33.4470573
21
140.1287573
0
LINE
8
DEFAULT_255_2_778
10
33.4470573
20
140.1287573
11
33.4374573
21
140.0347573
0
LINE
8
DEFAULT_255_2_778
10
33.4192573
20
139.9421573
11
33.4052573
21
139.8971573
0
LINE
8
DEFAULT_255_2_778
10
33.3866573
20
139.8540573
11
33.3623573
21
139.8138573
0
LINE
8
DEFAULT_255_2_778
10
33.3623573
20
139.8138573
11
33.3475573
21
139.7950573
0
LINE
8
DEFAULT_255_2_778
10
33.3475573
20
139.7950573
11
33.3313573
21
139.7776573
0
LINE
8
DEFAULT_255_2_778
10
33.3313573
20
139.7776573
11
33.3134573
21
139.7619573
0
LINE
8
DEFAULT_255_2_778
10
33.3134573
20
139.7619573
11
33.2932573
21
139.7487573
0
LINE
8
DEFAULT_255_2_778
10
33.2932573
20
139.7487573
11
33.2496573
21
139.7297573
0
LINE
8
DEFAULT_255_2_778
10
33.2496573
20
139.7297573
11
33.2263573
21
139.7236573
0
LINE
8
DEFAULT_255_2_778
10
33.2263573
20
139.7236573
11
33.2028573
21
139.7196573
0
LINE
8
DEFAULT_255_2_778
10
33.2028573
20
139.7196573
11
33.1554573
21
139.7172573
0
LINE
8
DEFAULT_255_2_778
10
33.4795573
20
139.7903573
11
33.4922573
21
139.8151573
0
LINE
8
DEFAULT_255_2_778
10
33.4922573
20
139.8151573
11
33.5033573
21
139.8408573
0
LINE
8
DEFAULT_255_2_778
10
33.5033573
20
139.8408573
11
33.5218573
21
139.8932573
0
LINE
8
DEFAULT_255_2_778
10
33.5459573
20
140.0014573
11
33.5533573
21
140.0567573
0
LINE
8
DEFAULT_255_2_778
10
33.5533573
20
140.0567573
11
33.5581573
21
140.1120573
0
LINE
8
DEFAULT_255_2_778
10
33.5581573
20
140.1120573
11
33.5607573
21
140.1675573
0
LINE
8
DEFAULT_255_2_778
10
33.5607573
20
140.1675573
11
33.5613573
21
140.1953573
0
LINE
8
DEFAULT_255_2_778
10
33.5613573
20
140.1953573
11
33.5618573
21
140.2231573
0
LINE
8
DEFAULT_255_2_778
10
33.5618573
20
140.2231573
11
33.5631573
21
140.3340573
0
LINE
8
DEFAULT_255_2_778
10
33.5631573
20
140.3340573
11
33.5634573
21
140.4448573
0
LINE
8
DEFAULT_255_2_778
10
33.5634573
20
140.4448573
11
33.5626573
21
140.5560573
0
LINE
8
DEFAULT_255_2_778
10
33.5626573
20
140.5560573
11
33.5618573
21
140.6115573
0
LINE
8
DEFAULT_255_2_778
10
33.5618573
20
140.6115573
11
33.5605573
21
140.6671573
0
LINE
8
DEFAULT_255_2_778
10
33.5605573
20
140.6671573
11
33.5531573
21
140.7777573
0
LINE
8
DEFAULT_255_2_778
10
33.5531573
20
140.7777573
11
33.5462573
21
140.8327573
0
LINE
8
DEFAULT_255_2_778
10
33.5462573
20
140.8327573
11
33.5361573
21
140.8875573
0
LINE
8
DEFAULT_255_2_778
10
33.4803573
20
141.0431573
11
33.4493573
21
141.0894573
0
LINE
8
DEFAULT_255_2_778
10
33.4493573
20
141.0894573
11
33.4120573
21
141.1309573
0
LINE
8
DEFAULT_255_2_778
10
33.4120573
20
141.1309573
11
33.3911573
21
141.1494573
0
LINE
8
DEFAULT_255_2_778
10
33.3911573
20
141.1494573
11
33.3687573
21
141.1658573
0
LINE
8
DEFAULT_255_2_778
10
33.3687573
20
141.1658573
11
33.3200573
21
141.1923573
0
LINE
8
DEFAULT_255_2_778
10
33.3200573
20
141.1923573
11
33.2938573
21
141.2023573
0
LINE
8
DEFAULT_255_2_778
10
33.2938573
20
141.2023573
11
33.2668573
21
141.2103573
0
LINE
8
DEFAULT_255_2_778
10
33.2668573
20
141.2103573
11
33.2118573
21
141.2203573
0
LINE
8
DEFAULT_255_2_778
10
33.2118573
20
141.2203573
11
33.1554573
21
141.2235573
0
LINE
8
DEFAULT_255_2_778
10
33.0443573
20
141.2105573
11
32.9911573
21
141.1923573
0
LINE
8
DEFAULT_255_2_778
10
32.9911573
20
141.1923573
11
32.9419573
21
141.1656573
0
LINE
8
DEFAULT_255_2_778
10
32.9419573
20
141.1656573
11
32.9191573
21
141.1489573
0
LINE
8
DEFAULT_255_2_778
10
32.9191573
20
141.1489573
11
32.8980573
21
141.1304573
0
LINE
8
DEFAULT_255_2_778
10
32.8980573
20
141.1304573
11
32.8607573
21
141.0888573
0
LINE
8
DEFAULT_255_2_778
10
32.8607573
20
141.0888573
11
32.8442573
21
141.0658573
0
LINE
8
DEFAULT_255_2_778
10
32.8442573
20
141.0658573
11
32.8297573
21
141.0420573
0
LINE
8
DEFAULT_255_2_778
10
32.8297573
20
141.0420573
11
32.8170573
21
141.0174573
0
LINE
8
DEFAULT_255_2_778
10
32.8170573
20
141.0174573
11
32.8059573
21
140.9920573
0
LINE
8
DEFAULT_255_2_778
10
32.8059573
20
140.9920573
11
32.7876573
21
140.9393573
0
LINE
8
DEFAULT_255_2_778
10
32.7876573
20
140.9393573
11
32.7733573
21
140.8856573
0
LINE
8
DEFAULT_255_2_778
10
32.7553573
20
140.7766573
11
32.7474573
21
140.6663573
0
LINE
8
DEFAULT_255_2_778
10
32.7474573
20
140.6663573
11
32.7461573
21
140.6107573
0
LINE
8
DEFAULT_255_2_778
10
32.7461573
20
140.6107573
11
32.7453573
21
140.5552573
0
LINE
8
DEFAULT_255_2_778
10
32.7453573
20
140.5552573
11
32.7445573
21
140.4440573
0
LINE
8
DEFAULT_255_2_778
10
32.7445573
20
140.4440573
11
32.7448573
21
140.3329573
0
LINE
8
DEFAULT_255_2_778
10
32.7448573
20
140.3329573
11
32.7461573
21
140.2218573
0
LINE
8
DEFAULT_255_2_778
10
32.7461573
20
140.2218573
11
32.7474573
21
140.1662573
0
LINE
8
DEFAULT_255_2_778
10
32.7474573
20
140.1662573
11
32.7501573
21
140.1109573
0
LINE
8
DEFAULT_255_2_778
10
32.7501573
20
140.1109573
11
32.7620573
21
140.0009573
0
LINE
8
DEFAULT_255_2_778
10
32.7860573
20
139.8924573
11
32.8040573
21
139.8400573
0
LINE
8
DEFAULT_255_2_778
10
32.8040573
20
139.8400573
11
32.8149573
21
139.8146573
0
LINE
8
DEFAULT_255_2_778
10
32.8149573
20
139.8146573
11
32.8276573
21
139.7897573
0
LINE
8
DEFAULT_255_2_778
10
32.9503573
20
139.6572573
11
32.9813573
21
139.6400573
0
LINE
8
DEFAULT_255_2_778
10
32.9813573
20
139.6400573
11
33.0141573
21
139.6262573
0
LINE
8
DEFAULT_255_2_778
10
33.0141573
20
139.6262573
11
33.0829573
21
139.6093573
0
LINE
8
DEFAULT_255_2_778
10
33.0829573
20
139.6093573
11
33.1535573
21
139.6040573
0
LINE
8
DEFAULT_255_2_778
10
33.1535573
20
139.6040573
11
33.2242573
21
139.6087573
0
LINE
8
DEFAULT_255_2_778
10
33.2242573
20
139.6087573
11
33.2591573
21
139.6156573
0
LINE
8
DEFAULT_255_2_778
10
33.2591573
20
139.6156573
11
33.2932573
21
139.6257573
0
LINE
8
DEFAULT_255_2_778
10
33.2932573
20
139.6257573
11
33.3261573
21
139.6392573
0
LINE
8
DEFAULT_255_2_778
10
33.3261573
20
139.6392573
11
33.3573573
21
139.6566573
0
LINE
8
DEFAULT_255_2_778
10
33.4126573
20
139.7014573
11
33.4126573
21
139.7016573
0
LINE
8
DEFAULT_255_2_778
10
34.2989875
20
141.0599812
11
33.9849875
21
140.1265812
0
LINE
8
DEFAULT_255_2_778
10
33.9849875
20
140.1265812
11
34.6132875
21
140.1265812
0
LINE
8
DEFAULT_255_2_778
10
34.6132875
20
140.1265812
11
34.2989875
21
141.0599812
0
LINE
8
DEFAULT_255_2_778
10
34.2328875
20
141.1909812
11
34.3817875
21
141.1909812
0
LINE
8
DEFAULT_255_2_778
10
34.3817875
20
141.1909812
11
34.8942875
21
139.6352812
0
LINE
8
DEFAULT_255_2_778
10
34.8942875
20
139.6352812
11
34.7786875
21
139.5859812
0
LINE
8
DEFAULT_255_2_778
10
34.7786875
20
139.5859812
11
34.6463875
21
140.0117812
0
LINE
8
DEFAULT_255_2_778
10
34.6463875
20
140.0117812
11
33.9518875
21
140.0117812
0
LINE
8
DEFAULT_255_2_778
10
33.9518875
20
140.0117812
11
33.8028875
21
139.5859812
0
LINE
8
DEFAULT_255_2_778
10
33.8028875
20
139.5859812
11
33.7036875
21
139.6352812
0
LINE
8
DEFAULT_255_2_778
10
33.7036875
20
139.6352812
11
34.2328875
21
141.1909812
0
LINE
8
DEFAULT_255_2_778
10
35.6605136
20
140.4141094
11
35.2721136
21
140.4141094
0
LINE
8
DEFAULT_255_2_778
10
35.2721136
20
140.4141094
11
35.2721136
21
139.7373094
0
LINE
8
DEFAULT_255_2_778
10
35.2721136
20
139.7373094
11
35.7106136
21
139.7590094
0
LINE
8
DEFAULT_255_2_778
10
35.7106136
20
139.7590094
11
35.8466136
21
139.8284094
0
LINE
8
DEFAULT_255_2_778
10
35.8466136
20
139.8284094
11
35.9090136
21
139.9022094
0
LINE
8
DEFAULT_255_2_778
10
35.9090136
20
139.9022094
11
35.9386136
21
139.9667094
0
LINE
8
DEFAULT_255_2_778
10
35.9386136
20
139.9667094
11
35.9495136
21
140.0107094
0
LINE
8
DEFAULT_255_2_778
10
35.9495136
20
140.0107094
11
35.9548136
21
140.0485094
0
LINE
8
DEFAULT_255_2_778
10
35.9548136
20
140.0485094
11
35.9521136
21
140.1924094
0
LINE
8
DEFAULT_255_2_778
10
35.9521136
20
140.1924094
11
35.9434136
21
140.2356094
0
LINE
8
DEFAULT_255_2_778
10
35.9434136
20
140.2356094
11
35.9225136
21
140.2909094
0
LINE
8
DEFAULT_255_2_778
10
35.9225136
20
140.2909094
11
35.8741136
21
140.3530094
0
LINE
8
DEFAULT_255_2_778
10
35.8741136
20
140.3530094
11
35.7547136
21
140.4062094
0
LINE
8
DEFAULT_255_2_778
10
35.7547136
20
140.4062094
11
35.6740136
21
140.4141094
0
LINE
8
DEFAULT_255_2_778
10
35.8891136
20
140.4856094
11
35.9651136
21
140.5687094
0
LINE
8
DEFAULT_255_2_778
10
35.9651136
20
140.5687094
11
36.0019136
21
140.6414094
0
LINE
8
DEFAULT_255_2_778
10
36.0019136
20
140.6414094
11
36.0156136
21
140.6880094
0
LINE
8
DEFAULT_255_2_778
10
36.0156136
20
140.6880094
11
36.0222136
21
140.7248094
0
LINE
8
DEFAULT_255_2_778
10
36.0222136
20
140.7248094
11
36.0201136
21
140.8682094
0
LINE
8
DEFAULT_255_2_778
10
36.0201136
20
140.8682094
11
36.0098136
21
140.9118094
0
LINE
8
DEFAULT_255_2_778
10
36.0098136
20
140.9118094
11
35.9889136
21
140.9669094
0
LINE
8
DEFAULT_255_2_778
10
35.9889136
20
140.9669094
11
35.9437136
21
141.0409094
0
LINE
8
DEFAULT_255_2_778
10
35.9437136
20
141.0409094
11
35.8600136
21
141.1216094
0
LINE
8
DEFAULT_255_2_778
10
35.8600136
20
141.1216094
11
35.7214136
21
141.1920094
0
LINE
8
DEFAULT_255_2_778
10
35.7214136
20
141.1920094
11
35.5140136
21
141.2243094
0
LINE
8
DEFAULT_255_2_778
10
35.5140136
20
141.2243094
11
35.1589136
21
141.2243094
0
LINE
8
DEFAULT_255_2_778
10
35.1589136
20
141.2243094
11
35.1589136
21
139.6265094
0
LINE
8
DEFAULT_255_2_778
10
35.1589136
20
139.6265094
11
35.5074136
21
139.6265094
0
LINE
8
DEFAULT_255_2_778
10
35.5140136
20
141.1111094
11
35.2721136
21
141.1111094
0
LINE
8
DEFAULT_255_2_778
10
35.2721136
20
141.1111094
11
35.2721136
21
140.5253094
0
LINE
8
DEFAULT_255_2_778
10
35.2721136
20
140.5253094
11
35.7651136
21
140.5427094
0
LINE
8
DEFAULT_255_2_778
10
35.7651136
20
140.5427094
11
35.8616136
21
140.6150094
0
LINE
8
DEFAULT_255_2_778
10
35.8616136
20
140.6150094
11
35.8915136
21
140.6674094
0
LINE
8
DEFAULT_255_2_778
10
35.8915136
20
140.6674094
11
35.9058136
21
140.7144094
0
LINE
8
DEFAULT_255_2_778
10
35.9058136
20
140.7144094
11
35.9111136
21
140.7473094
0
LINE
8
DEFAULT_255_2_778
10
35.9111136
20
140.7473094
11
35.9101136
21
140.8375094
0
LINE
8
DEFAULT_255_2_778
10
35.9101136
20
140.8375094
11
35.9034136
21
140.8700094
0
LINE
8
DEFAULT_255_2_778
10
35.9034136
20
140.8700094
11
35.8844136
21
140.9214094
0
LINE
8
DEFAULT_255_2_778
10
35.8844136
20
140.9214094
11
35.8352136
21
140.9923094
0
LINE
8
DEFAULT_255_2_778
10
35.8352136
20
140.9923094
11
35.7225136
21
141.0700094
0
LINE
8
DEFAULT_255_2_778
10
35.7225136
20
141.0700094
11
35.5283136
21
141.1108094
0
LINE
8
DEFAULT_255_2_778
10
35.5126136
20
139.6265094
11
35.7606136
21
139.6593094
0
LINE
8
DEFAULT_255_2_778
10
35.7606136
20
139.6593094
11
35.9175136
21
139.7410094
0
LINE
8
DEFAULT_255_2_778
10
35.9175136
20
139.7410094
11
35.9836136
21
139.8083094
0
LINE
8
DEFAULT_255_2_778
10
35.9836136
20
139.8083094
11
36.0230136
21
139.8720094
0
LINE
8
DEFAULT_255_2_778
10
36.0230136
20
139.8720094
11
36.0445136
21
139.9270094
0
LINE
8
DEFAULT_255_2_778
10
36.0445136
20
139.9270094
11
36.0574136
21
139.9792094
0
LINE
8
DEFAULT_255_2_778
10
36.0574136
20
139.9792094
11
36.0638136
21
140.0170094
0
LINE
8
DEFAULT_255_2_778
10
36.0638136
20
140.0170094
11
36.0683136
21
140.0546094
0
LINE
8
DEFAULT_255_2_778
10
36.0683136
20
140.0546094
11
36.0672136
21
140.1845094
0
LINE
8
DEFAULT_255_2_778
10
36.0672136
20
140.1845094
11
36.0632136
21
140.2141094
0
LINE
8
DEFAULT_255_2_778
10
36.0632136
20
140.2141094
11
36.0537136
21
140.2578094
0
LINE
8
DEFAULT_255_2_778
10
36.0537136
20
140.2578094
11
36.0318136
21
140.3194094
0
LINE
8
DEFAULT_255_2_778
10
36.0318136
20
140.3194094
11
35.9937136
21
140.3848094
0
LINE
8
DEFAULT_255_2_778
10
35.9937136
20
140.3848094
11
35.9201136
21
140.4560094
0
LINE
8
DEFAULT_255_2_778
10
35.9201136
20
140.4560094
11
35.8849136
21
140.4861094
0
ARC
8
DEFAULT_255_2_778
10
36.7896599
20
140.0903202
40
0.3400121
50
269.9969913
51
270.6368091
0
ARC
8
DEFAULT_255_2_778
10
36.789585
20
140.0905989
40
0.340291
50
257.0004704
51
270.0096152
0
ARC
8
DEFAULT_255_2_778
10
36.8255712
20
140.0180361
40
0.2956029
50
199.1575558
51
214.8005979
0
ARC
8
DEFAULT_255_2_778
10
37.1380778
20
140.1355747
40
0.6294321
50
193.1452492
51
199.9290359
0
ARC
8
DEFAULT_255_2_778
10
37.9454638
20
140.2629207
40
1.4470921
50
181.9837108
51
187.8519033
0
ARC
8
DEFAULT_255_2_778
10
37.115136
20
140.7648038
40
0.6082273
50
162.0423183
51
169.0220708
0
ARC
8
DEFAULT_255_2_778
10
36.8116499
20
140.879435
40
0.2831295
50
135.0882863
51
150.0865887
0
ARC
8
DEFAULT_255_2_778
10
36.7448523
20
140.9489413
40
0.1867625
50
120.5798892
51
135.7214618
0
ARC
8
DEFAULT_255_2_778
10
36.8359272
20
140.9404201
40
0.1965201
50
44.8551242
51
59.3746745
0
ARC
8
DEFAULT_255_2_778
10
36.7482673
20
140.8638719
40
0.3127438
50
26.1752838
51
43.4693304
0
ARC
8
DEFAULT_255_2_778
10
36.680991
20
140.8304391
40
0.3878688
50
19.2207701
51
26.2236342
0
ARC
8
DEFAULT_255_2_778
10
36.3351729
20
140.1651962
40
0.7464436
50
345.2562553
51
352.5048976
0
ARC
8
DEFAULT_255_2_778
10
36.7008174
20
140.0515603
40
0.3629991
50
333.0649821
51
340.4732558
0
ARC
8
DEFAULT_255_2_778
10
36.7703044
20
140.0159611
40
0.3970881
50
314.9084206
51
330.9802041
0
ARC
8
DEFAULT_255_2_778
10
36.425472
20
140.1465014
40
0.7667865
50
343.3055986
51
351.6031798
0
ARC
8
DEFAULT_255_2_778
10
36.5312669
20
140.7843652
40
0.6572525
50
11.96554
51
21.5824657
0
ARC
8
DEFAULT_255_2_778
10
36.7679859
20
140.8764516
40
0.4032597
50
21.7877265
51
29.6802118
0
ARC
8
DEFAULT_255_2_778
10
36.7891872
20
140.8117269
40
0.4449225
50
89.4524713
51
103.8954155
0
ARC
8
DEFAULT_255_2_778
10
37.398206
20
140.6997904
40
1.0107638
50
167.4901711
51
173.7557077
0
ARC
8
DEFAULT_255_2_778
10
37.2102151
20
140.1563806
40
0.8190811
50
188.5978757
51
196.3701788
0
ARC
8
DEFAULT_255_2_778
10
36.7915288
20
140.0029651
40
0.3720992
50
208.9540264
51
226.1265631
0
ARC
8
DEFAULT_255_2_778
10
36.7541788
20
139.9503233
40
0.3084133
50
224.3503021
51
237.4934764
0
ARC
8
DEFAULT_255_2_778
10
36.8303461
20
139.950405
40
0.3085038
50
302.3314429
51
315.5669152
0
ARC
8
DEFAULT_255_2_778
10
25.3383553
20
140.8611228
40
0.4971932
50
349.3842358
51
0.0007861
0
ARC
8
DEFAULT_255_2_778
10
25.3351558
20
140.8611294
40
0.5003927
50
0.0000279
51
0.3549113
0
ARC
8
DEFAULT_255_2_778
10
25.4670415
20
140.8639476
40
0.3684974
50
0.0437624
51
3.7469716
0
ARC
8
DEFAULT_255_2_778
10
25.3961942
20
140.8592608
40
0.4394997
50
3.7530781
51
6.8695484
0
ARC
8
DEFAULT_255_2_778
10
25.5287904
20
140.8781979
40
0.3056046
50
6.3180652
51
15.317546
0
ARC
8
DEFAULT_255_2_778
10
25.5870875
20
140.8989755
40
0.2439337
50
14.2278107
51
36.7505805
0
ARC
8
DEFAULT_255_2_778
10
25.6099056
20
140.9149072
40
0.2161202
50
36.9858747
51
56.2616776
0
ARC
8
DEFAULT_255_2_778
10
25.5341777
20
140.8128314
40
0.3300646
50
93.358937
51
106.3001163
0
ARC
8
DEFAULT_255_2_778
10
25.5630704
20
140.8397955
40
0.3225741
50
139.0221447
51
151.7796631
0
ARC
8
DEFAULT_255_2_778
10
25.5600419
20
140.8394283
40
0.4404268
50
138.0004109
51
152.230655
0
ARC
8
DEFAULT_255_2_778
10
25.6297629
20
140.9271905
40
0.3124454
50
48.7582073
51
64.3851937
0
ARC
8
DEFAULT_255_2_778
10
25.5794976
20
140.8743025
40
0.3853617
50
37.618739
51
48.3225124
0
ARC
8
DEFAULT_255_2_778
10
25.4391995
20
140.8596801
40
0.5196951
50
5.9031155
51
13.6393283
0
ARC
8
DEFAULT_255_2_778
10
25.4107056
20
140.8563073
40
0.5481754
50
355.0680185
51
358.6956424
0
ARC
8
DEFAULT_255_2_778
10
25.3023627
20
140.8655366
40
0.6569106
50
352.0367068
51
355.0784435
0
ARC
8
DEFAULT_255_2_778
10
25.4125797
20
140.8396543
40
0.5436144
50
338.3197844
51
345.7377373
0
ARC
8
DEFAULT_255_2_778
10
25.3314974
20
140.870143
40
0.6302264
50
332.1912782
51
338.4672353
0
ARC
8
DEFAULT_255_2_778
10
25.3666672
20
140.8416409
40
0.4650425
50
330.9077214
51
339.2827409
0
ARC
8
DEFAULT_255_2_778
10
27.2612666
20
140.3548831
40
0.2660665
50
140.1341452
51
174.4687164
0
ARC
8
DEFAULT_255_2_778
10
27.2205969
20
140.3667039
40
0.2279082
50
90.0144174
51
135.8574404
0
ARC
8
DEFAULT_255_2_778
10
27.2439006
20
140.1854116
40
0.4098668
50
89.9616184
51
93.2674297
0
ARC
8
DEFAULT_255_2_778
10
27.2425632
20
140.0772207
40
0.51806
50
83.4459665
51
89.8217294
0
ARC
8
DEFAULT_255_2_778
10
27.233916
20
139.9858932
40
0.6097805
50
83.2357264
51
83.6182404
0
ARC
8
DEFAULT_255_2_778
10
27.2531347
20
140.3704431
40
0.2271607
50
18.0736846
51
76.6103264
0
ARC
8
DEFAULT_255_2_778
10
26.9029479
20
140.2237678
40
0.6063557
50
5.0412632
51
20.9849359
0
ARC
8
DEFAULT_255_2_778
10
26.3230226
20
140.1556608
40
1.1901423
50
359.7676404
51
5.8541035
0
ARC
8
DEFAULT_255_2_778
10
25.8572865
20
140.1517597
40
1.655869
50
357.9408443
51
359.9679781
0
ARC
8
DEFAULT_255_2_778
10
25.705446
20
140.15618
40
1.8077706
50
357.8458433
51
357.9737554
0
ARC
8
DEFAULT_255_2_778
10
27.1004701
20
140.1266579
40
0.4132594
50
329.3036851
51
354.664369
0
ARC
8
DEFAULT_255_2_778
10
27.2351421
20
140.0595578
40
0.263435
50
270.3907994
51
326.8996645
0
ARC
8
DEFAULT_255_2_778
10
27.1638857
20
140.2816141
40
0.4909506
50
270.561279
51
278.557355
0
ARC
8
DEFAULT_255_2_778
10
27.1665864
20
140.2022552
40
0.4115735
50
270.005861
51
270.2935581
0
ARC
8
DEFAULT_255_2_778
10
27.1470149
20
140.0079354
40
0.2181372
50
202.0540494
51
275.1586528
0
ARC
8
DEFAULT_255_2_778
10
26.5316983
20
140.7736455
40
0.9429415
50
288.0930231
51
295.9852768
0
ARC
8
DEFAULT_255_2_778
10
27.1547891
20
140.0367605
40
0.3667201
50
205.7693661
51
269.8618488
0
ARC
8
DEFAULT_255_2_778
10
27.1761482
20
140.2115816
40
0.5419968
50
267.6479494
51
270.0143074
0
ARC
8
DEFAULT_255_2_778
10
27.1736421
20
140.3296494
40
0.6600697
50
270.2292856
51
278.5540879
0
ARC
8
DEFAULT_255_2_778
10
27.1521301
20
140.4919028
40
0.8237231
50
278.3550565
51
280.7474949
0
ARC
8
DEFAULT_255_2_778
10
27.137303
20
140.163522
40
0.5095377
50
289.3031356
51
316.6826588
0
ARC
8
DEFAULT_255_2_778
10
27.1759078
20
140.104318
40
0.4411461
50
318.8379165
51
358.261932
0
ARC
8
DEFAULT_255_2_778
10
26.9528587
20
140.1327909
40
0.6653101
50
356.3932809
51
0.0370324
0
ARC
8
DEFAULT_255_2_778
10
26.8371263
20
140.1320681
40
0.7810431
50
0.0845704
51
5.1317205
0
ARC
8
DEFAULT_255_2_778
10
26.5935173
20
140.2137809
40
1.0215904
50
359.3352745
51
10.846529
0
ARC
8
DEFAULT_255_2_778
10
27.1534563
20
140.3278942
40
0.4502311
50
9.9931069
51
33.9760512
0
ARC
8
DEFAULT_255_2_778
10
27.3131355
20
140.4299805
40
0.2608032
50
34.982043
51
68.4955775
0
ARC
8
DEFAULT_255_2_778
10
27.2022799
20
140.0670708
40
0.639786
50
71.1737022
51
82.4219842
0
ARC
8
DEFAULT_255_2_778
10
27.2263918
20
140.230168
40
0.4749395
50
82.7106368
51
89.8913375
0
ARC
8
DEFAULT_255_2_778
10
27.2225867
20
140.3426599
40
0.3624775
50
89.2561455
51
140.0674122
0
ARC
8
DEFAULT_255_2_778
10
35.6957038
20
140.5645156
40
8.7510716
50
178.2023871
51
179.9292017
0
ARC
8
DEFAULT_255_2_778
10
40.4252264
20
140.4201606
40
13.4827956
50
176.9253861
51
178.2197123
0
LINE
8
DEFAULT_255_2_778
10
26.9618389
20
141.143329
11
27.5978389
21
141.143329
0
ARC
8
DEFAULT_255_2_778
10
28.236238
20
141.1541708
40
0.6384912
50
173.4816802
51
180.9729456
0
ARC
8
DEFAULT_255_2_778
10
27.6324456
20
141.2312756
40
0.0309188
50
124.2621785
51
188.5985944
0
LINE
8
DEFAULT_255_2_778
10
29.7656389
20
140.303529
11
29.7656389
21
140.681629
0
ARC
8
DEFAULT_255_2_778
10
29.0864522
20
140.6501716
40
0.6799148
50
2.651834
51
21.2220044
0
ARC
8
DEFAULT_255_2_778
10
29.3629514
20
140.7547899
40
0.3843051
50
21.6043103
51
87.8585911
0
ARC
8
DEFAULT_255_2_778
10
29.3057484
20
140.4571152
40
0.6854573
50
84.0073024
51
87.7182461
0
LINE
8
DEFAULT_255_2_778
10
29.3330389
20
141.142029
11
29.1745389
21
141.142029
0
LINE
8
DEFAULT_255_2_778
10
29.1745389
20
141.142029
11
29.1745389
21
139.777629
0
ARC
8
DEFAULT_255_2_778
10
29.1871992
20
140.7254937
40
0.9479492
50
269.2347671
51
283.6093005
0
ARC
8
DEFAULT_255_2_778
10
29.3061259
20
140.265617
40
0.4730585
50
282.7155695
51
315.2343257
0
ARC
8
DEFAULT_255_2_778
10
29.3039535
20
140.2390598
40
0.4563547
50
317.7945702
51
353.0085367
0
ARC
8
DEFAULT_255_2_778
10
28.9836146
20
140.3000482
40
0.7820321
50
351.4299985
51
0.2550217
0
ARC
8
DEFAULT_255_2_778
10
29.4934827
20
140.0107011
40
0.2949521
50
286.6591545
51
333.3031136
0
ARC
8
DEFAULT_255_2_778
10
29.1476736
20
140.2095514
40
0.6935921
50
331.46146
51
347.2224478
0
ARC
8
DEFAULT_255_2_778
10
28.4065981
20
140.3893059
40
1.456116
50
346.7737932
51
355.5223814
0
ARC
8
DEFAULT_255_2_778
10
27.2615895
20
140.4901441
40
2.6055263
50
355.2774105
51
0.1914953
0
ARC
8
DEFAULT_255_2_778
10
26.3641387
20
140.4983048
40
3.5029626
50
0.0089558
51
0.9750642
0
ARC
8
DEFAULT_255_2_778
10
26.1571241
20
140.4953849
40
3.709997
50
0.9657468
51
1.0987904
0
ARC
8
DEFAULT_255_2_778
10
28.3002524
20
140.5111786
40
1.5671642
50
2.0240431
51
11.1109124
0
ARC
8
DEFAULT_255_2_778
10
29.0393303
20
140.6619894
40
0.8128961
50
10.7192159
51
26.7028954
0
ARC
8
DEFAULT_255_2_778
10
29.4033156
20
140.8568103
40
0.400322
50
25.2026367
51
89.7676675
0
ARC
8
DEFAULT_255_2_778
10
29.2450209
20
141.2318463
40
1.5623676
50
263.6949588
51
269.0269624
0
ARC
8
DEFAULT_255_2_778
10
29.2382469
20
141.0028708
40
1.3333132
50
269.1509203
51
269.9972025
0
ARC
8
DEFAULT_255_2_778
10
29.2474048
20
140.688651
40
1.0191352
50
269.4814741
51
282.63224
0
ARC
8
DEFAULT_255_2_778
10
29.3070234
20
140.4004697
40
0.7249077
50
283.0153881
51
291.9539935
0
ARC
8
DEFAULT_255_2_778
10
14.0191546
20
132.2768977
40
0.7825764
50
3.878288
51
18.7845226
0
ARC
8
DEFAULT_255_2_778
10
14.4335344
20
132.4264682
40
0.3422024
50
17.4165732
51
54.9433567
0
ARC
8
DEFAULT_255_2_778
10
14.4548125
20
132.4257218
40
0.331073
50
58.0334144
51
91.8128707
0
ARC
8
DEFAULT_255_2_778
10
14.4299236
20
132.4397871
40
0.3171697
50
87.3950188
51
160.0159005
0
ARC
8
DEFAULT_255_2_778
10
14.7583394
20
132.2847442
40
0.6796227
50
157.1932098
51
170.1480988
0
LINE
8
DEFAULT_255_2_778
10
14.0887389
20
132.401029
11
14.0887389
21
131.654029
0
ARC
8
DEFAULT_255_2_778
10
14.6047332
20
131.6414242
40
0.5161483
50
178.6006472
51
200.8269018
0
ARC
8
DEFAULT_255_2_778
10
14.410892
20
131.5740991
40
0.3110933
50
201.9308062
51
256.3996299
0
ARC
8
DEFAULT_255_2_778
10
14.426851
20
132.1296692
40
0.8625557
50
264.0700921
51
268.6955925
0
ARC
8
DEFAULT_255_2_778
10
14.4224753
20
131.9949147
40
0.7277376
50
268.7984978
51
269.9935983
0
ARC
8
DEFAULT_255_2_778
10
14.4334874
20
131.7332407
40
0.4661957
50
268.6364761
51
290.0459203
0
ARC
8
DEFAULT_255_2_778
10
14.4999038
20
131.5426669
40
0.2644178
50
290.6809999
51
345.4478502
0
ARC
8
DEFAULT_255_2_778
10
14.0086904
20
131.7399396
40
0.792322
50
340.559206
51
350.5239285
0
ARC
8
DEFAULT_255_2_778
10
13.1883691
20
131.8994276
40
1.6278592
50
349.7405065
51
351.9628787
0
LINE
8
DEFAULT_255_2_778
10
14.8002389
20
131.671829
11
14.8002389
21
132.329829
0
ARC
8
DEFAULT_255_2_778
10
12.1964855
20
132.1731008
40
2.7351729
50
357.5405678
51
359.0266274
0
ARC
8
DEFAULT_255_2_778
10
12.4698381
20
132.1680172
40
2.4617733
50
359.0368495
51
359.9932923
0
ARC
8
DEFAULT_255_2_778
10
13.1567689
20
132.1794523
40
1.7748811
50
359.6215518
51
7.8515043
0
ARC
8
DEFAULT_255_2_778
10
13.975624
20
132.2970223
40
0.9476528
50
7.5729476
51
21.0937135
0
ARC
8
DEFAULT_255_2_778
10
14.4128298
20
132.4725166
40
0.4766262
50
20.3259033
51
48.9644397
0
ARC
8
DEFAULT_255_2_778
10
14.4667868
20
132.5079398
40
0.4148491
50
51.3743178
51
91.3185736
0
ARC
8
DEFAULT_255_2_778
10
14.4494702
20
132.3165096
40
0.6062194
50
89.2655756
51
90.002957
0
ARC
8
DEFAULT_255_2_778
10
14.4371259
20
132.3967292
40
0.526144
50
88.6590243
51
114.9410524
0
ARC
8
DEFAULT_255_2_778
10
14.416579
20
132.4789308
40
0.443234
50
117.0139954
51
158.013629
0
ARC
8
DEFAULT_255_2_778
10
14.7949033
20
132.3074638
40
0.8584141
50
156.8550101
51
171.8801059
0
ARC
8
DEFAULT_255_2_778
10
15.5026762
20
132.1974818
40
1.574651
50
171.5559015
51
180.3929452
0
ARC
8
DEFAULT_255_2_778
10
16.1613459
20
132.1875667
40
2.2332838
50
180.02268
51
181.8934496
0
ARC
8
DEFAULT_255_2_778
10
16.5013029
20
132.1987267
40
2.5734239
50
181.8916994
51
183.5935533
0
ARC
8
DEFAULT_255_2_778
10
17.6278541
20
131.8050005
40
3.7022184
50
176.4005534
51
178.0103387
0
ARC
8
DEFAULT_255_2_778
10
16.9694524
20
131.8276773
40
3.0434265
50
178.0066488
51
179.8372964
0
ARC
8
DEFAULT_255_2_778
10
16.6464048
20
131.8300609
40
2.7203738
50
179.8681765
51
179.9998482
0
ARC
8
DEFAULT_255_2_778
10
15.9487918
20
131.8192001
40
2.02279
50
179.6921628
51
186.2303559
0
ARC
8
DEFAULT_255_2_778
10
14.9781558
20
131.7088341
40
1.0459184
50
185.9906986
51
196.6504207
0
ARC
8
DEFAULT_255_2_778
10
14.4377048
20
131.5415964
40
0.4802391
50
196.0098199
51
216.6082316
0
ARC
8
DEFAULT_255_2_778
10
14.258106
20
131.4090824
40
0.2570469
50
216.7706804
51
271.5455376
0
ARC
8
DEFAULT_255_2_778
10
14.2934937
20
131.6703539
40
0.6217208
50
319.0318255
51
347.9251018
0
ARC
8
DEFAULT_255_2_778
10
13.8152837
20
131.7859917
40
1.113617
50
347.2540484
51
0.6038989
0
LINE
8
DEFAULT_255_2_778
10
14.9288389
20
131.797729
11
14.9288389
21
132.056029
0
LINE
8
DEFAULT_255_2_778
10
36.7130389
20
139.759029
11
36.6744389
21
139.771729
0
LINE
8
DEFAULT_255_2_778
10
36.6744389
20
139.771729
11
36.6389389
21
139.791329
0
LINE
8
DEFAULT_255_2_778
10
36.6389389
20
139.791329
11
36.6228389
21
139.803729
0
LINE
8
DEFAULT_255_2_778
10
36.6228389
20
139.803729
11
36.6082389
21
139.817829
0
LINE
8
DEFAULT_255_2_778
10
36.6082389
20
139.817829
11
36.5828389
21
139.849329
0
LINE
8
DEFAULT_255_2_778
10
36.5251389
20
139.992429
11
36.5119389
21
140.065229
0
LINE
8
DEFAULT_255_2_778
10
36.4992389
20
140.212829
11
36.4982389
21
140.249829
0
LINE
8
DEFAULT_255_2_778
10
36.4982389
20
140.249829
11
36.4974389
21
140.286929
0
LINE
8
DEFAULT_255_2_778
10
36.4974389
20
140.286929
11
36.4963389
21
140.361229
0
LINE
8
DEFAULT_255_2_778
10
36.4963389
20
140.361229
11
36.4960389
21
140.435629
0
LINE
8
DEFAULT_255_2_778
10
36.4960389
20
140.435629
11
36.4960389
21
140.509929
0
LINE
8
DEFAULT_255_2_778
10
36.4960389
20
140.509929
11
36.4982389
21
140.658629
0
LINE
8
DEFAULT_255_2_778
10
36.4982389
20
140.658629
11
36.5074389
21
140.806829
0
LINE
8
DEFAULT_255_2_778
10
36.5074389
20
140.806829
11
36.5119389
21
140.843829
0
LINE
8
DEFAULT_255_2_778
10
36.5119389
20
140.843829
11
36.5180389
21
140.880629
0
LINE
8
DEFAULT_255_2_778
10
36.5365389
20
140.952329
11
36.5495389
21
140.987229
0
LINE
8
DEFAULT_255_2_778
10
36.5495389
20
140.987229
11
36.5662389
21
141.020629
0
LINE
8
DEFAULT_255_2_778
10
36.6498389
20
141.109729
11
36.6717389
21
141.121129
0
LINE
8
DEFAULT_255_2_778
10
36.6717389
20
141.121129
11
36.6950389
21
141.129829
0
LINE
8
DEFAULT_255_2_778
10
36.6950389
20
141.129829
11
36.7191389
21
141.136229
0
LINE
8
DEFAULT_255_2_778
10
36.7191389
20
141.136229
11
36.7437389
21
141.140429
0
LINE
8
DEFAULT_255_2_778
10
36.7437389
20
141.140429
11
36.7929389
21
141.143629
0
LINE
8
DEFAULT_255_2_778
10
36.7929389
20
141.143629
11
36.8421389
21
141.140429
0
LINE
8
DEFAULT_255_2_778
10
36.8421389
20
141.140429
11
36.8905389
21
141.129629
0
LINE
8
DEFAULT_255_2_778
10
36.8905389
20
141.129629
11
36.9138389
21
141.120829
0
LINE
8
DEFAULT_255_2_778
10
36.9138389
20
141.120829
11
36.9360389
21
141.109529
0
LINE
8
DEFAULT_255_2_778
10
37.0472389
20
140.958129
11
37.0607389
21
140.913129
0
LINE
8
DEFAULT_255_2_778
10
37.0607389
20
140.913129
11
37.0705389
21
140.867429
0
LINE
8
DEFAULT_255_2_778
10
37.0705389
20
140.867429
11
37.0773389
21
140.820829
0
LINE
8
DEFAULT_255_2_778
10
37.0773389
20
140.820829
11
37.0855389
21
140.726929
0
LINE
8
DEFAULT_255_2_778
10
37.0855389
20
140.726929
11
37.0877389
21
140.679829
0
LINE
8
DEFAULT_255_2_778
10
37.0877389
20
140.679829
11
37.0887389
21
140.632729
0
LINE
8
DEFAULT_255_2_778
10
37.0887389
20
140.632729
11
37.0900389
21
140.538529
0
LINE
8
DEFAULT_255_2_778
10
37.0900389
20
140.538529
11
37.0906389
21
140.444329
0
LINE
8
DEFAULT_255_2_778
10
37.0906389
20
140.444329
11
37.0903389
21
140.350129
0
LINE
8
DEFAULT_255_2_778
10
37.0903389
20
140.350129
11
37.0887389
21
140.255929
0
LINE
8
DEFAULT_255_2_778
10
37.0887389
20
140.255929
11
37.0874389
21
140.208829
0
LINE
8
DEFAULT_255_2_778
10
37.0874389
20
140.208829
11
37.0847389
21
140.161729
0
LINE
8
DEFAULT_255_2_778
10
37.0847389
20
140.161729
11
37.0752389
21
140.067829
0
LINE
8
DEFAULT_255_2_778
10
37.0570389
20
139.975229
11
37.0429389
21
139.930229
0
LINE
8
DEFAULT_255_2_778
10
37.0244389
20
139.887129
11
37.0001389
21
139.846929
0
LINE
8
DEFAULT_255_2_778
10
37.0001389
20
139.846929
11
36.9853389
21
139.828129
0
LINE
8
DEFAULT_255_2_778
10
36.9853389
20
139.828129
11
36.9691389
21
139.810629
0
LINE
8
DEFAULT_255_2_778
10
36.9691389
20
139.810629
11
36.9511389
21
139.795029
0
LINE
8
DEFAULT_255_2_778
10
36.9511389
20
139.795029
11
36.9310389
21
139.781829
0
LINE
8
DEFAULT_255_2_778
10
36.9310389
20
139.781829
11
36.8874389
21
139.762729
0
LINE
8
DEFAULT_255_2_778
10
36.8874389
20
139.762729
11
36.8641389
21
139.756629
0
LINE
8
DEFAULT_255_2_778
10
36.8641389
20
139.756629
11
36.8405389
21
139.752729
0
LINE
8
DEFAULT_255_2_778
10
36.8405389
20
139.752729
11
36.7934389
21
139.750329
0
LINE
8
DEFAULT_255_2_778
10
37.1175389
20
139.823329
11
37.1302389
21
139.848229
0
LINE
8
DEFAULT_255_2_778
10
37.1302389
20
139.848229
11
37.1414389
21
139.873929
0
LINE
8
DEFAULT_255_2_778
10
37.1414389
20
139.873929
11
37.1599389
21
139.926229
0
LINE
8
DEFAULT_255_2_778
10
37.1840389
20
140.034529
11
37.1914389
21
140.089829
0
LINE
8
DEFAULT_255_2_778
10
37.1914389
20
140.089829
11
37.1961389
21
140.145129
0
LINE
8
DEFAULT_255_2_778
10
37.1961389
20
140.145129
11
37.1988389
21
140.200629
0
LINE
8
DEFAULT_255_2_778
10
37.1988389
20
140.200629
11
37.1993389
21
140.228429
0
LINE
8
DEFAULT_255_2_778
10
37.1993389
20
140.228429
11
37.1998389
21
140.256229
0
LINE
8
DEFAULT_255_2_778
10
37.1998389
20
140.256229
11
37.2012389
21
140.367029
0
LINE
8
DEFAULT_255_2_778
10
37.2012389
20
140.367029
11
37.2014389
21
140.477929
0
LINE
8
DEFAULT_255_2_778
10
37.2014389
20
140.477929
11
37.2006389
21
140.589029
0
LINE
8
DEFAULT_255_2_778
10
37.2006389
20
140.589029
11
37.1998389
21
140.644629
0
LINE
8
DEFAULT_255_2_778
10
37.1998389
20
140.644629
11
37.1985389
21
140.700229
0
LINE
8
DEFAULT_255_2_778
10
37.1985389
20
140.700229
11
37.1911389
21
140.810729
0
LINE
8
DEFAULT_255_2_778
10
37.1911389
20
140.810729
11
37.1842389
21
140.865829
0
LINE
8
DEFAULT_255_2_778
10
37.1842389
20
140.865829
11
37.1742389
21
140.920629
0
LINE
8
DEFAULT_255_2_778
10
37.1183389
20
141.076129
11
37.0874389
21
141.122429
0
LINE
8
DEFAULT_255_2_778
10
37.0874389
20
141.122429
11
37.0501389
21
141.164029
0
LINE
8
DEFAULT_255_2_778
10
37.0501389
20
141.164029
11
37.0292389
21
141.182529
0
LINE
8
DEFAULT_255_2_778
10
37.0292389
20
141.182529
11
37.0067389
21
141.198929
0
LINE
8
DEFAULT_255_2_778
10
37.0067389
20
141.198929
11
36.9580389
21
141.225429
0
LINE
8
DEFAULT_255_2_778
10
36.9580389
20
141.225429
11
36.9318389
21
141.235429
0
LINE
8
DEFAULT_255_2_778
10
36.9318389
20
141.235429
11
36.9048389
21
141.243329
0
LINE
8
DEFAULT_255_2_778
10
36.9048389
20
141.243329
11
36.8498389
21
141.253429
0
LINE
8
DEFAULT_255_2_778
10
36.8498389
20
141.253429
11
36.7934389
21
141.256629
0
LINE
8
DEFAULT_255_2_778
10
36.6823389
20
141.243629
11
36.6289389
21
141.225429
0
LINE
8
DEFAULT_255_2_778
10
36.6289389
20
141.225429
11
36.5797389
21
141.198629
0
LINE
8
DEFAULT_255_2_778
10
36.5797389
20
141.198629
11
36.5569389
21
141.182029
0
LINE
8
DEFAULT_255_2_778
10
36.5569389
20
141.182029
11
36.5357389
21
141.163429
0
LINE
8
DEFAULT_255_2_778
10
36.5357389
20
141.163429
11
36.4984389
21
141.121929
0
LINE
8
DEFAULT_255_2_778
10
36.4984389
20
141.121929
11
36.4820389
21
141.098929
0
LINE
8
DEFAULT_255_2_778
10
36.4820389
20
141.098929
11
36.4675389
21
141.075129
0
LINE
8
DEFAULT_255_2_778
10
36.4675389
20
141.075129
11
36.4548389
21
141.050529
0
LINE
8
DEFAULT_255_2_778
10
36.4548389
20
141.050529
11
36.4439389
21
141.025129
0
LINE
8
DEFAULT_255_2_778
10
36.4439389
20
141.025129
11
36.4257389
21
140.972429
0
LINE
8
DEFAULT_255_2_778
10
36.4257389
20
140.972429
11
36.4114389
21
140.918729
0
LINE
8
DEFAULT_255_2_778
10
36.3934389
20
140.809729
11
36.3854389
21
140.699429
0
LINE
8
DEFAULT_255_2_778
10
36.3854389
20
140.699429
11
36.3844389
21
140.643829
0
LINE
8
DEFAULT_255_2_778
10
36.3844389
20
140.643829
11
36.3836389
21
140.588229
0
LINE
8
DEFAULT_255_2_778
10
36.3836389
20
140.588229
11
36.3828389
21
140.477129
0
LINE
8
DEFAULT_255_2_778
10
36.3828389
20
140.477129
11
36.3831389
21
140.366029
0
LINE
8
DEFAULT_255_2_778
10
36.3831389
20
140.366029
11
36.3844389
21
140.254929
0
LINE
8
DEFAULT_255_2_778
10
36.3844389
20
140.254929
11
36.3857389
21
140.199329
0
LINE
8
DEFAULT_255_2_778
10
36.3857389
20
140.199329
11
36.3884389
21
140.144029
0
LINE
8
DEFAULT_255_2_778
10
36.3884389
20
140.144029
11
36.4003389
21
140.033929
0
LINE
8
DEFAULT_255_2_778
10
36.4243389
20
139.925529
11
36.4423389
21
139.873129
0
LINE
8
DEFAULT_255_2_778
10
36.4423389
20
139.873129
11
36.4532389
21
139.847729
0
LINE
8
DEFAULT_255_2_778
10
36.4532389
20
139.847729
11
36.4659389
21
139.822829
0
LINE
8
DEFAULT_255_2_778
10
36.5884389
20
139.690229
11
36.6193389
21
139.673029
0
LINE
8
DEFAULT_255_2_778
10
36.6193389
20
139.673029
11
36.6521389
21
139.659329
0
LINE
8
DEFAULT_255_2_778
10
36.6521389
20
139.659329
11
36.7209389
21
139.642329
0
LINE
8
DEFAULT_255_2_778
10
36.7209389
20
139.642329
11
36.7916389
21
139.637129
0
LINE
8
DEFAULT_255_2_778
10
36.7916389
20
139.637129
11
36.8620389
21
139.641829
0
LINE
8
DEFAULT_255_2_778
10
36.8620389
20
139.641829
11
36.8972389
21
139.648729
0
LINE
8
DEFAULT_255_2_778
10
36.8972389
20
139.648729
11
36.9313389
21
139.658829
0
LINE
8
DEFAULT_255_2_778
10
36.9313389
20
139.658829
11
36.9641389
21
139.672229
0
LINE
8
DEFAULT_255_2_778
10
36.9641389
20
139.672229
11
36.9953389
21
139.689729
0
LINE
8
DEFAULT_255_2_778
10
37.0506389
20
139.734429
11
37.0506389
21
139.734729
0
LINE
8
DEFAULT_255_2_778
10
25.8016389
20
140.677729
11
25.8164389
21
140.723229
0
LINE
8
DEFAULT_255_2_778
10
25.8164389
20
140.723229
11
25.8270389
21
140.769529
0
LINE
8
DEFAULT_255_2_778
10
25.7299389
20
141.094629
11
25.6976389
21
141.112929
0
LINE
8
DEFAULT_255_2_778
10
25.6976389
20
141.112929
11
25.6629389
21
141.126429
0
LINE
8
DEFAULT_255_2_778
10
25.6629389
20
141.126429
11
25.6264389
21
141.135429
0
LINE
8
DEFAULT_255_2_778
10
25.6264389
20
141.135429
11
25.5897389
21
141.140729
0
LINE
8
DEFAULT_255_2_778
10
25.5897389
20
141.140729
11
25.5523389
21
141.142829
0
LINE
8
DEFAULT_255_2_778
10
25.5523389
20
141.142829
11
25.5148389
21
141.142329
0
LINE
8
DEFAULT_255_2_778
10
25.4415389
20
141.129629
11
25.4238389
21
141.123529
0
LINE
8
DEFAULT_255_2_778
10
25.4238389
20
141.123529
11
25.4066389
21
141.116329
0
LINE
8
DEFAULT_255_2_778
10
25.4066389
20
141.116329
11
25.3745389
21
141.098929
0
LINE
8
DEFAULT_255_2_778
10
25.3745389
20
141.098929
11
25.3452389
21
141.076929
0
LINE
8
DEFAULT_255_2_778
10
25.3452389
20
141.076929
11
25.3195389
21
141.051329
0
LINE
8
DEFAULT_255_2_778
10
25.2788389
20
140.992329
11
25.1703389
21
141.044629
0
LINE
8
DEFAULT_255_2_778
10
25.2327389
20
141.134129
11
25.2732389
21
141.172229
0
LINE
8
DEFAULT_255_2_778
10
25.2732389
20
141.172229
11
25.3192389
21
141.203729
0
LINE
8
DEFAULT_255_2_778
10
25.3192389
20
141.203729
11
25.3444389
21
141.216629
0
LINE
8
DEFAULT_255_2_778
10
25.3444389
20
141.216629
11
25.3706389
21
141.228029
0
LINE
8
DEFAULT_255_2_778
10
25.3706389
20
141.228029
11
25.4251389
21
141.244429
0
LINE
8
DEFAULT_255_2_778
10
25.4251389
20
141.244429
11
25.4817389
21
141.253729
0
LINE
8
DEFAULT_255_2_778
10
25.4817389
20
141.253729
11
25.5391389
21
141.256629
0
LINE
8
DEFAULT_255_2_778
10
25.5391389
20
141.256629
11
25.5973389
21
141.254229
0
LINE
8
DEFAULT_255_2_778
10
25.5973389
20
141.254229
11
25.6550389
21
141.245729
0
LINE
8
DEFAULT_255_2_778
10
25.6550389
20
141.245729
11
25.6833389
21
141.238829
0
LINE
8
DEFAULT_255_2_778
10
25.6833389
20
141.238829
11
25.7111389
21
141.230429
0
LINE
8
DEFAULT_255_2_778
10
25.7111389
20
141.230429
11
25.7648389
21
141.208929
0
LINE
8
DEFAULT_255_2_778
10
25.8847389
20
141.109529
11
25.9045389
21
141.079829
0
LINE
8
DEFAULT_255_2_778
10
25.9045389
20
141.079829
11
25.9212389
21
141.048329
0
LINE
8
DEFAULT_255_2_778
10
25.9212389
20
141.048329
11
25.9344389
21
141.015829
0
LINE
8
DEFAULT_255_2_778
10
25.9344389
20
141.015829
11
25.9442389
21
140.982229
0
LINE
8
DEFAULT_255_2_778
10
25.9561389
20
140.913129
11
25.9587389
21
140.843829
0
LINE
8
DEFAULT_255_2_778
10
25.9529389
20
140.774529
11
25.9471389
21
140.739829
0
LINE
8
DEFAULT_255_2_778
10
25.9471389
20
140.739829
11
25.9394389
21
140.705729
0
LINE
8
DEFAULT_255_2_778
10
25.8889389
20
140.576129
11
25.8542389
21
140.516529
0
LINE
8
DEFAULT_255_2_778
10
25.8542389
20
140.516529
11
25.8159389
21
140.459429
0
LINE
8
DEFAULT_255_2_778
10
25.8159389
20
140.459429
11
25.7751389
21
140.403629
0
LINE
8
DEFAULT_255_2_778
10
25.7751389
20
140.403629
11
25.6886389
21
140.294829
0
LINE
8
DEFAULT_255_2_778
10
25.6886389
20
140.294829
11
25.6436389
21
140.241629
0
LINE
8
DEFAULT_255_2_778
10
25.6436389
20
140.241629
11
25.5981389
21
140.188729
0
LINE
8
DEFAULT_255_2_778
10
25.5981389
20
140.188729
11
25.5060389
21
140.083929
0
LINE
8
DEFAULT_255_2_778
10
25.5060389
20
140.083929
11
25.4126389
21
139.980029
0
LINE
8
DEFAULT_255_2_778
10
25.4126389
20
139.980029
11
25.2261389
21
139.772029
0
LINE
8
DEFAULT_255_2_778
10
25.2261389
20
139.772029
11
25.2261389
21
139.717229
0
LINE
8
DEFAULT_255_2_778
10
25.2261389
20
139.717229
11
26.0307389
21
139.717229
0
LINE
8
DEFAULT_255_2_778
10
26.0307389
20
139.717229
11
26.0307389
21
139.603229
0
LINE
8
DEFAULT_255_2_778
10
26.0307389
20
139.603229
11
25.1047389
21
139.603229
0
LINE
8
DEFAULT_255_2_778
10
25.1047389
20
139.603229
11
25.1047389
21
139.813029
0
LINE
8
DEFAULT_255_2_778
10
25.1047389
20
139.813029
11
25.1192389
21
139.829129
0
LINE
8
DEFAULT_255_2_778
10
25.1192389
20
139.829129
11
25.2118389
21
139.930229
0
LINE
8
DEFAULT_255_2_778
10
25.2118389
20
139.930229
11
25.3044389
21
140.031629
0
LINE
8
DEFAULT_255_2_778
10
25.3044389
20
140.031629
11
25.3505389
21
140.082429
0
LINE
8
DEFAULT_255_2_778
10
25.3505389
20
140.082429
11
25.3960389
21
140.133429
0
LINE
8
DEFAULT_255_2_778
10
25.3960389
20
140.133429
11
25.4870389
21
140.235829
0
LINE
8
DEFAULT_255_2_778
10
25.4870389
20
140.235829
11
25.5317389
21
140.287429
0
LINE
8
DEFAULT_255_2_778
10
25.5317389
20
140.287429
11
25.5756389
21
140.339829
0
LINE
8
DEFAULT_255_2_778
10
25.5756389
20
140.339829
11
25.6185389
21
140.393029
0
LINE
8
DEFAULT_255_2_778
10
25.6185389
20
140.393029
11
25.6600389
21
140.446929
0
LINE
8
DEFAULT_255_2_778
10
25.6600389
20
140.446929
11
25.7000389
21
140.501729
0
LINE
8
DEFAULT_255_2_778
10
25.7000389
20
140.501729
11
25.7381389
21
140.557529
0
LINE
8
DEFAULT_255_2_778
10
25.7381389
20
140.557529
11
25.7730389
21
140.615529
0
LINE
8
DEFAULT_255_2_778
10
27.6150389
20
141.257129
11
26.8245389
21
141.257129
0
LINE
8
DEFAULT_255_2_778
10
26.8245389
20
141.257129
11
26.8245389
21
140.380529
0
LINE
8
DEFAULT_255_2_778
10
26.8245389
20
140.380529
11
26.9964389
21
140.380529
0
LINE
8
DEFAULT_255_2_778
10
27.6150389
20
141.256829
11
27.6150389
21
141.257129
0
LINE
8
DEFAULT_255_2_778
10
29.7656389
20
140.303529
11
29.7656389
21
140.303529
0
LINE
8
DEFAULT_255_2_778
10
29.4049389
20
141.257129
11
29.0734389
21
141.257129
0
LINE
8
DEFAULT_255_2_778
10
29.0734389
20
141.257129
11
29.0734389
21
139.678929
0
LINE
8
DEFAULT_255_2_778
10
29.5780389
20
139.728129
11
29.5780389
21
139.728129
0
LINE
8
DEFAULT_255_2_778
10
14.8002389
20
132.329829
11
14.7999389
21
132.329829
0
LINE
8
DEFAULT_255_2_778
10
14.2650389
20
131.152129
11
14.9844389
21
131.152129
0
LINE
8
DEFAULT_255_2_778
10
14.9844389
20
131.152129
11
14.9844389
21
131.262729
0
LINE
8
DEFAULT_255_2_778
10
14.9844389
20
131.262729
11
14.7629389
21
131.262729
0
LINE
8
DEFAULT_255_2_778
10
14.9288389
20
132.056029
11
14.9291389
21
132.055729
0
LINE
8
DEFAULT_255_2_778
10
13.1984389
20
132.771629
11
12.8494389
21
131.694529
0
LINE
8
DEFAULT_255_2_778
10
12.8494389
20
131.694529
11
13.5477389
21
131.694529
0
LINE
8
DEFAULT_255_2_778
10
13.5477389
20
131.694529
11
13.1984389
21
132.771629
0
LINE
8
DEFAULT_255_2_778
10
13.1249389
20
132.922729
11
13.2902389
21
132.922729
0
LINE
8
DEFAULT_255_2_778
10
13.2902389
20
132.922729
11
13.8599389
21
131.127329
0
LINE
8
DEFAULT_255_2_778
10
13.8599389
20
131.127329
11
13.7313389
21
131.070629
0
LINE
8
DEFAULT_255_2_778
10
13.7313389
20
131.070629
11
13.5842389
21
131.562029
0
LINE
8
DEFAULT_255_2_778
10
13.5842389
20
131.562029
11
12.8124389
21
131.562029
0
LINE
8
DEFAULT_255_2_778
10
12.8124389
20
131.562029
11
12.6470389
21
131.070629
0
LINE
8
DEFAULT_255_2_778
10
12.6470389
20
131.070629
11
12.5367389
21
131.127329
0
LINE
8
DEFAULT_255_2_778
10
12.5367389
20
131.127329
11
13.1249389
21
132.922729
0
LINE
8
DEFAULT_255_2_778
10
14.6261896
20
128.1618041
11
16.6260896
21
128.1618041
0
LINE
8
DEFAULT_255_2_778
10
16.6260896
20
128.1618041
11
16.6260896
21
130.8994041
0
LINE
8
DEFAULT_255_2_778
10
16.6260896
20
130.8994041
11
14.6261896
21
130.8994041
0
LINE
8
DEFAULT_255_2_778
10
14.6261896
20
130.8994041
11
14.6261896
21
128.1618041
0
LINE
8
DEFAULT_255_2_778
10
16.7263896
20
132.2134041
11
12.7764896
21
134.4938041
0
LINE
8
DEFAULT_255_2_778
10
12.7764896
20
134.4938041
11
12.3263896
21
134.4938041
0
LINE
8
DEFAULT_255_2_778
10
12.9327896
20
129.4059041
11
12.9327896
21
129.4318041
0
ENDSEC
0
EOF